999
DXF file: 3-913tr_RIGHT.dxf
999
Pro/ENGINEER 2013150 by Parametric Technology Corporation
  0
SECTION
  2
HEADER
  9
$ACADVER
  1
AC1021
  9
$DWGCODEPAGE
  3
ANSI_1252
  9
$EXTMAX
 10
11.0
 20
8.5
 30
0.0
  9
$EXTMIN
 10
0.0
 20
0.0
 30
0.0
  9
$LIMMIN
 10
0.0
 20
0.0
  9
$LIMMAX
 10
11.0
 20
8.5
  9
$VIEWCTR
 10
5.5
 20
4.25
  9
$VIEWSIZE
 40
8.5
  9
$CLAYER
  8
0
  9
$LTSCALE
 40
0.605
  9
$CELTYPE
  6
BYLAYER
  9
$DIMSCALE
 40
1.0
  9
$DIMASZ
 40
0.1
  9
$DIMEXO
 40
0.0625
  9
$DIMDLI
 40
0.418
  9
$DIMEXE
 40
0.125
  9
$DIMCEN
 40
0.099
  9
$DIMLFAC
 40
1.0
  9
$DIMBLK
  1
_FILLED
  9
$DIMTXT
 40
0.08
  9
$DIMTOL
 70
1
  9
$DIMLIM
 70
0
  9
$DIMTFAC
 40
1.0
  9
$DIMTP
 40
0.001
  9
$DIMTM
 40
0.001
  9
$DIMGAP
 40
0.09
  9
$DIMDSEP
 70
46
  9
$PDMODE
 70
3
  9
$PDSIZE
 40
0.06
  9
$HANDSEED
  5
350
  9
$TILEMODE
 70
1
  9
$MEASUREMENT
 70
0
  9
$INSUNITS
 70
1
  0
ENDSEC
  0
SECTION
  2
CLASSES
  0
CLASS
  1
ACDBDICTIONARYWDFLT
  2
AcDbDictionaryWithDefault
  3
AutoCAD 2000
 90
0
 91
1
280
0
281
0
  0
CLASS
  1
ACDBPLACEHOLDER
  2
AcDbPlaceHolder
  3
AutoCAD 2000
 90
0
 91
1
280
0
281
0
  0
CLASS
  1
LAYOUT
  2
AcDbLayout
  3
AutoCAD 2000
 90
0
 91
0
280
0
281
0
  0
ENDSEC
  0
SECTION
  2
TABLES
  0
TABLE
  2
VPORT
  5
8
100
AcDbSymbolTable
 70
2
  0
VPORT
  5
1F4
100
AcDbSymbolTableRecord
100
AcDbViewportTableRecord
  2
*ACTIVE
 70
0
 10
0.0
 20
0.0
 11
1.0
 21
1.0
 12
5.5
 22
4.25
 13
0.0
 23
0.0
 14
1.0
 24
1.0
 15
0.0
 25
0.0
 16
0.0
 26
0.0
 36
1.0
 17
0.0
 27
0.0
 37
0.0
 40
8.5
 41
1.2941176471
 42
50.0
 43
0.0
 44
0.0
 50
0.0
 51
0.0
 71
0
 72
100
 73
1
 74
1
 75
0
 76
0
 77
0
 78
0
  0
ENDTAB
  0
TABLE
  2
LTYPE
  5
5
100
AcDbSymbolTable
 70
6
  0
LTYPE
  5
14
100
AcDbSymbolTableRecord
100
AcDbLinetypeTableRecord
  2
BYBLOCK
 70
0
  3

 72
65
 73
0
 40
0.0
  0
LTYPE
  5
15
100
AcDbSymbolTableRecord
100
AcDbLinetypeTableRecord
  2
BYLAYER
 70
0
  3

 72
65
 73
0
 40
0.0
  0
LTYPE
  5
16
100
AcDbSymbolTableRecord
100
AcDbLinetypeTableRecord
  2
CONTINUOUS
 70
64
  3
Solid line
 72
65
 73
0
 40
0.0
  0
LTYPE
  5
1F5
100
AcDbSymbolTableRecord
100
AcDbLinetypeTableRecord
  2
CENTER
 70
64
  3
____ _ ____ _ ____ _ ____ _ ____ _ ____ _ ____
 72
65
 73
4
 40
0.6
 49
0.375
 74
0
 49
-0.075
 74
0
 49
0.075
 74
0
 49
-0.075
 74
0
  0
LTYPE
  5
1F6
100
AcDbSymbolTableRecord
100
AcDbLinetypeTableRecord
  2
HIDDEN
 70
64
  3
- - - - - - - - - - - - - - - - - - - -
 72
65
 73
2
 40
0.2
 49
0.1
 74
0
 49
-0.1
 74
0
  0
LTYPE
  5
1F7
100
AcDbSymbolTableRecord
100
AcDbLinetypeTableRecord
  2
PHANTOM
 70
64
  3
_____ _ _ _____ _ _ _____ _ _ _____
 72
65
 73
6
 40
0.8
 49
0.45
 74
0
 49
-0.05
 74
0
 49
0.1
 74
0
 49
-0.05
 74
0
 49
0.1
 74
0
 49
-0.05
 74
0
  0
LTYPE
  5
1F8
100
AcDbSymbolTableRecord
100
AcDbLinetypeTableRecord
  2
DOT
 70
64
  3
. . . . . . . . . . . . . . . . . . . .
 72
65
 73
2
 40
0.2
 49
0.1
 74
0
 49
-0.1
 74
0
  0
LTYPE
  5
1F9
100
AcDbSymbolTableRecord
100
AcDbLinetypeTableRecord
  2
DASHED
 70
64
  3
- - - - - - - - - - - - - - - - - - - -
 72
65
 73
2
 40
0.2
 49
0.1
 74
0
 49
-0.1
 74
0
  0
ENDTAB
  0
TABLE
  2
LAYER
  5
2
100
AcDbSymbolTable
 70
36
  0
LAYER
  5
10
100
AcDbSymbolTableRecord
100
AcDbLayerTableRecord
  2
0
 70
0
 62
7
  6
CONTINUOUS
370
-3
390
F
  0
LAYER
  5
1FA
100
AcDbSymbolTableRecord
100
AcDbLayerTableRecord
  2
DEFAULT_1
 70
0
 62
7
  6
CENTER
370
-3
390
F
  0
LAYER
  5
1FB
100
AcDbSymbolTableRecord
100
AcDbLayerTableRecord
  2
DEFAULT_2
 70
0
 62
8
  6
HIDDEN
370
-3
390
F
  0
LAYER
  5
1FC
100
AcDbSymbolTableRecord
100
AcDbLayerTableRecord
  2
DEFAULT_3
 70
0
 62
7
  6
PHANTOM
370
-3
390
F
  0
LAYER
  5
1FD
100
AcDbSymbolTableRecord
100
AcDbLayerTableRecord
  2
ALL_ASSEMBLY_MEMBERS
 70
0
 62
7
  6
CONTINUOUS
370
-3
390
F
  0
LAYER
  5
1FE
100
AcDbSymbolTableRecord
100
AcDbLayerTableRecord
  2
ALL_FEATURES
 70
0
 62
7
  6
CONTINUOUS
370
-3
390
F
  0
LAYER
  5
1FF
100
AcDbSymbolTableRecord
100
AcDbLayerTableRecord
  2
AXES_FEATURES
 70
0
 62
7
  6
CONTINUOUS
370
-3
390
F
  0
LAYER
  5
200
100
AcDbSymbolTableRecord
100
AcDbLayerTableRecord
  2
CHAMFER_FEATURES
 70
0
 62
7
  6
CONTINUOUS
370
-3
390
F
  0
LAYER
  5
201
100
AcDbSymbolTableRecord
100
AcDbLayerTableRecord
  2
COORDINATE_SYSTEMS
 70
0
 62
7
  6
CONTINUOUS
370
-3
390
F
  0
LAYER
  5
202
100
AcDbSymbolTableRecord
100
AcDbLayerTableRecord
  2
CURVES
 70
0
 62
7
  6
CONTINUOUS
370
-3
390
F
  0
LAYER
  5
203
100
AcDbSymbolTableRecord
100
AcDbLayerTableRecord
  2
CUT_FEATURES
 70
0
 62
7
  6
CONTINUOUS
370
-3
390
F
  0
LAYER
  5
204
100
AcDbSymbolTableRecord
100
AcDbLayerTableRecord
  2
DATUM_CURVES
 70
0
 62
7
  6
CONTINUOUS
370
-3
390
F
  0
LAYER
  5
205
100
AcDbSymbolTableRecord
100
AcDbLayerTableRecord
  2
DATUM_PLANES
 70
0
 62
7
  6
CONTINUOUS
370
-3
390
F
  0
LAYER
  5
206
100
AcDbSymbolTableRecord
100
AcDbLayerTableRecord
  2
DATUM_POINTS
 70
0
 62
7
  6
CONTINUOUS
370
-3
390
F
  0
LAYER
  5
207
100
AcDbSymbolTableRecord
100
AcDbLayerTableRecord
  2
DEFAULT_COORDINATE_SYSTEM
 70
0
 62
7
  6
CONTINUOUS
370
-3
390
F
  0
LAYER
  5
208
100
AcDbSymbolTableRecord
100
AcDbLayerTableRecord
  2
DEFAULT_DATUM_AXES
 70
0
 62
7
  6
CONTINUOUS
370
-3
390
F
  0
LAYER
  5
209
100
AcDbSymbolTableRecord
100
AcDbLayerTableRecord
  2
DEFAULT_DATUM_CURVES
 70
0
 62
7
  6
CONTINUOUS
370
-3
390
F
  0
LAYER
  5
20A
100
AcDbSymbolTableRecord
100
AcDbLayerTableRecord
  2
DEFAULT_DATUM_PLANES
 70
0
 62
7
  6
CONTINUOUS
370
-3
390
F
  0
LAYER
  5
20B
100
AcDbSymbolTableRecord
100
AcDbLayerTableRecord
  2
DEFAULT_SURFACES
 70
0
 62
7
  6
CONTINUOUS
370
-3
390
F
  0
LAYER
  5
20C
100
AcDbSymbolTableRecord
100
AcDbLayerTableRecord
  2
DIMENSIONS
 70
0
 62
7
  6
CONTINUOUS
370
-3
390
F
  0
LAYER
  5
20D
100
AcDbSymbolTableRecord
100
AcDbLayerTableRecord
  2
HOLE_FEATURES
 70
0
 62
7
  6
CONTINUOUS
370
-3
390
F
  0
LAYER
  5
20E
100
AcDbSymbolTableRecord
100
AcDbLayerTableRecord
  2
IMPORT_FEATURE
 70
0
 62
7
  6
CONTINUOUS
370
-3
390
F
  0
LAYER
  5
20F
100
AcDbSymbolTableRecord
100
AcDbLayerTableRecord
  2
INTFCLR_1
 70
0
 62
7
  6
CONTINUOUS
370
-3
390
F
  0
LAYER
  5
210
100
AcDbSymbolTableRecord
100
AcDbLayerTableRecord
  2
NOTES
 70
0
 62
7
  6
CONTINUOUS
370
-3
390
F
  0
LAYER
  5
211
100
AcDbSymbolTableRecord
100
AcDbLayerTableRecord
  2
PART_REFERENCE_DIMENSIONS
 70
0
 62
7
  6
CONTINUOUS
370
-3
390
F
  0
LAYER
  5
212
100
AcDbSymbolTableRecord
100
AcDbLayerTableRecord
  2
PLATED_SURFACE_AREA
 70
0
 62
7
  6
CONTINUOUS
370
-3
390
F
  0
LAYER
  5
213
100
AcDbSymbolTableRecord
100
AcDbLayerTableRecord
  2
POINTS
 70
0
 62
7
  6
CONTINUOUS
370
-3
390
F
  0
LAYER
  5
214
100
AcDbSymbolTableRecord
100
AcDbLayerTableRecord
  2
PROTRUSION
 70
0
 62
7
  6
CONTINUOUS
370
-3
390
F
  0
LAYER
  5
215
100
AcDbSymbolTableRecord
100
AcDbLayerTableRecord
  2
PROTRUSION_FEATURES
 70
0
 62
7
  6
CONTINUOUS
370
-3
390
F
  0
LAYER
  5
216
100
AcDbSymbolTableRecord
100
AcDbLayerTableRecord
  2
QUILTS
 70
0
 62
7
  6
CONTINUOUS
370
-3
390
F
  0
LAYER
  5
217
100
AcDbSymbolTableRecord
100
AcDbLayerTableRecord
  2
REFERENCE_DIMENSIONS
 70
0
 62
7
  6
CONTINUOUS
370
-3
390
F
  0
LAYER
  5
218
100
AcDbSymbolTableRecord
100
AcDbLayerTableRecord
  2
ROUND_FEATURES
 70
0
 62
7
  6
CONTINUOUS
370
-3
390
F
  0
LAYER
  5
219
100
AcDbSymbolTableRecord
100
AcDbLayerTableRecord
  2
SHELL_FEATURES
 70
0
 62
7
  6
CONTINUOUS
370
-3
390
F
  0
LAYER
  5
21A
100
AcDbSymbolTableRecord
100
AcDbLayerTableRecord
  2
SIZE_REF
 70
0
 62
7
  6
CONTINUOUS
370
-3
390
F
  0
LAYER
  5
21B
100
AcDbSymbolTableRecord
100
AcDbLayerTableRecord
  2
SURFACE_FEATURES
 70
0
 62
7
  6
CONTINUOUS
370
-3
390
F
  0
ENDTAB
  0
TABLE
  2
STYLE
  5
3
100
AcDbSymbolTable
 70
1
  0
STYLE
  5
11
100
AcDbSymbolTableRecord
100
AcDbTextStyleTableRecord
  2
STANDARD
 70
0
 40
0.0
 41
0.8
 50
0.0
 71
0
 42
0.2
  3
txt
  4

  0
STYLE
  5
21C
100
AcDbSymbolTableRecord
100
AcDbTextStyleTableRecord
  2
TEXTSTYLE_1
 70
0
 40
0.0
 41
0.8
 50
0.0
 71
0
 42
0.2
  3
gdt
  4

  0
ENDTAB
  0
TABLE
  2
VIEW
  5
6
100
AcDbSymbolTable
 70
0
  0
ENDTAB
  0
TABLE
  2
UCS
  5
7
100
AcDbSymbolTable
 70
0
  0
ENDTAB
  0
TABLE
  2
APPID
  5
9
100
AcDbSymbolTable
 70
1
  0
APPID
  5
21D
100
AcDbSymbolTableRecord
100
AcDbRegAppTableRecord
  2
ACAD
 70
0
  0
ENDTAB
  0
TABLE
  2
BLOCK_RECORD
  5
1
100
AcDbSymbolTable
 70
0
  0
BLOCK_RECORD
  5
21E
100
AcDbSymbolTableRecord
100
AcDbBlockTableRecord
  2
*Model_Space
  0
BLOCK_RECORD
  5
21F
100
AcDbSymbolTableRecord
100
AcDbBlockTableRecord
  2
*Paper_Space
  0
ENDTAB
  0
TABLE
  2
DIMSTYLE
  5
A
100
AcDbSymbolTable
 70
1
100
AcDbDimStyleTable
 71
0
  0
DIMSTYLE
105
220
100
AcDbSymbolTableRecord
100
AcDbDimStyleTableRecord
  2
STANDARD
 70
0
  3

  4

 40
1.0
 41
0.1
 42
0.0625
 43
0.38
 44
0.125
 45
0.0
 46
0.0
 47
0.001
 48
0.001
140
0.08
141
0.09
142
0.0
143
25.4
144
1.0
145
0.0
146
1.0
147
0.09
 71
1.0
 72
0.0
 73
1
 74
1
 75
0
 76
0
 77
0
 78
4
170
0
171
2
172
0
173
0
174
0
175
0
176
0
177
0
178
0
270
2
271
3
272
3
273
2
274
2
275
0
280
0
281
0
282
0
283
1
284
4
285
0
286
0
287
3
288
0
340
11
278
46
  0
ENDTAB
  0
ENDSEC
  0
SECTION
  2
BLOCKS
  0
BLOCK
  5
20
100
AcDbEntity
  8
0
100
AcDbBlockBegin
  2
*Model_Space
 70
0
 10
0.0
 20
0.0
 30
0.0
  3
*Model_Space
  1

  0
ENDBLK
  5
21
100
AcDbEntity
  8
0
100
AcDbBlockEnd
  0
BLOCK
  5
1C
100
AcDbEntity
  8
0
100
AcDbBlockBegin
  2
*Paper_Space
 70
0
 10
0.0
 20
0.0
 30
0.0
  3
*Paper_Space
  1

  0
ENDBLK
  5
1D
100
AcDbEntity
  8
0
100
AcDbBlockEnd
  0
ENDSEC
  0
SECTION
  2
ENTITIES
  0
LINE
  5
221
100
AcDbEntity
  8
0
100
AcDbLine
 62
7
  6
CONTINUOUS
 10
0.0
 20
0.0
 11
0.0
 21
8.5
  0
LINE
  5
222
100
AcDbEntity
  8
0
100
AcDbLine
 62
7
  6
CONTINUOUS
 10
0.0
 20
0.0
 11
11.0
 21
0.0
  0
LINE
  5
223
100
AcDbEntity
  8
0
100
AcDbLine
 62
7
  6
CONTINUOUS
 10
0.0
 20
8.5
 11
11.0
 21
8.5
  0
LINE
  5
224
100
AcDbEntity
  8
0
100
AcDbLine
 62
7
  6
CONTINUOUS
 10
11.0
 20
0.0
 11
11.0
 21
8.5
  0
LINE
  5
225
100
AcDbEntity
  8
ALL_FEATURES
100
AcDbLine
 62
7
  6
CONTINUOUS
 10
5.0802144045
 20
1.5661913462
 11
5.1364644045
 21
1.5661913462
  0
LINE
  5
226
100
AcDbEntity
  8
0
100
AcDbLine
 62
7
  6
CONTINUOUS
 10
5.1364644045
 20
1.5700146875
 11
5.2114644045
 21
1.5700146875
  0
LINE
  5
227
100
AcDbEntity
  8
ALL_ASSEMBLY_MEMBERS
100
AcDbLine
 62
7
  6
CONTINUOUS
 10
3.3200586285
 20
5.6153605193
 11
3.3175675026
 21
5.6135990272
  0
LINE
  5
228
100
AcDbEntity
  8
ALL_ASSEMBLY_MEMBERS
100
AcDbLine
 62
7
  6
CONTINUOUS
 10
3.3641494439
 20
5.6166866207
 11
3.3348525689
 21
5.6082293413
  0
LINE
  5
229
100
AcDbEntity
  8
ALL_ASSEMBLY_MEMBERS
100
AcDbLine
 62
7
  6
CONTINUOUS
 10
3.3641494439
 20
5.5828575033
 11
3.3934463189
 21
5.5913147827
  0
LINE
  5
22A
100
AcDbEntity
  8
ALL_ASSEMBLY_MEMBERS
100
AcDbLine
 62
9
  6
CONTINUOUS
 10
2.9255713309
 20
2.0413172361
 11
2.9341784448
 21
2.0413639759
  0
LINE
  5
22B
100
AcDbEntity
  8
ALL_ASSEMBLY_MEMBERS
100
AcDbLine
 62
7
  6
CONTINUOUS
 10
2.6668997672
 20
2.0111663462
 11
2.9041759361
 21
2.0111663462
  0
LINE
  5
22C
100
AcDbEntity
  8
ALL_ASSEMBLY_MEMBERS
100
AcDbLine
 62
9
  6
CONTINUOUS
 10
2.6753257574
 20
2.0422183304
 11
2.8957486487
 21
2.0422183304
  0
LINE
  5
22D
100
AcDbEntity
  8
ALL_ASSEMBLY_MEMBERS
100
AcDbLine
 62
9
  6
CONTINUOUS
 10
2.6369127522
 20
2.0421507402
 11
2.6455170702
 21
2.0420993936
  0
LINE
  5
22E
100
AcDbEntity
  8
0
100
AcDbLine
 62
7
  6
CONTINUOUS
 10
4.8975717503
 20
2.030701389
 11
4.9358570587
 21
2.029698853
  0
LINE
  5
22F
100
AcDbEntity
  8
ALL_ASSEMBLY_MEMBERS
100
AcDbLine
 62
7
  6
CONTINUOUS
 10
2.5211494439
 20
2.8455413462
 11
2.5211494439
 21
3.2392913462
  0
LINE
  5
230
100
AcDbEntity
  8
ALL_ASSEMBLY_MEMBERS
100
AcDbLine
 62
9
  6
CONTINUOUS
 10
2.5436494439
 20
3.2392913462
 11
2.5436494439
 21
2.8455413462
  0
LINE
  5
231
100
AcDbEntity
  8
ALL_ASSEMBLY_MEMBERS
100
AcDbLine
 62
7
  6
CONTINUOUS
 10
2.5586494439
 20
2.8080413462
 11
2.5586494439
 21
3.2767913462
  0
LINE
  5
232
100
AcDbEntity
  8
ALL_ASSEMBLY_MEMBERS
100
AcDbLine
 62
7
  6
CONTINUOUS
 10
2.6148994439
 20
2.7424163462
 11
2.6148994439
 21
3.3424163462
  0
LINE
  5
233
100
AcDbEntity
  8
ALL_ASSEMBLY_MEMBERS
100
AcDbLine
 62
9
  6
CONTINUOUS
 10
2.6753254325
 20
2.0422183304
 11
2.6753254325
 21
2.0111663462
  0
LWPOLYLINE
  5
234
100
AcDbEntity
  8
ALL_ASSEMBLY_MEMBERS
100
AcDbPolyline
 62
7
  6
CONTINUOUS
 90
10
 70
0
 10
2.6581330827
 20
2.71152588
 10
2.6570658048
 20
2.6757782133
 10
2.6549103672
 20
2.6046024954
 10
2.6526419758
 20
2.5309814511
 10
2.6502615459
 20
2.4549151549
 10
2.6477708245
 20
2.3764035323
 10
2.6451724696
 20
2.2954463601
 10
2.6424701405
 20
2.2120435637
 10
2.6396685832
 20
2.1261952177
 10
2.6369132303
 20
2.042150742
  0
LINE
  5
235
100
AcDbEntity
  8
0
100
AcDbLine
 62
7
  6
CONTINUOUS
 10
4.7103994439
 20
2.4221663462
 11
3.6655700997
 21
2.4221663462
  0
LINE
  5
236
100
AcDbEntity
  8
ALL_FEATURES
100
AcDbLine
 62
7
  6
CONTINUOUS
 10
3.6655700997
 20
2.4221663462
 11
4.7103994439
 21
2.4221663462
  0
LINE
  5
237
100
AcDbEntity
  8
0
100
AcDbLine
 62
7
  6
CONTINUOUS
 10
4.7549683415
 20
2.422337606
 11
4.8829644045
 21
2.422337606
  0
LINE
  5
238
100
AcDbEntity
  8
0
100
AcDbLine
 62
7
  6
CONTINUOUS
 10
3.5747915027
 20
2.4743577032
 11
3.564343897
 21
2.4765964759
  0
LWPOLYLINE
  5
239
100
AcDbEntity
  8
ALL_ASSEMBLY_MEMBERS
100
AcDbPolyline
 62
7
  6
CONTINUOUS
 90
10
 70
0
 10
2.9341779666
 20
2.0413639923
 10
2.9336268706
 20
2.1256071478
 10
2.9330769728
 20
2.2116456187
 10
2.9325622176
 20
2.2952325033
 10
2.932087386
 20
2.3763677991
 10
2.9316561698
 20
2.4550515086
 10
2.9312712566
 20
2.5312836392
 10
2.9309344121
 20
2.6050641933
 10
2.9306465592
 20
2.6763931685
 10
2.9305170169
 20
2.7123129969
  0
LINE
  5
23A
100
AcDbEntity
  8
ALL_ASSEMBLY_MEMBERS
100
AcDbLine
 62
7
  6
CONTINUOUS
 10
2.7963994439
 20
5.2080413462
 11
2.7963994439
 21
5.6017913462
  0
LINE
  5
23B
100
AcDbEntity
  8
ALL_ASSEMBLY_MEMBERS
100
AcDbLine
 62
9
  6
CONTINUOUS
 10
2.8188994439
 20
5.6017913462
 11
2.8188994439
 21
5.2080413462
  0
LINE
  5
23C
100
AcDbEntity
  8
ALL_ASSEMBLY_MEMBERS
100
AcDbLine
 62
7
  6
CONTINUOUS
 10
2.8338994439
 20
5.1705413462
 11
2.8338994439
 21
5.6392913462
  0
LINE
  5
23D
100
AcDbEntity
  8
ALL_ASSEMBLY_MEMBERS
100
AcDbLine
 62
7
  6
CONTINUOUS
 10
2.8901494439
 20
5.1049163462
 11
2.8901494439
 21
5.7049163462
  0
LINE
  5
23E
100
AcDbEntity
  8
ALL_ASSEMBLY_MEMBERS
100
AcDbLine
 62
9
  6
CONTINUOUS
 10
2.8957489719
 20
2.0422183304
 11
2.8957489719
 21
2.0111663462
  0
LINE
  5
23F
100
AcDbEntity
  8
ALL_ASSEMBLY_MEMBERS
100
AcDbLine
 62
9
  6
CONTINUOUS
 10
2.9505754325
 20
4.4047183304
 11
2.9505754325
 21
4.3736663462
  0
LINE
  5
240
100
AcDbEntity
  8
ALL_ASSEMBLY_MEMBERS
100
AcDbLine
 62
7
  6
CONTINUOUS
 10
2.9711494439
 20
2.7424163462
 11
2.9711494439
 21
3.3424163462
  0
LINE
  5
241
100
AcDbEntity
  8
ALL_ASSEMBLY_MEMBERS
100
AcDbLine
 62
9
  6
CONTINUOUS
 10
2.9861494439
 20
3.2767913462
 11
2.9861494439
 21
2.8080413462
  0
LWPOLYLINE
  5
242
100
AcDbEntity
  8
ALL_ASSEMBLY_MEMBERS
100
AcDbPolyline
 62
7
  6
CONTINUOUS
 90
10
 70
0
 10
2.9333830827
 20
5.07402588
 10
2.9323158048
 20
5.0382782133
 10
2.9301603672
 20
4.9671024954
 10
2.9278919758
 20
4.8934814511
 10
2.9255115459
 20
4.8174151549
 10
2.9230208245
 20
4.7389035323
 10
2.9204224696
 20
4.6579463601
 10
2.9177201405
 20
4.5745435637
 10
2.9149185832
 20
4.4886952177
 10
2.9121632303
 20
4.404650742
  0
LINE
  5
243
100
AcDbEntity
  8
ALL_ASSEMBLY_MEMBERS
100
AcDbLine
 62
7
  6
CONTINUOUS
 10
2.9711494439
 20
2.7424163462
 11
2.9605168389
 21
2.7424163462
  0
LINE
  5
244
100
AcDbEntity
  8
ALL_ASSEMBLY_MEMBERS
100
AcDbLine
 62
7
  6
CONTINUOUS
 10
2.6281463011
 20
2.7424163462
 11
2.6148994439
 21
2.7424163462
  0
LINE
  5
245
100
AcDbEntity
  8
ALL_ASSEMBLY_MEMBERS
100
AcDbLine
 62
9
  6
CONTINUOUS
 10
2.6882800941
 20
2.7711968236
 11
2.9012807871
 21
2.7711968236
  0
LINE
  5
246
100
AcDbEntity
  8
0
100
AcDbLine
 62
7
  6
CONTINUOUS
 10
3.6069350355
 20
2.4504017308
 11
3.6005437318
 21
2.4584153646
  0
LWPOLYLINE
  5
247
100
AcDbEntity
  8
ALL_ASSEMBLY_MEMBERS
100
AcDbPolyline
 62
7
  6
CONTINUOUS
 90
10
 70
0
 10
3.2094279666
 20
4.4038639923
 10
3.2088768706
 20
4.4881071478
 10
3.2083269728
 20
4.5741456187
 10
3.2078122176
 20
4.6577325033
 10
3.207337386
 20
4.7388677991
 10
3.2069061698
 20
4.8175515086
 10
3.2065212566
 20
4.8937836392
 10
3.2061844121
 20
4.9675641933
 10
3.2058965592
 20
5.0388931685
 10
3.2057670169
 20
5.0748129969
  0
LINE
  5
248
100
AcDbEntity
  8
ALL_ASSEMBLY_MEMBERS
100
AcDbLine
 62
7
  6
CONTINUOUS
 10
3.0596025689
 20
3.2457293413
 11
3.0596025689
 21
3.2288147827
  0
LINE
  5
249
100
AcDbEntity
  8
ALL_ASSEMBLY_MEMBERS
100
AcDbLine
 62
7
  6
CONTINUOUS
 10
3.0888994439
 20
3.2541866207
 11
3.0888994439
 21
3.2203575033
  0
LINE
  5
24A
100
AcDbEntity
  8
ALL_ASSEMBLY_MEMBERS
100
AcDbLine
 62
7
  6
CONTINUOUS
 10
3.1181963189
 20
3.2288147827
 11
3.1181963189
 21
3.2457293413
  0
LINE
  5
24B
100
AcDbEntity
  8
ALL_ASSEMBLY_MEMBERS
100
AcDbLine
 62
9
  6
CONTINUOUS
 10
3.1709989719
 20
4.4047183304
 11
3.1709989719
 21
4.3736663462
  0
LINE
  5
24C
100
AcDbEntity
  8
ALL_ASSEMBLY_MEMBERS
100
AcDbLine
 62
7
  6
CONTINUOUS
 10
3.2058994439
 20
2.8080413462
 11
3.2058994439
 21
3.2767913462
  0
LINE
  5
24D
100
AcDbEntity
  8
ALL_ASSEMBLY_MEMBERS
100
AcDbLine
 62
9
  6
CONTINUOUS
 10
2.6409088592
 20
2.7968094931
 11
2.9493243985
 21
2.7968094931
  0
LINE
  5
24E
100
AcDbEntity
  8
ALL_ASSEMBLY_MEMBERS
100
AcDbLine
 62
7
  6
CONTINUOUS
 10
3.2058994439
 20
2.8080413462
 11
2.9861494439
 21
2.8080413462
  0
LINE
  5
24F
100
AcDbEntity
  8
ALL_ASSEMBLY_MEMBERS
100
AcDbLine
 62
7
  6
CONTINUOUS
 10
2.5436494439
 20
2.8455413462
 11
2.5211494439
 21
2.8455413462
  0
LINE
  5
250
100
AcDbEntity
  8
0
100
AcDbLine
 62
7
  6
CONTINUOUS
 10
3.2433994439
 20
2.9036663462
 11
3.2058994439
 21
2.9036663462
  0
LINE
  5
251
100
AcDbEntity
  8
ALL_ASSEMBLY_MEMBERS
100
AcDbLine
 62
7
  6
CONTINUOUS
 10
3.0596025689
 20
3.2288147827
 11
3.0888994439
 21
3.2203575033
  0
LINE
  5
252
100
AcDbEntity
  8
ALL_ASSEMBLY_MEMBERS
100
AcDbLine
 62
7
  6
CONTINUOUS
 10
3.1181963189
 20
3.2457293413
 11
3.0888994439
 21
3.2541866207
  0
LINE
  5
253
100
AcDbEntity
  8
ALL_FEATURES
100
AcDbLine
 62
7
  6
CONTINUOUS
 10
3.2433994439
 20
3.3049163462
 11
3.2433994439
 21
2.7799163462
  0
LINE
  5
254
100
AcDbEntity
  8
ALL_ASSEMBLY_MEMBERS
100
AcDbLine
 62
7
  6
CONTINUOUS
 10
3.2463994439
 20
5.1049163462
 11
3.2463994439
 21
5.7049163462
  0
LINE
  5
255
100
AcDbEntity
  8
0
100
AcDbLine
 62
9
  6
CONTINUOUS
 10
3.2529433635
 20
2.7485737737
 11
3.2529433635
 21
3.3362589187
  0
LINE
  5
256
100
AcDbEntity
  8
ALL_ASSEMBLY_MEMBERS
100
AcDbLine
 62
9
  6
CONTINUOUS
 10
3.2613994439
 20
5.6392913462
 11
3.2613994439
 21
5.1705413462
  0
LINE
  5
257
100
AcDbEntity
  8
0
100
AcDbLine
 62
9
  6
CONTINUOUS
 10
3.2687560331
 20
2.7352472205
 11
3.2687560331
 21
3.3495854718
  0
LINE
  5
258
100
AcDbEntity
  8
ALL_ASSEMBLY_MEMBERS
100
AcDbLine
 62
7
  6
CONTINUOUS
 10
3.3348525689
 20
5.6082293413
 11
3.3348525689
 21
5.5913147827
  0
LINE
  5
259
100
AcDbEntity
  8
ALL_ASSEMBLY_MEMBERS
100
AcDbLine
 62
7
  6
CONTINUOUS
 10
3.3641494439
 20
5.6166866207
 11
3.3641494439
 21
5.5828575033
  0
LINE
  5
25A
100
AcDbEntity
  8
ALL_ASSEMBLY_MEMBERS
100
AcDbLine
 62
7
  6
CONTINUOUS
 10
3.3934463189
 20
5.5913147827
 11
3.3934463189
 21
5.6082293413
  0
LINE
  5
25B
100
AcDbEntity
  8
0
100
AcDbLine
 62
7
  6
CONTINUOUS
 10
3.2433994439
 20
3.1811663462
 11
3.2058994439
 21
3.1811663462
  0
LINE
  5
25C
100
AcDbEntity
  8
ALL_ASSEMBLY_MEMBERS
100
AcDbLine
 62
7
  6
CONTINUOUS
 10
2.5436494439
 20
3.2392913462
 11
2.5211494439
 21
3.2392913462
  0
LINE
  5
25D
100
AcDbEntity
  8
ALL_ASSEMBLY_MEMBERS
100
AcDbLine
 62
7
  6
CONTINUOUS
 10
3.4811494439
 20
5.1705413462
 11
3.4811494439
 21
5.6392913462
  0
LINE
  5
25E
100
AcDbEntity
  8
0
100
AcDbLine
 62
7
  6
CONTINUOUS
 10
3.5186494439
 20
5.162558193
 11
3.5186494439
 21
5.6472744994
  0
LINE
  5
25F
100
AcDbEntity
  8
0
100
AcDbLine
 62
9
  6
CONTINUOUS
 10
3.525092315
 20
3.579806172
 11
3.525092315
 21
2.5050265203
  0
LINE
  5
260
100
AcDbEntity
  8
0
100
AcDbLine
 62
9
  6
CONTINUOUS
 10
3.5368163213
 20
5.1349905088
 11
3.5368163213
 21
5.6748421835
  0
LINE
  5
261
100
AcDbEntity
  8
0
100
AcDbLine
 62
9
  6
CONTINUOUS
 10
3.5643438969
 20
3.6082362164
 11
3.5643438969
 21
2.4765964759
  0
LINE
  5
262
100
AcDbEntity
  8
0
100
AcDbLine
 62
9
  6
CONTINUOUS
 10
3.5747915027
 20
2.4743577033
 11
3.5747915027
 21
3.610474989
  0
LINE
  5
263
100
AcDbEntity
  8
0
100
AcDbLine
 62
9
  6
CONTINUOUS
 10
3.6005437318
 20
2.4584153646
 11
3.6005437318
 21
3.6264173277
  0
LINE
  5
264
100
AcDbEntity
  8
0
100
AcDbLine
 62
9
  6
CONTINUOUS
 10
3.6069350355
 20
2.4504017308
 11
3.6069350355
 21
3.6344309615
  0
LINE
  5
265
100
AcDbEntity
  8
0
100
AcDbLine
 62
9
  6
CONTINUOUS
 10
3.6655700997
 20
3.6626663462
 11
3.6655700997
 21
2.4221663462
  0
LINE
  5
266
100
AcDbEntity
  8
ALL_ASSEMBLY_MEMBERS
100
AcDbLine
 62
7
  6
CONTINUOUS
 10
3.2058994439
 20
3.2767913462
 11
2.9861494439
 21
3.2767913462
  0
LINE
  5
267
100
AcDbEntity
  8
ALL_ASSEMBLY_MEMBERS
100
AcDbLine
 62
7
  6
CONTINUOUS
 10
2.9711494439
 20
3.3424163462
 11
2.6148994439
 21
3.3424163462
  0
LINE
  5
268
100
AcDbEntity
  8
0
100
AcDbLine
 62
9
  6
CONTINUOUS
 10
3.7692150196
 20
5.8598285503
 11
3.7692150196
 21
4.950004142
  0
LINE
  5
269
100
AcDbEntity
  8
0
100
AcDbLine
 62
7
  6
CONTINUOUS
 10
3.7860244439
 20
3.6607843779
 11
3.7860244439
 21
3.7601663462
  0
LINE
  5
26A
100
AcDbEntity
  8
0
100
AcDbLine
 62
9
  6
CONTINUOUS
 10
3.829743059
 20
5.8905413462
 11
3.829743059
 21
4.9192913462
  0
LINE
  5
26B
100
AcDbEntity
  8
0
100
AcDbLine
 62
7
  6
CONTINUOUS
 10
3.6069350355
 20
3.6344309615
 11
3.6005437318
 21
3.6264173277
  0
LINE
  5
26C
100
AcDbEntity
  8
0
100
AcDbLine
 62
7
  6
CONTINUOUS
 10
4.8829644045
 20
3.6620995017
 11
4.8010787463
 21
3.6620995017
  0
LINE
  5
26D
100
AcDbEntity
  8
0
100
AcDbLine
 62
7
  6
CONTINUOUS
 10
4.7549683415
 20
3.6624950863
 11
4.7785830681
 21
3.6624950863
  0
LINE
  5
26E
100
AcDbEntity
  8
0
100
AcDbLine
 62
7
  6
CONTINUOUS
 10
3.7781494439
 20
3.6626663462
 11
3.6655700997
 21
3.6626663462
  0
LINE
  5
26F
100
AcDbEntity
  8
ALL_FEATURES
100
AcDbLine
 62
7
  6
CONTINUOUS
 10
3.6655700997
 20
3.6626663462
 11
3.7781494439
 21
3.6626663462
  0
LINE
  5
270
100
AcDbEntity
  8
0
100
AcDbLine
 62
7
  6
CONTINUOUS
 10
4.0826494439
 20
3.6626663462
 11
4.7103994439
 21
3.6626663462
  0
LINE
  5
271
100
AcDbEntity
  8
ALL_FEATURES
100
AcDbLine
 62
7
  6
CONTINUOUS
 10
4.0826494439
 20
3.6626663462
 11
4.7103994439
 21
3.6626663462
  0
LINE
  5
272
100
AcDbEntity
  8
0
100
AcDbLine
 62
7
  6
CONTINUOUS
 10
3.9664644045
 20
4.8973388462
 11
3.9664644045
 21
5.9124878891
  0
LINE
  5
273
100
AcDbEntity
  8
0
100
AcDbLine
 62
7
  6
CONTINUOUS
 10
4.0747744439
 20
3.6607844121
 11
4.0747744439
 21
3.7601663462
  0
LINE
  5
274
100
AcDbEntity
  8
0
100
AcDbLine
 62
9
  6
CONTINUOUS
 10
4.0789644045
 20
4.7848388462
 11
4.0789644045
 21
6.0249938462
  0
LINE
  5
275
100
AcDbEntity
  8
ALL_ASSEMBLY_MEMBERS
100
AcDbLine
 62
7
  6
CONTINUOUS
 10
3.0448086285
 20
3.2528605193
 11
3.0423175026
 21
3.2510990272
  0
LINE
  5
276
100
AcDbEntity
  8
0
100
AcDbLine
 62
7
  6
CONTINUOUS
 10
3.5747915027
 20
3.6104749891
 11
3.564343897
 21
3.6082362164
  0
LINE
  5
277
100
AcDbEntity
  8
0
100
AcDbLine
 62
9
  6
CONTINUOUS
 10
3.7860244439
 20
3.7601663462
 11
4.0747744439
 21
3.7601663462
  0
LINE
  5
278
100
AcDbEntity
  8
0
100
AcDbLine
 62
7
  6
CONTINUOUS
 10
3.7935260481
 20
3.7676663462
 11
4.0672728397
 21
3.7676663462
  0
LINE
  5
279
100
AcDbEntity
  8
0
100
AcDbLine
 62
7
  6
CONTINUOUS
 10
4.8975717503
 20
4.0529313033
 11
4.9358570587
 21
4.0539338393
  0
LINE
  5
27A
100
AcDbEntity
  8
ALL_ASSEMBLY_MEMBERS
100
AcDbLine
 62
7
  6
CONTINUOUS
 10
3.0888994439
 20
3.2541866207
 11
3.0596025689
 21
3.2457293413
  0
LINE
  5
27B
100
AcDbEntity
  8
ALL_ASSEMBLY_MEMBERS
100
AcDbLine
 62
7
  6
CONTINUOUS
 10
3.0888994439
 20
3.2203575033
 11
3.1181963189
 21
3.2288147827
  0
LINE
  5
27C
100
AcDbEntity
  8
ALL_ASSEMBLY_MEMBERS
100
AcDbLine
 62
7
  6
CONTINUOUS
 10
2.9421497672
 20
4.3736663462
 11
3.1794259361
 21
4.3736663462
  0
LINE
  5
27D
100
AcDbEntity
  8
0
100
AcDbLine
 62
7
  6
CONTINUOUS
 10
4.7103994439
 20
3.6626663462
 11
4.7103994439
 21
2.4221663462
  0
LINE
  5
27E
100
AcDbEntity
  8
0
100
AcDbLine
 62
7
  6
CONTINUOUS
 10
4.740204562
 20
3.6477313068
 11
4.740204562
 21
2.4371013855
  0
LINE
  5
27F
100
AcDbEntity
  8
0
100
AcDbLine
 62
9
  6
CONTINUOUS
 10
4.7549683415
 20
2.4223376214
 11
4.7549683415
 21
3.6624950863
  0
LINE
  5
280
100
AcDbEntity
  8
ALL_ASSEMBLY_MEMBERS
100
AcDbLine
 62
9
  6
CONTINUOUS
 10
3.2008213309
 20
4.4038172361
 11
3.2094284448
 21
4.4038639759
  0
LINE
  5
281
100
AcDbEntity
  8
ALL_ASSEMBLY_MEMBERS
100
AcDbLine
 62
9
  6
CONTINUOUS
 10
2.9505757574
 20
4.4047183304
 11
3.1709986487
 21
4.4047183304
  0
LINE
  5
282
100
AcDbEntity
  8
ALL_ASSEMBLY_MEMBERS
100
AcDbLine
 62
9
  6
CONTINUOUS
 10
2.9121627522
 20
4.4046507402
 11
2.9207670702
 21
4.4045993936
  0
LINE
  5
283
100
AcDbEntity
  8
ALL_FEATURES
100
AcDbLine
 62
7
  6
CONTINUOUS
 10
4.8829644045
 20
2.0456962489
 11
4.8829644045
 21
4.0379364434
  0
LINE
  5
284
100
AcDbEntity
  8
ALL_FEATURES
100
AcDbLine
 62
9
  6
CONTINUOUS
 10
4.8975717503
 20
2.030701389
 11
4.8975717503
 21
4.0529313033
  0
LINE
  5
285
100
AcDbEntity
  8
ALL_FEATURES
100
AcDbLine
 62
9
  6
CONTINUOUS
 10
4.9358570587
 20
2.029698853
 11
4.9358570587
 21
4.0539338393
  0
LINE
  5
286
100
AcDbEntity
  8
ALL_FEATURES
100
AcDbLine
 62
7
  6
CONTINUOUS
 10
4.9504644045
 20
6.6484163145
 11
4.9504644045
 21
1.7989163462
  0
LINE
  5
287
100
AcDbEntity
  8
ALL_FEATURES
100
AcDbLine
 62
9
  6
CONTINUOUS
 10
4.9619745464
 20
1.7635789204
 11
4.9619745464
 21
6.6837537719
  0
LINE
  5
288
100
AcDbEntity
  8
ALL_FEATURES
100
AcDbLine
 62
9
  6
CONTINUOUS
 10
5.0207833699
 20
1.617948038
 11
5.0207833699
 21
6.8293846543
  0
LINE
  5
289
100
AcDbEntity
  8
0
100
AcDbLine
 62
7
  6
CONTINUOUS
 10
4.9504644045
 20
4.7848388462
 11
4.0789644045
 21
4.7848388462
  0
LINE
  5
28A
100
AcDbEntity
  8
ALL_FEATURES
100
AcDbLine
 62
9
  6
CONTINUOUS
 10
5.0802144045
 20
1.5661913462
 11
5.0802144045
 21
6.8811413462
  0
LINE
  5
28B
100
AcDbEntity
  8
0
100
AcDbLine
 62
7
  6
CONTINUOUS
 10
5.1364644045
 20
1.5700146875
 11
5.1364644045
 21
1.5661914804
  0
LINE
  5
28C
100
AcDbEntity
  8
ALL_FEATURES
100
AcDbLine
 62
7
  6
CONTINUOUS
 10
5.2114644045
 20
6.8811413462
 11
5.2114644045
 21
4.2236663462
  0
LINE
  5
28D
100
AcDbEntity
  8
0
100
AcDbLine
 62
7
  6
CONTINUOUS
 10
5.2114644045
 20
1.5700146875
 11
5.2114644045
 21
4.2236663462
  0
LINE
  5
28E
100
AcDbEntity
  8
ALL_FEATURES
100
AcDbLine
 62
7
  6
CONTINUOUS
 10
3.829743059
 20
4.9192913462
 11
3.9664644045
 21
4.9192913462
  0
LINE
  5
28F
100
AcDbEntity
  8
ALL_ASSEMBLY_MEMBERS
100
AcDbLine
 62
7
  6
CONTINUOUS
 10
3.2463994439
 20
5.1049163462
 11
3.2357668389
 21
5.1049163462
  0
LINE
  5
290
100
AcDbEntity
  8
ALL_ASSEMBLY_MEMBERS
100
AcDbLine
 62
7
  6
CONTINUOUS
 10
2.9033963011
 20
5.1049163462
 11
2.8901494439
 21
5.1049163462
  0
LINE
  5
291
100
AcDbEntity
  8
ALL_ASSEMBLY_MEMBERS
100
AcDbLine
 62
9
  6
CONTINUOUS
 10
2.9635300941
 20
5.1336968236
 11
3.1765307871
 21
5.1336968236
  0
LINE
  5
292
100
AcDbEntity
  8
ALL_ASSEMBLY_MEMBERS
100
AcDbLine
 62
9
  6
CONTINUOUS
 10
2.9161588592
 20
5.1593094931
 11
3.2245743985
 21
5.1593094931
  0
LINE
  5
293
100
AcDbEntity
  8
ALL_ASSEMBLY_MEMBERS
100
AcDbLine
 62
7
  6
CONTINUOUS
 10
3.4811494439
 20
5.1705413462
 11
3.2613994439
 21
5.1705413462
  0
LINE
  5
294
100
AcDbEntity
  8
ALL_ASSEMBLY_MEMBERS
100
AcDbLine
 62
7
  6
CONTINUOUS
 10
2.8188994439
 20
5.2080413462
 11
2.7963994439
 21
5.2080413462
  0
LINE
  5
295
100
AcDbEntity
  8
0
100
AcDbLine
 62
7
  6
CONTINUOUS
 10
3.5186494439
 20
5.2661663462
 11
3.4811494439
 21
5.2661663462
  0
LINE
  5
296
100
AcDbEntity
  8
ALL_ASSEMBLY_MEMBERS
100
AcDbLine
 62
7
  6
CONTINUOUS
 10
3.3348525689
 20
5.5913147827
 11
3.3641494439
 21
5.5828575033
  0
LINE
  5
297
100
AcDbEntity
  8
ALL_ASSEMBLY_MEMBERS
100
AcDbLine
 62
7
  6
CONTINUOUS
 10
3.3934463189
 20
5.6082293413
 11
3.3641494439
 21
5.6166866207
  0
LINE
  5
298
100
AcDbEntity
  8
0
100
AcDbLine
 62
7
  6
CONTINUOUS
 10
3.5186494439
 20
5.5436663462
 11
3.4811494439
 21
5.5436663462
  0
LINE
  5
299
100
AcDbEntity
  8
ALL_ASSEMBLY_MEMBERS
100
AcDbLine
 62
7
  6
CONTINUOUS
 10
2.8188994439
 20
5.6017913462
 11
2.7963994439
 21
5.6017913462
  0
LINE
  5
29A
100
AcDbEntity
  8
ALL_ASSEMBLY_MEMBERS
100
AcDbLine
 62
7
  6
CONTINUOUS
 10
3.4811494439
 20
5.6392913462
 11
3.2613994439
 21
5.6392913462
  0
LINE
  5
29B
100
AcDbEntity
  8
ALL_ASSEMBLY_MEMBERS
100
AcDbLine
 62
7
  6
CONTINUOUS
 10
3.2463994439
 20
5.7049163462
 11
2.8901494439
 21
5.7049163462
  0
LINE
  5
29C
100
AcDbEntity
  8
ALL_FEATURES
100
AcDbLine
 62
7
  6
CONTINUOUS
 10
3.829743059
 20
5.8905413462
 11
3.9664644045
 21
5.8905413462
  0
LINE
  5
29D
100
AcDbEntity
  8
0
100
AcDbLine
 62
7
  6
CONTINUOUS
 10
4.9504644045
 20
6.0249938462
 11
4.0789644045
 21
6.0249938462
  0
LINE
  5
29E
100
AcDbEntity
  8
ALL_FEATURES
100
AcDbLine
 62
7
  6
CONTINUOUS
 10
5.0802144045
 20
6.8811413462
 11
5.2114644045
 21
6.8811413462
  0
ARC
  5
29F
100
AcDbEntity
  8
0
100
AcDbCircle
 62
7
  6
CONTINUOUS
 10
3.0386008309
 20
2.2211663462
 40
0.56325
100
AcDbArc
 50
30.2628931686
 51
65.8818266345
  0
ARC
  5
2A0
100
AcDbEntity
  8
ALL_ASSEMBLY_MEMBERS
100
AcDbCircle
 62
7
  6
CONTINUOUS
 10
2.5586494439
 20
2.7517913462
 40
0.05625
100
AcDbArc
 50
5.556120066
 51
90.0
  0
ARC
  5
2A1
100
AcDbEntity
  8
ALL_ASSEMBLY_MEMBERS
100
AcDbCircle
 62
7
  6
CONTINUOUS
 10
2.9041790679
 20
2.0411663462
 40
0.03
100
AcDbArc
 50
270.0
 51
0.3774846694
  0
ARC
  5
2A2
100
AcDbEntity
  8
ALL_ASSEMBLY_MEMBERS
100
AcDbCircle
 62
7
  6
CONTINUOUS
 10
2.6668966251
 20
2.0411663462
 40
0.03
100
AcDbArc
 50
178.1195765724
 51
270.0
  0
ARC
  5
2A3
100
AcDbEntity
  8
ALL_ASSEMBLY_MEMBERS
100
AcDbCircle
 62
7
  6
CONTINUOUS
 10
2.9605167304
 20
2.7124166539
 40
0.029999972
100
AcDbArc
 50
89.9997928381
 51
180.198559689
  0
ARC
  5
2A4
100
AcDbEntity
  8
ALL_ASSEMBLY_MEMBERS
100
AcDbCircle
 62
7
  6
CONTINUOUS
 10
2.6281464291
 20
2.712416681
 40
0.0299999696
100
AcDbArc
 50
358.2978490404
 51
90.0002445469
  0
ARC
  5
2A5
100
AcDbEntity
  8
ALL_ASSEMBLY_MEMBERS
100
AcDbCircle
 62
7
  6
CONTINUOUS
 10
2.9861494439
 20
2.7930413462
 40
0.015
100
AcDbArc
 50
90.0
 51
179.9999999945
  0
ARC
  5
2A6
100
AcDbEntity
  8
ALL_ASSEMBLY_MEMBERS
100
AcDbCircle
 62
7
  6
CONTINUOUS
 10
2.5436494439
 20
2.8305413462
 40
0.015
100
AcDbArc
 50
0.0000000025
 51
90.0
  0
ARC
  5
2A7
100
AcDbEntity
  8
0
100
AcDbCircle
 62
7
  6
CONTINUOUS
 10
3.0386008309
 20
3.8636663462
 40
0.56325
100
AcDbArc
 50
294.1181733655
 51
329.7371068314
  0
ARC
  5
2A8
100
AcDbEntity
  8
ALL_ASSEMBLY_MEMBERS
100
AcDbCircle
 62
7
  6
CONTINUOUS
 10
3.0824932077
 20
3.3105113883
 40
0.0975573781
100
AcDbArc
 50
266.2960974712
 51
271.0714324341
  0
ARC
  5
2A9
100
AcDbEntity
  8
ALL_ASSEMBLY_MEMBERS
100
AcDbCircle
 62
7
  6
CONTINUOUS
 10
3.1035052917
 20
3.2807881229
 40
0.0708500215
100
AcDbArc
 50
302.0344591767
 51
305.3345778421
  0
ARC
  5
2AA
100
AcDbEntity
  8
ALL_ASSEMBLY_MEMBERS
100
AcDbCircle
 62
7
  6
CONTINUOUS
 10
3.0973790904
 20
3.2009667597
 40
0.0629311937
100
AcDbArc
 50
54.7981670873
 51
58.8478711269
  0
ARC
  5
2AB
100
AcDbEntity
  8
ALL_ASSEMBLY_MEMBERS
100
AcDbCircle
 62
7
  6
CONTINUOUS
 10
2.5586494439
 20
3.3330413462
 40
0.05625
100
AcDbArc
 50
270.0
 51
360.0
  0
ARC
  5
2AC
100
AcDbEntity
  8
ALL_ASSEMBLY_MEMBERS
100
AcDbCircle
 62
7
  6
CONTINUOUS
 10
3.0569870451
 20
3.232100085
 40
0.0183399011
100
AcDbArc
 50
221.2510856456
 51
225.398130246
  0
ARC
  5
2AD
100
AcDbEntity
  8
ALL_ASSEMBLY_MEMBERS
100
AcDbCircle
 62
7
  6
CONTINUOUS
 10
2.9861494439
 20
3.2917913462
 40
0.015
100
AcDbArc
 50
180.000000002
 51
270.0
  0
ARC
  5
2AE
100
AcDbEntity
  8
ALL_ASSEMBLY_MEMBERS
100
AcDbCircle
 62
7
  6
CONTINUOUS
 10
2.5436494439
 20
3.2542913462
 40
0.015
100
AcDbArc
 50
270.0
 51
359.9999999968
  0
ARC
  5
2AF
100
AcDbEntity
  8
0
100
AcDbCircle
 62
7
  6
CONTINUOUS
 10
3.6655700997
 20
2.4971663462
 40
0.075
100
AcDbArc
 50
218.574242923
 51
270.0
  0
ARC
  5
2B0
100
AcDbEntity
  8
0
100
AcDbCircle
 62
7
  6
CONTINUOUS
 10
3.5769156426
 20
2.5352646207
 40
0.06
100
AcDbArc
 50
210.2628924365
 51
257.9052426455
  0
ARC
  5
2B1
100
AcDbEntity
  8
0
100
AcDbCircle
 62
7
  6
CONTINUOUS
 10
3.2996364669
 20
2.7799163462
 40
0.0562370231
100
AcDbArc
 50
180.0
 51
213.871340548
  0
ARC
  5
2B2
100
AcDbEntity
  8
ALL_FEATURES
100
AcDbCircle
 62
7
  6
CONTINUOUS
 10
3.2996364669
 20
2.7799163462
 40
0.0562370231
100
AcDbArc
 50
180.0
 51
213.871340548
  0
ARC
  5
2B3
100
AcDbEntity
  8
0
100
AcDbCircle
 62
7
  6
CONTINUOUS
 10
3.565362694
 20
2.4303565945
 40
0.045
100
AcDbArc
 50
38.5742443677
 51
77.9052432775
  0
ARC
  5
2B4
100
AcDbEntity
  8
0
100
AcDbCircle
 62
7
  6
CONTINUOUS
 10
3.2840792822
 20
2.7694736436
 40
0.0375
100
AcDbArc
 50
213.8713405478
 51
245.8818266345
  0
ARC
  5
2B5
100
AcDbEntity
  8
0
100
AcDbCircle
 62
7
  6
CONTINUOUS
 10
3.6655700997
 20
3.5876663462
 40
0.075
100
AcDbArc
 50
90.0
 51
141.425757077
  0
ARC
  5
2B6
100
AcDbEntity
  8
0
100
AcDbCircle
 62
7
  6
CONTINUOUS
 10
3.5769156426
 20
3.5495680716
 40
0.06
100
AcDbArc
 50
102.0947573545
 51
149.7371075635
  0
ARC
  5
2B7
100
AcDbEntity
  8
0
100
AcDbCircle
 62
7
  6
CONTINUOUS
 10
3.2996364669
 20
3.3049163462
 40
0.0562370231
100
AcDbArc
 50
146.128659452
 51
180.0
  0
ARC
  5
2B8
100
AcDbEntity
  8
ALL_FEATURES
100
AcDbCircle
 62
7
  6
CONTINUOUS
 10
3.2996364669
 20
3.3049163462
 40
0.0562370231
100
AcDbArc
 50
146.128659452
 51
180.0
  0
ARC
  5
2B9
100
AcDbEntity
  8
0
100
AcDbCircle
 62
7
  6
CONTINUOUS
 10
3.565362694
 20
3.6544760978
 40
0.045
100
AcDbArc
 50
282.0947567225
 51
321.4257556323
  0
ARC
  5
2BA
100
AcDbEntity
  8
0
100
AcDbCircle
 62
7
  6
CONTINUOUS
 10
3.2840792822
 20
3.3153590487
 40
0.0375
100
AcDbArc
 50
114.1181733657
 51
146.1286594522
  0
ARC
  5
2BB
100
AcDbEntity
  8
0
100
AcDbCircle
 62
7
  6
CONTINUOUS
 10
3.7935244439
 20
3.7601663462
 40
0.0075
100
AcDbArc
 50
90.0
 51
180.0
  0
ARC
  5
2BC
100
AcDbEntity
  8
ALL_ASSEMBLY_MEMBERS
100
AcDbCircle
 62
7
  6
CONTINUOUS
 10
2.8338994439
 20
5.1142913462
 40
0.05625
100
AcDbArc
 50
5.556120066
 51
90.0
  0
ARC
  5
2BD
100
AcDbEntity
  8
ALL_ASSEMBLY_MEMBERS
100
AcDbCircle
 62
7
  6
CONTINUOUS
 10
3.1794290679
 20
4.4036663462
 40
0.03
100
AcDbArc
 50
270.0
 51
0.3774846694
  0
ARC
  5
2BE
100
AcDbEntity
  8
ALL_ASSEMBLY_MEMBERS
100
AcDbCircle
 62
7
  6
CONTINUOUS
 10
2.9421466251
 20
4.4036663462
 40
0.03
100
AcDbArc
 50
178.1195765724
 51
270.0
  0
ARC
  5
2BF
100
AcDbEntity
  8
ALL_ASSEMBLY_MEMBERS
100
AcDbCircle
 62
7
  6
CONTINUOUS
 10
2.9033964291
 20
5.074916681
 40
0.0299999696
100
AcDbArc
 50
358.2978490404
 51
90.0002445469
  0
ARC
  5
2C0
100
AcDbEntity
  8
ALL_ASSEMBLY_MEMBERS
100
AcDbCircle
 62
7
  6
CONTINUOUS
 10
2.8188994439
 20
5.1930413462
 40
0.015
100
AcDbArc
 50
0.0000000025
 51
90.0
  0
ARC
  5
2C1
100
AcDbEntity
  8
ALL_ASSEMBLY_MEMBERS
100
AcDbCircle
 62
7
  6
CONTINUOUS
 10
2.8338994439
 20
5.6955413462
 40
0.05625
100
AcDbArc
 50
270.0
 51
360.0
  0
ARC
  5
2C2
100
AcDbEntity
  8
ALL_ASSEMBLY_MEMBERS
100
AcDbCircle
 62
7
  6
CONTINUOUS
 10
2.8188994439
 20
5.6167913462
 40
0.015
100
AcDbArc
 50
270.0
 51
359.9999999968
  0
ARC
  5
2C3
100
AcDbEntity
  8
0
100
AcDbCircle
 62
7
  6
CONTINUOUS
 10
3.3146494439
 20
4.6174072391
 40
0.56325
100
AcDbArc
 50
36.1922176694
 51
66.7691079294
  0
ARC
  5
2C4
100
AcDbEntity
  8
0
100
AcDbCircle
 62
7
  6
CONTINUOUS
 10
3.5486494439
 20
5.162558193
 40
0.03
100
AcDbArc
 50
180.0
 51
246.7691079294
  0
ARC
  5
2C5
100
AcDbEntity
  8
ALL_ASSEMBLY_MEMBERS
100
AcDbCircle
 62
7
  6
CONTINUOUS
 10
3.2357667304
 20
5.0749166539
 40
0.029999972
100
AcDbArc
 50
89.9997928381
 51
180.198559689
  0
ARC
  5
2C6
100
AcDbEntity
  8
ALL_ASSEMBLY_MEMBERS
100
AcDbCircle
 62
7
  6
CONTINUOUS
 10
3.2613994439
 20
5.1555413462
 40
0.015
100
AcDbArc
 50
90.0
 51
179.9999999945
  0
ARC
  5
2C7
100
AcDbEntity
  8
0
100
AcDbCircle
 62
7
  6
CONTINUOUS
 10
3.3146494439
 20
6.1924254532
 40
0.56325
100
AcDbArc
 50
293.2308920706
 51
323.8077823306
  0
ARC
  5
2C8
100
AcDbEntity
  8
ALL_ASSEMBLY_MEMBERS
100
AcDbCircle
 62
7
  6
CONTINUOUS
 10
3.3577432077
 20
5.6730113883
 40
0.0975573781
100
AcDbArc
 50
266.2960974712
 51
271.0714324342
  0
ARC
  5
2C9
100
AcDbEntity
  8
ALL_ASSEMBLY_MEMBERS
100
AcDbCircle
 62
7
  6
CONTINUOUS
 10
3.3787552917
 20
5.6432881229
 40
0.0708500215
100
AcDbArc
 50
302.0344591769
 51
305.3345778419
  0
ARC
  5
2CA
100
AcDbEntity
  8
ALL_ASSEMBLY_MEMBERS
100
AcDbCircle
 62
7
  6
CONTINUOUS
 10
3.3726290904
 20
5.5634667597
 40
0.0629311937
100
AcDbArc
 50
54.7981670874
 51
58.8478711268
  0
ARC
  5
2CB
100
AcDbEntity
  8
0
100
AcDbCircle
 62
7
  6
CONTINUOUS
 10
3.5486494439
 20
5.6472744994
 40
0.03
100
AcDbArc
 50
113.2308920706
 51
180.0
  0
ARC
  5
2CC
100
AcDbEntity
  8
ALL_ASSEMBLY_MEMBERS
100
AcDbCircle
 62
7
  6
CONTINUOUS
 10
3.3322370451
 20
5.594600085
 40
0.0183399011
100
AcDbArc
 50
221.2510856457
 51
225.3981302459
  0
ARC
  5
2CD
100
AcDbEntity
  8
ALL_ASSEMBLY_MEMBERS
100
AcDbCircle
 62
7
  6
CONTINUOUS
 10
3.2613994439
 20
5.6542913462
 40
0.015
100
AcDbArc
 50
180.000000002
 51
270.0
  0
ARC
  5
2CE
100
AcDbEntity
  8
ALL_FEATURES
100
AcDbCircle
 62
7
  6
CONTINUOUS
 10
4.7013415591
 20
1.5736402568
 40
0.3225
100
AcDbArc
 50
7.8967562426
 51
36.083035471
  0
ARC
  5
2CF
100
AcDbEntity
  8
ALL_FEATURES
100
AcDbCircle
 62
7
  6
CONTINUOUS
 10
5.0104644045
 20
1.7989163462
 40
0.06
100
AcDbArc
 50
180.0
 51
216.083035471
  0
ARC
  5
2D0
100
AcDbEntity
  8
ALL_FEATURES
100
AcDbCircle
 62
7
  6
CONTINUOUS
 10
5.0802144045
 20
1.6261913462
 40
0.06
100
AcDbArc
 50
187.8967562426
 51
270.0
  0
ARC
  5
2D1
100
AcDbEntity
  8
ALL_FEATURES
100
AcDbCircle
 62
7
  6
CONTINUOUS
 10
4.8979644045
 20
2.0456962489
 40
0.015
100
AcDbArc
 50
179.9999999837
 51
268.4999999996
  0
ARC
  5
2D2
100
AcDbEntity
  8
ALL_FEATURES
100
AcDbCircle
 62
7
  6
CONTINUOUS
 10
4.8979644045
 20
4.0379364434
 40
0.015
100
AcDbArc
 50
91.5000000004
 51
180.0000000163
  0
ARC
  5
2D3
100
AcDbEntity
  8
ALL_FEATURES
100
AcDbCircle
 62
7
  6
CONTINUOUS
 10
4.9354644045
 20
4.0689286992
 40
0.015
100
AcDbArc
 50
271.4999999996
 51
359.9999999835
  0
ARC
  5
2D4
100
AcDbEntity
  8
ALL_FEATURES
100
AcDbCircle
 62
7
  6
CONTINUOUS
 10
4.9354644045
 20
2.0147039931
 40
0.015
100
AcDbArc
 50
0.0000000165
 51
88.5000000004
  0
ARC
  5
2D5
100
AcDbEntity
  8
0
100
AcDbCircle
 62
7
  6
CONTINUOUS
 10
4.7549683415
 20
2.4371013855
 40
0.0147637795
100
AcDbArc
 50
180.0000000785
 51
270.0
  0
ARC
  5
2D6
100
AcDbEntity
  8
0
100
AcDbCircle
 62
7
  6
CONTINUOUS
 10
4.7549683415
 20
3.6477313068
 40
0.0147637795
100
AcDbArc
 50
90.0
 51
179.9999999215
  0
ARC
  5
2D7
100
AcDbEntity
  8
0
100
AcDbCircle
 62
7
  6
CONTINUOUS
 10
4.0672744439
 20
3.7601663462
 40
0.0075
100
AcDbArc
 50
0.0
 51
90.0
  0
ARC
  5
2D8
100
AcDbEntity
  8
0
100
AcDbCircle
 62
7
  6
CONTINUOUS
 10
4.801083137
 20
4.3017916615
 40
0.6396921648
100
AcDbArc
 50
267.9855100182
 51
269.9996067102
  0
ARC
  5
2D9
100
AcDbEntity
  8
ALL_FEATURES
100
AcDbCircle
 62
7
  6
CONTINUOUS
 10
4.7013415591
 20
6.8736924355
 40
0.3225
100
AcDbArc
 50
323.916964529
 51
352.1032437574
  0
ARC
  5
2DA
100
AcDbEntity
  8
0
100
AcDbCircle
 62
7
  6
CONTINUOUS
 10
3.829743059
 20
4.9942913462
 40
0.075
100
AcDbArc
 50
216.1922176693
 51
270.0
  0
ARC
  5
2DB
100
AcDbEntity
  8
0
100
AcDbCircle
 62
7
  6
CONTINUOUS
 10
3.829743059
 20
5.8155413462
 40
0.075
100
AcDbArc
 50
90.0
 51
143.8077823307
  0
ARC
  5
2DC
100
AcDbEntity
  8
ALL_FEATURES
100
AcDbCircle
 62
7
  6
CONTINUOUS
 10
5.0104644045
 20
6.6484163462
 40
0.06
100
AcDbArc
 50
143.916964529
 51
180.0
  0
ARC
  5
2DD
100
AcDbEntity
  8
ALL_FEATURES
100
AcDbCircle
 62
7
  6
CONTINUOUS
 10
5.0802144045
 20
6.8211413462
 40
0.06
100
AcDbArc
 50
90.0
 51
172.1032437574
  0
SPLINE
  5
2DE
100
AcDbEntity
  8
ALL_ASSEMBLY_MEMBERS
100
AcDbSpline
 62
7
  6
CONTINUOUS
 70
0
 71
3
 72
15
 73
11
 74
0
 42
0.0000001
 43
0.0000001
 44
0.0000000001
 40
0.0
 40
0.0
 40
0.0
 40
0.0
 40
0.1111785909
 40
0.2271587919
 40
0.347574096
 40
0.4720422439
 40
0.6000844108
 40
0.7311635317
 40
0.864685766
 40
1.0
 40
1.0
 40
1.0
 40
1.0
 10
3.0467299115
 20
3.2204069312
 30
0.0
 10
3.0477450352
 20
3.2199077709
 30
0.0
 10
3.0498516633
 20
3.2189530099
 30
0.0
 10
3.0531519756
 20
3.2176777631
 30
0.0
 10
3.056643743
 20
3.2165371883
 30
0.0
 10
3.0603062649
 20
3.2155398245
 30
0.0
 10
3.0641177388
 20
3.2146934842
 30
0.0
 10
3.0680544223
 20
3.2140053142
 30
0.0
 10
3.0720908379
 20
3.2134815856
 30
0.0
 10
3.0748170693
 20
3.2132467777
 30
0.0
 10
3.076190974
 20
3.213157786
 30
0.0
  0
SPLINE
  5
2DF
100
AcDbEntity
  8
ALL_ASSEMBLY_MEMBERS
100
AcDbSpline
 62
7
  6
CONTINUOUS
 70
0
 71
3
 72
37
 73
33
 74
0
 42
0.0000001
 43
0.0000001
 44
0.0000000001
 40
0.0
 40
0.0
 40
0.0
 40
0.0
 40
0.0265002495
 40
0.053957385
 40
0.0823241717
 40
0.1115543826
 40
0.1416029891
 40
0.172419475
 40
0.2039426889
 40
0.2361070295
 40
0.2688430551
 40
0.3020778218
 40
0.3357361801
 40
0.3697392824
 40
0.4040067449
 40
0.4384566793
 40
0.5075639825
 40
0.5764002204
 40
0.6105127489
 40
0.6443106833
 40
0.6777145288
 40
0.7106478615
 40
0.743036126
 40
0.7748090418
 40
0.8059000755
 40
0.8362466883
 40
0.8657930331
 40
0.8944876405
 40
0.9222871998
 40
0.9491557903
 40
0.9750654708
 40
1.0
 40
1.0
 40
1.0
 40
1.0
 10
3.1299341624
 20
3.2548230725
 30
0.0
 10
3.1292572635
 20
3.2552187243
 30
0.0
 10
3.1278582549
 20
3.2559892175
 30
0.0
 10
3.1256718015
 20
3.2570642521
 30
0.0
 10
3.1233666939
 20
3.2580756056
 30
0.0
 10
3.1209508198
 20
3.2590197175
 30
0.0
 10
3.1184319365
 20
3.2598937908
 30
0.0
 10
3.1158179156
 20
3.2606949026
 30
0.0
 10
3.1131171709
 20
3.2614207465
 30
0.0
 10
3.1103383857
 20
3.2620687677
 30
0.0
 10
3.1074905458
 20
3.2626368934
 30
0.0
 10
3.1045828308
 20
3.2631234222
 30
0.0
 10
3.1016245642
 20
3.2635265688
 30
0.0
 10
3.0986253062
 20
3.2638452785
 30
0.0
 10
3.0955946769
 20
3.2640783442
 30
0.0
 10
3.091521168
 20
3.2642741509
 30
0.0
 10
3.0864178181
 20
3.2643013695
 30
0.0
 10
3.0813310287
 20
3.2640400053
 30
0.0
 10
3.0773028644
 20
3.2636569409
 30
0.0
 10
3.0743279633
 20
3.2632855766
 30
0.0
 10
3.0714000508
 20
3.262830312
 30
0.0
 10
3.0685285005
 20
3.2622928586
 30
0.0
 10
3.0657225894
 20
3.261674754
 30
0.0
 10
3.0629913408
 20
3.260978062
 30
0.0
 10
3.0603435174
 20
3.2602051091
 30
0.0
 10
3.0577876897
 20
3.2593581647
 30
0.0
 10
3.0553319977
 20
3.2584402173
 30
0.0
 10
3.0529843866
 20
3.2574539865
 30
0.0
 10
3.0507523718
 20
3.2564027254
 30
0.0
 10
3.0486430424
 20
3.255289842
 30
0.0
 10
3.0466633451
 20
3.2541187153
 30
0.0
 10
3.0454097515
 20
3.2532855852
 30
0.0
 10
3.0448074102
 20
3.2528596478
 30
0.0
  0
SPLINE
  5
2E0
100
AcDbEntity
  8
ALL_ASSEMBLY_MEMBERS
100
AcDbSpline
 62
7
  6
CONTINUOUS
 70
0
 71
3
 72
23
 73
19
 74
0
 42
0.0000001
 43
0.0000001
 44
0.0000000001
 40
0.0
 40
0.0
 40
0.0
 40
0.0
 40
0.0809938866
 40
0.159110653
 40
0.2342975264
 40
0.306536075
 40
0.3758780443
 40
0.4424102263
 40
0.5062518342
 40
0.567561991
 40
0.6265372561
 40
0.6834201695
 40
0.7385071046
 40
0.7921350847
 40
0.8446806208
 40
0.8965539617
 40
0.9481824244
 40
1.0
 40
1.0
 40
1.0
 40
1.0
 10
3.0467299115
 20
3.2204069312
 30
0.0
 10
3.046148378
 20
3.2207060288
 30
0.0
 10
3.0450182583
 20
3.2213179522
 30
0.0
 10
3.0433973606
 20
3.2222946065
 30
0.0
 10
3.0418852062
 20
3.2233106985
 30
0.0
 10
3.0404859376
 20
3.2243634463
 30
0.0
 10
3.0392027003
 20
3.2254497473
 30
0.0
 10
3.0380382361
 20
3.226566799
 30
0.0
 10
3.0369951903
 20
3.2277118706
 30
0.0
 10
3.0360757049
 20
3.2288818431
 30
0.0
 10
3.0352819131
 20
3.2300737461
 30
0.0
 10
3.0346158971
 20
3.2312846356
 30
0.0
 10
3.0340789513
 20
3.2325112114
 30
0.0
 10
3.0336723814
 20
3.2337503163
 30
0.0
 10
3.0333973908
 20
3.2349986538
 30
0.0
 10
3.0332542716
 20
3.2362527424
 30
0.0
 10
3.0332432738
 20
3.2375089473
 30
0.0
 10
3.0333237206
 20
3.2383420689
 30
0.0
 10
3.0333851583
 20
3.2387559069
 30
0.0
  0
SPLINE
  5
2E1
100
AcDbEntity
  8
ALL_ASSEMBLY_MEMBERS
100
AcDbSpline
 62
7
  6
CONTINUOUS
 70
0
 71
3
 72
17
 73
13
 74
0
 42
0.0000001
 43
0.0000001
 44
0.0000000001
 40
0.0
 40
0.0
 40
0.0
 40
0.0
 40
0.053424443
 40
0.1074442751
 40
0.1622321791
 40
0.2179505432
 40
0.332712126
 40
0.4528171014
 40
0.5790862993
 40
0.7121217962
 40
0.8523459653
 40
1.0
 40
1.0
 40
1.0
 40
1.0
 10
3.0333851583
 20
3.2387559069
 30
0.0
 10
3.0334260839
 20
3.2390315774
 30
0.0
 10
3.0335272933
 20
3.2395833617
 30
0.0
 10
3.0337350403
 20
3.24040435
 30
0.0
 10
3.033999181
 20
3.2412215934
 30
0.0
 10
3.0344302589
 20
3.2423154884
 30
0.0
 10
3.0351142286
 20
3.2436724816
 30
0.0
 10
3.036144948
 20
3.2452534243
 30
0.0
 10
3.0373886533
 20
3.2467969413
 30
0.0
 10
3.0388391511
 20
3.2482970972
 30
0.0
 10
3.0404903073
 20
3.2497476468
 30
0.0
 10
3.0416890095
 20
3.2506545932
 30
0.0
 10
3.0423179084
 20
3.2510993013
 30
0.0
  0
SPLINE
  5
2E2
100
AcDbEntity
  8
ALL_ASSEMBLY_MEMBERS
100
AcDbSpline
 62
7
  6
CONTINUOUS
 70
0
 71
3
 72
51
 73
47
 74
0
 42
0.0000001
 43
0.0000001
 44
0.0000000001
 40
0.0
 40
0.0
 40
0.0
 40
0.0
 40
0.0108658178
 40
0.0218674721
 40
0.0330370762
 40
0.0444044686
 40
0.055998177
 40
0.0678452496
 40
0.0923832431
 40
0.1051206729
 40
0.1181852045
 40
0.1453255071
 40
0.159418745
 40
0.1738608954
 40
0.2037816422
 40
0.235056954
 40
0.2676199658
 40
0.3013751405
 40
0.3362058262
 40
0.3719745524
 40
0.4085291565
 40
0.4457035533
 40
0.4833219726
 40
0.5212005359
 40
0.5591503192
 40
0.5969791679
 40
0.6344946274
 40
0.6715053801
 40
0.7078246007
 40
0.7432712127
 40
0.7776732444
 40
0.7944329876
 40
0.8108726663
 40
0.8427175169
 40
0.8580936434
 40
0.8730853796
 40
0.8876794632
 40
0.9018650196
 40
0.9156331324
 40
0.9289761488
 40
0.9418884345
 40
0.9543677979
 40
0.9664143144
 40
0.9780303622
 40
0.9892221127
 40
1.0
 40
1.0
 40
1.0
 40
1.0
 10
3.1374991244
 20
3.2349688384
 30
0.0
 10
3.137435573
 20
3.2345890257
 30
0.0
 10
3.1372801148
 20
3.2338289944
 30
0.0
 10
3.1369657159
 20
3.2327002257
 30
0.0
 10
3.1365695427
 20
3.2315786006
 30
0.0
 10
3.1360922342
 20
3.230466232
 30
0.0
 10
3.1355345761
 20
3.2293649218
 30
0.0
 10
3.1346756464
 20
3.2278964439
 30
0.0
 10
3.1336659651
 20
3.2264730285
 30
0.0
 10
3.1325239547
 20
3.225101676
 30
0.0
 10
3.1312529438
 20
3.2237204988
 30
0.0
 10
3.1298499823
 20
3.2223989198
 30
0.0
 10
3.1283316871
 20
3.2211380866
 30
0.0
 10
3.1266857174
 20
3.219879121
 30
0.0
 10
3.1244637971
 20
3.2183748054
 30
0.0
 10
3.1215886991
 20
3.2167042613
 30
0.0
 10
3.1184928916
 20
3.2151570705
 30
0.0
 10
3.1151974847
 20
3.2137413759
 30
0.0
 10
3.1117244716
 20
3.2124652024
 30
0.0
 10
3.1080973621
 20
3.2113350039
 30
0.0
 10
3.1043405623
 20
3.2103568155
 30
0.0
 10
3.1004794674
 20
3.2095353186
 30
0.0
 10
3.0965401744
 20
3.2088742611
 30
0.0
 10
3.0925493027
 20
3.2083764214
 30
0.0
 10
3.0885338778
 20
3.2080431501
 30
0.0
 10
3.084521044
 20
3.2078751804
 30
0.0
 10
3.0805379735
 20
3.2078715029
 30
0.0
 10
3.0766116111
 20
3.2080306662
 30
0.0
 10
3.0727684921
 20
3.2083494549
 30
0.0
 10
3.0690346685
 20
3.2088241474
 30
0.0
 10
3.0660092872
 20
3.2093497509
 30
0.0
 10
3.0636651141
 20
3.2098457612
 30
0.0
 10
3.0614222445
 20
3.2103790058
 30
0.0
 10
3.0592475648
 20
3.2109848139
 30
0.0
 10
3.0571502778
 20
3.2116659155
 30
0.0
 10
3.0556494884
 20
3.2122022154
 30
0.0
 10
3.0542051327
 20
3.2127688947
 30
0.0
 10
3.0528196251
 20
3.2133647449
 30
0.0
 10
3.0514952652
 20
3.2139884645
 30
0.0
 10
3.0502343081
 20
3.2146388049
 30
0.0
 10
3.0490389446
 20
3.2153145475
 30
0.0
 10
3.0479111281
 20
3.2160142379
 30
0.0
 10
3.0468527306
 20
3.2167364532
 30
0.0
 10
3.0458655928
 20
3.2174798558
 30
0.0
 10
3.0449514519
 20
3.2182429797
 30
0.0
 10
3.0443810605
 20
3.2187736922
 30
0.0
 10
3.0441092015
 20
3.219042018
 30
0.0
  0
SPLINE
  5
2E3
100
AcDbEntity
  8
ALL_ASSEMBLY_MEMBERS
100
AcDbSpline
 62
7
  6
CONTINUOUS
 70
0
 71
3
 72
11
 73
7
 74
0
 42
0.0000001
 43
0.0000001
 44
0.0000000001
 40
0.0
 40
0.0
 40
0.0
 40
0.0
 40
0.2662876188
 40
0.5207528537
 40
0.764767231
 40
1.0
 40
1.0
 40
1.0
 40
1.0
 10
3.0431986066
 20
3.2200074867
 30
0.0
 10
3.0429064216
 20
3.2203414918
 30
0.0
 10
3.0423603322
 20
3.2210175012
 30
0.0
 10
3.0416485427
 20
3.2220768143
 30
0.0
 10
3.0410658288
 20
3.2231539604
 30
0.0
 10
3.0407600011
 20
3.2238937272
 30
0.0
 10
3.0406307792
 20
3.2242638335
 30
0.0
  0
SPLINE
  5
2E4
100
AcDbEntity
  8
ALL_ASSEMBLY_MEMBERS
100
AcDbSpline
 62
7
  6
CONTINUOUS
 70
0
 71
3
 72
23
 73
19
 74
0
 42
0.0000001
 43
0.0000001
 44
0.0000000001
 40
0.0
 40
0.0
 40
0.0
 40
0.0
 40
0.0593208019
 40
0.1171934142
 40
0.1740303072
 40
0.2302831793
 40
0.2864089021
 40
0.3428604106
 40
0.4000714632
 40
0.4584429146
 40
0.5183329345
 40
0.5800520518
 40
0.6438607456
 40
0.7099663025
 40
0.7785312943
 40
0.8496839124
 40
0.9235031183
 40
1.0
 40
1.0
 40
1.0
 40
1.0
 10
3.1374991244
 20
3.2349688384
 30
0.0
 10
3.1376903641
 20
3.2353845468
 30
0.0
 10
3.1380306286
 20
3.2362238204
 30
0.0
 10
3.1384113492
 20
3.2375133719
 30
0.0
 10
3.1386547443
 20
3.238811884
 30
0.0
 10
3.1387608667
 20
3.240115234
 30
0.0
 10
3.1387302922
 20
3.2414195584
 30
0.0
 10
3.1385640819
 20
3.2427209858
 30
0.0
 10
3.1382637473
 20
3.2440158109
 30
0.0
 10
3.1378311769
 20
3.2453005073
 30
0.0
 10
3.1372686119
 20
3.2465717574
 30
0.0
 10
3.1365785359
 20
3.2478264301
 30
0.0
 10
3.1357636346
 20
3.2490615095
 30
0.0
 10
3.1348269126
 20
3.2502741905
 30
0.0
 10
3.1337713983
 20
3.2514617373
 30
0.0
 10
3.1326003596
 20
3.2526215899
 30
0.0
 10
3.1313174423
 20
3.253751009
 30
0.0
 10
3.1304064289
 20
3.2544692952
 30
0.0
 10
3.1299341624
 20
3.2548230725
 30
0.0
  0
SPLINE
  5
2E5
100
AcDbEntity
  8
ALL_ASSEMBLY_MEMBERS
100
AcDbSpline
 62
7
  6
CONTINUOUS
 70
0
 71
3
 72
35
 73
31
 74
0
 42
0.0000001
 43
0.0000001
 44
0.0000000001
 40
0.0
 40
0.0
 40
0.0
 40
0.0
 40
0.0779669845
 40
0.1559191713
 40
0.2332778664
 40
0.309502663
 40
0.3470241784
 40
0.3840642494
 40
0.4205612654
 40
0.4564565217
 40
0.4916932705
 40
0.5262188296
 40
0.5599836943
 40
0.5929422442
 40
0.6250543433
 40
0.6562838793
 40
0.6866021232
 40
0.7159862395
 40
0.7444210016
 40
0.7718990011
 40
0.7984217091
 40
0.8240002917
 40
0.8486569306
 40
0.8724257245
 40
0.8953533427
 40
0.9174997642
 40
0.9389404774
 40
0.959767494
 40
0.9800840335
 40
1.0
 40
1.0
 40
1.0
 40
1.0
 10
3.0843174267
 20
3.2129710671
 30
0.0
 10
3.0859108856
 20
3.2128959544
 30
0.0
 10
3.089101753
 20
3.2128245143
 30
0.0
 10
3.0938748442
 20
3.2129511614
 30
0.0
 10
3.0986004288
 20
3.2133103257
 30
0.0
 10
3.102481247
 20
3.2138028958
 30
0.0
 10
3.1055244063
 20
3.2143119439
 30
0.0
 10
3.107754977
 20
3.2147469092
 30
0.0
 10
3.1099402083
 20
3.2152360615
 30
0.0
 10
3.1120748945
 20
3.2157781119
 30
0.0
 10
3.1141538775
 20
3.2163718774
 30
0.0
 10
3.1161721726
 20
3.2170158572
 30
0.0
 10
3.1181249269
 20
3.2177084969
 30
0.0
 10
3.1200074098
 20
3.2184482117
 30
0.0
 10
3.1218151342
 20
3.2192330882
 30
0.0
 10
3.1235437132
 20
3.220061369
 30
0.0
 10
3.1251890453
 20
3.2209309781
 30
0.0
 10
3.1267471917
 20
3.2218398992
 30
0.0
 10
3.1282144539
 20
3.2227859559
 30
0.0
 10
3.1295873377
 20
3.2237669281
 30
0.0
 10
3.1308625721
 20
3.22478051
 30
0.0
 10
3.1320371118
 20
3.2258243333
 30
0.0
 10
3.1331081382
 20
3.2268959733
 30
0.0
 10
3.134073047
 20
3.2279929572
 30
0.0
 10
3.134929461
 20
3.2291127275
 30
0.0
 10
3.1356752654
 20
3.2302526584
 30
0.0
 10
3.1363084963
 20
3.2314101446
 30
0.0
 10
3.1368275178
 20
3.2325824991
 30
0.0
 10
3.1372307159
 20
3.2337666528
 30
0.0
 10
3.13742323
 20
3.2345684817
 30
0.0
 10
3.1374991244
 20
3.2349688384
 30
0.0
  0
SPLINE
  5
2E6
100
AcDbEntity
  8
ALL_ASSEMBLY_MEMBERS
100
AcDbSpline
 62
7
  6
CONTINUOUS
 70
0
 71
3
 72
20
 73
16
 74
0
 42
0.0000001
 43
0.0000001
 44
0.0000000001
 40
0.0
 40
0.0
 40
0.0
 40
0.0
 40
0.1448195684
 40
0.2832698627
 40
0.3501446888
 40
0.415475697
 40
0.5416390403
 40
0.6026416819
 40
0.6623535821
 40
0.7208752891
 40
0.7783186886
 40
0.8348075629
 40
0.8904833966
 40
0.9454965617
 40
1.0
 40
1.0
 40
1.0
 40
1.0
 10
3.1336563092
 20
3.2523895031
 30
0.0
 10
3.1347944653
 20
3.2515846761
 30
0.0
 10
3.1369654484
 20
3.2499301118
 30
0.0
 10
3.1394779489
 20
3.2476774178
 30
0.0
 10
3.1412987696
 20
3.2458129485
 30
0.0
 10
3.1429536149
 20
3.2439556885
 30
0.0
 10
3.1444404404
 20
3.2420269409
 30
0.0
 10
3.1457381289
 20
3.2400351049
 30
0.0
 10
3.1466000646
 20
3.2385395275
 30
0.0
 10
3.1473604733
 20
3.2370281189
 30
0.0
 10
3.1480185934
 20
3.2355031098
 30
0.0
 10
3.1485736269
 20
3.233966691
 30
0.0
 10
3.1490252684
 20
3.232421064
 30
0.0
 10
3.1493732353
 20
3.230868465
 30
0.0
 10
3.1495365934
 20
3.2298261433
 30
0.0
 10
3.1496007368
 20
3.2293054539
 30
0.0
  0
SPLINE
  5
2E7
100
AcDbEntity
  8
ALL_ASSEMBLY_MEMBERS
100
AcDbSpline
 62
7
  6
CONTINUOUS
 70
0
 71
3
 72
35
 73
31
 74
0
 42
0.0000001
 43
0.0000001
 44
0.0000000001
 40
0.0
 40
0.0
 40
0.0
 40
0.0
 40
0.0734843846
 40
0.1086351137
 40
0.1427423281
 40
0.1758335688
 40
0.2079481596
 40
0.2694222937
 40
0.3277045969
 40
0.355878306
 40
0.3835290166
 40
0.41076973
 40
0.4377205879
 40
0.4645073133
 40
0.491259527
 40
0.5181072237
 40
0.5451783676
 40
0.5725969515
 40
0.6004795248
 40
0.628934007
 40
0.6580593899
 40
0.6879429303
 40
0.7186591197
 40
0.7828121213
 40
0.8163738988
 40
0.850968504
 40
0.8866241333
 40
0.9233522711
 40
0.9611479369
 40
1.0
 40
1.0
 40
1.0
 40
1.0
 10
3.0448074102
 20
3.2528596478
 30
0.0
 10
3.0439935866
 20
3.2522841636
 30
0.0
 10
3.0428226986
 20
3.2513856135
 30
0.0
 10
3.0413709003
 20
3.2501037893
 30
0.0
 10
3.0403751448
 20
3.2491356109
 30
0.0
 10
3.0394581698
 20
3.2481479046
 30
0.0
 10
3.0383586269
 20
3.2468266091
 30
0.0
 10
3.0371770904
 20
3.24513277
 30
0.0
 10
3.0362477316
 20
3.2433468004
 30
0.0
 10
3.0356849909
 20
3.2419036846
 30
0.0
 10
3.0353543791
 20
3.2408254362
 30
0.0
 10
3.0351110506
 20
3.2397411868
 30
0.0
 10
3.0349553935
 20
3.238652712
 30
0.0
 10
3.0348878808
 20
3.2375618542
 30
0.0
 10
3.0349086345
 20
3.236470504
 30
0.0
 10
3.0350174557
 20
3.2353805329
 30
0.0
 10
3.0352141877
 20
3.2342937924
 30
0.0
 10
3.0354986118
 20
3.233212166
 30
0.0
 10
3.0358700206
 20
3.2321374317
 30
0.0
 10
3.0363277074
 20
3.2310713294
 30
0.0
 10
3.0368709911
 20
3.2300156631
 30
0.0
 10
3.0374989158
 20
3.2289721097
 30
0.0
 10
3.0384611085
 20
3.2275790763
 30
0.0
 10
3.0395791985
 20
3.22623748
 30
0.0
 10
3.0408322785
 20
3.2249520921
 30
0.0
 10
3.0418644405
 20
3.2239933863
 30
0.0
 10
3.0429730392
 20
3.2230563957
 30
0.0
 10
3.0441561728
 20
3.2221425994
 30
0.0
 10
3.045411478
 20
3.221253588
 30
0.0
 10
3.0462830463
 20
3.2206862664
 30
0.0
 10
3.0467299115
 20
3.2204069312
 30
0.0
  0
SPLINE
  5
2E8
100
AcDbEntity
  8
ALL_ASSEMBLY_MEMBERS
100
AcDbSpline
 62
7
  6
CONTINUOUS
 70
0
 71
3
 72
15
 73
11
 74
0
 42
0.0000001
 43
0.0000001
 44
0.0000000001
 40
0.0
 40
0.0
 40
0.0
 40
0.0
 40
0.1111785909
 40
0.2271587919
 40
0.347574096
 40
0.4720422439
 40
0.6000844108
 40
0.7311635317
 40
0.864685766
 40
1.0
 40
1.0
 40
1.0
 40
1.0
 10
3.3219799115
 20
5.5829069312
 30
0.0
 10
3.3229950352
 20
5.5824077709
 30
0.0
 10
3.3251016633
 20
5.5814530099
 30
0.0
 10
3.3284019756
 20
5.5801777631
 30
0.0
 10
3.331893743
 20
5.5790371883
 30
0.0
 10
3.3355562649
 20
5.5780398245
 30
0.0
 10
3.3393677388
 20
5.5771934842
 30
0.0
 10
3.3433044223
 20
5.5765053142
 30
0.0
 10
3.3473408379
 20
5.5759815856
 30
0.0
 10
3.3500670693
 20
5.5757467777
 30
0.0
 10
3.351440974
 20
5.575657786
 30
0.0
  0
SPLINE
  5
2E9
100
AcDbEntity
  8
ALL_ASSEMBLY_MEMBERS
100
AcDbSpline
 62
7
  6
CONTINUOUS
 70
0
 71
3
 72
37
 73
33
 74
0
 42
0.0000001
 43
0.0000001
 44
0.0000000001
 40
0.0
 40
0.0
 40
0.0
 40
0.0
 40
0.0265002495
 40
0.053957385
 40
0.0823241717
 40
0.1115543826
 40
0.1416029891
 40
0.172419475
 40
0.2039426889
 40
0.2361070295
 40
0.2688430551
 40
0.3020778218
 40
0.3357361801
 40
0.3697392824
 40
0.4040067449
 40
0.4384566793
 40
0.5075639825
 40
0.5764002204
 40
0.6105127489
 40
0.6443106833
 40
0.6777145288
 40
0.7106478615
 40
0.743036126
 40
0.7748090418
 40
0.8059000755
 40
0.8362466883
 40
0.8657930331
 40
0.8944876405
 40
0.9222871998
 40
0.9491557903
 40
0.9750654708
 40
1.0
 40
1.0
 40
1.0
 40
1.0
 10
3.4051841624
 20
5.6173230725
 30
0.0
 10
3.4045072635
 20
5.6177187243
 30
0.0
 10
3.4031082549
 20
5.6184892175
 30
0.0
 10
3.4009218015
 20
5.6195642521
 30
0.0
 10
3.3986166939
 20
5.6205756056
 30
0.0
 10
3.3962008198
 20
5.6215197175
 30
0.0
 10
3.3936819365
 20
5.6223937908
 30
0.0
 10
3.3910679156
 20
5.6231949026
 30
0.0
 10
3.3883671709
 20
5.6239207465
 30
0.0
 10
3.3855883857
 20
5.6245687677
 30
0.0
 10
3.3827405458
 20
5.6251368934
 30
0.0
 10
3.3798328308
 20
5.6256234222
 30
0.0
 10
3.3768745642
 20
5.6260265688
 30
0.0
 10
3.3738753062
 20
5.6263452785
 30
0.0
 10
3.3708446769
 20
5.6265783442
 30
0.0
 10
3.366771168
 20
5.6267741509
 30
0.0
 10
3.3616678181
 20
5.6268013695
 30
0.0
 10
3.3565810287
 20
5.6265400053
 30
0.0
 10
3.3525528644
 20
5.6261569409
 30
0.0
 10
3.3495779633
 20
5.6257855766
 30
0.0
 10
3.3466500508
 20
5.625330312
 30
0.0
 10
3.3437785005
 20
5.6247928586
 30
0.0
 10
3.3409725894
 20
5.624174754
 30
0.0
 10
3.3382413408
 20
5.623478062
 30
0.0
 10
3.3355935174
 20
5.6227051091
 30
0.0
 10
3.3330376897
 20
5.6218581647
 30
0.0
 10
3.3305819977
 20
5.6209402173
 30
0.0
 10
3.3282343866
 20
5.6199539865
 30
0.0
 10
3.3260023718
 20
5.6189027254
 30
0.0
 10
3.3238930424
 20
5.617789842
 30
0.0
 10
3.3219133451
 20
5.6166187153
 30
0.0
 10
3.3206597515
 20
5.6157855852
 30
0.0
 10
3.3200574102
 20
5.6153596478
 30
0.0
  0
SPLINE
  5
2EA
100
AcDbEntity
  8
ALL_ASSEMBLY_MEMBERS
100
AcDbSpline
 62
7
  6
CONTINUOUS
 70
0
 71
3
 72
23
 73
19
 74
0
 42
0.0000001
 43
0.0000001
 44
0.0000000001
 40
0.0
 40
0.0
 40
0.0
 40
0.0
 40
0.0809938866
 40
0.159110653
 40
0.2342975264
 40
0.306536075
 40
0.3758780443
 40
0.4424102263
 40
0.5062518342
 40
0.567561991
 40
0.6265372561
 40
0.6834201695
 40
0.7385071046
 40
0.7921350847
 40
0.8446806208
 40
0.8965539617
 40
0.9481824244
 40
1.0
 40
1.0
 40
1.0
 40
1.0
 10
3.3219799115
 20
5.5829069312
 30
0.0
 10
3.321398378
 20
5.5832060288
 30
0.0
 10
3.3202682583
 20
5.5838179522
 30
0.0
 10
3.3186473606
 20
5.5847946065
 30
0.0
 10
3.3171352062
 20
5.5858106985
 30
0.0
 10
3.3157359376
 20
5.5868634463
 30
0.0
 10
3.3144527003
 20
5.5879497473
 30
0.0
 10
3.3132882361
 20
5.589066799
 30
0.0
 10
3.3122451903
 20
5.5902118706
 30
0.0
 10
3.3113257049
 20
5.5913818431
 30
0.0
 10
3.3105319131
 20
5.5925737461
 30
0.0
 10
3.3098658971
 20
5.5937846356
 30
0.0
 10
3.3093289513
 20
5.5950112114
 30
0.0
 10
3.3089223814
 20
5.5962503163
 30
0.0
 10
3.3086473908
 20
5.5974986538
 30
0.0
 10
3.3085042716
 20
5.5987527424
 30
0.0
 10
3.3084932738
 20
5.6000089473
 30
0.0
 10
3.3085737206
 20
5.6008420689
 30
0.0
 10
3.3086351583
 20
5.6012559069
 30
0.0
  0
SPLINE
  5
2EB
100
AcDbEntity
  8
ALL_ASSEMBLY_MEMBERS
100
AcDbSpline
 62
7
  6
CONTINUOUS
 70
0
 71
3
 72
17
 73
13
 74
0
 42
0.0000001
 43
0.0000001
 44
0.0000000001
 40
0.0
 40
0.0
 40
0.0
 40
0.0
 40
0.053424443
 40
0.1074442751
 40
0.1622321791
 40
0.2179505432
 40
0.332712126
 40
0.4528171014
 40
0.5790862993
 40
0.7121217962
 40
0.8523459653
 40
1.0
 40
1.0
 40
1.0
 40
1.0
 10
3.3086351583
 20
5.6012559069
 30
0.0
 10
3.3086760839
 20
5.6015315774
 30
0.0
 10
3.3087772933
 20
5.6020833617
 30
0.0
 10
3.3089850403
 20
5.60290435
 30
0.0
 10
3.309249181
 20
5.6037215934
 30
0.0
 10
3.3096802589
 20
5.6048154884
 30
0.0
 10
3.3103642286
 20
5.6061724816
 30
0.0
 10
3.311394948
 20
5.6077534243
 30
0.0
 10
3.3126386533
 20
5.6092969413
 30
0.0
 10
3.3140891511
 20
5.6107970972
 30
0.0
 10
3.3157403073
 20
5.6122476468
 30
0.0
 10
3.3169390095
 20
5.6131545932
 30
0.0
 10
3.3175679084
 20
5.6135993013
 30
0.0
  0
SPLINE
  5
2EC
100
AcDbEntity
  8
ALL_ASSEMBLY_MEMBERS
100
AcDbSpline
 62
7
  6
CONTINUOUS
 70
0
 71
3
 72
51
 73
47
 74
0
 42
0.0000001
 43
0.0000001
 44
0.0000000001
 40
0.0
 40
0.0
 40
0.0
 40
0.0
 40
0.0108658178
 40
0.0218674721
 40
0.0330370762
 40
0.0444044686
 40
0.055998177
 40
0.0678452496
 40
0.0923832431
 40
0.1051206729
 40
0.1181852045
 40
0.1453255071
 40
0.159418745
 40
0.1738608954
 40
0.2037816422
 40
0.235056954
 40
0.2676199658
 40
0.3013751405
 40
0.3362058262
 40
0.3719745524
 40
0.4085291565
 40
0.4457035533
 40
0.4833219726
 40
0.5212005359
 40
0.5591503192
 40
0.5969791679
 40
0.6344946274
 40
0.6715053801
 40
0.7078246007
 40
0.7432712127
 40
0.7776732444
 40
0.7944329876
 40
0.8108726663
 40
0.8427175169
 40
0.8580936434
 40
0.8730853796
 40
0.8876794632
 40
0.9018650196
 40
0.9156331324
 40
0.9289761488
 40
0.9418884345
 40
0.9543677979
 40
0.9664143144
 40
0.9780303622
 40
0.9892221127
 40
1.0
 40
1.0
 40
1.0
 40
1.0
 10
3.4127491244
 20
5.5974688384
 30
0.0
 10
3.412685573
 20
5.5970890257
 30
0.0
 10
3.4125301148
 20
5.5963289944
 30
0.0
 10
3.4122157159
 20
5.5952002257
 30
0.0
 10
3.4118195427
 20
5.5940786006
 30
0.0
 10
3.4113422342
 20
5.592966232
 30
0.0
 10
3.4107845761
 20
5.5918649218
 30
0.0
 10
3.4099256464
 20
5.5903964439
 30
0.0
 10
3.4089159651
 20
5.5889730285
 30
0.0
 10
3.4077739547
 20
5.587601676
 30
0.0
 10
3.4065029438
 20
5.5862204988
 30
0.0
 10
3.4050999823
 20
5.5848989198
 30
0.0
 10
3.4035816871
 20
5.5836380866
 30
0.0
 10
3.4019357174
 20
5.582379121
 30
0.0
 10
3.3997137971
 20
5.5808748054
 30
0.0
 10
3.3968386991
 20
5.5792042613
 30
0.0
 10
3.3937428916
 20
5.5776570705
 30
0.0
 10
3.3904474847
 20
5.5762413759
 30
0.0
 10
3.3869744716
 20
5.5749652024
 30
0.0
 10
3.3833473621
 20
5.5738350039
 30
0.0
 10
3.3795905623
 20
5.5728568155
 30
0.0
 10
3.3757294674
 20
5.5720353186
 30
0.0
 10
3.3717901744
 20
5.5713742611
 30
0.0
 10
3.3677993027
 20
5.5708764214
 30
0.0
 10
3.3637838778
 20
5.5705431501
 30
0.0
 10
3.359771044
 20
5.5703751804
 30
0.0
 10
3.3557879735
 20
5.5703715029
 30
0.0
 10
3.3518616111
 20
5.5705306662
 30
0.0
 10
3.3480184921
 20
5.5708494549
 30
0.0
 10
3.3442846685
 20
5.5713241474
 30
0.0
 10
3.3412592872
 20
5.5718497509
 30
0.0
 10
3.3389151141
 20
5.5723457612
 30
0.0
 10
3.3366722445
 20
5.5728790058
 30
0.0
 10
3.3344975648
 20
5.5734848139
 30
0.0
 10
3.3324002778
 20
5.5741659155
 30
0.0
 10
3.3308994884
 20
5.5747022154
 30
0.0
 10
3.3294551327
 20
5.5752688947
 30
0.0
 10
3.3280696251
 20
5.5758647449
 30
0.0
 10
3.3267452652
 20
5.5764884645
 30
0.0
 10
3.3254843081
 20
5.5771388049
 30
0.0
 10
3.3242889446
 20
5.5778145475
 30
0.0
 10
3.3231611281
 20
5.5785142379
 30
0.0
 10
3.3221027306
 20
5.5792364532
 30
0.0
 10
3.3211155928
 20
5.5799798558
 30
0.0
 10
3.3202014519
 20
5.5807429797
 30
0.0
 10
3.3196310605
 20
5.5812736922
 30
0.0
 10
3.3193592015
 20
5.581542018
 30
0.0
  0
SPLINE
  5
2ED
100
AcDbEntity
  8
ALL_ASSEMBLY_MEMBERS
100
AcDbSpline
 62
7
  6
CONTINUOUS
 70
0
 71
3
 72
11
 73
7
 74
0
 42
0.0000001
 43
0.0000001
 44
0.0000000001
 40
0.0
 40
0.0
 40
0.0
 40
0.0
 40
0.2662876188
 40
0.5207528537
 40
0.764767231
 40
1.0
 40
1.0
 40
1.0
 40
1.0
 10
3.3184486066
 20
5.5825074867
 30
0.0
 10
3.3181564216
 20
5.5828414918
 30
0.0
 10
3.3176103322
 20
5.5835175012
 30
0.0
 10
3.3168985427
 20
5.5845768143
 30
0.0
 10
3.3163158288
 20
5.5856539604
 30
0.0
 10
3.3160100011
 20
5.5863937272
 30
0.0
 10
3.3158807792
 20
5.5867638335
 30
0.0
  0
SPLINE
  5
2EE
100
AcDbEntity
  8
ALL_ASSEMBLY_MEMBERS
100
AcDbSpline
 62
7
  6
CONTINUOUS
 70
0
 71
3
 72
23
 73
19
 74
0
 42
0.0000001
 43
0.0000001
 44
0.0000000001
 40
0.0
 40
0.0
 40
0.0
 40
0.0
 40
0.0593208019
 40
0.1171934142
 40
0.1740303072
 40
0.2302831793
 40
0.2864089021
 40
0.3428604106
 40
0.4000714632
 40
0.4584429146
 40
0.5183329345
 40
0.5800520518
 40
0.6438607456
 40
0.7099663025
 40
0.7785312943
 40
0.8496839124
 40
0.9235031183
 40
1.0
 40
1.0
 40
1.0
 40
1.0
 10
3.4127491244
 20
5.5974688384
 30
0.0
 10
3.4129403641
 20
5.5978845468
 30
0.0
 10
3.4132806286
 20
5.5987238204
 30
0.0
 10
3.4136613492
 20
5.6000133719
 30
0.0
 10
3.4139047443
 20
5.601311884
 30
0.0
 10
3.4140108667
 20
5.602615234
 30
0.0
 10
3.4139802922
 20
5.6039195584
 30
0.0
 10
3.4138140819
 20
5.6052209858
 30
0.0
 10
3.4135137473
 20
5.6065158109
 30
0.0
 10
3.4130811769
 20
5.6078005073
 30
0.0
 10
3.4125186119
 20
5.6090717574
 30
0.0
 10
3.4118285359
 20
5.6103264301
 30
0.0
 10
3.4110136346
 20
5.6115615095
 30
0.0
 10
3.4100769126
 20
5.6127741905
 30
0.0
 10
3.4090213983
 20
5.6139617373
 30
0.0
 10
3.4078503596
 20
5.6151215899
 30
0.0
 10
3.4065674423
 20
5.616251009
 30
0.0
 10
3.4056564289
 20
5.6169692952
 30
0.0
 10
3.4051841624
 20
5.6173230725
 30
0.0
  0
SPLINE
  5
2EF
100
AcDbEntity
  8
ALL_ASSEMBLY_MEMBERS
100
AcDbSpline
 62
7
  6
CONTINUOUS
 70
0
 71
3
 72
35
 73
31
 74
0
 42
0.0000001
 43
0.0000001
 44
0.0000000001
 40
0.0
 40
0.0
 40
0.0
 40
0.0
 40
0.0779669845
 40
0.1559191713
 40
0.2332778664
 40
0.309502663
 40
0.3470241784
 40
0.3840642494
 40
0.4205612654
 40
0.4564565217
 40
0.4916932705
 40
0.5262188296
 40
0.5599836943
 40
0.5929422442
 40
0.6250543433
 40
0.6562838793
 40
0.6866021232
 40
0.7159862395
 40
0.7444210016
 40
0.7718990011
 40
0.7984217091
 40
0.8240002917
 40
0.8486569306
 40
0.8724257245
 40
0.8953533427
 40
0.9174997642
 40
0.9389404774
 40
0.959767494
 40
0.9800840335
 40
1.0
 40
1.0
 40
1.0
 40
1.0
 10
3.3595674267
 20
5.5754710671
 30
0.0
 10
3.3611608856
 20
5.5753959544
 30
0.0
 10
3.364351753
 20
5.5753245143
 30
0.0
 10
3.3691248442
 20
5.5754511614
 30
0.0
 10
3.3738504288
 20
5.5758103257
 30
0.0
 10
3.377731247
 20
5.5763028958
 30
0.0
 10
3.3807744063
 20
5.5768119439
 30
0.0
 10
3.383004977
 20
5.5772469092
 30
0.0
 10
3.3851902083
 20
5.5777360615
 30
0.0
 10
3.3873248945
 20
5.5782781119
 30
0.0
 10
3.3894038775
 20
5.5788718774
 30
0.0
 10
3.3914221726
 20
5.5795158572
 30
0.0
 10
3.3933749269
 20
5.5802084969
 30
0.0
 10
3.3952574098
 20
5.5809482117
 30
0.0
 10
3.3970651342
 20
5.5817330882
 30
0.0
 10
3.3987937132
 20
5.582561369
 30
0.0
 10
3.4004390453
 20
5.5834309781
 30
0.0
 10
3.4019971917
 20
5.5843398992
 30
0.0
 10
3.4034644539
 20
5.5852859559
 30
0.0
 10
3.4048373377
 20
5.5862669281
 30
0.0
 10
3.4061125721
 20
5.58728051
 30
0.0
 10
3.4072871118
 20
5.5883243333
 30
0.0
 10
3.4083581382
 20
5.5893959733
 30
0.0
 10
3.409323047
 20
5.5904929572
 30
0.0
 10
3.410179461
 20
5.5916127275
 30
0.0
 10
3.4109252654
 20
5.5927526584
 30
0.0
 10
3.4115584963
 20
5.5939101446
 30
0.0
 10
3.4120775178
 20
5.5950824991
 30
0.0
 10
3.4124807159
 20
5.5962666528
 30
0.0
 10
3.41267323
 20
5.5970684817
 30
0.0
 10
3.4127491244
 20
5.5974688384
 30
0.0
  0
SPLINE
  5
2F0
100
AcDbEntity
  8
ALL_ASSEMBLY_MEMBERS
100
AcDbSpline
 62
7
  6
CONTINUOUS
 70
0
 71
3
 72
20
 73
16
 74
0
 42
0.0000001
 43
0.0000001
 44
0.0000000001
 40
0.0
 40
0.0
 40
0.0
 40
0.0
 40
0.1448195684
 40
0.2832698627
 40
0.3501446888
 40
0.415475697
 40
0.5416390403
 40
0.6026416819
 40
0.6623535821
 40
0.7208752891
 40
0.7783186886
 40
0.8348075629
 40
0.8904833966
 40
0.9454965617
 40
1.0
 40
1.0
 40
1.0
 40
1.0
 10
3.4089063092
 20
5.6148895031
 30
0.0
 10
3.4100444653
 20
5.6140846761
 30
0.0
 10
3.4122154484
 20
5.6124301118
 30
0.0
 10
3.4147279489
 20
5.6101774178
 30
0.0
 10
3.4165487696
 20
5.6083129485
 30
0.0
 10
3.4182036149
 20
5.6064556885
 30
0.0
 10
3.4196904404
 20
5.6045269409
 30
0.0
 10
3.4209881289
 20
5.6025351049
 30
0.0
 10
3.4218500646
 20
5.6010395275
 30
0.0
 10
3.4226104733
 20
5.5995281189
 30
0.0
 10
3.4232685934
 20
5.5980031098
 30
0.0
 10
3.4238236269
 20
5.596466691
 30
0.0
 10
3.4242752684
 20
5.594921064
 30
0.0
 10
3.4246232353
 20
5.593368465
 30
0.0
 10
3.4247865934
 20
5.5923261433
 30
0.0
 10
3.4248507368
 20
5.5918054539
 30
0.0
  0
SPLINE
  5
2F1
100
AcDbEntity
  8
ALL_ASSEMBLY_MEMBERS
100
AcDbSpline
 62
7
  6
CONTINUOUS
 70
0
 71
3
 72
35
 73
31
 74
0
 42
0.0000001
 43
0.0000001
 44
0.0000000001
 40
0.0
 40
0.0
 40
0.0
 40
0.0
 40
0.0734843846
 40
0.1086351137
 40
0.1427423281
 40
0.1758335688
 40
0.2079481596
 40
0.2694222937
 40
0.3277045969
 40
0.355878306
 40
0.3835290166
 40
0.41076973
 40
0.4377205879
 40
0.4645073133
 40
0.491259527
 40
0.5181072237
 40
0.5451783676
 40
0.5725969515
 40
0.6004795248
 40
0.628934007
 40
0.6580593899
 40
0.6879429303
 40
0.7186591197
 40
0.7828121213
 40
0.8163738988
 40
0.850968504
 40
0.8866241333
 40
0.9233522711
 40
0.9611479369
 40
1.0
 40
1.0
 40
1.0
 40
1.0
 10
3.3200574102
 20
5.6153596478
 30
0.0
 10
3.3192435866
 20
5.6147841636
 30
0.0
 10
3.3180726986
 20
5.6138856135
 30
0.0
 10
3.3166209003
 20
5.6126037893
 30
0.0
 10
3.3156251448
 20
5.6116356109
 30
0.0
 10
3.3147081698
 20
5.6106479046
 30
0.0
 10
3.3136086269
 20
5.6093266091
 30
0.0
 10
3.3124270904
 20
5.60763277
 30
0.0
 10
3.3114977316
 20
5.6058468004
 30
0.0
 10
3.3109349909
 20
5.6044036846
 30
0.0
 10
3.3106043791
 20
5.6033254362
 30
0.0
 10
3.3103610506
 20
5.6022411868
 30
0.0
 10
3.3102053935
 20
5.601152712
 30
0.0
 10
3.3101378808
 20
5.6000618542
 30
0.0
 10
3.3101586345
 20
5.598970504
 30
0.0
 10
3.3102674557
 20
5.5978805329
 30
0.0
 10
3.3104641877
 20
5.5967937924
 30
0.0
 10
3.3107486118
 20
5.595712166
 30
0.0
 10
3.3111200206
 20
5.5946374317
 30
0.0
 10
3.3115777074
 20
5.5935713294
 30
0.0
 10
3.3121209911
 20
5.5925156631
 30
0.0
 10
3.3127489158
 20
5.5914721097
 30
0.0
 10
3.3137111085
 20
5.5900790763
 30
0.0
 10
3.3148291985
 20
5.58873748
 30
0.0
 10
3.3160822785
 20
5.5874520921
 30
0.0
 10
3.3171144405
 20
5.5864933863
 30
0.0
 10
3.3182230392
 20
5.5855563957
 30
0.0
 10
3.3194061728
 20
5.5846425994
 30
0.0
 10
3.320661478
 20
5.583753588
 30
0.0
 10
3.3215330463
 20
5.5831862664
 30
0.0
 10
3.3219799115
 20
5.5829069312
 30
0.0
  0
LINE
  5
2F2
100
AcDbEntity
  8
0
100
AcDbLine
 62
7
  6
CONTINUOUS
 10
4.7785928911
 20
3.66249499
 11
4.7806549516
 21
3.6624257801
  0
SPLINE
  5
2F3
100
AcDbEntity
  8
ALL_ASSEMBLY_MEMBERS
100
AcDbSpline
 62
7
  6
CONTINUOUS
 70
0
 71
3
 72
12
 73
8
 74
0
 42
0.0000001
 43
0.0000001
 44
0.0000000001
 40
0.0
 40
0.0
 40
0.0
 40
0.0
 40
0.2568701286
 40
0.5113676093
 40
0.6366582066
 40
0.760121636
 40
1.0
 40
1.0
 40
1.0
 40
1.0
 10
3.3641494439
 20
5.5691387022
 30
0.0
 10
3.3679094015
 20
5.5691387022
 30
0.0
 10
3.375399819
 20
5.5695328477
 30
0.0
 10
3.3846232061
 20
5.5709836136
 30
0.0
 10
3.3917884947
 20
5.5727075879
 30
0.0
 10
3.3986458823
 20
5.5747481034
 30
0.0
 10
3.4036189279
 20
5.5766736683
 30
0.0
 10
3.4068137846
 20
5.5781302711
 30
0.0
  0
SPLINE
  5
2F4
100
AcDbEntity
  8
ALL_ASSEMBLY_MEMBERS
100
AcDbSpline
 62
7
  6
CONTINUOUS
 70
0
 71
3
 72
9
 73
5
 74
0
 42
0.0000001
 43
0.0000001
 44
0.0000000001
 40
0.0
 40
0.0
 40
0.0
 40
0.0
 40
0.5086687583
 40
1.0
 40
1.0
 40
1.0
 40
1.0
 10
3.4068137846
 20
5.5781302711
 30
0.0
 10
3.4084809439
 20
5.5788903642
 30
0.0
 10
3.4117137322
 20
5.5804850693
 30
0.0
 10
3.4148361179
 20
5.5822873788
 30
0.0
 10
3.4163362124
 20
5.5832264884
 30
0.0
  0
SPLINE
  5
2F5
100
AcDbEntity
  8
ALL_ASSEMBLY_MEMBERS
100
AcDbSpline
 62
7
  6
CONTINUOUS
 70
0
 71
3
 72
9
 73
5
 74
0
 42
0.0000001
 43
0.0000001
 44
0.0000000001
 40
0.0
 40
0.0
 40
0.0
 40
0.0
 40
0.2414566059
 40
1.0
 40
1.0
 40
1.0
 40
1.0
 10
3.4218398412
 20
5.5878533489
 30
0.0
 10
3.4215169762
 20
5.5875162647
 30
0.0
 10
3.4201514473
 20
5.5861474962
 30
0.0
 10
3.4186798644
 20
5.5848860388
 30
0.0
 10
3.4175220944
 20
5.5839861773
 30
0.0
  0
LINE
  5
2F6
100
AcDbEntity
  8
ALL_ASSEMBLY_MEMBERS
100
AcDbLine
 62
7
  6
CONTINUOUS
 10
3.3131820267
 20
5.5824915627
 11
3.3115452685
 21
5.584096969
  0
LINE
  5
2F7
100
AcDbEntity
  8
ALL_ASSEMBLY_MEMBERS
100
AcDbLine
 62
7
  6
CONTINUOUS
 10
3.3115452685
 20
5.584096969
 11
3.3097018694
 21
5.5863472684
  0
SPLINE
  5
2F8
100
AcDbEntity
  8
ALL_ASSEMBLY_MEMBERS
100
AcDbSpline
 62
7
  6
CONTINUOUS
 70
0
 71
3
 72
9
 73
5
 74
0
 42
0.0000001
 43
0.0000001
 44
0.0000000001
 40
0.0
 40
0.0
 40
0.0
 40
0.0
 40
0.5147358399
 40
1.0
 40
1.0
 40
1.0
 40
1.0
 10
3.3097018694
 20
5.5863472684
 30
0.0
 10
3.3091861027
 20
5.587073942
 30
0.0
 10
3.3082783312
 20
5.5885565132
 30
0.0
 10
3.3076222006
 20
5.5901691738
 30
0.0
 10
3.3073781577
 20
5.5909730306
 30
0.0
  0
SPLINE
  5
2F9
100
AcDbEntity
  8
ALL_ASSEMBLY_MEMBERS
100
AcDbSpline
 62
7
  6
CONTINUOUS
 70
0
 71
3
 72
11
 73
7
 74
0
 42
0.0000001
 43
0.0000001
 44
0.0000000001
 40
0.0
 40
0.0
 40
0.0
 40
0.0
 40
0.2474887268
 40
0.4912852719
 40
0.739577672
 40
1.0
 40
1.0
 40
1.0
 40
1.0
 10
3.3073781577
 20
5.5909730306
 30
0.0
 10
3.3071232084
 20
5.5918128126
 30
0.0
 10
3.3067763564
 20
5.5935344826
 30
0.0
 10
3.3068080911
 20
5.5961762515
 30
0.0
 10
3.3074043308
 20
5.5987961495
 30
0.0
 10
3.3081454986
 20
5.6004540437
 30
0.0
 10
3.3085923058
 20
5.6012622539
 30
0.0
  0
SPLINE
  5
2FA
100
AcDbEntity
  8
ALL_ASSEMBLY_MEMBERS
100
AcDbSpline
 62
7
  6
CONTINUOUS
 70
0
 71
3
 72
9
 73
5
 74
0
 42
0.0000001
 43
0.0000001
 44
0.0000000001
 40
0.0
 40
0.0
 40
0.0
 40
0.0
 40
0.2431170857
 40
1.0
 40
1.0
 40
1.0
 40
1.0
 10
3.3085674927
 20
5.585489468
 30
0.0
 10
3.3091823195
 20
5.5850528836
 30
0.0
 10
3.3117416717
 20
5.5833001338
 30
0.0
 10
3.3144153014
 20
5.5817159082
 30
0.0
 10
3.3164839277
 20
5.5806059549
 30
0.0
  0
SPLINE
  5
2FB
100
AcDbEntity
  8
ALL_ASSEMBLY_MEMBERS
100
AcDbSpline
 62
7
  6
CONTINUOUS
 70
0
 71
3
 72
15
 73
11
 74
0
 42
0.0000001
 43
0.0000001
 44
0.0000000001
 40
0.0
 40
0.0
 40
0.0
 40
0.0
 40
0.1165485989
 40
0.2366142112
 40
0.3595595973
 40
0.4848868992
 40
0.6121274442
 40
0.7407929847
 40
0.8702903632
 40
1.0
 40
1.0
 40
1.0
 40
1.0
 10
3.3164839277
 20
5.5806059549
 30
0.0
 10
3.3181785722
 20
5.5796966673
 30
0.0
 10
3.3216843444
 20
5.5779701826
 30
0.0
 10
3.3271692351
 20
5.575697971
 30
0.0
 10
3.3329231934
 20
5.57372771
 30
0.0
 10
3.3389006077
 20
5.5720807952
 30
0.0
 10
3.3450588047
 20
5.5707775191
 30
0.0
 10
3.3513524278
 20
5.5698376072
 30
0.0
 10
3.3577308258
 20
5.5692674189
 30
0.0
 10
3.3620090915
 20
5.5691387022
 30
0.0
 10
3.3641494439
 20
5.5691387022
 30
0.0
  0
SPLINE
  5
2FC
100
AcDbEntity
  8
ALL_ASSEMBLY_MEMBERS
100
AcDbSpline
 62
7
  6
CONTINUOUS
 70
0
 71
3
 72
9
 73
5
 74
0
 42
0.0000001
 43
0.0000001
 44
0.0000000001
 40
0.0
 40
0.0
 40
0.0
 40
0.0
 40
0.4945995525
 40
1.0
 40
1.0
 40
1.0
 40
1.0
 10
3.427831928
 20
5.6013374025
 30
0.0
 10
3.4278319009
 20
5.6004310806
 30
0.0
 10
3.4276741085
 20
5.5985953861
 30
0.0
 10
3.4272111989
 20
5.596812969
 30
0.0
 10
3.4269094638
 20
5.5959373876
 30
0.0
  0
SPLINE
  5
2FD
100
AcDbEntity
  8
ALL_ASSEMBLY_MEMBERS
100
AcDbSpline
 62
7
  6
CONTINUOUS
 70
0
 71
3
 72
9
 73
5
 74
0
 42
0.0000001
 43
0.0000001
 44
0.0000000001
 40
0.0
 40
0.0
 40
0.0
 40
0.0
 40
0.4864677193
 40
1.0
 40
1.0
 40
1.0
 40
1.0
 10
3.4269094638
 20
5.5959373876
 30
0.0
 10
3.4265826946
 20
5.5949891614
 30
0.0
 10
3.4257457951
 20
5.593094345
 30
0.0
 10
3.4246405916
 20
5.5913454166
 30
0.0
 10
3.4240195655
 20
5.5904879328
 30
0.0
  0
LINE
  5
2FE
100
AcDbEntity
  8
ALL_ASSEMBLY_MEMBERS
100
AcDbLine
 62
7
  6
CONTINUOUS
 10
3.4240195655
 20
5.5904879328
 11
3.4218398412
 21
5.5878533489
  0
SPLINE
  5
2FF
100
AcDbEntity
  8
ALL_ASSEMBLY_MEMBERS
100
AcDbSpline
 62
9
  6
CONTINUOUS
 70
0
 71
3
 72
15
 73
11
 74
0
 42
0.0000001
 43
0.0000001
 44
0.0000000001
 40
0.0
 40
0.0
 40
0.0
 40
0.0
 40
0.2176337633
 40
0.3327039491
 40
0.4524945977
 40
0.5778099643
 40
0.7097550366
 40
0.7786770659
 40
0.8499298859
 40
1.0
 40
1.0
 40
1.0
 40
1.0
 10
2.9161573167
 20
5.1593102072
 30
0.0
 10
2.9180149823
 20
5.1567237054
 30
0.0
 10
2.9207587679
 20
5.1526993808
 30
0.0
 10
2.9242894177
 20
5.1470977569
 30
0.0
 10
2.9269891318
 20
5.1425708009
 30
0.0
 10
2.9296815772
 20
5.1377543578
 30
0.0
 10
2.9318705123
 20
5.1335117765
 30
0.0
 10
2.9335869842
 20
5.1299185824
 30
0.0
 10
2.9353227582
 20
5.126042417
 30
0.0
 10
2.9365216483
 20
5.123030461
 30
0.0
 10
2.9372517097
 20
5.1209595067
 30
0.0
  0
LINE
  5
300
100
AcDbEntity
  8
ALL_ASSEMBLY_MEMBERS
100
AcDbLine
 62
9
  6
CONTINUOUS
 10
3.1702733549
 20
5.1048677324
 11
3.1709986487
 21
4.4047183304
  0
SPLINE
  5
301
100
AcDbEntity
  8
ALL_ASSEMBLY_MEMBERS
100
AcDbSpline
 62
9
  6
CONTINUOUS
 70
0
 71
3
 72
23
 73
19
 74
0
 42
0.0000001
 43
0.0000001
 44
0.0000000001
 40
0.0
 40
0.0
 40
0.0
 40
0.0
 40
0.0051843942
 40
0.0124489771
 40
0.0218040571
 40
0.0332404194
 40
0.0467414901
 40
0.062287328
 40
0.0994077642
 40
0.1442738848
 40
0.1964921178
 40
0.2556578562
 40
0.3212548657
 40
0.3926812436
 40
0.4693313662
 40
0.6356941531
 40
0.8148134832
 40
1.0
 40
1.0
 40
1.0
 40
1.0
 10
3.2001707734
 20
5.1039179369
 30
0.0
 10
3.2001231134
 20
5.1039380608
 30
0.0
 10
3.2000036995
 20
5.1039739999
 30
0.0
 10
3.199791182
 20
5.1040205075
 30
0.0
 10
3.1995149879
 20
5.1040670926
 30
0.0
 10
3.1991759522
 20
5.1041136195
 30
0.0
 10
3.1987745836
 20
5.1041597333
 30
0.0
 10
3.1981174545
 20
5.1042243022
 30
0.0
 10
3.1971470797
 20
5.1043002974
 30
0.0
 10
3.1958104364
 20
5.1043836594
 30
0.0
 10
3.1942532069
 20
5.1044625928
 30
0.0
 10
3.1924886568
 20
5.1045362473
 30
0.0
 10
3.1905320683
 20
5.1046039299
 30
0.0
 10
3.1884007153
 20
5.1046650775
 30
0.0
 10
3.1852638274
 20
5.1047389896
 30
0.0
 10
3.1810519606
 20
5.1048093398
 30
0.0
 10
3.1757566828
 20
5.1048587632
 30
0.0
 10
3.1721213061
 20
5.104868674
 30
0.0
 10
3.1702733549
 20
5.1048677322
 30
0.0
  0
LINE
  5
302
100
AcDbEntity
  8
ALL_ASSEMBLY_MEMBERS
100
AcDbLine
 62
9
  6
CONTINUOUS
 10
3.2001707734
 20
5.1039179369
 11
3.2008210293
 21
4.4038171995
  0
SPLINE
  5
303
100
AcDbEntity
  8
ALL_ASSEMBLY_MEMBERS
100
AcDbSpline
 62
9
  6
CONTINUOUS
 70
0
 71
3
 72
9
 73
5
 74
0
 42
0.0000001
 43
0.0000001
 44
0.0000000001
 40
0.0
 40
0.0
 40
0.0
 40
0.0
 40
0.500179338
 40
1.0
 40
1.0
 40
1.0
 40
1.0
 10
3.2028387692
 20
5.1208087758
 30
0.0
 10
3.2018672878
 20
5.1181153115
 30
0.0
 10
3.2004606986
 20
5.1125254356
 30
0.0
 10
3.2000956966
 20
5.1067782017
 30
0.0
 10
3.2001708607
 20
5.1039179355
 30
0.0
  0
SPLINE
  5
304
100
AcDbEntity
  8
ALL_ASSEMBLY_MEMBERS
100
AcDbSpline
 62
9
  6
CONTINUOUS
 70
0
 71
3
 72
9
 73
5
 74
0
 42
0.0000001
 43
0.0000001
 44
0.0000000001
 40
0.0
 40
0.0
 40
0.0
 40
0.0
 40
0.4999977992
 40
1.0
 40
1.0
 40
1.0
 40
1.0
 10
3.1765307871
 20
5.1336968236
 30
0.0
 10
3.1744611411
 20
5.1292052564
 30
0.0
 10
3.1713157623
 20
5.119733112
 30
0.0
 10
3.1702705126
 20
5.1098132387
 30
0.0
 10
3.1702733549
 20
5.1048677324
 30
0.0
  0
SPLINE
  5
305
100
AcDbEntity
  8
ALL_ASSEMBLY_MEMBERS
100
AcDbSpline
 62
9
  6
CONTINUOUS
 70
0
 71
3
 72
15
 73
11
 74
0
 42
0.0000001
 43
0.0000001
 44
0.0000000001
 40
0.0
 40
0.0
 40
0.0
 40
0.0
 40
0.0263050176
 40
0.0590304034
 40
0.1427137108
 40
0.2488022931
 40
0.3743611717
 40
0.5161698425
 40
0.670557346
 40
1.0
 40
1.0
 40
1.0
 40
1.0
 10
3.2028387692
 20
5.1208087758
 30
0.0
 10
3.2026187854
 20
5.1209415189
 30
0.0
 10
3.202119709
 20
5.121230403
 30
0.0
 10
3.2008999053
 20
5.1219051243
 30
0.0
 10
3.1989763167
 20
5.1229168277
 30
0.0
 10
3.196229653
 20
5.1243104517
 30
0.0
 10
3.1929597775
 20
5.125927233
 30
0.0
 10
3.1892528455
 20
5.127724095
 30
0.0
 10
3.1837368194
 20
5.1303539864
 30
0.0
 10
3.1794537667
 20
5.1323513202
 30
0.0
 10
3.1765307871
 20
5.1336968212
 30
0.0
  0
SPLINE
  5
306
100
AcDbEntity
  8
ALL_ASSEMBLY_MEMBERS
100
AcDbSpline
 62
9
  6
CONTINUOUS
 70
0
 71
3
 72
15
 73
11
 74
0
 42
0.0000001
 43
0.0000001
 44
0.0000000001
 40
0.0
 40
0.0
 40
0.0
 40
0.0
 40
0.2182502714
 40
0.3334362689
 40
0.4532300316
 40
0.5784455669
 40
0.7102062623
 40
0.7790141805
 40
0.8501478583
 40
1.0
 40
1.0
 40
1.0
 40
1.0
 10
3.2245759326
 20
5.1593102148
 30
0.0
 10
3.222662866
 20
5.1567123111
 30
0.0
 10
3.2198340485
 20
5.1526728448
 30
0.0
 10
3.2161922795
 20
5.1470486138
 30
0.0
 10
3.2134101117
 20
5.1425079284
 30
0.0
 10
3.210635937
 20
5.1376774282
 30
0.0
 10
3.2083806943
 20
5.1334207972
 30
0.0
 10
3.2066124248
 20
5.1298140895
 30
0.0
 10
3.2048244812
 20
5.1259210245
 30
0.0
 10
3.2035901444
 20
5.1228926224
 30
0.0
 10
3.2028390085
 20
5.1208086682
 30
0.0
  0
SPLINE
  5
307
100
AcDbEntity
  8
ALL_ASSEMBLY_MEMBERS
100
AcDbSpline
 62
9
  6
CONTINUOUS
 70
0
 71
3
 72
15
 73
11
 74
0
 42
0.0000001
 43
0.0000001
 44
0.0000000001
 40
0.0
 40
0.0
 40
0.0
 40
0.0
 40
0.1206595232
 40
0.242639125
 40
0.3658686655
 40
0.4903254553
 40
0.6160173515
 40
0.7429341495
 40
0.8710524734
 40
1.0
 40
1.0
 40
1.0
 40
1.0
 10
3.2245743985
 20
5.1593094931
 30
0.0
 10
3.2224483611
 20
5.1586959757
 30
0.0
 10
3.2181979859
 20
5.1573738746
 30
0.0
 10
3.2118762112
 20
5.1551200421
 30
0.0
 10
3.2055911087
 20
5.1525730061
 30
0.0
 10
3.1993704391
 20
5.149704186
 30
0.0
 10
3.193253359
 20
5.1464712568
 30
0.0
 10
3.187299068
 20
5.1428121768
 30
0.0
 10
3.1816159124
 20
5.1386401796
 30
0.0
 10
3.1781329437
 20
5.1354361624
 30
0.0
 10
3.1765307871
 20
5.1336968236
 30
0.0
  0
SPLINE
  5
308
100
AcDbEntity
  8
ALL_ASSEMBLY_MEMBERS
100
AcDbSpline
 62
9
  6
CONTINUOUS
 70
0
 71
3
 72
19
 73
15
 74
0
 42
0.0000001
 43
0.0000001
 44
0.0000000001
 40
0.0
 40
0.0
 40
0.0
 40
0.0
 40
0.1251812745
 40
0.1879666578
 40
0.2506893207
 40
0.313342749
 40
0.37594796
 40
0.5009341717
 40
0.6257779589
 40
0.6882105511
 40
0.7506318507
 40
0.8130716153
 40
0.8755341623
 40
1.0
 40
1.0
 40
1.0
 40
1.0
 10
3.200821491
 20
4.4038172005
 30
0.0
 10
3.2008314554
 20
4.4018523732
 30
0.0
 10
3.2005528395
 20
4.3988903645
 30
0.0
 10
3.1996203989
 20
4.3950633063
 30
0.0
 10
3.1986403484
 20
4.3922717625
 30
0.0
 10
3.1973920367
 20
4.3895929794
 30
0.0
 10
3.1953908011
 20
4.3862069286
 30
0.0
 10
3.1922789019
 20
4.3823733263
 30
0.0
 10
3.1884818931
 20
4.3792208275
 30
0.0
 10
3.1851239328
 20
4.3771892226
 30
0.0
 10
3.1824670301
 20
4.3759197192
 30
0.0
 10
3.1796965551
 20
4.3749194784
 30
0.0
 10
3.1758970085
 20
4.3739619873
 30
0.0
 10
3.1729525949
 20
4.3736663462
 30
0.0
 10
3.1709989719
 20
4.3736663462
 30
0.0
  0
SPLINE
  5
309
100
AcDbEntity
  8
ALL_ASSEMBLY_MEMBERS
100
AcDbSpline
 62
7
  6
CONTINUOUS
 70
0
 71
3
 72
35
 73
31
 74
0
 42
0.0000001
 43
0.0000001
 44
0.0000000001
 40
0.0
 40
0.0
 40
0.0
 40
0.0
 40
0.0851070844
 40
0.1692092179
 40
0.2509799019
 40
0.3293307465
 40
0.3669275525
 40
0.4033087259
 40
0.4383525751
 40
0.471951955
 40
0.5040177186
 40
0.5344683781
 40
0.5632442828
 40
0.5903322748
 40
0.6157790302
 40
0.6396912667
 40
0.6622644468
 40
0.6838114694
 40
0.704753185
 40
0.7255696846
 40
0.7467748168
 40
0.768851045
 40
0.7921580495
 40
0.8169504539
 40
0.8433893787
 40
0.871525799
 40
0.9013354881
 40
0.9327476455
 40
0.9656718319
 40
1.0
 40
1.0
 40
1.0
 40
1.0
 10
3.3641494439
 20
5.6318446288
 30
0.0
 10
3.3610573002
 20
5.6318446288
 30
0.0
 10
3.354909092
 20
5.631753773
 30
0.0
 10
3.3457985127
 20
5.6313331363
 30
0.0
 10
3.3369522992
 20
5.6306163189
 30
0.0
 10
3.3298200466
 20
5.6297336415
 30
0.0
 10
3.3243587153
 20
5.6288326405
 30
0.0
 10
3.3204712653
 20
5.6280690372
 30
0.0
 10
3.3167543111
 20
5.627202215
 30
0.0
 10
3.3132266626
 20
5.6262262019
 30
0.0
 10
3.3099077448
 20
5.6251351326
 30
0.0
 10
3.3068177695
 20
5.6239238658
 30
0.0
 10
3.3039777994
 20
5.6225874026
 30
0.0
 10
3.3014092679
 20
5.621120507
 30
0.0
 10
3.2991348189
 20
5.6195177894
 30
0.0
 10
3.2971751499
 20
5.6177790786
 30
0.0
 10
3.295551654
 20
5.6159041498
 30
0.0
 10
3.2942906725
 20
5.613892316
 30
0.0
 10
3.2934127503
 20
5.6117537563
 30
0.0
 10
3.2929289992
 20
5.609505351
 30
0.0
 10
3.292851818
 20
5.6071657938
 30
0.0
 10
3.2931819361
 20
5.6047587045
 30
0.0
 10
3.2939034248
 20
5.6023045962
 30
0.0
 10
3.2950050797
 20
5.5998230878
 30
0.0
 10
3.2964740079
 20
5.5973352824
 30
0.0
 10
3.2982883223
 20
5.594858508
 30
0.0
 10
3.3004273695
 20
5.5924114916
 30
0.0
 10
3.3028710377
 20
5.590013744
 30
0.0
 10
3.3055973961
 20
5.587682534
 30
0.0
 10
3.307550572
 20
5.5862115766
 30
0.0
 10
3.3085674927
 20
5.585489468
 30
0.0
  0
LINE
  5
30A
100
AcDbEntity
  8
ALL_ASSEMBLY_MEMBERS
100
AcDbLine
 62
9
  6
CONTINUOUS
 10
3.205766955
 20
5.0748126886
 11
3.2001705569
 21
5.1039179112
  0
SPLINE
  5
30B
100
AcDbEntity
  8
ALL_ASSEMBLY_MEMBERS
100
AcDbSpline
 62
9
  6
CONTINUOUS
 70
0
 71
3
 72
17
 73
13
 74
0
 42
0.0000001
 43
0.0000001
 44
0.0000000001
 40
0.0
 40
0.0
 40
0.0
 40
0.0
 40
0.1251969768
 40
0.2506384782
 40
0.3757800154
 40
0.4383752344
 40
0.5009595349
 40
0.6258407439
 40
0.7505608769
 40
0.8130494576
 40
0.8755925777
 40
1.0
 40
1.0
 40
1.0
 40
1.0
 10
2.9207669093
 20
4.4045993665
 30
0.0
 10
2.9206991033
 20
4.4026034759
 30
0.0
 10
2.9209794359
 20
4.398582776
 30
0.0
 10
2.9225761026
 20
4.3927676034
 30
0.0
 10
2.9248404858
 20
4.3882736547
 30
0.0
 10
2.9271545939
 20
4.3850126068
 30
0.0
 10
2.929780197
 20
4.3820022098
 30
0.0
 10
2.9336007733
 20
4.3787534199
 30
0.0
 10
2.9379936881
 20
4.3763362461
 30
0.0
 10
2.9417391404
 20
4.3749605498
 30
0.0
 10
2.9455982979
 20
4.3739728189
 30
0.0
 10
2.9485909847
 20
4.3736663462
 30
0.0
 10
2.9505754325
 20
4.3736663462
 30
0.0
  0
SPLINE
  5
30C
100
AcDbEntity
  8
ALL_ASSEMBLY_MEMBERS
100
AcDbSpline
 62
9
  6
CONTINUOUS
 70
0
 71
3
 72
20
 73
16
 74
0
 42
0.0000001
 43
0.0000001
 44
0.0000000001
 40
0.0
 40
0.0
 40
0.0
 40
0.0
 40
0.0062218054
 40
0.0144726458
 40
0.0370287881
 40
0.0675363758
 40
0.1057957039
 40
0.15147859
 40
0.2041994597
 40
0.2635628683
 40
0.3290697244
 40
0.4761951934
 40
0.6407565884
 40
0.8174795241
 40
1.0
 40
1.0
 40
1.0
 40
1.0
 10
2.9207669093
 20
4.4045993665
 30
0.0
 10
2.9208263063
 20
4.4046166591
 30
0.0
 10
2.9209670421
 20
4.4046477757
 30
0.0
 10
2.9213305758
 20
4.4047063166
 30
0.0
 10
2.9219374609
 20
4.4047684198
 30
0.0
 10
2.9228432826
 20
4.4048314068
 30
0.0
 10
2.9239800817
 20
4.4048851904
 30
0.0
 10
2.925338203
 20
4.4049297002
 30
0.0
 10
2.9269065245
 20
4.4049640958
 30
0.0
 10
2.9286721565
 20
4.4049879539
 30
0.0
 10
2.9313765507
 20
4.4050060491
 30
0.0
 10
2.9351270279
 20
4.4049984891
 30
0.0
 10
2.9399830327
 20
4.4049473001
 30
0.0
 10
2.9451904103
 20
4.4048547168
 30
0.0
 10
2.9487613245
 20
4.4047680971
 30
0.0
 10
2.9505754325
 20
4.4047183304
 30
0.0
  0
SPLINE
  5
30D
100
AcDbEntity
  8
ALL_ASSEMBLY_MEMBERS
100
AcDbSpline
 62
9
  6
CONTINUOUS
 70
0
 71
3
 72
20
 73
16
 74
0
 42
0.0000001
 43
0.0000001
 44
0.0000000001
 40
0.0
 40
0.0
 40
0.0
 40
0.0
 40
0.1824734743
 40
0.3591748726
 40
0.5237337209
 40
0.6708694975
 40
0.7363844543
 40
0.7957569427
 40
0.8484872165
 40
0.8941792855
 40
0.9324470367
 40
0.962961816
 40
0.9855235935
 40
0.9937765696
 40
1.0
 40
1.0
 40
1.0
 40
1.0
 10
3.1709989719
 20
4.4047183304
 30
0.0
 10
3.1728149597
 20
4.404720551
 30
0.0
 10
3.1763895153
 20
4.4047135652
 30
0.0
 10
3.1816016053
 20
4.4046696086
 30
0.0
 10
3.186461605
 20
4.4045934318
 30
0.0
 10
3.1902145923
 20
4.4045025906
 30
0.0
 10
3.1929203382
 20
4.4044135191
 30
0.0
 10
3.1946866226
 20
4.4043433106
 30
0.0
 10
3.1962552173
 20
4.4042677332
 30
0.0
 10
3.1976132191
 20
4.4041875496
 30
0.0
 10
3.1987495062
 20
4.4041038932
 30
0.0
 10
3.1996544066
 20
4.4040170884
 30
0.0
 10
3.2002601592
 20
4.4039390145
 30
0.0
 10
3.2006224593
 20
4.4038708936
 30
0.0
 10
3.2007624972
 20
4.4038360631
 30
0.0
 10
3.200821491
 20
4.4038172005
 30
0.0
  0
SPLINE
  5
30E
100
AcDbEntity
  8
ALL_ASSEMBLY_MEMBERS
100
AcDbSpline
 62
7
  6
CONTINUOUS
 70
0
 71
3
 72
19
 73
15
 74
0
 42
0.0000001
 43
0.0000001
 44
0.0000000001
 40
0.0
 40
0.0
 40
0.0
 40
0.0
 40
0.0539986815
 40
0.1074471319
 40
0.1608715237
 40
0.2147777867
 40
0.2696219608
 40
0.3258020165
 40
0.3836493367
 40
0.4434146512
 40
0.5692559623
 40
0.7041973963
 40
0.8481540772
 40
1.0
 40
1.0
 40
1.0
 40
1.0
 10
3.418021103
 20
5.5934725586
 30
0.0
 10
3.4182099531
 20
5.5943363585
 30
0.0
 10
3.4184865746
 20
5.5960787334
 30
0.0
 10
3.4185881337
 20
5.5987169676
 30
0.0
 10
3.4183748008
 20
5.6013472342
 30
0.0
 10
3.4178528709
 20
5.6039568324
 30
0.0
 10
3.4170297782
 20
5.6065346372
 30
0.0
 10
3.4159122216
 20
5.6090692412
 30
0.0
 10
3.4145101424
 20
5.6115506461
 30
0.0
 10
3.4122391669
 20
5.6148326417
 30
0.0
 10
3.4087112413
 20
5.6187504416
 30
0.0
 10
3.403618799
 20
5.6230187614
 30
0.0
 10
3.3977053664
 20
5.626888138
 30
0.0
 10
3.3934002155
 20
5.6291254191
 30
0.0
 10
3.3911465776
 20
5.6301758124
 30
0.0
  0
SPLINE
  5
30F
100
AcDbEntity
  8
ALL_ASSEMBLY_MEMBERS
100
AcDbSpline
 62
7
  6
CONTINUOUS
 70
0
 71
3
 72
18
 73
14
 74
0
 42
0.0000001
 43
0.0000001
 44
0.0000000001
 40
0.0
 40
0.0
 40
0.0
 40
0.0
 40
0.163728737
 40
0.3177773084
 40
0.4600981165
 40
0.5898186976
 40
0.6499458886
 40
0.7069889177
 40
0.8123885409
 40
0.8615037379
 40
0.9087656016
 40
0.9547204483
 40
1.0
 40
1.0
 40
1.0
 40
1.0
 10
3.3911465776
 20
5.6301758124
 30
0.0
 10
3.3937965469
 20
5.6295556189
 30
0.0
 10
3.3988947729
 20
5.628145515
 30
0.0
 10
3.4060645084
 20
5.6254500254
 30
0.0
 10
3.4124105885
 20
5.6222731175
 30
0.0
 10
3.41702331
 20
5.6192035867
 30
0.0
 10
3.4201569522
 20
5.6165462361
 30
0.0
 10
3.4227703786
 20
5.6139242603
 30
0.0
 10
3.4249089567
 20
5.6110939586
 30
0.0
 10
3.426433401
 20
5.6080982922
 30
0.0
 10
3.4272381868
 20
5.6058661889
 30
0.0
 10
3.427723876
 20
5.6036087764
 30
0.0
 10
3.4278319505
 20
5.6020900606
 30
0.0
 10
3.427831928
 20
5.6013374025
 30
0.0
  0
SPLINE
  5
310
100
AcDbEntity
  8
ALL_ASSEMBLY_MEMBERS
100
AcDbSpline
 62
7
  6
CONTINUOUS
 70
0
 71
3
 72
18
 73
14
 74
0
 42
0.0000001
 43
0.0000001
 44
0.0000000001
 40
0.0
 40
0.0
 40
0.0
 40
0.0
 40
0.1564070259
 40
0.3051974435
 40
0.4446630104
 40
0.5740412284
 40
0.693188129
 40
0.7491232535
 40
0.8027828182
 40
0.8543773851
 40
0.9042017863
 40
0.9526081963
 40
1.0
 40
1.0
 40
1.0
 40
1.0
 10
3.3911465776
 20
5.6301758124
 30
0.0
 10
3.393626562
 20
5.6294564993
 30
0.0
 10
3.3984149504
 20
5.6278679687
 30
0.0
 10
3.4051718914
 20
5.6249738179
 30
0.0
 10
3.4112283116
 20
5.6216520253
 30
0.0
 10
3.4164788909
 20
5.6179573031
 30
0.0
 10
3.4201859289
 20
5.6145333044
 30
0.0
 10
3.4226346555
 20
5.6116532878
 30
0.0
 10
3.4241792534
 20
5.6094817303
 30
0.0
 10
3.4254615258
 20
5.6072610045
 30
0.0
 10
3.4264766134
 20
5.6050002878
 30
0.0
 10
3.427220018
 20
5.6027090135
 30
0.0
 10
3.4275339647
 20
5.6011545482
 30
0.0
 10
3.42764264
 20
5.6003797193
 30
0.0
  0
LINE
  5
311
100
AcDbEntity
  8
ALL_ASSEMBLY_MEMBERS
100
AcDbLine
 62
9
  6
CONTINUOUS
 10
2.9397486581
 20
5.1031578577
 11
2.9333831342
 21
5.0740255697
  0
SPLINE
  5
312
100
AcDbEntity
  8
ALL_ASSEMBLY_MEMBERS
100
AcDbSpline
 62
9
  6
CONTINUOUS
 70
0
 71
3
 72
36
 73
32
 74
0
 42
0.0000001
 43
0.0000001
 44
0.0000000001
 40
0.0
 40
0.0
 40
0.0
 40
0.0
 40
0.2270576403
 40
0.3306888482
 40
0.4274384809
 40
0.5171047793
 40
0.5995375808
 40
0.6746014623
 40
0.7421606487
 40
0.8020842298
 40
0.8542665135
 40
0.8774240343
 40
0.8986094482
 40
0.9178104765
 40
0.9350148325
 40
0.9502112598
 40
0.9633941469
 40
0.9745597952
 40
0.9793849993
 40
0.9837045068
 40
0.9875178554
 40
0.9908245827
 40
0.9936242262
 40
0.9959163233
 40
0.9977004114
 40
0.9984018076
 40
0.9989760281
 40
0.9994230151
 40
0.9997427108
 40
0.9999350578
 40
1.0
 40
1.0
 40
1.0
 40
1.0
 10
2.9161573113
 20
5.1593094931
 30
0.0
 10
2.9152650561
 20
5.1551759041
 30
0.0
 10
2.9139411768
 20
5.1491609309
 30
0.0
 10
2.9121840144
 20
5.1413965225
 30
0.0
 10
2.9109728241
 20
5.1361321171
 30
0.0
 10
2.9098341354
 20
5.1312561826
 30
0.0
 10
2.9087734707
 20
5.1267768
 30
0.0
 10
2.9077960395
 20
5.1227008428
 30
0.0
 10
2.9069069349
 20
5.1190348231
 30
0.0
 10
2.90611121
 20
5.1157846735
 30
0.0
 10
2.905507245
 20
5.1133389552
 30
0.0
 10
2.9050738043
 20
5.1115942746
 30
0.0
 10
2.9047875184
 20
5.1104459611
 30
0.0
 10
2.9045272941
 20
5.1094054179
 30
0.0
 10
2.9042935603
 20
5.1084732259
 30
0.0
 10
2.9040867361
 20
5.10764984
 30
0.0
 10
2.9039070211
 20
5.1069356053
 30
0.0
 10
2.9037742179
 20
5.1064087444
 30
0.0
 10
2.903681637
 20
5.1060419825
 30
0.0
 10
2.9036225173
 20
5.105808001
 30
0.0
 10
2.9035702783
 20
5.1056014499
 30
0.0
 10
2.9035249334
 20
5.1054223538
 30
0.0
 10
2.9034865101
 20
5.1052707291
 30
0.0
 10
2.9034549959
 20
5.1051466149
 30
0.0
 10
2.9034331164
 20
5.1050603562
 30
0.0
 10
2.9034190048
 20
5.1050051637
 30
0.0
 10
2.9034111977
 20
5.104974009
 30
0.0
 10
2.9034047207
 20
5.1049499826
 30
0.0
 10
2.9034009711
 20
5.1049322917
 30
0.0
 10
2.9033970988
 20
5.1049225664
 30
0.0
 10
2.9033971399
 20
5.1049172176
 30
0.0
 10
2.9033963011
 20
5.1049163462
 30
0.0
  0
LINE
  5
313
100
AcDbEntity
  8
ALL_ASSEMBLY_MEMBERS
100
AcDbLine
 62
7
  6
CONTINUOUS
 10
3.4197314056
 20
5.5854894756
 11
3.4239680063
 21
5.5887784862
  0
LINE
  5
314
100
AcDbEntity
  8
ALL_ASSEMBLY_MEMBERS
100
AcDbLine
 62
7
  6
CONTINUOUS
 10
3.4239680063
 20
5.5887784862
 11
3.4270473128
 21
5.5916223047
  0
SPLINE
  5
315
100
AcDbEntity
  8
ALL_ASSEMBLY_MEMBERS
100
AcDbSpline
 62
7
  6
CONTINUOUS
 70
0
 71
3
 72
9
 73
5
 74
0
 42
0.0000001
 43
0.0000001
 44
0.0000000001
 40
0.0
 40
0.0
 40
0.0
 40
0.0
 40
0.5162848163
 40
1.0
 40
1.0
 40
1.0
 40
1.0
 10
3.4270473128
 20
5.5916223047
 30
0.0
 10
3.4279382733
 20
5.592518653
 30
0.0
 10
3.4295938221
 20
5.5943265937
 30
0.0
 10
3.431068857
 20
5.5962867234
 30
0.0
 10
3.4317245491
 20
5.5972727008
 30
0.0
  0
SPLINE
  5
316
100
AcDbEntity
  8
ALL_ASSEMBLY_MEMBERS
100
AcDbSpline
 62
7
  6
CONTINUOUS
 70
0
 71
3
 72
30
 73
26
 74
0
 42
0.0000001
 43
0.0000001
 44
0.0000000001
 40
0.0
 40
0.0
 40
0.0
 40
0.0
 40
0.0519065708
 40
0.075865564
 40
0.0986602449
 40
0.1205003343
 40
0.1416641761
 40
0.1625062942
 40
0.1833957878
 40
0.2046834181
 40
0.2266890618
 40
0.2496828195
 40
0.2738596883
 40
0.3261749053
 40
0.3544714016
 40
0.3841950738
 40
0.4477669543
 40
0.5164841598
 40
0.5526046974
 40
0.5897859458
 40
0.6669714439
 40
0.747366181
 40
0.8302572534
 40
0.9147932049
 40
1.0
 40
1.0
 40
1.0
 40
1.0
 10
3.4317245491
 20
5.5972727008
 30
0.0
 10
3.4326068976
 20
5.5985995061
 30
0.0
 10
3.4337506111
 20
5.6006500897
 30
0.0
 10
3.4347774009
 20
5.6035051194
 30
0.0
 10
3.4352518784
 20
5.6055624032
 30
0.0
 10
3.435443933
 20
5.6075796093
 30
0.0
 10
3.4353450328
 20
5.6095443131
 30
0.0
 10
3.4349580963
 20
5.6114433831
 30
0.0
 10
3.4342897713
 20
5.6132663872
 30
0.0
 10
3.433346827
 20
5.6150039387
 30
0.0
 10
3.4321369972
 20
5.616647205
 30
0.0
 10
3.4306758112
 20
5.6181945467
 30
0.0
 10
3.428350055
 20
5.6201811077
 30
0.0
 10
3.4256168666
 20
5.6219098225
 30
0.0
 10
3.4225852626
 20
5.6234220173
 30
0.0
 10
3.4191491277
 20
5.6248855891
 30
0.0
 10
3.414427217
 20
5.6264706516
 30
0.0
 10
3.4094096579
 20
5.6277317543
 30
0.0
 10
3.40513796
 20
5.6286051624
 30
0.0
 10
3.4005881869
 20
5.6294082067
 30
0.0
 10
3.3946647471
 20
5.6302345314
 30
0.0
 10
3.3873179781
 20
5.6309685776
 30
0.0
 10
3.3797263797
 20
5.6314786431
 30
0.0
 10
3.3719760544
 20
5.6317794101
 30
0.0
 10
3.3667650905
 20
5.6318446288
 30
0.0
 10
3.3641494439
 20
5.6318446288
 30
0.0
  0
SPLINE
  5
317
100
AcDbEntity
  8
ALL_ASSEMBLY_MEMBERS
100
AcDbSpline
 62
9
  6
CONTINUOUS
 70
0
 71
3
 72
36
 73
32
 74
0
 42
0.0000001
 43
0.0000001
 44
0.0000000001
 40
0.0
 40
0.0
 40
0.0
 40
0.0
 40
0.0000647401
 40
0.0002565268
 40
0.0005753196
 40
0.0010210763
 40
0.0015937548
 40
0.0022933128
 40
0.0040728977
 40
0.0063594924
 40
0.0091527584
 40
0.0124523568
 40
0.0162579492
 40
0.020569197
 40
0.0253857615
 40
0.0365334871
 40
0.0496981258
 40
0.0648729789
 40
0.0820488148
 40
0.1012163578
 40
0.1223663378
 40
0.145489491
 40
0.1976163339
 40
0.2574959238
 40
0.3250101564
 40
0.4000404609
 40
0.4824576124
 40
0.5721201475
 40
0.6688861787
 40
0.7725929196
 40
1.0
 40
1.0
 40
1.0
 40
1.0
 10
3.2357668389
 20
5.1049163462
 30
0.0
 10
3.2357660323
 20
5.1049172326
 30
0.0
 10
3.235766219
 20
5.1049225295
 30
0.0
 10
3.2357626485
 20
5.1049322709
 30
0.0
 10
3.2357594161
 20
5.1049499008
 30
0.0
 10
3.2357536535
 20
5.1049738844
 30
0.0
 10
3.2357467662
 20
5.105004969
 30
0.0
 10
3.2357342842
 20
5.1050600505
 30
0.0
 10
3.2357149454
 20
5.1051461385
 30
0.0
 10
3.2356870801
 20
5.1052700191
 30
0.0
 10
3.2356531041
 20
5.1054213731
 30
0.0
 10
3.2356130008
 20
5.1056001684
 30
0.0
 10
3.2355667935
 20
5.1058063942
 30
0.0
 10
3.2355144913
 20
5.1060400321
 30
0.0
 10
3.2354325672
 20
5.106406319
 30
0.0
 10
3.2353150226
 20
5.1069325805
 30
0.0
 10
3.2351559153
 20
5.107646034
 30
0.0
 10
3.2349729004
 20
5.1084684883
 30
0.0
 10
3.2347663145
 20
5.1093995398
 30
0.0
 10
3.2345364909
 20
5.1104387356
 30
0.0
 10
3.2342837668
 20
5.1115856222
 30
0.0
 10
3.2339011691
 20
5.1133286634
 30
0.0
 10
3.2333680495
 20
5.1157726874
 30
0.0
 10
3.2326663569
 20
5.1190210163
 30
0.0
 10
3.2318837602
 20
5.1226856231
 30
0.0
 10
3.2310244394
 20
5.1267604506
 30
0.0
 10
3.230093121
 20
5.1312391011
 30
0.0
 10
3.2290951193
 20
5.1361148368
 30
0.0
 10
3.2280357348
 20
5.1413802608
 30
0.0
 10
3.2265012112
 20
5.1491510336
 30
0.0
 10
3.2253497057
 20
5.155171507
 30
0.0
 10
3.2245759045
 20
5.1593094931
 30
0.0
  0
LINE
  5
318
100
AcDbEntity
  8
ALL_ASSEMBLY_MEMBERS
100
AcDbLine
 62
9
  6
CONTINUOUS
 10
2.9397484621
 20
5.1031578928
 11
2.9207673733
 21
4.4045993533
  0
SPLINE
  5
319
100
AcDbEntity
  8
ALL_ASSEMBLY_MEMBERS
100
AcDbSpline
 62
9
  6
CONTINUOUS
 70
0
 71
3
 72
23
 73
19
 74
0
 42
0.0000001
 43
0.0000001
 44
0.0000000001
 40
0.0
 40
0.0
 40
0.0
 40
0.0
 40
0.1852290179
 40
0.364365189
 40
0.5307265727
 40
0.6073713254
 40
0.678790346
 40
0.7443788258
 40
0.8035356745
 40
0.8557453673
 40
0.9006038734
 40
0.9377181872
 40
0.9532616831
 40
0.9667609429
 40
0.9781960564
 40
0.9875504796
 40
0.9948150224
 40
1.0
 40
1.0
 40
1.0
 40
1.0
 10
2.9696329098
 20
5.1033233843
 30
0.0
 10
2.967786899
 20
5.103372714
 30
0.0
 10
2.9641552735
 20
5.103458013
 30
0.0
 10
2.958864828
 20
5.1035473286
 30
0.0
 10
2.9546563513
 20
5.1035873776
 30
0.0
 10
2.9515216403
 20
5.1035957192
 30
0.0
 10
2.9493915963
 20
5.1035904753
 30
0.0
 10
2.9474359595
 20
5.10357413
 30
0.0
 10
2.9456719732
 20
5.103546793
 30
0.0
 10
2.9441148976
 20
5.1035087561
 30
0.0
 10
2.9427779851
 20
5.1034605202
 30
0.0
 10
2.9418070085
 20
5.103410048
 30
0.0
 10
2.9411491223
 20
5.103362782
 30
0.0
 10
2.9407471075
 20
5.1033272458
 30
0.0
 10
2.940407319
 20
5.1032896643
 30
0.0
 10
2.9401302734
 20
5.1032503779
 30
0.0
 10
2.9399168068
 20
5.1032095006
 30
0.0
 10
2.9397965967
 20
5.1031767389
 30
0.0
 10
2.9397484621
 20
5.1031578928
 30
0.0
  0
LINE
  5
31A
100
AcDbEntity
  8
ALL_ASSEMBLY_MEMBERS
100
AcDbLine
 62
9
  6
CONTINUOUS
 10
2.9696329098
 20
5.1033233845
 11
2.9505757574
 21
4.4047183304
  0
SPLINE
  5
31B
100
AcDbEntity
  8
ALL_ASSEMBLY_MEMBERS
100
AcDbSpline
 62
9
  6
CONTINUOUS
 70
0
 71
3
 72
9
 73
5
 74
0
 42
0.0000001
 43
0.0000001
 44
0.0000000001
 40
0.0
 40
0.0
 40
0.0
 40
0.0
 40
0.4999372241
 40
1.0
 40
1.0
 40
1.0
 40
1.0
 10
2.9635300941
 20
5.1336968236
 30
0.0
 10
2.9656864457
 20
5.1289692536
 30
0.0
 10
2.9688919816
 20
5.118972351
 30
0.0
 10
2.9697725095
 20
5.1085189446
 30
0.0
 10
2.9696329098
 20
5.1033233845
 30
0.0
  0
SPLINE
  5
31C
100
AcDbEntity
  8
ALL_ASSEMBLY_MEMBERS
100
AcDbSpline
 62
9
  6
CONTINUOUS
 70
0
 71
3
 72
9
 73
5
 74
0
 42
0.0000001
 43
0.0000001
 44
0.0000000001
 40
0.0
 40
0.0
 40
0.0
 40
0.0
 40
0.5002007917
 40
1.0
 40
1.0
 40
1.0
 40
1.0
 10
2.9372520313
 20
5.1209596497
 30
0.0
 10
2.9382541216
 20
5.1181198569
 30
0.0
 10
2.9396563445
 20
5.1122172589
 30
0.0
 10
2.9399067025
 20
5.1061627259
 30
0.0
 10
2.9397486165
 20
5.1031578863
 30
0.0
  0
SPLINE
  5
31D
100
AcDbEntity
  8
ALL_ASSEMBLY_MEMBERS
100
AcDbSpline
 62
9
  6
CONTINUOUS
 70
0
 71
3
 72
15
 73
11
 74
0
 42
0.0000001
 43
0.0000001
 44
0.0000000001
 40
0.0
 40
0.0
 40
0.0
 40
0.0
 40
0.3278661222
 40
0.4816828934
 40
0.6231796736
 40
0.7487538691
 40
0.855236786
 40
0.9397327804
 40
0.9730238546
 40
1.0
 40
1.0
 40
1.0
 40
1.0
 10
2.9635300941
 20
5.1336968206
 30
0.0
 10
2.9606250856
 20
5.1323735455
 30
0.0
 10
2.9563667262
 20
5.1304084162
 30
0.0
 10
2.9508793045
 20
5.1278194841
 30
0.0
 10
2.9471844227
 20
5.1260472676
 30
0.0
 10
2.9439173152
 20
5.12444902
 30
0.0
 10
2.9411626332
 20
5.1230666301
 30
0.0
 10
2.9392250734
 20
5.1220593598
 30
0.0
 10
2.9379878454
 20
5.1213841306
 30
0.0
 10
2.937477994
 20
5.1210935323
 30
0.0
 10
2.9372520313
 20
5.1209596497
 30
0.0
  0
SPLINE
  5
31E
100
AcDbEntity
  8
ALL_ASSEMBLY_MEMBERS
100
AcDbSpline
 62
9
  6
CONTINUOUS
 70
0
 71
3
 72
15
 73
11
 74
0
 42
0.0000001
 43
0.0000001
 44
0.0000000001
 40
0.0
 40
0.0
 40
0.0
 40
0.0
 40
0.1205188282
 40
0.2424092187
 40
0.365595438
 40
0.490049721
 40
0.6157754564
 40
0.7427551473
 40
0.8709586776
 40
1.0
 40
1.0
 40
1.0
 40
1.0
 10
2.9161588592
 20
5.1593094931
 30
0.0
 10
2.9182566796
 20
5.1586938973
 30
0.0
 10
2.922450789
 20
5.1573672937
 30
0.0
 10
2.9286879307
 20
5.1551073966
 30
0.0
 10
2.9348884959
 20
5.152553961
 30
0.0
 10
2.9410246651
 20
5.1496797594
 30
0.0
 10
2.9470570853
 20
5.1464435417
 30
0.0
 10
2.9529262941
 20
5.1427843763
 30
0.0
 10
2.9585240718
 20
5.1386181195
 30
0.0
 10
2.9619538378
 20
5.1354274695
 30
0.0
 10
2.9635300941
 20
5.1336968236
 30
0.0
  0
SPLINE
  5
31F
100
AcDbEntity
  8
ALL_ASSEMBLY_MEMBERS
100
AcDbSpline
 62
7
  6
CONTINUOUS
 70
0
 71
3
 72
12
 73
8
 74
0
 42
0.0000001
 43
0.0000001
 44
0.0000000001
 40
0.0
 40
0.0
 40
0.0
 40
0.0
 40
0.2568701286
 40
0.5113676093
 40
0.6366582066
 40
0.760121636
 40
1.0
 40
1.0
 40
1.0
 40
1.0
 10
3.0888994439
 20
3.2066387022
 30
0.0
 10
3.0926594015
 20
3.2066387022
 30
0.0
 10
3.100149819
 20
3.2070328477
 30
0.0
 10
3.1093732061
 20
3.2084836136
 30
0.0
 10
3.1165384947
 20
3.2102075879
 30
0.0
 10
3.1233958823
 20
3.2122481034
 30
0.0
 10
3.1283689279
 20
3.2141736683
 30
0.0
 10
3.1315637846
 20
3.2156302711
 30
0.0
  0
SPLINE
  5
320
100
AcDbEntity
  8
ALL_ASSEMBLY_MEMBERS
100
AcDbSpline
 62
7
  6
CONTINUOUS
 70
0
 71
3
 72
9
 73
5
 74
0
 42
0.0000001
 43
0.0000001
 44
0.0000000001
 40
0.0
 40
0.0
 40
0.0
 40
0.0
 40
0.5086687583
 40
1.0
 40
1.0
 40
1.0
 40
1.0
 10
3.1315637846
 20
3.2156302711
 30
0.0
 10
3.1332309439
 20
3.2163903642
 30
0.0
 10
3.1364637322
 20
3.2179850693
 30
0.0
 10
3.1395861179
 20
3.2197873788
 30
0.0
 10
3.1410862124
 20
3.2207264884
 30
0.0
  0
SPLINE
  5
321
100
AcDbEntity
  8
ALL_ASSEMBLY_MEMBERS
100
AcDbSpline
 62
7
  6
CONTINUOUS
 70
0
 71
3
 72
9
 73
5
 74
0
 42
0.0000001
 43
0.0000001
 44
0.0000000001
 40
0.0
 40
0.0
 40
0.0
 40
0.0
 40
0.2414566059
 40
1.0
 40
1.0
 40
1.0
 40
1.0
 10
3.1465898412
 20
3.2253533489
 30
0.0
 10
3.1462669762
 20
3.2250162647
 30
0.0
 10
3.1449014473
 20
3.2236474962
 30
0.0
 10
3.1434298644
 20
3.2223860388
 30
0.0
 10
3.1422720944
 20
3.2214861773
 30
0.0
  0
LINE
  5
322
100
AcDbEntity
  8
ALL_ASSEMBLY_MEMBERS
100
AcDbLine
 62
7
  6
CONTINUOUS
 10
3.0379320267
 20
3.2199915627
 11
3.0362952685
 21
3.221596969
  0
LINE
  5
323
100
AcDbEntity
  8
ALL_ASSEMBLY_MEMBERS
100
AcDbLine
 62
7
  6
CONTINUOUS
 10
3.0362952685
 20
3.221596969
 11
3.0344518694
 21
3.2238472684
  0
SPLINE
  5
324
100
AcDbEntity
  8
ALL_ASSEMBLY_MEMBERS
100
AcDbSpline
 62
7
  6
CONTINUOUS
 70
0
 71
3
 72
9
 73
5
 74
0
 42
0.0000001
 43
0.0000001
 44
0.0000000001
 40
0.0
 40
0.0
 40
0.0
 40
0.0
 40
0.5147358399
 40
1.0
 40
1.0
 40
1.0
 40
1.0
 10
3.0344518694
 20
3.2238472684
 30
0.0
 10
3.0339361027
 20
3.224573942
 30
0.0
 10
3.0330283312
 20
3.2260565132
 30
0.0
 10
3.0323722006
 20
3.2276691738
 30
0.0
 10
3.0321281577
 20
3.2284730306
 30
0.0
  0
SPLINE
  5
325
100
AcDbEntity
  8
ALL_ASSEMBLY_MEMBERS
100
AcDbSpline
 62
7
  6
CONTINUOUS
 70
0
 71
3
 72
11
 73
7
 74
0
 42
0.0000001
 43
0.0000001
 44
0.0000000001
 40
0.0
 40
0.0
 40
0.0
 40
0.0
 40
0.2474887268
 40
0.4912852719
 40
0.739577672
 40
1.0
 40
1.0
 40
1.0
 40
1.0
 10
3.0321281577
 20
3.2284730306
 30
0.0
 10
3.0318732084
 20
3.2293128126
 30
0.0
 10
3.0315263564
 20
3.2310344826
 30
0.0
 10
3.0315580911
 20
3.2336762515
 30
0.0
 10
3.0321543308
 20
3.2362961495
 30
0.0
 10
3.0328954986
 20
3.2379540437
 30
0.0
 10
3.0333423058
 20
3.2387622539
 30
0.0
  0
SPLINE
  5
326
100
AcDbEntity
  8
ALL_ASSEMBLY_MEMBERS
100
AcDbSpline
 62
7
  6
CONTINUOUS
 70
0
 71
3
 72
9
 73
5
 74
0
 42
0.0000001
 43
0.0000001
 44
0.0000000001
 40
0.0
 40
0.0
 40
0.0
 40
0.0
 40
0.2431170857
 40
1.0
 40
1.0
 40
1.0
 40
1.0
 10
3.0333174927
 20
3.222989468
 30
0.0
 10
3.0339323195
 20
3.2225528836
 30
0.0
 10
3.0364916717
 20
3.2208001338
 30
0.0
 10
3.0391653014
 20
3.2192159082
 30
0.0
 10
3.0412339277
 20
3.2181059549
 30
0.0
  0
SPLINE
  5
327
100
AcDbEntity
  8
ALL_ASSEMBLY_MEMBERS
100
AcDbSpline
 62
7
  6
CONTINUOUS
 70
0
 71
3
 72
15
 73
11
 74
0
 42
0.0000001
 43
0.0000001
 44
0.0000000001
 40
0.0
 40
0.0
 40
0.0
 40
0.0
 40
0.1165485989
 40
0.2366142112
 40
0.3595595973
 40
0.4848868992
 40
0.6121274442
 40
0.7407929847
 40
0.8702903632
 40
1.0
 40
1.0
 40
1.0
 40
1.0
 10
3.0412339277
 20
3.2181059549
 30
0.0
 10
3.0429285722
 20
3.2171966673
 30
0.0
 10
3.0464343444
 20
3.2154701826
 30
0.0
 10
3.0519192351
 20
3.213197971
 30
0.0
 10
3.0576731934
 20
3.21122771
 30
0.0
 10
3.0636506077
 20
3.2095807952
 30
0.0
 10
3.0698088047
 20
3.2082775191
 30
0.0
 10
3.0761024278
 20
3.2073376072
 30
0.0
 10
3.0824808258
 20
3.2067674189
 30
0.0
 10
3.0867590915
 20
3.2066387022
 30
0.0
 10
3.0888994439
 20
3.2066387022
 30
0.0
  0
SPLINE
  5
328
100
AcDbEntity
  8
ALL_ASSEMBLY_MEMBERS
100
AcDbSpline
 62
7
  6
CONTINUOUS
 70
0
 71
3
 72
9
 73
5
 74
0
 42
0.0000001
 43
0.0000001
 44
0.0000000001
 40
0.0
 40
0.0
 40
0.0
 40
0.0
 40
0.4945995525
 40
1.0
 40
1.0
 40
1.0
 40
1.0
 10
3.152581928
 20
3.2388374025
 30
0.0
 10
3.1525819009
 20
3.2379310806
 30
0.0
 10
3.1524241085
 20
3.2360953861
 30
0.0
 10
3.1519611989
 20
3.234312969
 30
0.0
 10
3.1516594638
 20
3.2334373876
 30
0.0
  0
SPLINE
  5
329
100
AcDbEntity
  8
ALL_ASSEMBLY_MEMBERS
100
AcDbSpline
 62
7
  6
CONTINUOUS
 70
0
 71
3
 72
9
 73
5
 74
0
 42
0.0000001
 43
0.0000001
 44
0.0000000001
 40
0.0
 40
0.0
 40
0.0
 40
0.0
 40
0.4864677193
 40
1.0
 40
1.0
 40
1.0
 40
1.0
 10
3.1516594638
 20
3.2334373876
 30
0.0
 10
3.1513326946
 20
3.2324891614
 30
0.0
 10
3.1504957951
 20
3.230594345
 30
0.0
 10
3.1493905916
 20
3.2288454166
 30
0.0
 10
3.1487695655
 20
3.2279879328
 30
0.0
  0
LINE
  5
32A
100
AcDbEntity
  8
ALL_ASSEMBLY_MEMBERS
100
AcDbLine
 62
7
  6
CONTINUOUS
 10
3.1487695655
 20
3.2279879328
 11
3.1465898412
 21
3.2253533489
  0
SPLINE
  5
32B
100
AcDbEntity
  8
ALL_ASSEMBLY_MEMBERS
100
AcDbSpline
 62
9
  6
CONTINUOUS
 70
0
 71
3
 72
15
 73
11
 74
0
 42
0.0000001
 43
0.0000001
 44
0.0000000001
 40
0.0
 40
0.0
 40
0.0
 40
0.0
 40
0.2176337633
 40
0.3327039491
 40
0.4524945977
 40
0.5778099643
 40
0.7097550366
 40
0.7786770659
 40
0.8499298859
 40
1.0
 40
1.0
 40
1.0
 40
1.0
 10
2.6409073167
 20
2.7968102072
 30
0.0
 10
2.6427649823
 20
2.7942237054
 30
0.0
 10
2.6455087679
 20
2.7901993808
 30
0.0
 10
2.6490394177
 20
2.7845977569
 30
0.0
 10
2.6517391318
 20
2.7800708009
 30
0.0
 10
2.6544315772
 20
2.7752543578
 30
0.0
 10
2.6566205123
 20
2.7710117765
 30
0.0
 10
2.6583369842
 20
2.7674185824
 30
0.0
 10
2.6600727582
 20
2.763542417
 30
0.0
 10
2.6612716483
 20
2.760530461
 30
0.0
 10
2.6620017097
 20
2.7584595067
 30
0.0
  0
LINE
  5
32C
100
AcDbEntity
  8
ALL_ASSEMBLY_MEMBERS
100
AcDbLine
 62
9
  6
CONTINUOUS
 10
2.8950233549
 20
2.7423677324
 11
2.8957486487
 21
2.0422183304
  0
SPLINE
  5
32D
100
AcDbEntity
  8
ALL_ASSEMBLY_MEMBERS
100
AcDbSpline
 62
9
  6
CONTINUOUS
 70
0
 71
3
 72
23
 73
19
 74
0
 42
0.0000001
 43
0.0000001
 44
0.0000000001
 40
0.0
 40
0.0
 40
0.0
 40
0.0
 40
0.0051843942
 40
0.0124489771
 40
0.0218040571
 40
0.0332404194
 40
0.0467414901
 40
0.062287328
 40
0.0994077642
 40
0.1442738848
 40
0.1964921178
 40
0.2556578562
 40
0.3212548657
 40
0.3926812436
 40
0.4693313662
 40
0.6356941531
 40
0.8148134832
 40
1.0
 40
1.0
 40
1.0
 40
1.0
 10
2.9249207734
 20
2.7414179369
 30
0.0
 10
2.9248731134
 20
2.7414380608
 30
0.0
 10
2.9247536995
 20
2.7414739999
 30
0.0
 10
2.924541182
 20
2.7415205075
 30
0.0
 10
2.9242649879
 20
2.7415670926
 30
0.0
 10
2.9239259522
 20
2.7416136195
 30
0.0
 10
2.9235245836
 20
2.7416597333
 30
0.0
 10
2.9228674545
 20
2.7417243022
 30
0.0
 10
2.9218970797
 20
2.7418002974
 30
0.0
 10
2.9205604364
 20
2.7418836594
 30
0.0
 10
2.9190032069
 20
2.7419625928
 30
0.0
 10
2.9172386568
 20
2.7420362473
 30
0.0
 10
2.9152820683
 20
2.7421039299
 30
0.0
 10
2.9131507153
 20
2.7421650775
 30
0.0
 10
2.9100138274
 20
2.7422389896
 30
0.0
 10
2.9058019606
 20
2.7423093398
 30
0.0
 10
2.9005066828
 20
2.7423587632
 30
0.0
 10
2.8968713061
 20
2.742368674
 30
0.0
 10
2.8950233549
 20
2.7423677322
 30
0.0
  0
LINE
  5
32E
100
AcDbEntity
  8
ALL_ASSEMBLY_MEMBERS
100
AcDbLine
 62
9
  6
CONTINUOUS
 10
2.9249207734
 20
2.7414179369
 11
2.9255710293
 21
2.0413171995
  0
SPLINE
  5
32F
100
AcDbEntity
  8
ALL_ASSEMBLY_MEMBERS
100
AcDbSpline
 62
9
  6
CONTINUOUS
 70
0
 71
3
 72
9
 73
5
 74
0
 42
0.0000001
 43
0.0000001
 44
0.0000000001
 40
0.0
 40
0.0
 40
0.0
 40
0.0
 40
0.500179338
 40
1.0
 40
1.0
 40
1.0
 40
1.0
 10
2.9275887692
 20
2.7583087758
 30
0.0
 10
2.9266172878
 20
2.7556153115
 30
0.0
 10
2.9252106986
 20
2.7500254356
 30
0.0
 10
2.9248456966
 20
2.7442782017
 30
0.0
 10
2.9249208607
 20
2.7414179355
 30
0.0
  0
SPLINE
  5
330
100
AcDbEntity
  8
ALL_ASSEMBLY_MEMBERS
100
AcDbSpline
 62
9
  6
CONTINUOUS
 70
0
 71
3
 72
9
 73
5
 74
0
 42
0.0000001
 43
0.0000001
 44
0.0000000001
 40
0.0
 40
0.0
 40
0.0
 40
0.0
 40
0.4999977992
 40
1.0
 40
1.0
 40
1.0
 40
1.0
 10
2.9012807871
 20
2.7711968236
 30
0.0
 10
2.8992111411
 20
2.7667052564
 30
0.0
 10
2.8960657623
 20
2.757233112
 30
0.0
 10
2.8950205126
 20
2.7473132387
 30
0.0
 10
2.8950233549
 20
2.7423677324
 30
0.0
  0
SPLINE
  5
331
100
AcDbEntity
  8
ALL_ASSEMBLY_MEMBERS
100
AcDbSpline
 62
9
  6
CONTINUOUS
 70
0
 71
3
 72
15
 73
11
 74
0
 42
0.0000001
 43
0.0000001
 44
0.0000000001
 40
0.0
 40
0.0
 40
0.0
 40
0.0
 40
0.0263050176
 40
0.0590304034
 40
0.1427137108
 40
0.2488022931
 40
0.3743611717
 40
0.5161698425
 40
0.670557346
 40
1.0
 40
1.0
 40
1.0
 40
1.0
 10
2.9275887692
 20
2.7583087758
 30
0.0
 10
2.9273687854
 20
2.7584415189
 30
0.0
 10
2.926869709
 20
2.758730403
 30
0.0
 10
2.9256499053
 20
2.7594051243
 30
0.0
 10
2.9237263167
 20
2.7604168277
 30
0.0
 10
2.920979653
 20
2.7618104517
 30
0.0
 10
2.9177097775
 20
2.763427233
 30
0.0
 10
2.9140028455
 20
2.765224095
 30
0.0
 10
2.9084868194
 20
2.7678539864
 30
0.0
 10
2.9042037667
 20
2.7698513202
 30
0.0
 10
2.9012807871
 20
2.7711968212
 30
0.0
  0
SPLINE
  5
332
100
AcDbEntity
  8
ALL_ASSEMBLY_MEMBERS
100
AcDbSpline
 62
9
  6
CONTINUOUS
 70
0
 71
3
 72
15
 73
11
 74
0
 42
0.0000001
 43
0.0000001
 44
0.0000000001
 40
0.0
 40
0.0
 40
0.0
 40
0.0
 40
0.2182502714
 40
0.3334362689
 40
0.4532300316
 40
0.5784455669
 40
0.7102062623
 40
0.7790141805
 40
0.8501478583
 40
1.0
 40
1.0
 40
1.0
 40
1.0
 10
2.9493259326
 20
2.7968102148
 30
0.0
 10
2.947412866
 20
2.7942123111
 30
0.0
 10
2.9445840485
 20
2.7901728448
 30
0.0
 10
2.9409422795
 20
2.7845486138
 30
0.0
 10
2.9381601117
 20
2.7800079284
 30
0.0
 10
2.935385937
 20
2.7751774282
 30
0.0
 10
2.9331306943
 20
2.7709207972
 30
0.0
 10
2.9313624248
 20
2.7673140895
 30
0.0
 10
2.9295744812
 20
2.7634210245
 30
0.0
 10
2.9283401444
 20
2.7603926224
 30
0.0
 10
2.9275890085
 20
2.7583086682
 30
0.0
  0
SPLINE
  5
333
100
AcDbEntity
  8
ALL_ASSEMBLY_MEMBERS
100
AcDbSpline
 62
9
  6
CONTINUOUS
 70
0
 71
3
 72
15
 73
11
 74
0
 42
0.0000001
 43
0.0000001
 44
0.0000000001
 40
0.0
 40
0.0
 40
0.0
 40
0.0
 40
0.1206595232
 40
0.242639125
 40
0.3658686655
 40
0.4903254553
 40
0.6160173515
 40
0.7429341495
 40
0.8710524734
 40
1.0
 40
1.0
 40
1.0
 40
1.0
 10
2.9493243985
 20
2.7968094931
 30
0.0
 10
2.9471983611
 20
2.7961959757
 30
0.0
 10
2.9429479859
 20
2.7948738746
 30
0.0
 10
2.9366262112
 20
2.7926200421
 30
0.0
 10
2.9303411087
 20
2.7900730061
 30
0.0
 10
2.9241204391
 20
2.787204186
 30
0.0
 10
2.918003359
 20
2.7839712568
 30
0.0
 10
2.912049068
 20
2.7803121768
 30
0.0
 10
2.9063659124
 20
2.7761401796
 30
0.0
 10
2.9028829437
 20
2.7729361624
 30
0.0
 10
2.9012807871
 20
2.7711968236
 30
0.0
  0
SPLINE
  5
334
100
AcDbEntity
  8
ALL_ASSEMBLY_MEMBERS
100
AcDbSpline
 62
9
  6
CONTINUOUS
 70
0
 71
3
 72
19
 73
15
 74
0
 42
0.0000001
 43
0.0000001
 44
0.0000000001
 40
0.0
 40
0.0
 40
0.0
 40
0.0
 40
0.1251812745
 40
0.1879666578
 40
0.2506893207
 40
0.313342749
 40
0.37594796
 40
0.5009341717
 40
0.6257779589
 40
0.6882105511
 40
0.7506318507
 40
0.8130716153
 40
0.8755341623
 40
1.0
 40
1.0
 40
1.0
 40
1.0
 10
2.925571491
 20
2.0413172005
 30
0.0
 10
2.9255814554
 20
2.0393523732
 30
0.0
 10
2.9253028395
 20
2.0363903645
 30
0.0
 10
2.9243703989
 20
2.0325633063
 30
0.0
 10
2.9233903484
 20
2.0297717625
 30
0.0
 10
2.9221420367
 20
2.0270929794
 30
0.0
 10
2.9201408011
 20
2.0237069286
 30
0.0
 10
2.9170289019
 20
2.0198733263
 30
0.0
 10
2.9132318931
 20
2.0167208275
 30
0.0
 10
2.9098739328
 20
2.0146892226
 30
0.0
 10
2.9072170301
 20
2.0134197192
 30
0.0
 10
2.9044465551
 20
2.0124194784
 30
0.0
 10
2.9006470085
 20
2.0114619873
 30
0.0
 10
2.8977025949
 20
2.0111663462
 30
0.0
 10
2.8957489719
 20
2.0111663462
 30
0.0
  0
SPLINE
  5
335
100
AcDbEntity
  8
ALL_ASSEMBLY_MEMBERS
100
AcDbSpline
 62
7
  6
CONTINUOUS
 70
0
 71
3
 72
35
 73
31
 74
0
 42
0.0000001
 43
0.0000001
 44
0.0000000001
 40
0.0
 40
0.0
 40
0.0
 40
0.0
 40
0.0851070844
 40
0.1692092179
 40
0.2509799019
 40
0.3293307465
 40
0.3669275525
 40
0.4033087259
 40
0.4383525751
 40
0.471951955
 40
0.5040177186
 40
0.5344683781
 40
0.5632442828
 40
0.5903322748
 40
0.6157790302
 40
0.6396912667
 40
0.6622644468
 40
0.6838114694
 40
0.704753185
 40
0.7255696846
 40
0.7467748168
 40
0.768851045
 40
0.7921580495
 40
0.8169504539
 40
0.8433893787
 40
0.871525799
 40
0.9013354881
 40
0.9327476455
 40
0.9656718319
 40
1.0
 40
1.0
 40
1.0
 40
1.0
 10
3.0888994439
 20
3.2693446288
 30
0.0
 10
3.0858073002
 20
3.2693446288
 30
0.0
 10
3.079659092
 20
3.269253773
 30
0.0
 10
3.0705485127
 20
3.2688331363
 30
0.0
 10
3.0617022992
 20
3.2681163189
 30
0.0
 10
3.0545700466
 20
3.2672336415
 30
0.0
 10
3.0491087153
 20
3.2663326405
 30
0.0
 10
3.0452212653
 20
3.2655690372
 30
0.0
 10
3.0415043111
 20
3.264702215
 30
0.0
 10
3.0379766626
 20
3.2637262019
 30
0.0
 10
3.0346577448
 20
3.2626351326
 30
0.0
 10
3.0315677695
 20
3.2614238658
 30
0.0
 10
3.0287277994
 20
3.2600874026
 30
0.0
 10
3.0261592679
 20
3.258620507
 30
0.0
 10
3.0238848189
 20
3.2570177894
 30
0.0
 10
3.0219251499
 20
3.2552790786
 30
0.0
 10
3.020301654
 20
3.2534041498
 30
0.0
 10
3.0190406725
 20
3.251392316
 30
0.0
 10
3.0181627503
 20
3.2492537563
 30
0.0
 10
3.0176789992
 20
3.247005351
 30
0.0
 10
3.017601818
 20
3.2446657938
 30
0.0
 10
3.0179319361
 20
3.2422587045
 30
0.0
 10
3.0186534248
 20
3.2398045962
 30
0.0
 10
3.0197550797
 20
3.2373230878
 30
0.0
 10
3.0212240079
 20
3.2348352824
 30
0.0
 10
3.0230383223
 20
3.232358508
 30
0.0
 10
3.0251773695
 20
3.2299114916
 30
0.0
 10
3.0276210377
 20
3.227513744
 30
0.0
 10
3.0303473961
 20
3.225182534
 30
0.0
 10
3.032300572
 20
3.2237115766
 30
0.0
 10
3.0333174927
 20
3.222989468
 30
0.0
  0
LINE
  5
336
100
AcDbEntity
  8
ALL_ASSEMBLY_MEMBERS
100
AcDbLine
 62
9
  6
CONTINUOUS
 10
2.930516955
 20
2.7123126886
 11
2.9249205569
 21
2.7414179112
  0
SPLINE
  5
337
100
AcDbEntity
  8
ALL_ASSEMBLY_MEMBERS
100
AcDbSpline
 62
9
  6
CONTINUOUS
 70
0
 71
3
 72
17
 73
13
 74
0
 42
0.0000001
 43
0.0000001
 44
0.0000000001
 40
0.0
 40
0.0
 40
0.0
 40
0.0
 40
0.1251969768
 40
0.2506384782
 40
0.3757800154
 40
0.4383752344
 40
0.5009595349
 40
0.6258407439
 40
0.7505608769
 40
0.8130494576
 40
0.8755925777
 40
1.0
 40
1.0
 40
1.0
 40
1.0
 10
2.6455169093
 20
2.0420993665
 30
0.0
 10
2.6454491033
 20
2.0401034759
 30
0.0
 10
2.6457294359
 20
2.036082776
 30
0.0
 10
2.6473261026
 20
2.0302676034
 30
0.0
 10
2.6495904858
 20
2.0257736547
 30
0.0
 10
2.6519045939
 20
2.0225126068
 30
0.0
 10
2.654530197
 20
2.0195022098
 30
0.0
 10
2.6583507733
 20
2.0162534199
 30
0.0
 10
2.6627436881
 20
2.0138362461
 30
0.0
 10
2.6664891404
 20
2.0124605498
 30
0.0
 10
2.6703482979
 20
2.0114728189
 30
0.0
 10
2.6733409847
 20
2.0111663462
 30
0.0
 10
2.6753254325
 20
2.0111663462
 30
0.0
  0
SPLINE
  5
338
100
AcDbEntity
  8
ALL_ASSEMBLY_MEMBERS
100
AcDbSpline
 62
9
  6
CONTINUOUS
 70
0
 71
3
 72
20
 73
16
 74
0
 42
0.0000001
 43
0.0000001
 44
0.0000000001
 40
0.0
 40
0.0
 40
0.0
 40
0.0
 40
0.0062218054
 40
0.0144726458
 40
0.0370287881
 40
0.0675363758
 40
0.1057957039
 40
0.15147859
 40
0.2041994597
 40
0.2635628683
 40
0.3290697244
 40
0.4761951934
 40
0.6407565884
 40
0.8174795241
 40
1.0
 40
1.0
 40
1.0
 40
1.0
 10
2.6455169093
 20
2.0420993665
 30
0.0
 10
2.6455763063
 20
2.0421166591
 30
0.0
 10
2.6457170421
 20
2.0421477757
 30
0.0
 10
2.6460805758
 20
2.0422063166
 30
0.0
 10
2.6466874609
 20
2.0422684198
 30
0.0
 10
2.6475932826
 20
2.0423314068
 30
0.0
 10
2.6487300817
 20
2.0423851904
 30
0.0
 10
2.650088203
 20
2.0424297002
 30
0.0
 10
2.6516565245
 20
2.0424640958
 30
0.0
 10
2.6534221565
 20
2.0424879539
 30
0.0
 10
2.6561265507
 20
2.0425060491
 30
0.0
 10
2.6598770279
 20
2.0424984891
 30
0.0
 10
2.6647330327
 20
2.0424473001
 30
0.0
 10
2.6699404103
 20
2.0423547168
 30
0.0
 10
2.6735113245
 20
2.0422680971
 30
0.0
 10
2.6753254325
 20
2.0422183304
 30
0.0
  0
SPLINE
  5
339
100
AcDbEntity
  8
ALL_ASSEMBLY_MEMBERS
100
AcDbSpline
 62
9
  6
CONTINUOUS
 70
0
 71
3
 72
20
 73
16
 74
0
 42
0.0000001
 43
0.0000001
 44
0.0000000001
 40
0.0
 40
0.0
 40
0.0
 40
0.0
 40
0.1824734743
 40
0.3591748726
 40
0.5237337209
 40
0.6708694975
 40
0.7363844543
 40
0.7957569427
 40
0.8484872165
 40
0.8941792855
 40
0.9324470367
 40
0.962961816
 40
0.9855235935
 40
0.9937765696
 40
1.0
 40
1.0
 40
1.0
 40
1.0
 10
2.8957489719
 20
2.0422183304
 30
0.0
 10
2.8975649597
 20
2.042220551
 30
0.0
 10
2.9011395153
 20
2.0422135652
 30
0.0
 10
2.9063516053
 20
2.0421696086
 30
0.0
 10
2.911211605
 20
2.0420934318
 30
0.0
 10
2.9149645923
 20
2.0420025906
 30
0.0
 10
2.9176703382
 20
2.0419135191
 30
0.0
 10
2.9194366226
 20
2.0418433106
 30
0.0
 10
2.9210052173
 20
2.0417677332
 30
0.0
 10
2.9223632191
 20
2.0416875496
 30
0.0
 10
2.9234995062
 20
2.0416038932
 30
0.0
 10
2.9244044066
 20
2.0415170884
 30
0.0
 10
2.9250101592
 20
2.0414390145
 30
0.0
 10
2.9253724593
 20
2.0413708936
 30
0.0
 10
2.9255124972
 20
2.0413360631
 30
0.0
 10
2.925571491
 20
2.0413172005
 30
0.0
  0
SPLINE
  5
33A
100
AcDbEntity
  8
ALL_ASSEMBLY_MEMBERS
100
AcDbSpline
 62
7
  6
CONTINUOUS
 70
0
 71
3
 72
19
 73
15
 74
0
 42
0.0000001
 43
0.0000001
 44
0.0000000001
 40
0.0
 40
0.0
 40
0.0
 40
0.0
 40
0.0539986815
 40
0.1074471319
 40
0.1608715237
 40
0.2147777867
 40
0.2696219608
 40
0.3258020165
 40
0.3836493367
 40
0.4434146512
 40
0.5692559623
 40
0.7041973963
 40
0.8481540772
 40
1.0
 40
1.0
 40
1.0
 40
1.0
 10
3.142771103
 20
3.2309725586
 30
0.0
 10
3.1429599531
 20
3.2318363585
 30
0.0
 10
3.1432365746
 20
3.2335787334
 30
0.0
 10
3.1433381337
 20
3.2362169676
 30
0.0
 10
3.1431248008
 20
3.2388472342
 30
0.0
 10
3.1426028709
 20
3.2414568324
 30
0.0
 10
3.1417797782
 20
3.2440346372
 30
0.0
 10
3.1406622216
 20
3.2465692412
 30
0.0
 10
3.1392601424
 20
3.2490506461
 30
0.0
 10
3.1369891669
 20
3.2523326417
 30
0.0
 10
3.1334612413
 20
3.2562504416
 30
0.0
 10
3.128368799
 20
3.2605187614
 30
0.0
 10
3.1224553664
 20
3.264388138
 30
0.0
 10
3.1181502155
 20
3.2666254191
 30
0.0
 10
3.1158965776
 20
3.2676758124
 30
0.0
  0
SPLINE
  5
33B
100
AcDbEntity
  8
ALL_ASSEMBLY_MEMBERS
100
AcDbSpline
 62
7
  6
CONTINUOUS
 70
0
 71
3
 72
18
 73
14
 74
0
 42
0.0000001
 43
0.0000001
 44
0.0000000001
 40
0.0
 40
0.0
 40
0.0
 40
0.0
 40
0.163728737
 40
0.3177773084
 40
0.4600981165
 40
0.5898186976
 40
0.6499458886
 40
0.7069889177
 40
0.8123885409
 40
0.8615037379
 40
0.9087656016
 40
0.9547204483
 40
1.0
 40
1.0
 40
1.0
 40
1.0
 10
3.1158965776
 20
3.2676758124
 30
0.0
 10
3.1185465469
 20
3.2670556189
 30
0.0
 10
3.1236447729
 20
3.265645515
 30
0.0
 10
3.1308145084
 20
3.2629500254
 30
0.0
 10
3.1371605885
 20
3.2597731175
 30
0.0
 10
3.14177331
 20
3.2567035867
 30
0.0
 10
3.1449069522
 20
3.2540462361
 30
0.0
 10
3.1475203786
 20
3.2514242603
 30
0.0
 10
3.1496589567
 20
3.2485939586
 30
0.0
 10
3.151183401
 20
3.2455982922
 30
0.0
 10
3.1519881868
 20
3.2433661889
 30
0.0
 10
3.152473876
 20
3.2411087764
 30
0.0
 10
3.1525819505
 20
3.2395900606
 30
0.0
 10
3.152581928
 20
3.2388374025
 30
0.0
  0
SPLINE
  5
33C
100
AcDbEntity
  8
ALL_ASSEMBLY_MEMBERS
100
AcDbSpline
 62
7
  6
CONTINUOUS
 70
0
 71
3
 72
18
 73
14
 74
0
 42
0.0000001
 43
0.0000001
 44
0.0000000001
 40
0.0
 40
0.0
 40
0.0
 40
0.0
 40
0.1564070259
 40
0.3051974435
 40
0.4446630104
 40
0.5740412284
 40
0.693188129
 40
0.7491232535
 40
0.8027828182
 40
0.8543773851
 40
0.9042017863
 40
0.9526081963
 40
1.0
 40
1.0
 40
1.0
 40
1.0
 10
3.1158965776
 20
3.2676758124
 30
0.0
 10
3.118376562
 20
3.2669564993
 30
0.0
 10
3.1231649504
 20
3.2653679687
 30
0.0
 10
3.1299218914
 20
3.2624738179
 30
0.0
 10
3.1359783116
 20
3.2591520253
 30
0.0
 10
3.1412288909
 20
3.2554573031
 30
0.0
 10
3.1449359289
 20
3.2520333044
 30
0.0
 10
3.1473846555
 20
3.2491532878
 30
0.0
 10
3.1489292534
 20
3.2469817303
 30
0.0
 10
3.1502115258
 20
3.2447610045
 30
0.0
 10
3.1512266134
 20
3.2425002878
 30
0.0
 10
3.151970018
 20
3.2402090135
 30
0.0
 10
3.1522839647
 20
3.2386545482
 30
0.0
 10
3.15239264
 20
3.2378797193
 30
0.0
  0
LINE
  5
33D
100
AcDbEntity
  8
ALL_ASSEMBLY_MEMBERS
100
AcDbLine
 62
9
  6
CONTINUOUS
 10
2.6644986581
 20
2.7406578577
 11
2.6581331342
 21
2.7115255697
  0
SPLINE
  5
33E
100
AcDbEntity
  8
ALL_ASSEMBLY_MEMBERS
100
AcDbSpline
 62
9
  6
CONTINUOUS
 70
0
 71
3
 72
36
 73
32
 74
0
 42
0.0000001
 43
0.0000001
 44
0.0000000001
 40
0.0
 40
0.0
 40
0.0
 40
0.0
 40
0.2270576403
 40
0.3306888482
 40
0.4274384809
 40
0.5171047793
 40
0.5995375808
 40
0.6746014623
 40
0.7421606487
 40
0.8020842298
 40
0.8542665135
 40
0.8774240343
 40
0.8986094482
 40
0.9178104765
 40
0.9350148325
 40
0.9502112598
 40
0.9633941469
 40
0.9745597952
 40
0.9793849993
 40
0.9837045068
 40
0.9875178554
 40
0.9908245827
 40
0.9936242262
 40
0.9959163233
 40
0.9977004114
 40
0.9984018076
 40
0.9989760281
 40
0.9994230151
 40
0.9997427108
 40
0.9999350578
 40
1.0
 40
1.0
 40
1.0
 40
1.0
 10
2.6409073113
 20
2.7968094931
 30
0.0
 10
2.6400150561
 20
2.7926759041
 30
0.0
 10
2.6386911768
 20
2.7866609309
 30
0.0
 10
2.6369340144
 20
2.7788965225
 30
0.0
 10
2.6357228241
 20
2.7736321171
 30
0.0
 10
2.6345841354
 20
2.7687561826
 30
0.0
 10
2.6335234707
 20
2.7642768
 30
0.0
 10
2.6325460395
 20
2.7602008428
 30
0.0
 10
2.6316569349
 20
2.7565348231
 30
0.0
 10
2.63086121
 20
2.7532846735
 30
0.0
 10
2.630257245
 20
2.7508389552
 30
0.0
 10
2.6298238043
 20
2.7490942746
 30
0.0
 10
2.6295375184
 20
2.7479459611
 30
0.0
 10
2.6292772941
 20
2.7469054179
 30
0.0
 10
2.6290435603
 20
2.7459732259
 30
0.0
 10
2.6288367361
 20
2.74514984
 30
0.0
 10
2.6286570211
 20
2.7444356053
 30
0.0
 10
2.6285242179
 20
2.7439087444
 30
0.0
 10
2.628431637
 20
2.7435419825
 30
0.0
 10
2.6283725173
 20
2.743308001
 30
0.0
 10
2.6283202783
 20
2.7431014499
 30
0.0
 10
2.6282749334
 20
2.7429223538
 30
0.0
 10
2.6282365101
 20
2.7427707291
 30
0.0
 10
2.6282049959
 20
2.7426466149
 30
0.0
 10
2.6281831164
 20
2.7425603562
 30
0.0
 10
2.6281690048
 20
2.7425051637
 30
0.0
 10
2.6281611977
 20
2.742474009
 30
0.0
 10
2.6281547207
 20
2.7424499826
 30
0.0
 10
2.6281509711
 20
2.7424322917
 30
0.0
 10
2.6281470988
 20
2.7424225664
 30
0.0
 10
2.6281471399
 20
2.7424172176
 30
0.0
 10
2.6281463011
 20
2.7424163462
 30
0.0
  0
LINE
  5
33F
100
AcDbEntity
  8
ALL_ASSEMBLY_MEMBERS
100
AcDbLine
 62
7
  6
CONTINUOUS
 10
3.1444814056
 20
3.2229894756
 11
3.1487180063
 21
3.2262784862
  0
LINE
  5
340
100
AcDbEntity
  8
ALL_ASSEMBLY_MEMBERS
100
AcDbLine
 62
7
  6
CONTINUOUS
 10
3.1487180063
 20
3.2262784862
 11
3.1517973128
 21
3.2291223047
  0
SPLINE
  5
341
100
AcDbEntity
  8
ALL_ASSEMBLY_MEMBERS
100
AcDbSpline
 62
7
  6
CONTINUOUS
 70
0
 71
3
 72
9
 73
5
 74
0
 42
0.0000001
 43
0.0000001
 44
0.0000000001
 40
0.0
 40
0.0
 40
0.0
 40
0.0
 40
0.5162848163
 40
1.0
 40
1.0
 40
1.0
 40
1.0
 10
3.1517973128
 20
3.2291223047
 30
0.0
 10
3.1526882733
 20
3.230018653
 30
0.0
 10
3.1543438221
 20
3.2318265937
 30
0.0
 10
3.155818857
 20
3.2337867234
 30
0.0
 10
3.1564745491
 20
3.2347727008
 30
0.0
  0
SPLINE
  5
342
100
AcDbEntity
  8
ALL_ASSEMBLY_MEMBERS
100
AcDbSpline
 62
7
  6
CONTINUOUS
 70
0
 71
3
 72
30
 73
26
 74
0
 42
0.0000001
 43
0.0000001
 44
0.0000000001
 40
0.0
 40
0.0
 40
0.0
 40
0.0
 40
0.0519065708
 40
0.075865564
 40
0.0986602449
 40
0.1205003343
 40
0.1416641761
 40
0.1625062942
 40
0.1833957878
 40
0.2046834181
 40
0.2266890618
 40
0.2496828195
 40
0.2738596883
 40
0.3261749053
 40
0.3544714016
 40
0.3841950738
 40
0.4477669543
 40
0.5164841598
 40
0.5526046974
 40
0.5897859458
 40
0.6669714439
 40
0.747366181
 40
0.8302572534
 40
0.9147932049
 40
1.0
 40
1.0
 40
1.0
 40
1.0
 10
3.1564745491
 20
3.2347727008
 30
0.0
 10
3.1573568976
 20
3.2360995061
 30
0.0
 10
3.1585006111
 20
3.2381500897
 30
0.0
 10
3.1595274009
 20
3.2410051194
 30
0.0
 10
3.1600018784
 20
3.2430624032
 30
0.0
 10
3.160193933
 20
3.2450796093
 30
0.0
 10
3.1600950328
 20
3.2470443131
 30
0.0
 10
3.1597080963
 20
3.2489433831
 30
0.0
 10
3.1590397713
 20
3.2507663872
 30
0.0
 10
3.158096827
 20
3.2525039387
 30
0.0
 10
3.1568869972
 20
3.254147205
 30
0.0
 10
3.1554258112
 20
3.2556945467
 30
0.0
 10
3.153100055
 20
3.2576811077
 30
0.0
 10
3.1503668666
 20
3.2594098225
 30
0.0
 10
3.1473352626
 20
3.2609220173
 30
0.0
 10
3.1438991277
 20
3.2623855891
 30
0.0
 10
3.139177217
 20
3.2639706516
 30
0.0
 10
3.1341596579
 20
3.2652317543
 30
0.0
 10
3.12988796
 20
3.2661051624
 30
0.0
 10
3.1253381869
 20
3.2669082067
 30
0.0
 10
3.1194147471
 20
3.2677345314
 30
0.0
 10
3.1120679781
 20
3.2684685776
 30
0.0
 10
3.1044763797
 20
3.2689786431
 30
0.0
 10
3.0967260544
 20
3.2692794101
 30
0.0
 10
3.0915150905
 20
3.2693446288
 30
0.0
 10
3.0888994439
 20
3.2693446288
 30
0.0
  0
SPLINE
  5
343
100
AcDbEntity
  8
ALL_ASSEMBLY_MEMBERS
100
AcDbSpline
 62
9
  6
CONTINUOUS
 70
0
 71
3
 72
36
 73
32
 74
0
 42
0.0000001
 43
0.0000001
 44
0.0000000001
 40
0.0
 40
0.0
 40
0.0
 40
0.0
 40
0.0000647401
 40
0.0002565268
 40
0.0005753196
 40
0.0010210763
 40
0.0015937548
 40
0.0022933128
 40
0.0040728977
 40
0.0063594924
 40
0.0091527584
 40
0.0124523568
 40
0.0162579492
 40
0.020569197
 40
0.0253857615
 40
0.0365334871
 40
0.0496981258
 40
0.0648729789
 40
0.0820488148
 40
0.1012163578
 40
0.1223663378
 40
0.145489491
 40
0.1976163339
 40
0.2574959238
 40
0.3250101564
 40
0.4000404609
 40
0.4824576124
 40
0.5721201475
 40
0.6688861787
 40
0.7725929196
 40
1.0
 40
1.0
 40
1.0
 40
1.0
 10
2.9605168389
 20
2.7424163462
 30
0.0
 10
2.9605160323
 20
2.7424172326
 30
0.0
 10
2.960516219
 20
2.7424225295
 30
0.0
 10
2.9605126485
 20
2.7424322709
 30
0.0
 10
2.9605094161
 20
2.7424499008
 30
0.0
 10
2.9605036535
 20
2.7424738844
 30
0.0
 10
2.9604967662
 20
2.742504969
 30
0.0
 10
2.9604842842
 20
2.7425600505
 30
0.0
 10
2.9604649454
 20
2.7426461385
 30
0.0
 10
2.9604370801
 20
2.7427700191
 30
0.0
 10
2.9604031041
 20
2.7429213731
 30
0.0
 10
2.9603630008
 20
2.7431001684
 30
0.0
 10
2.9603167935
 20
2.7433063942
 30
0.0
 10
2.9602644913
 20
2.7435400321
 30
0.0
 10
2.9601825672
 20
2.743906319
 30
0.0
 10
2.9600650226
 20
2.7444325805
 30
0.0
 10
2.9599059153
 20
2.745146034
 30
0.0
 10
2.9597229004
 20
2.7459684883
 30
0.0
 10
2.9595163145
 20
2.7468995398
 30
0.0
 10
2.9592864909
 20
2.7479387356
 30
0.0
 10
2.9590337668
 20
2.7490856222
 30
0.0
 10
2.9586511691
 20
2.7508286634
 30
0.0
 10
2.9581180495
 20
2.7532726874
 30
0.0
 10
2.9574163569
 20
2.7565210163
 30
0.0
 10
2.9566337602
 20
2.7601856231
 30
0.0
 10
2.9557744394
 20
2.7642604506
 30
0.0
 10
2.954843121
 20
2.7687391011
 30
0.0
 10
2.9538451193
 20
2.7736148368
 30
0.0
 10
2.9527857348
 20
2.7788802608
 30
0.0
 10
2.9512512112
 20
2.7866510336
 30
0.0
 10
2.9500997057
 20
2.792671507
 30
0.0
 10
2.9493259045
 20
2.7968094931
 30
0.0
  0
LINE
  5
344
100
AcDbEntity
  8
ALL_ASSEMBLY_MEMBERS
100
AcDbLine
 62
9
  6
CONTINUOUS
 10
2.6644984621
 20
2.7406578928
 11
2.6455173733
 21
2.0420993533
  0
SPLINE
  5
345
100
AcDbEntity
  8
ALL_ASSEMBLY_MEMBERS
100
AcDbSpline
 62
9
  6
CONTINUOUS
 70
0
 71
3
 72
23
 73
19
 74
0
 42
0.0000001
 43
0.0000001
 44
0.0000000001
 40
0.0
 40
0.0
 40
0.0
 40
0.0
 40
0.1852290179
 40
0.364365189
 40
0.5307265727
 40
0.6073713254
 40
0.678790346
 40
0.7443788258
 40
0.8035356745
 40
0.8557453673
 40
0.9006038734
 40
0.9377181872
 40
0.9532616831
 40
0.9667609429
 40
0.9781960564
 40
0.9875504796
 40
0.9948150224
 40
1.0
 40
1.0
 40
1.0
 40
1.0
 10
2.6943829098
 20
2.7408233843
 30
0.0
 10
2.692536899
 20
2.740872714
 30
0.0
 10
2.6889052735
 20
2.740958013
 30
0.0
 10
2.683614828
 20
2.7410473286
 30
0.0
 10
2.6794063513
 20
2.7410873776
 30
0.0
 10
2.6762716403
 20
2.7410957192
 30
0.0
 10
2.6741415963
 20
2.7410904753
 30
0.0
 10
2.6721859595
 20
2.74107413
 30
0.0
 10
2.6704219732
 20
2.741046793
 30
0.0
 10
2.6688648976
 20
2.7410087561
 30
0.0
 10
2.6675279851
 20
2.7409605202
 30
0.0
 10
2.6665570085
 20
2.740910048
 30
0.0
 10
2.6658991223
 20
2.740862782
 30
0.0
 10
2.6654971075
 20
2.7408272458
 30
0.0
 10
2.665157319
 20
2.7407896643
 30
0.0
 10
2.6648802734
 20
2.7407503779
 30
0.0
 10
2.6646668068
 20
2.7407095006
 30
0.0
 10
2.6645465967
 20
2.7406767389
 30
0.0
 10
2.6644984621
 20
2.7406578928
 30
0.0
  0
LINE
  5
346
100
AcDbEntity
  8
ALL_ASSEMBLY_MEMBERS
100
AcDbLine
 62
9
  6
CONTINUOUS
 10
2.6943829098
 20
2.7408233845
 11
2.6753257574
 21
2.0422183304
  0
SPLINE
  5
347
100
AcDbEntity
  8
ALL_ASSEMBLY_MEMBERS
100
AcDbSpline
 62
9
  6
CONTINUOUS
 70
0
 71
3
 72
9
 73
5
 74
0
 42
0.0000001
 43
0.0000001
 44
0.0000000001
 40
0.0
 40
0.0
 40
0.0
 40
0.0
 40
0.4999372241
 40
1.0
 40
1.0
 40
1.0
 40
1.0
 10
2.6882800941
 20
2.7711968236
 30
0.0
 10
2.6904364457
 20
2.7664692536
 30
0.0
 10
2.6936419816
 20
2.756472351
 30
0.0
 10
2.6945225095
 20
2.7460189446
 30
0.0
 10
2.6943829098
 20
2.7408233845
 30
0.0
  0
SPLINE
  5
348
100
AcDbEntity
  8
ALL_ASSEMBLY_MEMBERS
100
AcDbSpline
 62
9
  6
CONTINUOUS
 70
0
 71
3
 72
9
 73
5
 74
0
 42
0.0000001
 43
0.0000001
 44
0.0000000001
 40
0.0
 40
0.0
 40
0.0
 40
0.0
 40
0.5002007917
 40
1.0
 40
1.0
 40
1.0
 40
1.0
 10
2.6620020313
 20
2.7584596497
 30
0.0
 10
2.6630041216
 20
2.7556198569
 30
0.0
 10
2.6644063445
 20
2.7497172589
 30
0.0
 10
2.6646567025
 20
2.7436627259
 30
0.0
 10
2.6644986165
 20
2.7406578863
 30
0.0
  0
SPLINE
  5
349
100
AcDbEntity
  8
ALL_ASSEMBLY_MEMBERS
100
AcDbSpline
 62
9
  6
CONTINUOUS
 70
0
 71
3
 72
15
 73
11
 74
0
 42
0.0000001
 43
0.0000001
 44
0.0000000001
 40
0.0
 40
0.0
 40
0.0
 40
0.0
 40
0.3278661222
 40
0.4816828934
 40
0.6231796736
 40
0.7487538691
 40
0.855236786
 40
0.9397327804
 40
0.9730238546
 40
1.0
 40
1.0
 40
1.0
 40
1.0
 10
2.6882800941
 20
2.7711968206
 30
0.0
 10
2.6853750856
 20
2.7698735455
 30
0.0
 10
2.6811167262
 20
2.7679084162
 30
0.0
 10
2.6756293045
 20
2.7653194841
 30
0.0
 10
2.6719344227
 20
2.7635472676
 30
0.0
 10
2.6686673152
 20
2.76194902
 30
0.0
 10
2.6659126332
 20
2.7605666301
 30
0.0
 10
2.6639750734
 20
2.7595593598
 30
0.0
 10
2.6627378454
 20
2.7588841306
 30
0.0
 10
2.662227994
 20
2.7585935323
 30
0.0
 10
2.6620020313
 20
2.7584596497
 30
0.0
  0
SPLINE
  5
34A
100
AcDbEntity
  8
ALL_ASSEMBLY_MEMBERS
100
AcDbSpline
 62
9
  6
CONTINUOUS
 70
0
 71
3
 72
15
 73
11
 74
0
 42
0.0000001
 43
0.0000001
 44
0.0000000001
 40
0.0
 40
0.0
 40
0.0
 40
0.0
 40
0.1205188282
 40
0.2424092187
 40
0.365595438
 40
0.490049721
 40
0.6157754564
 40
0.7427551473
 40
0.8709586776
 40
1.0
 40
1.0
 40
1.0
 40
1.0
 10
2.6409088592
 20
2.7968094931
 30
0.0
 10
2.6430066796
 20
2.7961938973
 30
0.0
 10
2.647200789
 20
2.7948672937
 30
0.0
 10
2.6534379307
 20
2.7926073966
 30
0.0
 10
2.6596384959
 20
2.790053961
 30
0.0
 10
2.6657746651
 20
2.7871797594
 30
0.0
 10
2.6718070853
 20
2.7839435417
 30
0.0
 10
2.6776762941
 20
2.7802843763
 30
0.0
 10
2.6832740718
 20
2.7761181195
 30
0.0
 10
2.6867038378
 20
2.7729274695
 30
0.0
 10
2.6882800941
 20
2.7711968236
 30
0.0
  0
SPLINE
  5
34B
100
AcDbEntity
  8
0
100
AcDbSpline
 62
7
  6
CONTINUOUS
 70
0
 71
3
 72
35
 73
31
 74
0
 42
0.0000001
 43
0.0000001
 44
0.0000000001
 40
0.0
 40
0.0
 40
0.0
 40
0.0
 40
0.0198798482
 40
0.0389061
 40
0.0572349263
 40
0.0750085906
 40
0.1093037191
 40
0.1423092093
 40
0.1743589853
 40
0.2056530689
 40
0.2363464043
 40
0.2665723801
 40
0.3259971954
 40
0.3844687642
 40
0.4423690724
 40
0.5
 40
0.5576309276
 40
0.6155312358
 40
0.6740028046
 40
0.7334276199
 40
0.7636535957
 40
0.7943469311
 40
0.8256410147
 40
0.8576907907
 40
0.8906962809
 40
0.9249914094
 40
0.9427650737
 40
0.9610939
 40
0.9801201518
 40
1.0
 40
1.0
 40
1.0
 40
1.0
 10
4.0789644045
 20
4.7848388462
 30
0.0
 10
4.0778203966
 20
4.7848388462
 30
0.0
 10
4.0755810821
 20
4.784893852
 30
0.0
 10
4.0722951168
 20
4.7851349738
 30
0.0
 10
4.0691439965
 20
4.7855111708
 30
0.0
 10
4.0651437326
 20
4.786156052
 30
0.0
 10
4.0603535908
 20
4.787186754
 30
0.0
 10
4.0548499396
 20
4.788746728
 30
0.0
 10
4.0496044834
 20
4.7905512089
 30
0.0
 10
4.0445844825
 20
4.7925782309
 30
0.0
 10
4.0397654564
 20
4.7948048159
 30
0.0
 10
4.0336136259
 20
4.7979889751
 30
0.0
 10
4.0262824519
 20
4.8023560789
 30
0.0
 10
4.0180017301
 20
4.8081824779
 30
0.0
 10
4.0102309803
 20
4.8145102393
 30
0.0
 10
4.0029488447
 20
4.8213232863
 30
0.0
 10
3.9961357977
 20
4.828605422
 30
0.0
 10
3.9898080362
 20
4.8363761717
 30
0.0
 10
3.9839816372
 20
4.8446568935
 30
0.0
 10
3.9796145334
 20
4.8519880675
 30
0.0
 10
3.9764303742
 20
4.858139898
 30
0.0
 10
3.9742037892
 20
4.8629589241
 30
0.0
 10
3.9721767672
 20
4.867978925
 30
0.0
 10
3.9703722863
 20
4.8732243813
 30
0.0
 10
3.9688123124
 20
4.8787280324
 30
0.0
 10
3.9677816104
 20
4.8835181742
 30
0.0
 10
3.9671367292
 20
4.8875184381
 30
0.0
 10
3.9667605322
 20
4.8906695584
 30
0.0
 10
3.9665194103
 20
4.8939555238
 30
0.0
 10
3.9664644045
 20
4.8961948382
 30
0.0
 10
3.9664644045
 20
4.8973388462
 30
0.0
  0
SPLINE
  5
34C
100
AcDbEntity
  8
0
100
AcDbSpline
 62
7
  6
CONTINUOUS
 70
0
 71
3
 72
35
 73
31
 74
0
 42
0.0000001
 43
0.0000001
 44
0.0000000001
 40
0.0
 40
0.0
 40
0.0
 40
0.0
 40
0.0198798482
 40
0.0389061
 40
0.0572349263
 40
0.0750085906
 40
0.1093037191
 40
0.1423092093
 40
0.1743589853
 40
0.2056530689
 40
0.2363464043
 40
0.2665723801
 40
0.3259971954
 40
0.3844687642
 40
0.4423690724
 40
0.5
 40
0.5576309276
 40
0.6155312358
 40
0.6740028046
 40
0.7334276199
 40
0.7636535957
 40
0.7943469311
 40
0.8256410147
 40
0.8576907907
 40
0.8906962809
 40
0.9249914094
 40
0.9427650737
 40
0.9610939
 40
0.9801201518
 40
1.0
 40
1.0
 40
1.0
 40
1.0
 10
4.0789644045
 20
6.0249938462
 30
0.0
 10
4.0778203966
 20
6.0249938462
 30
0.0
 10
4.0755810821
 20
6.0249388403
 30
0.0
 10
4.0722951168
 20
6.0246977185
 30
0.0
 10
4.0691439965
 20
6.0243215215
 30
0.0
 10
4.0651437326
 20
6.0236766403
 30
0.0
 10
4.0603535908
 20
6.0226459383
 30
0.0
 10
4.0548499396
 20
6.0210859643
 30
0.0
 10
4.0496044834
 20
6.0192814834
 30
0.0
 10
4.0445844825
 20
6.0172544614
 30
0.0
 10
4.0397654564
 20
6.0150278764
 30
0.0
 10
4.0336136259
 20
6.0118437172
 30
0.0
 10
4.0262824519
 20
6.0074766134
 30
0.0
 10
4.0180017301
 20
6.0016502145
 30
0.0
 10
4.0102309803
 20
5.995322453
 30
0.0
 10
4.0029488447
 20
5.988509406
 30
0.0
 10
3.9961357977
 20
5.9812272703
 30
0.0
 10
3.9898080362
 20
5.9734565206
 30
0.0
 10
3.9839816372
 20
5.9651757988
 30
0.0
 10
3.9796145334
 20
5.9578446248
 30
0.0
 10
3.9764303742
 20
5.9516927943
 30
0.0
 10
3.9742037892
 20
5.9468737682
 30
0.0
 10
3.9721767672
 20
5.9418537673
 30
0.0
 10
3.9703722863
 20
5.936608311
 30
0.0
 10
3.9688123124
 20
5.9311046599
 30
0.0
 10
3.9677816104
 20
5.9263145181
 30
0.0
 10
3.9671367292
 20
5.9223142542
 30
0.0
 10
3.9667605322
 20
5.9191631339
 30
0.0
 10
3.9665194103
 20
5.9158771685
 30
0.0
 10
3.9664644045
 20
5.9136378541
 30
0.0
 10
3.9664644045
 20
5.9124938462
 30
0.0
  0
SPLINE
  5
34D
100
AcDbEntity
  8
ALL_FEATURES
100
AcDbSpline
 62
7
  6
CONTINUOUS
 70
0
 71
3
 72
25
 73
21
 74
0
 42
0.0000001
 43
0.0000001
 44
0.0000000001
 40
0.0
 40
0.0
 40
0.0
 40
0.0
 40
0.0389120089
 40
0.1481991367
 40
0.2238432499
 40
0.2657404955
 40
0.3098480104
 40
0.3557669529
 40
0.4030644469
 40
0.4512969485
 40
0.4999994102
 40
0.5487020364
 40
0.596934802
 40
0.6442324729
 40
0.6901514933
 40
0.7342590259
 40
0.7761562088
 40
0.8518001232
 40
0.9610879005
 40
1.0
 40
1.0
 40
1.0
 40
1.0
 10
4.0826494439
 20
3.6626663462
 30
0.0
 10
4.0787750075
 20
3.6617152182
 30
0.0
 10
4.0639875971
 20
3.6582155007
 30
0.0
 10
4.0414836191
 20
3.6536552069
 30
0.0
 10
4.0185072351
 20
3.6500221362
 30
0.0
 10
4.0020685957
 20
3.647900023
 30
0.0
 10
3.9886192151
 20
3.6464496889
 30
0.0
 10
3.9745886838
 20
3.6452565099
 30
0.0
 10
3.9601119203
 20
3.6443635762
 30
0.0
 10
3.9453323223
 20
3.6438151556
 30
0.0
 10
3.9303996085
 20
3.6436271094
 30
0.0
 10
3.9154668678
 20
3.6438151597
 30
0.0
 10
3.900687207
 20
3.6443635599
 30
0.0
 10
3.8862103904
 20
3.6452564987
 30
0.0
 10
3.8721798305
 20
3.6464496711
 30
0.0
 10
3.8587304466
 20
3.6479000065
 30
0.0
 10
3.842291831
 20
3.6500221082
 30
0.0
 10
3.8193154068
 20
3.6536551801
 30
0.0
 10
3.7968113736
 20
3.6582154809
 30
0.0
 10
3.7820238893
 20
3.6617152159
 30
0.0
 10
3.7781494439
 20
3.6626663462
 30
0.0
  0
ENDSEC
  0
SECTION
  2
OBJECTS
  0
DICTIONARY
  5
C
100
AcDbDictionary
280
0
281
1
  3
ACAD_GROUP
350
D
  3
ACAD_MLINESTYLE
350
17
  3
ACAD_LAYOUT
350
1A
  3
ACAD_PLOTSETTINGS
350
19
  3
ACAD_PLOTSTYLENAME
350
E
  0
DICTIONARY
  5
D
102
{ACAD_REACTORS
330
C
102
}
100
AcDbDictionary
280
0
281
1
  0
ACDBDICTIONARYWDFLT
  5
E
102
{ACAD_REACTORS
330
C
102
}
100
AcDbDictionary
281
1
  3
Normal
350
F
100
AcDbDictionaryWithDefault
340
F
  0
DICTIONARY
  5
17
102
{ACAD_REACTORS
330
C
102
}
100
AcDbDictionary
280
0
281
1
  3
Standard
350
18
  0
DICTIONARY
  5
19
102
{ACAD_REACTORS
330
C
102
}
100
AcDbDictionary
281
1
  0
DICTIONARY
  5
1A
102
{ACAD_REACTORS
330
C
102
}
100
AcDbDictionary
281
1
  3
Model
350
34E
  3
Layout1
350
34F
  0
ACDBPLACEHOLDER
  5
F
102
{ACAD_REACTORS
330
E
102
}
  0
MLINESTYLE
  5
18
102
{ACAD_REACTORS
330
17
102
}
100
AcDbMlineStyle
  2
STANDARD
 70
0
  3

 62
256
 51
90.0
 52
90.0
 71
2
 49
0.5
 62
256
  6
BYLAYER
 49
-0.5
 62
256
  6
BYLAYER
  0
LAYOUT
  5
34E
102
{ACAD_REACTORS
330
1A
102
}
100
AcDbPlotSettings
  1

  2
none_device
  4
ANSI_A_(11.00_x_8.50_Inches)
  6

 40
0.0
 41
0.0
 42
0.0
 43
0.0
 44
279.4
 45
215.9
 46
0.0
 47
0.0
 48
0.0
 49
0.0
140
0.0
141
0.0
142
1.0
143
1.0
 70
1024
 72
0
 73
0
 74
0
  7

 75
0
147
1.0
148
0.0
149
0.0
100
AcDbLayout
  1
Model
 70
0
 71
0
 10
0.0
 20
0.0
 11
11.0
 21
8.5
 12
0.0
 22
0.0
 32
0.0
 14
0.0
 24
0.0
 34
0.0
 15
0.0
 25
0.0
 35
0.0
146
0.0
 13
0.0
 23
0.0
 33
0.0
 16
1.0
 26
0.0
 36
0.0
 17
0.0
 27
1.0
 37
0.0
 76
0
330
21E
345
0
346
0
  0
LAYOUT
  5
34F
102
{ACAD_REACTORS
330
1A
102
}
100
AcDbPlotSettings
  1

  2
none_device
  4
ANSI_A_(11.00_x_8.50_Inches)
  6

 40
0.0
 41
0.0
 42
0.0
 43
0.0
 44
279.4
 45
215.9
 46
0.0
 47
0.0
 48
0.0
 49
0.0
140
0.0
141
0.0
142
1.0
143
1.0
 70
0
 72
0
 73
0
 74
0
  7

 75
0
147
1.0
148
0.0
149
0.0
100
AcDbLayout
  1
Layout1
 70
0
 71
1
 10
0.0
 20
0.0
 11
11.0
 21
8.5
 12
0.0
 22
0.0
 32
0.0
 14
0.0
 24
0.0
 34
0.0
 15
0.0
 25
0.0
 35
0.0
146
0.0
 13
0.0
 23
0.0
 33
0.0
 16
1.0
 26
0.0
 36
0.0
 17
0.0
 27
1.0
 37
0.0
 76
0
330
21F
345
0
346
0
  0
ENDSEC
  0
EOF
