999
DXF file: 3-914tr_TOP.dxf
999
Pro/ENGINEER 2018400 by Parametric Technology Corporation
  0
SECTION
  2
HEADER
  9
$ACADVER
  1
AC1027
  9
$DWGCODEPAGE
  3
ANSI_1252
  9
$EXTMAX
 10
11.0
 20
8.5
 30
0.0
  9
$EXTMIN
 10
0.0
 20
0.0
 30
0.0
  9
$LIMMIN
 10
0.0
 20
0.0
  9
$LIMMAX
 10
11.0
 20
8.5
  9
$VIEWCTR
 10
5.5
 20
4.25
  9
$VIEWSIZE
 40
8.5
  9
$CLAYER
  8
0
  9
$LTSCALE
 40
0.605
  9
$CELTYPE
  6
BYLAYER
  9
$DIMSCALE
 40
1.0
  9
$DIMASZ
 40
0.1
  9
$DIMEXO
 40
0.0625
  9
$DIMDLI
 40
0.418
  9
$DIMEXE
 40
0.125
  9
$DIMCEN
 40
0.099
  9
$DIMLFAC
 40
1.0
  9
$DIMBLK
  1
_FILLED
  9
$DIMALT
 70
1
  9
$DIMALTD
 70
2
  9
$DIMALTTD
 70
2
  9
$DIMALTF
 40
25.4
  9
$DIMTXT
 40
0.08
  9
$DIMTOL
 70
1
  9
$DIMLIM
 70
0
  9
$DIMTFAC
 40
1.0
  9
$DIMTP
 40
0.001
  9
$DIMTM
 40
0.001
  9
$DIMGAP
 40
0.09
  9
$DIMDSEP
 70
46
  9
$AUNITS
 70
0
  9
$PDMODE
 70
3
  9
$PDSIZE
 40
0.3125
  9
$HANDSEED
  5
47C
  9
$TILEMODE
 70
1
  9
$MEASUREMENT
 70
0
  9
$INSUNITS
 70
1
  0
ENDSEC
  0
SECTION
  2
CLASSES
  0
CLASS
  1
ACDBDICTIONARYWDFLT
  2
AcDbDictionaryWithDefault
  3
AutoCAD 2000
 90
0
 91
1
280
0
281
0
  0
CLASS
  1
ACDBPLACEHOLDER
  2
AcDbPlaceHolder
  3
AutoCAD 2000
 90
0
 91
1
280
0
281
0
  0
CLASS
  1
LAYOUT
  2
AcDbLayout
  3
AutoCAD 2000
 90
0
 91
0
280
0
281
0
  0
ENDSEC
  0
SECTION
  2
TABLES
  0
TABLE
  2
VPORT
  5
8
100
AcDbSymbolTable
 70
2
  0
VPORT
  5
1F4
100
AcDbSymbolTableRecord
100
AcDbViewportTableRecord
  2
*ACTIVE
 70
0
 10
0.0
 20
0.0
 11
1.0
 21
1.0
 12
5.5
 22
4.25
 13
0.0
 23
0.0
 14
1.0
 24
1.0
 15
0.0
 25
0.0
 16
0.0
 26
0.0
 36
1.0
 17
0.0
 27
0.0
 37
0.0
 40
8.5
 41
1.2941176471
 42
50.0
 43
0.0
 44
0.0
 50
0.0
 51
0.0
 71
0
 72
100
 73
1
 74
1
 75
0
 76
0
 77
0
 78
0
  0
ENDTAB
  0
TABLE
  2
LTYPE
  5
5
100
AcDbSymbolTable
 70
6
  0
LTYPE
  5
14
100
AcDbSymbolTableRecord
100
AcDbLinetypeTableRecord
  2
BYBLOCK
 70
0
  3

 72
65
 73
0
 40
0.0
  0
LTYPE
  5
15
100
AcDbSymbolTableRecord
100
AcDbLinetypeTableRecord
  2
BYLAYER
 70
0
  3

 72
65
 73
0
 40
0.0
  0
LTYPE
  5
16
100
AcDbSymbolTableRecord
100
AcDbLinetypeTableRecord
  2
CONTINUOUS
 70
64
  3
Solid line
 72
65
 73
0
 40
0.0
  0
LTYPE
  5
1F5
100
AcDbSymbolTableRecord
100
AcDbLinetypeTableRecord
  2
CENTER
 70
64
  3
____ _ ____ _ ____ _ ____ _ ____ _ ____ _ ____
 72
65
 73
4
 40
0.6
 49
0.375
 74
0
 49
-0.075
 74
0
 49
0.075
 74
0
 49
-0.075
 74
0
  0
LTYPE
  5
1F6
100
AcDbSymbolTableRecord
100
AcDbLinetypeTableRecord
  2
HIDDEN
 70
64
  3
- - - - - - - - - - - - - - - - - - - -
 72
65
 73
2
 40
0.2
 49
0.1
 74
0
 49
-0.1
 74
0
  0
LTYPE
  5
1F7
100
AcDbSymbolTableRecord
100
AcDbLinetypeTableRecord
  2
PHANTOM
 70
64
  3
_____ _ _ _____ _ _ _____ _ _ _____
 72
65
 73
6
 40
0.8
 49
0.45
 74
0
 49
-0.05
 74
0
 49
0.1
 74
0
 49
-0.05
 74
0
 49
0.1
 74
0
 49
-0.05
 74
0
  0
LTYPE
  5
1F8
100
AcDbSymbolTableRecord
100
AcDbLinetypeTableRecord
  2
DOT
 70
64
  3
. . . . . . . . . . . . . . . . . . . .
 72
65
 73
2
 40
0.2
 49
0.1
 74
0
 49
-0.1
 74
0
  0
LTYPE
  5
1F9
100
AcDbSymbolTableRecord
100
AcDbLinetypeTableRecord
  2
DASHED
 70
64
  3
- - - - - - - - - - - - - - - - - - - -
 72
65
 73
2
 40
0.2
 49
0.1
 74
0
 49
-0.1
 74
0
  0
ENDTAB
  0
TABLE
  2
LAYER
  5
2
100
AcDbSymbolTable
 70
36
  0
LAYER
  5
10
100
AcDbSymbolTableRecord
100
AcDbLayerTableRecord
  2
0
 70
0
 62
7
  6
CONTINUOUS
370
-3
390
F
  0
LAYER
  5
1FA
100
AcDbSymbolTableRecord
100
AcDbLayerTableRecord
  2
DEFAULT_1
 70
0
 62
7
  6
CENTER
370
-3
390
F
  0
LAYER
  5
1FB
100
AcDbSymbolTableRecord
100
AcDbLayerTableRecord
  2
DEFAULT_2
 70
0
 62
8
  6
HIDDEN
370
-3
390
F
  0
LAYER
  5
1FC
100
AcDbSymbolTableRecord
100
AcDbLayerTableRecord
  2
DEFAULT_3
 70
0
 62
7
  6
PHANTOM
370
-3
390
F
  0
LAYER
  5
1FD
100
AcDbSymbolTableRecord
100
AcDbLayerTableRecord
  2
1_PLATE
 70
0
 62
7
  6
CONTINUOUS
370
-3
390
F
  0
LAYER
  5
1FE
100
AcDbSymbolTableRecord
100
AcDbLayerTableRecord
  2
2-265_ASSY_PLANES
 70
0
 62
7
  6
CONTINUOUS
370
-3
390
F
  0
LAYER
  5
1FF
100
AcDbSymbolTableRecord
100
AcDbLayerTableRecord
  2
ALL_ASSEMBLY_MEMBERS
 70
0
 62
7
  6
CONTINUOUS
370
-3
390
F
  0
LAYER
  5
200
100
AcDbSymbolTableRecord
100
AcDbLayerTableRecord
  2
ALL_FEATURES
 70
0
 62
7
  6
CONTINUOUS
370
-3
390
F
  0
LAYER
  5
201
100
AcDbSymbolTableRecord
100
AcDbLayerTableRecord
  2
AXES_FEATURES
 70
0
 62
7
  6
CONTINUOUS
370
-3
390
F
  0
LAYER
  5
202
100
AcDbSymbolTableRecord
100
AcDbLayerTableRecord
  2
CHAMFER_FEATURES
 70
0
 62
7
  6
CONTINUOUS
370
-3
390
F
  0
LAYER
  5
203
100
AcDbSymbolTableRecord
100
AcDbLayerTableRecord
  2
CURVES
 70
0
 62
7
  6
CONTINUOUS
370
-3
390
F
  0
LAYER
  5
204
100
AcDbSymbolTableRecord
100
AcDbLayerTableRecord
  2
CUT_FEATURES
 70
0
 62
7
  6
CONTINUOUS
370
-3
390
F
  0
LAYER
  5
205
100
AcDbSymbolTableRecord
100
AcDbLayerTableRecord
  2
DATUM_CURVES
 70
0
 62
7
  6
CONTINUOUS
370
-3
390
F
  0
LAYER
  5
206
100
AcDbSymbolTableRecord
100
AcDbLayerTableRecord
  2
DATUM_PLANES
 70
0
 62
7
  6
CONTINUOUS
370
-3
390
F
  0
LAYER
  5
207
100
AcDbSymbolTableRecord
100
AcDbLayerTableRecord
  2
DATUM_POINTS
 70
0
 62
7
  6
CONTINUOUS
370
-3
390
F
  0
LAYER
  5
208
100
AcDbSymbolTableRecord
100
AcDbLayerTableRecord
  2
DEFAULT_COORDINATE_SYSTEM
 70
0
 62
7
  6
CONTINUOUS
370
-3
390
F
  0
LAYER
  5
209
100
AcDbSymbolTableRecord
100
AcDbLayerTableRecord
  2
DEFAULT_DATUM_AXES
 70
0
 62
7
  6
CONTINUOUS
370
-3
390
F
  0
LAYER
  5
20A
100
AcDbSymbolTableRecord
100
AcDbLayerTableRecord
  2
DEFAULT_DATUM_CURVES
 70
0
 62
7
  6
CONTINUOUS
370
-3
390
F
  0
LAYER
  5
20B
100
AcDbSymbolTableRecord
100
AcDbLayerTableRecord
  2
DEFAULT_DATUM_PLANES
 70
0
 62
7
  6
CONTINUOUS
370
-3
390
F
  0
LAYER
  5
20C
100
AcDbSymbolTableRecord
100
AcDbLayerTableRecord
  2
DEFAULT_SURFACES
 70
0
 62
7
  6
CONTINUOUS
370
-3
390
F
  0
LAYER
  5
20D
100
AcDbSymbolTableRecord
100
AcDbLayerTableRecord
  2
DIMENSIONS
 70
0
 62
7
  6
CONTINUOUS
370
-3
390
F
  0
LAYER
  5
20E
100
AcDbSymbolTableRecord
100
AcDbLayerTableRecord
  2
HOLE_FEATURES
 70
0
 62
7
  6
CONTINUOUS
370
-3
390
F
  0
LAYER
  5
20F
100
AcDbSymbolTableRecord
100
AcDbLayerTableRecord
  2
NOTES
 70
0
 62
7
  6
CONTINUOUS
370
-3
390
F
  0
LAYER
  5
210
100
AcDbSymbolTableRecord
100
AcDbLayerTableRecord
  2
PART_REFERENCE_DIMENSIONS
 70
0
 62
7
  6
CONTINUOUS
370
-3
390
F
  0
LAYER
  5
211
100
AcDbSymbolTableRecord
100
AcDbLayerTableRecord
  2
PLATED_SURFACE_AREA
 70
0
 62
7
  6
CONTINUOUS
370
-3
390
F
  0
LAYER
  5
212
100
AcDbSymbolTableRecord
100
AcDbLayerTableRecord
  2
POINTS
 70
0
 62
7
  6
CONTINUOUS
370
-3
390
F
  0
LAYER
  5
213
100
AcDbSymbolTableRecord
100
AcDbLayerTableRecord
  2
PROTRUSION
 70
0
 62
7
  6
CONTINUOUS
370
-3
390
F
  0
LAYER
  5
214
100
AcDbSymbolTableRecord
100
AcDbLayerTableRecord
  2
PROTRUSION_FEATURES
 70
0
 62
7
  6
CONTINUOUS
370
-3
390
F
  0
LAYER
  5
215
100
AcDbSymbolTableRecord
100
AcDbLayerTableRecord
  2
QUILT
 70
0
 62
7
  6
CONTINUOUS
370
-3
390
F
  0
LAYER
  5
216
100
AcDbSymbolTableRecord
100
AcDbLayerTableRecord
  2
QUILTS
 70
0
 62
7
  6
CONTINUOUS
370
-3
390
F
  0
LAYER
  5
217
100
AcDbSymbolTableRecord
100
AcDbLayerTableRecord
  2
REFERENCE_DIMENSIONS
 70
0
 62
7
  6
CONTINUOUS
370
-3
390
F
  0
LAYER
  5
218
100
AcDbSymbolTableRecord
100
AcDbLayerTableRecord
  2
ROUND_FEATURES
 70
0
 62
7
  6
CONTINUOUS
370
-3
390
F
  0
LAYER
  5
219
100
AcDbSymbolTableRecord
100
AcDbLayerTableRecord
  2
SHELL_FEATURES
 70
0
 62
7
  6
CONTINUOUS
370
-3
390
F
  0
LAYER
  5
21A
100
AcDbSymbolTableRecord
100
AcDbLayerTableRecord
  2
SURFACE_FEATURES
 70
0
 62
7
  6
CONTINUOUS
370
-3
390
F
  0
LAYER
  5
21B
100
AcDbSymbolTableRecord
100
AcDbLayerTableRecord
  2
XSEC_DATUMS
 70
0
 62
7
  6
CONTINUOUS
370
-3
390
F
  0
ENDTAB
  0
TABLE
  2
STYLE
  5
3
100
AcDbSymbolTable
 70
1
  0
STYLE
  5
11
100
AcDbSymbolTableRecord
100
AcDbTextStyleTableRecord
  2
STANDARD
 70
0
 40
0.0
 41
0.8
 50
0.0
 71
0
 42
0.2
  3
txt
  4

  0
STYLE
  5
21C
100
AcDbSymbolTableRecord
100
AcDbTextStyleTableRecord
  2
TEXTSTYLE_1
 70
0
 40
0.0
 41
0.8
 50
0.0
 71
0
 42
0.2
  3
gdt
  4

  0
ENDTAB
  0
TABLE
  2
VIEW
  5
6
100
AcDbSymbolTable
 70
0
  0
ENDTAB
  0
TABLE
  2
UCS
  5
7
100
AcDbSymbolTable
 70
0
  0
ENDTAB
  0
TABLE
  2
APPID
  5
9
100
AcDbSymbolTable
 70
1
  0
APPID
  5
21D
100
AcDbSymbolTableRecord
100
AcDbRegAppTableRecord
  2
ACAD
 70
0
  0
ENDTAB
  0
TABLE
  2
BLOCK_RECORD
  5
1
100
AcDbSymbolTable
 70
0
  0
BLOCK_RECORD
  5
21E
100
AcDbSymbolTableRecord
100
AcDbBlockTableRecord
  2
*Model_Space
  0
BLOCK_RECORD
  5
21F
100
AcDbSymbolTableRecord
100
AcDbBlockTableRecord
  2
*Paper_Space
  0
BLOCK_RECORD
  5
220
100
AcDbSymbolTableRecord
100
AcDbBlockTableRecord
  2
_FILLED
  0
ENDTAB
  0
TABLE
  2
DIMSTYLE
  5
A
100
AcDbSymbolTable
 70
1
100
AcDbDimStyleTable
 71
0
  0
DIMSTYLE
105
221
100
AcDbSymbolTableRecord
100
AcDbDimStyleTableRecord
  2
STANDARD
 70
0
  3

  4

 40
1.0
 41
0.1
 42
0.0625
 43
0.38
 44
0.125
 45
0.0
 46
0.0
 47
0.001
 48
0.001
140
0.08
141
0.09
142
0.0
143
25.4
144
1.0
145
0.0
146
1.0
147
0.09
 71
1.0
 72
0.0
 73
1
 74
1
 75
0
 76
0
 77
0
 78
4
 79
1
170
1
171
2
172
0
173
0
174
0
175
0
176
0
177
0
178
0
270
2
179
3
271
3
272
3
273
2
274
2
275
0
280
0
281
0
282
0
283
1
284
4
285
0
286
0
287
3
288
0
340
11
278
46
341
220
342
220
343
220
344
220
  0
ENDTAB
  0
ENDSEC
  0
SECTION
  2
BLOCKS
  0
BLOCK
  5
20
100
AcDbEntity
  8
0
100
AcDbBlockBegin
  2
*Model_Space
 70
0
 10
0.0
 20
0.0
 30
0.0
  3
*Model_Space
  1

  0
ENDBLK
  5
21
100
AcDbEntity
  8
0
100
AcDbBlockEnd
  0
BLOCK
  5
1C
100
AcDbEntity
  8
0
100
AcDbBlockBegin
  2
*Paper_Space
 70
0
 10
0.0
 20
0.0
 30
0.0
  3
*Paper_Space
  1

  0
ENDBLK
  5
1D
100
AcDbEntity
  8
0
100
AcDbBlockEnd
  0
BLOCK
  5
222
100
AcDbEntity
  8
0
100
AcDbBlockBegin
  2
_FILLED
 70
64
 10
0.0
 20
0.0
  3
_FILLED
  1

  0
SOLID
  5
223
100
AcDbEntity
  8
0
  6
BYBLOCK
 62
0
100
AcDbTrace
 10
0.0
 20
0.0
 11
-1.0
 21
0.2
 12
-1.0
 22
-0.2
 13
-1.0
 23
-0.2
  0
ENDBLK
  5
224
100
AcDbEntity
  8
0
  6
BYBLOCK
 62
0
100
AcDbBlockEnd
  0
ENDSEC
  0
SECTION
  2
ENTITIES
  0
MTEXT
  5
225
100
AcDbEntity
  8
0
100
AcDbMText
 62
2
  6
CONTINUOUS
  7
STANDARD
 71
3
 72
1
 10
3.0442158385
 20
2.7903919615
 30
0.0
 11
1.0
 21
0.0
 31
0.0
 73
2
 44
0.9
  1
SCALE  .500
 40
0.08
 41
0.704
  0
LINE
  5
226
100
AcDbEntity
  8
0
100
AcDbLine
 62
7
  6
CONTINUOUS
 10
0.0
 20
0.0
 11
0.0
 21
8.5
  0
LINE
  5
227
100
AcDbEntity
  8
0
100
AcDbLine
 62
7
  6
CONTINUOUS
 10
0.0
 20
0.0
 11
11.0
 21
0.0
  0
LINE
  5
228
100
AcDbEntity
  8
0
100
AcDbLine
 62
7
  6
CONTINUOUS
 10
0.0
 20
8.5
 11
11.0
 21
8.5
  0
LINE
  5
229
100
AcDbEntity
  8
0
100
AcDbLine
 62
7
  6
CONTINUOUS
 10
11.0
 20
0.0
 11
11.0
 21
8.5
  0
LINE
  5
22A
100
AcDbEntity
  8
1_PLATE
100
AcDbLine
 62
7
  6
CONTINUOUS
 10
3.3367624224
 20
5.5467030385
 11
3.3367624224
 21
5.4712030385
  0
LINE
  5
22B
100
AcDbEntity
  8
ALL_ASSEMBLY_MEMBERS
100
AcDbLine
 62
7
  6
CONTINUOUS
 10
5.0805183197
 20
3.5656326448
 11
5.343006525
 21
3.5656326448
  0
LINE
  5
22C
100
AcDbEntity
  8
ALL_ASSEMBLY_MEMBERS
100
AcDbLine
 62
7
  6
CONTINUOUS
 10
5.0805124224
 20
3.5806326448
 11
5.3430124224
 21
3.5806326448
  0
LINE
  5
22D
100
AcDbEntity
  8
ALL_ASSEMBLY_MEMBERS
100
AcDbLine
 62
7
  6
CONTINUOUS
 10
5.0555124224
 20
3.5906326448
 11
5.3680124224
 21
3.5906326448
  0
LINE
  5
22E
100
AcDbEntity
  8
ALL_ASSEMBLY_MEMBERS
100
AcDbLine
 62
7
  6
CONTINUOUS
 10
5.0117640515
 20
3.6281326448
 11
5.4117607932
 21
3.6281326448
  0
LINE
  5
22F
100
AcDbEntity
  8
ALL_ASSEMBLY_MEMBERS
100
AcDbLine
 62
7
  6
CONTINUOUS
 10
5.0117624308
 20
3.8656326448
 11
5.4117624139
 21
3.8656326448
  0
LINE
  5
230
100
AcDbEntity
  8
ALL_ASSEMBLY_MEMBERS
100
AcDbLine
 62
7
  6
CONTINUOUS
 10
5.0555124224
 20
3.8756326448
 11
5.3680124224
 21
3.8756326448
  0
LINE
  5
231
100
AcDbEntity
  8
ALL_ASSEMBLY_MEMBERS
100
AcDbLine
 62
7
  6
CONTINUOUS
 10
5.1267624224
 20
3.9241326448
 11
5.1467624224
 21
3.9241326448
  0
LINE
  5
232
100
AcDbEntity
  8
ALL_ASSEMBLY_MEMBERS
100
AcDbLine
 62
7
  6
CONTINUOUS
 10
5.2767624224
 20
3.9241326448
 11
5.2967624224
 21
3.9241326448
  0
LINE
  5
233
100
AcDbEntity
  8
ALL_ASSEMBLY_MEMBERS
100
AcDbLine
 62
7
  6
CONTINUOUS
 10
5.3067624224
 20
3.9441326448
 11
5.2880124224
 21
3.9441326448
  0
LINE
  5
234
100
AcDbEntity
  8
ALL_ASSEMBLY_MEMBERS
100
AcDbLine
 62
7
  6
CONTINUOUS
 10
5.1167624224
 20
3.9441326448
 11
5.1355124224
 21
3.9441326448
  0
LINE
  5
235
100
AcDbEntity
  8
ALL_ASSEMBLY_MEMBERS
100
AcDbLine
 62
7
  6
CONTINUOUS
 10
5.2967624224
 20
3.9641326448
 11
5.2767624224
 21
3.9641326448
  0
LINE
  5
236
100
AcDbEntity
  8
ALL_ASSEMBLY_MEMBERS
100
AcDbLine
 62
7
  6
CONTINUOUS
 10
5.1467624224
 20
3.9641326448
 11
5.1267624224
 21
3.9641326448
  0
LINE
  5
237
100
AcDbEntity
  8
ALL_ASSEMBLY_MEMBERS
100
AcDbLine
 62
7
  6
CONTINUOUS
 10
5.0555124224
 20
4.0221326448
 11
5.3680124224
 21
4.0221326448
  0
LINE
  5
238
100
AcDbEntity
  8
ALL_ASSEMBLY_MEMBERS
100
AcDbLine
 62
7
  6
CONTINUOUS
 10
5.0367437605
 20
4.0377576448
 11
5.3867810842
 21
4.0377576448
  0
LINE
  5
239
100
AcDbEntity
  8
ALL_ASSEMBLY_MEMBERS
100
AcDbLine
 62
7
  6
CONTINUOUS
 10
4.7192624224
 20
4.9846080385
 11
4.7192624224
 21
5.2685528843
  0
LINE
  5
23A
100
AcDbEntity
  8
ALL_ASSEMBLY_MEMBERS
100
AcDbLine
 62
7
  6
CONTINUOUS
 10
4.7267624224
 20
4.3602937194
 11
4.7267624224
 21
4.7877576448
  0
LINE
  5
23B
100
AcDbEntity
  8
ALL_ASSEMBLY_MEMBERS
100
AcDbLine
 62
7
  6
CONTINUOUS
 10
4.7270124224
 20
4.93539544
 11
4.7270124224
 21
4.8468127629
  0
LINE
  5
23C
100
AcDbEntity
  8
ALL_ASSEMBLY_MEMBERS
100
AcDbLine
 62
7
  6
CONTINUOUS
 10
4.7271813214
 20
4.93539544
 11
4.7271813214
 21
4.8468127629
  0
LINE
  5
23D
100
AcDbEntity
  8
ALL_ASSEMBLY_MEMBERS
100
AcDbLine
 62
7
  6
CONTINUOUS
 10
4.7294789578
 20
4.9846080385
 11
4.7294789578
 21
4.93539544
  0
LINE
  5
23E
100
AcDbEntity
  8
ALL_ASSEMBLY_MEMBERS
100
AcDbLine
 62
7
  6
CONTINUOUS
 10
4.7294789578
 20
4.8468127629
 11
4.7294789578
 21
4.7877576448
  0
LINE
  5
23F
100
AcDbEntity
  8
ALL_ASSEMBLY_MEMBERS
100
AcDbLine
 62
7
  6
CONTINUOUS
 10
4.7296487209
 20
4.93539544
 11
4.7296487209
 21
4.8468127629
  0
LINE
  5
240
100
AcDbEntity
  8
ALL_ASSEMBLY_MEMBERS
100
AcDbLine
 62
7
  6
CONTINUOUS
 10
4.7417682232
 20
4.8741728727
 11
4.7417682232
 21
4.8687008513
  0
LINE
  5
241
100
AcDbEntity
  8
ALL_ASSEMBLY_MEMBERS
100
AcDbLine
 62
7
  6
CONTINUOUS
 10
4.7420730295
 20
4.9106530184
 11
4.7420730295
 21
4.9051809969
  0
LINE
  5
242
100
AcDbEntity
  8
ALL_ASSEMBLY_MEMBERS
100
AcDbLine
 62
7
  6
CONTINUOUS
 10
4.7433221101
 20
4.8741728727
 11
4.7433221101
 21
4.8687008513
  0
LINE
  5
243
100
AcDbEntity
  8
ALL_ASSEMBLY_MEMBERS
100
AcDbLine
 62
7
  6
CONTINUOUS
 10
4.7436418334
 20
4.9106530184
 11
4.7436418334
 21
4.9070050041
  0
LINE
  5
244
100
AcDbEntity
  8
ALL_ASSEMBLY_MEMBERS
100
AcDbLine
 62
7
  6
CONTINUOUS
 10
4.7456491375
 20
4.8741728727
 11
4.7456491375
 21
4.8687008513
  0
LINE
  5
245
100
AcDbEntity
  8
ALL_ASSEMBLY_MEMBERS
100
AcDbLine
 62
7
  6
CONTINUOUS
 10
4.7459683363
 20
4.9106530184
 11
4.7459683363
 21
4.9070050041
  0
LINE
  5
246
100
AcDbEntity
  8
ALL_ASSEMBLY_MEMBERS
100
AcDbLine
 62
7
  6
CONTINUOUS
 10
4.7522046167
 20
4.9106530184
 11
4.7522046167
 21
4.9070050041
  0
LINE
  5
247
100
AcDbEntity
  8
ALL_ASSEMBLY_MEMBERS
100
AcDbLine
 62
7
  6
CONTINUOUS
 10
4.7525983214
 20
4.8741728727
 11
4.7525983214
 21
4.8687008513
  0
LINE
  5
248
100
AcDbEntity
  8
ALL_ASSEMBLY_MEMBERS
100
AcDbLine
 62
7
  6
CONTINUOUS
 10
4.7542026005
 20
4.9106530184
 11
4.7542026005
 21
4.9051809969
  0
LINE
  5
249
100
AcDbEntity
  8
ALL_ASSEMBLY_MEMBERS
100
AcDbLine
 62
7
  6
CONTINUOUS
 10
4.7546110323
 20
4.8741728727
 11
4.7546110323
 21
4.8687008513
  0
LINE
  5
24A
100
AcDbEntity
  8
ALL_ASSEMBLY_MEMBERS
100
AcDbLine
 62
7
  6
CONTINUOUS
 10
4.756520569
 20
4.9106530184
 11
4.756520569
 21
4.9051809969
  0
LINE
  5
24B
100
AcDbEntity
  8
ALL_ASSEMBLY_MEMBERS
100
AcDbLine
 62
7
  6
CONTINUOUS
 10
4.7569289339
 20
4.8741728727
 11
4.7569289339
 21
4.8687008513
  0
LINE
  5
24C
100
AcDbEntity
  8
ALL_ASSEMBLY_MEMBERS
100
AcDbLine
 62
7
  6
CONTINUOUS
 10
4.7579844791
 20
4.9325411093
 11
4.7579844791
 21
4.8851169182
  0
LINE
  5
24D
100
AcDbEntity
  8
ALL_ASSEMBLY_MEMBERS
100
AcDbLine
 62
7
  6
CONTINUOUS
 10
4.7601885777
 20
4.9234210736
 11
4.7601885777
 21
4.894236954
  0
LINE
  5
24E
100
AcDbEntity
  8
ALL_ASSEMBLY_MEMBERS
100
AcDbLine
 62
7
  6
CONTINUOUS
 10
4.7625069819
 20
4.9234210736
 11
4.7625069819
 21
4.8997089754
  0
LINE
  5
24F
100
AcDbEntity
  8
ALL_ASSEMBLY_MEMBERS
100
AcDbLine
 62
7
  6
CONTINUOUS
 10
4.7728398194
 20
4.8759968799
 11
4.7728398194
 21
4.8723488656
  0
LINE
  5
250
100
AcDbEntity
  8
ALL_ASSEMBLY_MEMBERS
100
AcDbLine
 62
7
  6
CONTINUOUS
 10
4.7744286328
 20
4.9325411093
 11
4.7744286328
 21
4.9234210736
  0
LINE
  5
251
100
AcDbEntity
  8
ALL_ASSEMBLY_MEMBERS
100
AcDbLine
 62
7
  6
CONTINUOUS
 10
4.7755027661
 20
4.877820887
 11
4.7755027661
 21
4.8705248584
  0
LINE
  5
252
100
AcDbEntity
  8
ALL_ASSEMBLY_MEMBERS
100
AcDbLine
 62
7
  6
CONTINUOUS
 10
4.7767574039
 20
4.9325411093
 11
4.7767574039
 21
4.9234210736
  0
LINE
  5
253
100
AcDbEntity
  8
ALL_ASSEMBLY_MEMBERS
100
AcDbLine
 62
7
  6
CONTINUOUS
 10
4.7778327314
 20
4.877820887
 11
4.7778327314
 21
4.8705248584
  0
LINE
  5
254
100
AcDbEntity
  8
ALL_ASSEMBLY_MEMBERS
100
AcDbLine
 62
7
  6
CONTINUOUS
 10
5.0055124224
 20
4.06009019
 11
5.4180124224
 21
4.06009019
  0
LINE
  5
255
100
AcDbEntity
  8
ALL_ASSEMBLY_MEMBERS
100
AcDbLine
 62
7
  6
CONTINUOUS
 10
4.8884912116
 20
4.1627576448
 11
5.5350336332
 21
4.1627576448
  0
LINE
  5
256
100
AcDbEntity
  8
ALL_ASSEMBLY_MEMBERS
100
AcDbLine
 62
7
  6
CONTINUOUS
 10
4.9233368452
 20
4.93539544
 11
4.9233368452
 21
4.8468127629
  0
LINE
  5
257
100
AcDbEntity
  8
ALL_ASSEMBLY_MEMBERS
100
AcDbLine
 62
7
  6
CONTINUOUS
 10
4.9442993975
 20
4.93539544
 11
4.9442993975
 21
4.8468127629
  0
LINE
  5
258
100
AcDbEntity
  8
ALL_ASSEMBLY_MEMBERS
100
AcDbLine
 62
7
  6
CONTINUOUS
 10
4.9457146397
 20
4.93539544
 11
4.9457146397
 21
4.8468127629
  0
LINE
  5
259
100
AcDbEntity
  8
ALL_ASSEMBLY_MEMBERS
100
AcDbLine
 62
7
  6
CONTINUOUS
 10
5.1868720037
 20
4.9307171022
 11
5.1799958746
 21
4.9252450807
  0
LINE
  5
25A
100
AcDbEntity
  8
ALL_ASSEMBLY_MEMBERS
100
AcDbLine
 62
7
  6
CONTINUOUS
 10
5.1167624224
 20
3.9441326448
 11
5.1267624224
 21
3.9241326448
  0
LINE
  5
25B
100
AcDbEntity
  8
ALL_ASSEMBLY_MEMBERS
100
AcDbLine
 62
7
  6
CONTINUOUS
 10
5.1355124224
 20
3.9441326448
 11
5.1455124224
 21
3.9241326448
  0
LINE
  5
25C
100
AcDbEntity
  8
ALL_ASSEMBLY_MEMBERS
100
AcDbLine
 62
7
  6
CONTINUOUS
 10
5.1567624224
 20
3.9441326448
 11
5.1467624224
 21
3.9641326448
  0
LINE
  5
25D
100
AcDbEntity
  8
ALL_ASSEMBLY_MEMBERS
100
AcDbLine
 62
7
  6
CONTINUOUS
 10
5.0117624224
 20
3.6281326448
 11
5.0117624224
 21
3.8656326448
  0
LINE
  5
25E
100
AcDbEntity
  8
ALL_ASSEMBLY_MEMBERS
100
AcDbLine
 62
7
  6
CONTINUOUS
 10
5.0555124224
 20
3.8756326448
 11
5.0555124224
 21
4.0221326448
  0
LINE
  5
25F
100
AcDbEntity
  8
ALL_ASSEMBLY_MEMBERS
100
AcDbLine
 62
7
  6
CONTINUOUS
 10
5.0805124224
 20
3.5656326448
 11
5.0805124224
 21
3.5806326448
  0
LINE
  5
260
100
AcDbEntity
  8
ALL_ASSEMBLY_MEMBERS
100
AcDbLine
 62
7
  6
CONTINUOUS
 10
5.175870198
 20
4.9197730593
 11
5.1731197475
 21
4.9124770306
  0
LINE
  5
261
100
AcDbEntity
  8
ALL_ASSEMBLY_MEMBERS
100
AcDbLine
 62
7
  6
CONTINUOUS
 10
5.1841215513
 20
4.9179490521
 11
5.1786206504
 21
4.9070050041
  0
LINE
  5
262
100
AcDbEntity
  8
ALL_ASSEMBLY_MEMBERS
100
AcDbLine
 62
7
  6
CONTINUOUS
 10
5.2116260598
 20
4.8723488656
 11
5.2061251589
 21
4.8614048214
  0
LINE
  5
263
100
AcDbEntity
  8
ALL_ASSEMBLY_MEMBERS
100
AcDbLine
 62
7
  6
CONTINUOUS
 10
5.1511161379
 20
4.9325411093
 11
5.1428647846
 21
4.9197730593
  0
LINE
  5
264
100
AcDbEntity
  8
ALL_ASSEMBLY_MEMBERS
100
AcDbLine
 62
7
  6
CONTINUOUS
 10
5.1511161379
 20
4.9179490521
 11
5.1428647846
 21
4.9051809969
  0
LINE
  5
265
100
AcDbEntity
  8
ALL_ASSEMBLY_MEMBERS
100
AcDbLine
 62
7
  6
CONTINUOUS
 10
5.1799958746
 20
4.9252450807
 11
5.175870198
 21
4.9197730593
  0
LINE
  5
266
100
AcDbEntity
  8
ALL_ASSEMBLY_MEMBERS
100
AcDbLine
 62
7
  6
CONTINUOUS
 10
5.2405057965
 20
4.9252450807
 11
5.2363801199
 21
4.9197730593
  0
LINE
  5
267
100
AcDbEntity
  8
ALL_ASSEMBLY_MEMBERS
100
AcDbLine
 62
7
  6
CONTINUOUS
 10
5.2143765162
 20
4.8595808142
 11
5.2102508395
 21
4.8541087921
  0
LINE
  5
268
100
AcDbEntity
  8
ALL_ASSEMBLY_MEMBERS
100
AcDbLine
 62
7
  6
CONTINUOUS
 10
5.188247228
 20
4.9215970664
 11
5.1841215513
 21
4.9179490521
  0
LINE
  5
269
100
AcDbEntity
  8
ALL_ASSEMBLY_MEMBERS
100
AcDbLine
 62
7
  6
CONTINUOUS
 10
5.2487571499
 20
4.9215970664
 11
5.2446314732
 21
4.9179490521
  0
LINE
  5
26A
100
AcDbEntity
  8
ALL_ASSEMBLY_MEMBERS
100
AcDbLine
 62
7
  6
CONTINUOUS
 10
5.2061251589
 20
4.8614048214
 11
5.2019994822
 21
4.8577568071
  0
LINE
  5
26B
100
AcDbEntity
  8
ALL_ASSEMBLY_MEMBERS
100
AcDbLine
 62
7
  6
CONTINUOUS
 10
5.2666350848
 20
4.8614048214
 11
5.2625094081
 21
4.8577568071
  0
LINE
  5
26C
100
AcDbEntity
  8
ALL_ASSEMBLY_MEMBERS
100
AcDbLine
 62
7
  6
CONTINUOUS
 10
5.2473819296
 20
4.9307171022
 11
5.2405057965
 21
4.9252450807
  0
LINE
  5
26D
100
AcDbEntity
  8
ALL_ASSEMBLY_MEMBERS
100
AcDbLine
 62
7
  6
CONTINUOUS
 10
5.2102508395
 20
4.8541087921
 11
5.2033747104
 21
4.8486367702
  0
LINE
  5
26E
100
AcDbEntity
  8
ALL_ASSEMBLY_MEMBERS
100
AcDbLine
 62
7
  6
CONTINUOUS
 10
5.2707607614
 20
4.8541087921
 11
5.2638846363
 21
4.8486367702
  0
LINE
  5
26F
100
AcDbEntity
  8
ALL_ASSEMBLY_MEMBERS
100
AcDbLine
 62
7
  6
CONTINUOUS
 10
4.7267624224
 20
4.3602937194
 11
5.6967624224
 21
4.3602937194
  0
LINE
  5
270
100
AcDbEntity
  8
ALL_ASSEMBLY_MEMBERS
100
AcDbLine
 62
7
  6
CONTINUOUS
 10
5.2667624224
 20
3.9441326448
 11
5.2767624224
 21
3.9241326448
  0
LINE
  5
271
100
AcDbEntity
  8
ALL_ASSEMBLY_MEMBERS
100
AcDbLine
 62
7
  6
CONTINUOUS
 10
5.2880124224
 20
3.9441326448
 11
5.2780124224
 21
3.9641326448
  0
LINE
  5
272
100
AcDbEntity
  8
ALL_ASSEMBLY_MEMBERS
100
AcDbLine
 62
7
  6
CONTINUOUS
 10
5.3067624224
 20
3.9441326448
 11
5.2967624224
 21
3.9641326448
  0
LINE
  5
273
100
AcDbEntity
  8
ALL_ASSEMBLY_MEMBERS
100
AcDbLine
 62
7
  6
CONTINUOUS
 10
5.1198878589
 20
4.0377576448
 11
5.1198878589
 21
4.0221326448
  0
LINE
  5
274
100
AcDbEntity
  8
ALL_ASSEMBLY_MEMBERS
100
AcDbLine
 62
7
  6
CONTINUOUS
 10
5.1227719617
 20
4.0377576448
 11
5.1227719617
 21
4.0221326448
  0
LINE
  5
275
100
AcDbEntity
  8
ALL_ASSEMBLY_MEMBERS
100
AcDbLine
 62
7
  6
CONTINUOUS
 10
5.1309908255
 20
4.0377576448
 11
5.1309908255
 21
4.0221326448
  0
LINE
  5
276
100
AcDbEntity
  8
ALL_ASSEMBLY_MEMBERS
100
AcDbLine
 62
7
  6
CONTINUOUS
 10
5.1392040555
 20
4.0377576448
 11
5.1392040555
 21
4.0221326448
  0
LINE
  5
277
100
AcDbEntity
  8
ALL_ASSEMBLY_MEMBERS
100
AcDbLine
 62
7
  6
CONTINUOUS
 10
5.1428647846
 20
4.9197730593
 11
5.1428647846
 21
4.9051809969
  0
LINE
  5
278
100
AcDbEntity
  8
ALL_ASSEMBLY_MEMBERS
100
AcDbLine
 62
7
  6
CONTINUOUS
 10
5.1506545852
 20
4.0221326448
 11
5.1506545852
 21
4.0377576448
  0
LINE
  5
279
100
AcDbEntity
  8
ALL_ASSEMBLY_MEMBERS
100
AcDbLine
 62
7
  6
CONTINUOUS
 10
5.1511161379
 20
4.9179490521
 11
5.1511161379
 21
4.8468127629
  0
LINE
  5
27A
100
AcDbEntity
  8
ALL_ASSEMBLY_MEMBERS
100
AcDbLine
 62
7
  6
CONTINUOUS
 10
5.1543905355
 20
4.0377576448
 11
5.1543905355
 21
4.0221326448
  0
LINE
  5
27B
100
AcDbEntity
  8
ALL_ASSEMBLY_MEMBERS
100
AcDbLine
 62
7
  6
CONTINUOUS
 10
5.1593674913
 20
4.9325411093
 11
5.1593674913
 21
4.8468127629
  0
LINE
  5
27C
100
AcDbEntity
  8
ALL_ASSEMBLY_MEMBERS
100
AcDbLine
 62
7
  6
CONTINUOUS
 10
5.1666825029
 20
4.0377576448
 11
5.1666825029
 21
4.0221326448
  0
LINE
  5
27D
100
AcDbEntity
  8
ALL_ASSEMBLY_MEMBERS
100
AcDbLine
 62
7
  6
CONTINUOUS
 10
5.1703692951
 20
4.8978849683
 11
5.1703692951
 21
4.8814689039
  0
LINE
  5
27E
100
AcDbEntity
  8
ALL_ASSEMBLY_MEMBERS
100
AcDbLine
 62
7
  6
CONTINUOUS
 10
5.1760872788
 20
4.0221326448
 11
5.1760872788
 21
4.0377576448
  0
LINE
  5
27F
100
AcDbEntity
  8
ALL_ASSEMBLY_MEMBERS
100
AcDbLine
 62
7
  6
CONTINUOUS
 10
5.1772454222
 20
4.8960609611
 11
5.1772454222
 21
4.8832929111
  0
LINE
  5
280
100
AcDbEntity
  8
ALL_ASSEMBLY_MEMBERS
100
AcDbLine
 62
7
  6
CONTINUOUS
 10
5.1822624224
 20
4.5176778485
 11
5.1822624224
 21
4.5232058549
  0
LINE
  5
281
100
AcDbEntity
  8
ALL_ASSEMBLY_MEMBERS
100
AcDbLine
 62
7
  6
CONTINUOUS
 10
5.1849772776
 20
4.0221326448
 11
5.1849772776
 21
4.0377576448
  0
LINE
  5
282
100
AcDbEntity
  8
ALL_ASSEMBLY_MEMBERS
100
AcDbLine
 62
7
  6
CONTINUOUS
 10
5.1865245952
 20
4.0377576448
 11
5.1865245952
 21
4.0221326448
  0
LINE
  5
283
100
AcDbEntity
  8
ALL_ASSEMBLY_MEMBERS
100
AcDbLine
 62
7
  6
CONTINUOUS
 10
5.2010239594
 20
4.0377576448
 11
5.2010239594
 21
4.0221326448
  0
LINE
  5
284
100
AcDbEntity
  8
ALL_ASSEMBLY_MEMBERS
100
AcDbLine
 62
7
  6
CONTINUOUS
 10
5.2017629377
 20
5.1196080385
 11
5.2017629377
 21
5.0396080385
  0
LINE
  5
285
100
AcDbEntity
  8
ALL_ASSEMBLY_MEMBERS
100
AcDbLine
 62
7
  6
CONTINUOUS
 10
5.2069511897
 20
4.0221326448
 11
5.2069511897
 21
4.0377576448
  0
LINE
  5
286
100
AcDbEntity
  8
ALL_ASSEMBLY_MEMBERS
100
AcDbLine
 62
7
  6
CONTINUOUS
 10
5.213001288
 20
4.8960609611
 11
5.213001288
 21
4.8832929111
  0
LINE
  5
287
100
AcDbEntity
  8
ALL_ASSEMBLY_MEMBERS
100
AcDbLine
 62
7
  6
CONTINUOUS
 10
5.216573655
 20
4.0221326448
 11
5.216573655
 21
4.0377576448
  0
LINE
  5
288
100
AcDbEntity
  8
ALL_ASSEMBLY_MEMBERS
100
AcDbLine
 62
7
  6
CONTINUOUS
 10
5.2198774132
 20
4.8978849683
 11
5.2198774132
 21
4.8814689039
  0
LINE
  5
289
100
AcDbEntity
  8
ALL_ASSEMBLY_MEMBERS
100
AcDbLine
 62
7
  6
CONTINUOUS
 10
5.221761907
 20
5.1196080385
 11
5.221761907
 21
5.0396080385
  0
LINE
  5
28A
100
AcDbEntity
  8
ALL_ASSEMBLY_MEMBERS
100
AcDbLine
 62
7
  6
CONTINUOUS
 10
5.2225008853
 20
4.0377576448
 11
5.2225008853
 21
4.0221326448
  0
LINE
  5
28B
100
AcDbEntity
  8
ALL_ASSEMBLY_MEMBERS
100
AcDbLine
 62
7
  6
CONTINUOUS
 10
5.1786206504
 20
4.9070050041
 11
5.1772454222
 21
4.8960609611
  0
LINE
  5
28C
100
AcDbEntity
  8
ALL_ASSEMBLY_MEMBERS
100
AcDbLine
 62
7
  6
CONTINUOUS
 10
5.213001288
 20
4.8832929111
 11
5.2116260598
 21
4.8723488656
  0
LINE
  5
28D
100
AcDbEntity
  8
ALL_ASSEMBLY_MEMBERS
100
AcDbLine
 62
7
  6
CONTINUOUS
 10
5.2391305762
 20
4.9070050041
 11
5.237755348
 21
4.8960609611
  0
LINE
  5
28E
100
AcDbEntity
  8
ALL_ASSEMBLY_MEMBERS
100
AcDbLine
 62
7
  6
CONTINUOUS
 10
5.1717445213
 20
4.9070050041
 11
5.1703692951
 21
4.8978849683
  0
LINE
  5
28F
100
AcDbEntity
  8
ALL_ASSEMBLY_MEMBERS
100
AcDbLine
 62
7
  6
CONTINUOUS
 10
5.2198774132
 20
4.8814689039
 11
5.2185021929
 21
4.8723488656
  0
LINE
  5
290
100
AcDbEntity
  8
ALL_ASSEMBLY_MEMBERS
100
AcDbLine
 62
7
  6
CONTINUOUS
 10
5.2322544432
 20
4.9070050041
 11
5.2308792229
 21
4.8978849683
  0
LINE
  5
291
100
AcDbEntity
  8
ALL_ASSEMBLY_MEMBERS
100
AcDbLine
 62
7
  6
CONTINUOUS
 10
5.1731197475
 20
4.9124770306
 11
5.1717445213
 21
4.9070050041
  0
LINE
  5
292
100
AcDbEntity
  8
ALL_ASSEMBLY_MEMBERS
100
AcDbLine
 62
7
  6
CONTINUOUS
 10
5.2185021929
 20
4.8723488656
 11
5.2171269647
 21
4.8668768441
  0
LINE
  5
293
100
AcDbEntity
  8
ALL_ASSEMBLY_MEMBERS
100
AcDbLine
 62
7
  6
CONTINUOUS
 10
5.2336296714
 20
4.9124770306
 11
5.2322544432
 21
4.9070050041
  0
LINE
  5
294
100
AcDbEntity
  8
ALL_ASSEMBLY_MEMBERS
100
AcDbLine
 62
7
  6
CONTINUOUS
 10
5.2790121148
 20
4.8723488656
 11
5.2776368945
 21
4.8668768441
  0
LINE
  5
295
100
AcDbEntity
  8
ALL_ASSEMBLY_MEMBERS
100
AcDbLine
 62
7
  6
CONTINUOUS
 10
5.2363801199
 20
4.9197730593
 11
5.2336296714
 21
4.9124770306
  0
LINE
  5
296
100
AcDbEntity
  8
ALL_ASSEMBLY_MEMBERS
100
AcDbLine
 62
7
  6
CONTINUOUS
 10
5.2171269647
 20
4.8668768441
 11
5.2143765162
 21
4.8595808142
  0
LINE
  5
297
100
AcDbEntity
  8
ALL_ASSEMBLY_MEMBERS
100
AcDbLine
 62
7
  6
CONTINUOUS
 10
5.2776368945
 20
4.8668768441
 11
5.2748864381
 21
4.8595808142
  0
LINE
  5
298
100
AcDbEntity
  8
ALL_ASSEMBLY_MEMBERS
100
AcDbLine
 62
7
  6
CONTINUOUS
 10
5.2446314732
 20
4.9179490521
 11
5.2391305762
 21
4.9070050041
  0
LINE
  5
299
100
AcDbEntity
  8
ALL_ASSEMBLY_MEMBERS
100
AcDbLine
 62
7
  6
CONTINUOUS
 10
5.2721359896
 20
4.8723488656
 11
5.2666350848
 21
4.8614048214
  0
LINE
  5
29A
100
AcDbEntity
  8
ALL_ASSEMBLY_MEMBERS
100
AcDbLine
 62
7
  6
CONTINUOUS
 10
5.2748864381
 20
4.8595808142
 11
5.2707607614
 21
4.8541087921
  0
LINE
  5
29B
100
AcDbEntity
  8
ALL_ASSEMBLY_MEMBERS
100
AcDbLine
 62
7
  6
CONTINUOUS
 10
5.2382786883
 20
4.5245076448
 11
5.217169029
 21
4.5245076448
  0
LINE
  5
29C
100
AcDbEntity
  8
ALL_ASSEMBLY_MEMBERS
100
AcDbLine
 62
7
  6
CONTINUOUS
 10
5.2063558158
 20
4.5245076448
 11
5.1852461564
 21
4.5245076448
  0
LINE
  5
29D
100
AcDbEntity
  8
ALL_ASSEMBLY_MEMBERS
100
AcDbLine
 62
7
  6
CONTINUOUS
 10
5.1717445213
 20
4.8723488656
 11
5.1703692951
 21
4.8814689039
  0
LINE
  5
29E
100
AcDbEntity
  8
ALL_ASSEMBLY_MEMBERS
100
AcDbLine
 62
7
  6
CONTINUOUS
 10
5.1786206504
 20
4.8723488656
 11
5.1772454222
 21
4.8832929111
  0
LINE
  5
29F
100
AcDbEntity
  8
ALL_ASSEMBLY_MEMBERS
100
AcDbLine
 62
7
  6
CONTINUOUS
 10
5.2308792229
 20
4.8978849683
 11
5.2308792229
 21
4.8814689039
  0
LINE
  5
2A0
100
AcDbEntity
  8
ALL_ASSEMBLY_MEMBERS
100
AcDbLine
 62
7
  6
CONTINUOUS
 10
5.2370002495
 20
4.0377576448
 11
5.2370002495
 21
4.0221326448
  0
LINE
  5
2A1
100
AcDbEntity
  8
ALL_ASSEMBLY_MEMBERS
100
AcDbLine
 62
7
  6
CONTINUOUS
 10
5.237755348
 20
4.8960609611
 11
5.237755348
 21
4.8832929111
  0
LINE
  5
2A2
100
AcDbEntity
  8
ALL_ASSEMBLY_MEMBERS
100
AcDbLine
 62
7
  6
CONTINUOUS
 10
5.2385475671
 20
4.0221326448
 11
5.2385475671
 21
4.0377576448
  0
LINE
  5
2A3
100
AcDbEntity
  8
ALL_ASSEMBLY_MEMBERS
100
AcDbLine
 62
7
  6
CONTINUOUS
 10
5.2412624224
 20
4.5176778485
 11
5.2412624224
 21
4.5232058549
  0
LINE
  5
2A4
100
AcDbEntity
  8
ALL_ASSEMBLY_MEMBERS
100
AcDbLine
 62
7
  6
CONTINUOUS
 10
5.2474375659
 20
4.0221326448
 11
5.2474375659
 21
4.0377576448
  0
LINE
  5
2A5
100
AcDbEntity
  8
ALL_ASSEMBLY_MEMBERS
100
AcDbLine
 62
7
  6
CONTINUOUS
 10
5.2568423418
 20
4.0377576448
 11
5.2568423418
 21
4.0221326448
  0
LINE
  5
2A6
100
AcDbEntity
  8
ALL_ASSEMBLY_MEMBERS
100
AcDbLine
 62
7
  6
CONTINUOUS
 10
5.2691343092
 20
4.0377576448
 11
5.2691343092
 21
4.0221326448
  0
LINE
  5
2A7
100
AcDbEntity
  8
ALL_ASSEMBLY_MEMBERS
100
AcDbLine
 62
7
  6
CONTINUOUS
 10
5.2728702596
 20
4.0221326448
 11
5.2728702596
 21
4.0377576448
  0
LINE
  5
2A8
100
AcDbEntity
  8
ALL_ASSEMBLY_MEMBERS
100
AcDbLine
 62
7
  6
CONTINUOUS
 10
5.2735112099
 20
4.8960609611
 11
5.2735112099
 21
4.8832929111
  0
LINE
  5
2A9
100
AcDbEntity
  8
ALL_ASSEMBLY_MEMBERS
100
AcDbLine
 62
7
  6
CONTINUOUS
 10
5.2803873351
 20
4.8978849683
 11
5.2803873351
 21
4.8814689039
  0
LINE
  5
2AA
100
AcDbEntity
  8
ALL_ASSEMBLY_MEMBERS
100
AcDbLine
 62
7
  6
CONTINUOUS
 10
5.2843207892
 20
4.0377576448
 11
5.2843207892
 21
4.0221326448
  0
LINE
  5
2AB
100
AcDbEntity
  8
ALL_ASSEMBLY_MEMBERS
100
AcDbLine
 62
7
  6
CONTINUOUS
 10
5.2925340192
 20
4.0377576448
 11
5.2925340192
 21
4.0221326448
  0
LINE
  5
2AC
100
AcDbEntity
  8
ALL_ASSEMBLY_MEMBERS
100
AcDbLine
 62
7
  6
CONTINUOUS
 10
5.300752883
 20
4.0377576448
 11
5.300752883
 21
4.0221326448
  0
LINE
  5
2AD
100
AcDbEntity
  8
ALL_ASSEMBLY_MEMBERS
100
AcDbLine
 62
7
  6
CONTINUOUS
 10
5.3036369858
 20
4.0377576448
 11
5.3036369858
 21
4.0221326448
  0
LINE
  5
2AE
100
AcDbEntity
  8
ALL_ASSEMBLY_MEMBERS
100
AcDbLine
 62
7
  6
CONTINUOUS
 10
5.3430124224
 20
3.5656326448
 11
5.3430124224
 21
3.5806326448
  0
LINE
  5
2AF
100
AcDbEntity
  8
ALL_ASSEMBLY_MEMBERS
100
AcDbLine
 62
7
  6
CONTINUOUS
 10
5.3680124224
 20
3.8756326448
 11
5.3680124224
 21
4.0221326448
  0
LINE
  5
2B0
100
AcDbEntity
  8
ALL_ASSEMBLY_MEMBERS
100
AcDbLine
 62
7
  6
CONTINUOUS
 10
5.2735112099
 20
4.8832929111
 11
5.2721359896
 21
4.8723488656
  0
LINE
  5
2B1
100
AcDbEntity
  8
ALL_ASSEMBLY_MEMBERS
100
AcDbLine
 62
7
  6
CONTINUOUS
 10
5.2803873351
 20
4.8814689039
 11
5.2790121148
 21
4.8723488656
  0
LINE
  5
2B2
100
AcDbEntity
  8
ALL_ASSEMBLY_MEMBERS
100
AcDbLine
 62
7
  6
CONTINUOUS
 10
5.1799958746
 20
4.8541087921
 11
5.175870198
 21
4.8595808142
  0
LINE
  5
2B3
100
AcDbEntity
  8
ALL_ASSEMBLY_MEMBERS
100
AcDbLine
 62
7
  6
CONTINUOUS
 10
5.1841215513
 20
4.8614048214
 11
5.1786206504
 21
4.8723488656
  0
LINE
  5
2B4
100
AcDbEntity
  8
ALL_ASSEMBLY_MEMBERS
100
AcDbLine
 62
7
  6
CONTINUOUS
 10
5.2116260598
 20
4.9070050041
 11
5.2061251589
 21
4.9179490521
  0
LINE
  5
2B5
100
AcDbEntity
  8
ALL_ASSEMBLY_MEMBERS
100
AcDbLine
 62
7
  6
CONTINUOUS
 10
5.2446314732
 20
4.8614048214
 11
5.2391305762
 21
4.8723488656
  0
LINE
  5
2B6
100
AcDbEntity
  8
ALL_ASSEMBLY_MEMBERS
100
AcDbLine
 62
7
  6
CONTINUOUS
 10
5.175870198
 20
4.8595808142
 11
5.1731197475
 21
4.8668768441
  0
LINE
  5
2B7
100
AcDbEntity
  8
ALL_ASSEMBLY_MEMBERS
100
AcDbLine
 62
7
  6
CONTINUOUS
 10
5.2363801199
 20
4.8595808142
 11
5.2336296714
 21
4.8668768441
  0
LINE
  5
2B8
100
AcDbEntity
  8
ALL_ASSEMBLY_MEMBERS
100
AcDbLine
 62
7
  6
CONTINUOUS
 10
5.2171269647
 20
4.9124770306
 11
5.2143765162
 21
4.9197730593
  0
LINE
  5
2B9
100
AcDbEntity
  8
ALL_ASSEMBLY_MEMBERS
100
AcDbLine
 62
7
  6
CONTINUOUS
 10
5.1731197475
 20
4.8668768441
 11
5.1717445213
 21
4.8723488656
  0
LINE
  5
2BA
100
AcDbEntity
  8
ALL_ASSEMBLY_MEMBERS
100
AcDbLine
 62
7
  6
CONTINUOUS
 10
5.2185021929
 20
4.9070050041
 11
5.2171269647
 21
4.9124770306
  0
LINE
  5
2BB
100
AcDbEntity
  8
ALL_ASSEMBLY_MEMBERS
100
AcDbLine
 62
7
  6
CONTINUOUS
 10
5.2336296714
 20
4.8668768441
 11
5.2322544432
 21
4.8723488656
  0
LINE
  5
2BC
100
AcDbEntity
  8
ALL_ASSEMBLY_MEMBERS
100
AcDbLine
 62
7
  6
CONTINUOUS
 10
5.2790121148
 20
4.9070050041
 11
5.2776368945
 21
4.9124770306
  0
LINE
  5
2BD
100
AcDbEntity
  8
ALL_ASSEMBLY_MEMBERS
100
AcDbLine
 62
7
  6
CONTINUOUS
 10
5.2198774132
 20
4.8978849683
 11
5.2185021929
 21
4.9070050041
  0
LINE
  5
2BE
100
AcDbEntity
  8
ALL_ASSEMBLY_MEMBERS
100
AcDbLine
 62
7
  6
CONTINUOUS
 10
5.2322544432
 20
4.8723488656
 11
5.2308792229
 21
4.8814689039
  0
LINE
  5
2BF
100
AcDbEntity
  8
ALL_ASSEMBLY_MEMBERS
100
AcDbLine
 62
7
  6
CONTINUOUS
 10
5.2803873351
 20
4.8978849683
 11
5.2790121148
 21
4.9070050041
  0
LINE
  5
2C0
100
AcDbEntity
  8
ALL_ASSEMBLY_MEMBERS
100
AcDbLine
 62
7
  6
CONTINUOUS
 10
5.213001288
 20
4.8960609611
 11
5.2116260598
 21
4.9070050041
  0
LINE
  5
2C1
100
AcDbEntity
  8
ALL_ASSEMBLY_MEMBERS
100
AcDbLine
 62
7
  6
CONTINUOUS
 10
5.2391305762
 20
4.8723488656
 11
5.237755348
 21
4.8832929111
  0
LINE
  5
2C2
100
AcDbEntity
  8
ALL_ASSEMBLY_MEMBERS
100
AcDbLine
 62
7
  6
CONTINUOUS
 10
5.2735112099
 20
4.8960609611
 11
5.2721359896
 21
4.9070050041
  0
LINE
  5
2C3
100
AcDbEntity
  8
ALL_ASSEMBLY_MEMBERS
100
AcDbLine
 62
7
  6
CONTINUOUS
 10
5.4117624224
 20
3.6281326448
 11
5.4117624224
 21
3.8656326448
  0
LINE
  5
2C4
100
AcDbEntity
  8
ALL_ASSEMBLY_MEMBERS
100
AcDbLine
 62
7
  6
CONTINUOUS
 10
5.477810205
 20
4.93539544
 11
5.477810205
 21
4.8468127629
  0
LINE
  5
2C5
100
AcDbEntity
  8
ALL_ASSEMBLY_MEMBERS
100
AcDbLine
 62
7
  6
CONTINUOUS
 10
5.4792254472
 20
4.93539544
 11
5.4792254472
 21
4.8468127629
  0
LINE
  5
2C6
100
AcDbEntity
  8
ALL_ASSEMBLY_MEMBERS
100
AcDbLine
 62
7
  6
CONTINUOUS
 10
5.5001879995
 20
4.93539544
 11
5.5001879995
 21
4.8468127629
  0
LINE
  5
2C7
100
AcDbEntity
  8
ALL_ASSEMBLY_MEMBERS
100
AcDbLine
 62
7
  6
CONTINUOUS
 10
5.1267624224
 20
3.9641326448
 11
5.1167624224
 21
3.9441326448
  0
LINE
  5
2C8
100
AcDbEntity
  8
ALL_ASSEMBLY_MEMBERS
100
AcDbLine
 62
7
  6
CONTINUOUS
 10
5.1455124224
 20
3.9641326448
 11
5.1355124224
 21
3.9441326448
  0
LINE
  5
2C9
100
AcDbEntity
  8
ALL_ASSEMBLY_MEMBERS
100
AcDbLine
 62
7
  6
CONTINUOUS
 10
5.1467624224
 20
3.9241326448
 11
5.1567624224
 21
3.9441326448
  0
LINE
  5
2CA
100
AcDbEntity
  8
ALL_ASSEMBLY_MEMBERS
100
AcDbLine
 62
7
  6
CONTINUOUS
 10
5.2625094081
 20
4.8577568071
 11
5.2556332829
 21
4.8559327999
  0
LINE
  5
2CB
100
AcDbEntity
  8
ALL_ASSEMBLY_MEMBERS
100
AcDbLine
 62
7
  6
CONTINUOUS
 10
5.2019994822
 20
4.8577568071
 11
5.1951233571
 21
4.8559327999
  0
LINE
  5
2CC
100
AcDbEntity
  8
ALL_ASSEMBLY_MEMBERS
100
AcDbLine
 62
7
  6
CONTINUOUS
 10
5.2638846363
 20
4.8486367702
 11
5.2556332829
 21
4.8468127629
  0
LINE
  5
2CD
100
AcDbEntity
  8
ALL_ASSEMBLY_MEMBERS
100
AcDbLine
 62
7
  6
CONTINUOUS
 10
5.2033747104
 20
4.8486367702
 11
5.1951233571
 21
4.8468127629
  0
LINE
  5
2CE
100
AcDbEntity
  8
ALL_ASSEMBLY_MEMBERS
100
AcDbLine
 62
7
  6
CONTINUOUS
 10
4.7267624224
 20
4.7877576448
 11
5.6967624224
 21
4.7877576448
  0
LINE
  5
2CF
100
AcDbEntity
  8
ALL_ASSEMBLY_MEMBERS
100
AcDbLine
 62
7
  6
CONTINUOUS
 10
5.6965124224
 20
4.8468127629
 11
5.6938761238
 21
4.8468127629
  0
LINE
  5
2D0
100
AcDbEntity
  8
ALL_ASSEMBLY_MEMBERS
100
AcDbLine
 62
7
  6
CONTINUOUS
 10
5.6794186622
 20
4.8468127629
 11
5.6741540316
 21
4.8468127629
  0
LINE
  5
2D1
100
AcDbEntity
  8
ALL_ASSEMBLY_MEMBERS
100
AcDbLine
 62
7
  6
CONTINUOUS
 10
5.6631275224
 20
4.8468127629
 11
5.6567865944
 21
4.8468127629
  0
LINE
  5
2D2
100
AcDbEntity
  8
ALL_ASSEMBLY_MEMBERS
100
AcDbLine
 62
7
  6
CONTINUOUS
 10
5.6488552757
 20
4.8468127629
 11
5.6417514683
 21
4.8468127629
  0
LINE
  5
2D3
100
AcDbEntity
  8
ALL_ASSEMBLY_MEMBERS
100
AcDbLine
 62
7
  6
CONTINUOUS
 10
5.5001879995
 20
4.8468127629
 11
5.477810205
 21
4.8468127629
  0
LINE
  5
2D4
100
AcDbEntity
  8
ALL_ASSEMBLY_MEMBERS
100
AcDbLine
 62
7
  6
CONTINUOUS
 10
5.1593674913
 20
4.8468127629
 11
5.1511161379
 21
4.8468127629
  0
LINE
  5
2D5
100
AcDbEntity
  8
ALL_ASSEMBLY_MEMBERS
100
AcDbLine
 62
7
  6
CONTINUOUS
 10
4.7271813214
 20
4.8468127629
 11
4.7296487209
 21
4.8468127629
  0
LINE
  5
2D6
100
AcDbEntity
  8
ALL_ASSEMBLY_MEMBERS
100
AcDbLine
 62
7
  6
CONTINUOUS
 10
4.7466530935
 20
4.8468127629
 11
4.7511144485
 21
4.8468127629
  0
LINE
  5
2D7
100
AcDbEntity
  8
ALL_ASSEMBLY_MEMBERS
100
AcDbLine
 62
7
  6
CONTINUOUS
 10
4.7648178375
 20
4.8468127629
 11
4.7700596812
 21
4.8468127629
  0
LINE
  5
2D8
100
AcDbEntity
  8
ALL_ASSEMBLY_MEMBERS
100
AcDbLine
 62
7
  6
CONTINUOUS
 10
4.9233368452
 20
4.8468127629
 11
4.9457146397
 21
4.8468127629
  0
LINE
  5
2D9
100
AcDbEntity
  8
ALL_ASSEMBLY_MEMBERS
100
AcDbLine
 62
7
  6
CONTINUOUS
 10
5.6738529099
 20
4.8486367702
 11
5.6715330585
 21
4.8486367702
  0
LINE
  5
2DA
100
AcDbEntity
  8
ALL_ASSEMBLY_MEMBERS
100
AcDbLine
 62
7
  6
CONTINUOUS
 10
4.7506592707
 20
4.8486367702
 11
4.7529785189
 21
4.8486367702
  0
LINE
  5
2DB
100
AcDbEntity
  8
ALL_ASSEMBLY_MEMBERS
100
AcDbLine
 62
7
  6
CONTINUOUS
 10
4.770251361
 20
4.8486367702
 11
4.7725759814
 21
4.8486367702
  0
LINE
  5
2DC
100
AcDbEntity
  8
ALL_ASSEMBLY_MEMBERS
100
AcDbLine
 62
7
  6
CONTINUOUS
 10
5.6710747167
 20
4.8541087921
 11
5.6687562788
 21
4.8541087921
  0
LINE
  5
2DD
100
AcDbEntity
  8
ALL_ASSEMBLY_MEMBERS
100
AcDbLine
 62
7
  6
CONTINUOUS
 10
4.7525983214
 20
4.8541087921
 11
4.7549167076
 21
4.8541087921
  0
LINE
  5
2DE
100
AcDbEntity
  8
ALL_ASSEMBLY_MEMBERS
100
AcDbLine
 62
7
  6
CONTINUOUS
 10
4.7728398194
 20
4.8541087921
 11
4.7751669171
 21
4.8541087921
  0
LINE
  5
2DF
100
AcDbEntity
  8
ALL_ASSEMBLY_MEMBERS
100
AcDbLine
 62
7
  6
CONTINUOUS
 10
5.6794186622
 20
4.8559327999
 11
5.6764760936
 21
4.8559327999
  0
LINE
  5
2E0
100
AcDbEntity
  8
ALL_ASSEMBLY_MEMBERS
100
AcDbLine
 62
7
  6
CONTINUOUS
 10
4.7677371516
 20
4.8559327999
 11
4.7648178375
 21
4.8559327999
  0
LINE
  5
2E1
100
AcDbEntity
  8
ALL_ASSEMBLY_MEMBERS
100
AcDbLine
 62
7
  6
CONTINUOUS
 10
4.7484297562
 20
4.8559327999
 11
4.7470025081
 21
4.8559327999
  0
LINE
  5
2E2
100
AcDbEntity
  8
ALL_ASSEMBLY_MEMBERS
100
AcDbLine
 62
7
  6
CONTINUOUS
 10
5.68125549
 20
4.8577568071
 11
5.6789265852
 21
4.8577568071
  0
LINE
  5
2E3
100
AcDbEntity
  8
ALL_ASSEMBLY_MEMBERS
100
AcDbLine
 62
7
  6
CONTINUOUS
 10
4.745622627
 20
4.8577568071
 11
4.7479463089
 21
4.8577568071
  0
LINE
  5
2E4
100
AcDbEntity
  8
ALL_ASSEMBLY_MEMBERS
100
AcDbLine
 62
7
  6
CONTINUOUS
 10
4.7629307345
 20
4.8577568071
 11
4.7652502303
 21
4.8577568071
  0
LINE
  5
2E5
100
AcDbEntity
  8
ALL_ASSEMBLY_MEMBERS
100
AcDbLine
 62
7
  6
CONTINUOUS
 10
4.7537971123
 20
4.8595808142
 11
4.7561151626
 21
4.8595808142
  0
LINE
  5
2E6
100
AcDbEntity
  8
ALL_ASSEMBLY_MEMBERS
100
AcDbLine
 62
7
  6
CONTINUOUS
 10
5.6825672722
 20
4.8614048214
 11
5.6802356752
 21
4.8614048214
  0
LINE
  5
2E7
100
AcDbEntity
  8
ALL_ASSEMBLY_MEMBERS
100
AcDbLine
 62
7
  6
CONTINUOUS
 10
5.669333518
 20
4.8614048214
 11
5.6670155475
 21
4.8614048214
  0
LINE
  5
2E8
100
AcDbEntity
  8
ALL_ASSEMBLY_MEMBERS
100
AcDbLine
 62
7
  6
CONTINUOUS
 10
4.7442902095
 20
4.8614048214
 11
4.7466157101
 21
4.8614048214
  0
LINE
  5
2E9
100
AcDbEntity
  8
ALL_ASSEMBLY_MEMBERS
100
AcDbLine
 62
7
  6
CONTINUOUS
 10
4.7615463894
 20
4.8614048214
 11
4.7638652713
 21
4.8614048214
  0
LINE
  5
2EA
100
AcDbEntity
  8
ALL_ASSEMBLY_MEMBERS
100
AcDbLine
 62
7
  6
CONTINUOUS
 10
4.7744286328
 20
4.8614048214
 11
4.7767574039
 21
4.8614048214
  0
LINE
  5
2EB
100
AcDbEntity
  8
ALL_ASSEMBLY_MEMBERS
100
AcDbLine
 62
7
  6
CONTINUOUS
 10
5.6834103364
 20
4.8668768441
 11
5.6810767781
 21
4.8668768441
  0
LINE
  5
2EC
100
AcDbEntity
  8
ALL_ASSEMBLY_MEMBERS
100
AcDbLine
 62
7
  6
CONTINUOUS
 10
5.6716427402
 20
4.8687008513
 11
5.665823974
 21
4.8687008513
  0
LINE
  5
2ED
100
AcDbEntity
  8
ALL_ASSEMBLY_MEMBERS
100
AcDbLine
 62
7
  6
CONTINUOUS
 10
4.7433221101
 20
4.8687008513
 11
4.7456491375
 21
4.8687008513
  0
LINE
  5
2EE
100
AcDbEntity
  8
ALL_ASSEMBLY_MEMBERS
100
AcDbLine
 62
7
  6
CONTINUOUS
 10
4.7579844791
 20
4.8687008513
 11
4.7629567811
 21
4.8687008513
  0
LINE
  5
2EF
100
AcDbEntity
  8
ALL_ASSEMBLY_MEMBERS
100
AcDbLine
 62
7
  6
CONTINUOUS
 10
4.7546110323
 20
4.8687008513
 11
4.7569289339
 21
4.8687008513
  0
LINE
  5
2F0
100
AcDbEntity
  8
ALL_ASSEMBLY_MEMBERS
100
AcDbLine
 62
7
  6
CONTINUOUS
 10
4.7755027661
 20
4.8705248584
 11
4.7778327314
 21
4.8705248584
  0
LINE
  5
2F1
100
AcDbEntity
  8
ALL_ASSEMBLY_MEMBERS
100
AcDbLine
 62
7
  6
CONTINUOUS
 10
5.6838224053
 20
4.8723488656
 11
5.681487816
 21
4.8723488656
  0
LINE
  5
2F2
100
AcDbEntity
  8
ALL_ASSEMBLY_MEMBERS
100
AcDbLine
 62
7
  6
CONTINUOUS
 10
4.7433221101
 20
4.8741728727
 11
4.7456491375
 21
4.8741728727
  0
LINE
  5
2F3
100
AcDbEntity
  8
ALL_ASSEMBLY_MEMBERS
100
AcDbLine
 62
7
  6
CONTINUOUS
 10
4.7546110323
 20
4.8741728727
 11
4.7569289339
 21
4.8741728727
  0
LINE
  5
2F4
100
AcDbEntity
  8
ALL_ASSEMBLY_MEMBERS
100
AcDbLine
 62
7
  6
CONTINUOUS
 10
5.6838224053
 20
4.8759968799
 11
5.681487816
 21
4.8759968799
  0
LINE
  5
2F5
100
AcDbEntity
  8
ALL_ASSEMBLY_MEMBERS
100
AcDbLine
 62
7
  6
CONTINUOUS
 10
4.7755027661
 20
4.877820887
 11
4.7778327314
 21
4.877820887
  0
LINE
  5
2F6
100
AcDbEntity
  8
ALL_ASSEMBLY_MEMBERS
100
AcDbLine
 62
7
  6
CONTINUOUS
 10
5.6834103364
 20
4.8814689039
 11
5.6810767781
 21
4.8814689039
  0
LINE
  5
2F7
100
AcDbEntity
  8
ALL_ASSEMBLY_MEMBERS
100
AcDbLine
 62
7
  6
CONTINUOUS
 10
4.7442902095
 20
4.8814689039
 11
4.7466157101
 21
4.8814689039
  0
LINE
  5
2F8
100
AcDbEntity
  8
ALL_ASSEMBLY_MEMBERS
100
AcDbLine
 62
7
  6
CONTINUOUS
 10
4.7537971123
 20
4.8832929111
 11
4.7561151626
 21
4.8832929111
  0
LINE
  5
2F9
100
AcDbEntity
  8
ALL_ASSEMBLY_MEMBERS
100
AcDbLine
 62
7
  6
CONTINUOUS
 10
5.6722045748
 20
4.8851169182
 11
5.665823974
 21
4.8851169182
  0
LINE
  5
2FA
100
AcDbEntity
  8
ALL_ASSEMBLY_MEMBERS
100
AcDbLine
 62
7
  6
CONTINUOUS
 10
4.745622627
 20
4.8851169182
 11
4.7479463089
 21
4.8851169182
  0
LINE
  5
2FB
100
AcDbEntity
  8
ALL_ASSEMBLY_MEMBERS
100
AcDbLine
 62
7
  6
CONTINUOUS
 10
4.7579844791
 20
4.8851169182
 11
4.7634095449
 21
4.8851169182
  0
LINE
  5
2FC
100
AcDbEntity
  8
ALL_ASSEMBLY_MEMBERS
100
AcDbLine
 62
7
  6
CONTINUOUS
 10
5.6825672722
 20
4.8869409254
 11
5.6802356752
 21
4.8869409254
  0
LINE
  5
2FD
100
AcDbEntity
  8
ALL_ASSEMBLY_MEMBERS
100
AcDbLine
 62
7
  6
CONTINUOUS
 10
4.7484297562
 20
4.8869409254
 11
4.7470025081
 21
4.8869409254
  0
LINE
  5
2FE
100
AcDbEntity
  8
ALL_ASSEMBLY_MEMBERS
100
AcDbLine
 62
7
  6
CONTINUOUS
 10
4.7744286328
 20
4.8869409254
 11
4.7767574039
 21
4.8869409254
  0
LINE
  5
2FF
100
AcDbEntity
  8
ALL_ASSEMBLY_MEMBERS
100
AcDbLine
 62
7
  6
CONTINUOUS
 10
4.7522046167
 20
4.8887649325
 11
4.7545231451
 21
4.8887649325
  0
LINE
  5
300
100
AcDbEntity
  8
ALL_ASSEMBLY_MEMBERS
100
AcDbLine
 62
7
  6
CONTINUOUS
 10
5.68125549
 20
4.8905889397
 11
5.6789265852
 21
4.8905889397
  0
LINE
  5
301
100
AcDbEntity
  8
ALL_ASSEMBLY_MEMBERS
100
AcDbLine
 62
7
  6
CONTINUOUS
 10
4.751426047
 20
4.8905889397
 11
4.7537449051
 21
4.8905889397
  0
LINE
  5
302
100
AcDbEntity
  8
ALL_ASSEMBLY_MEMBERS
100
AcDbLine
 62
7
  6
CONTINUOUS
 10
4.7629307345
 20
4.8905889397
 11
4.7652502303
 21
4.8905889397
  0
LINE
  5
303
100
AcDbEntity
  8
ALL_ASSEMBLY_MEMBERS
100
AcDbLine
 62
7
  6
CONTINUOUS
 10
5.6794186622
 20
4.8924129468
 11
5.6764760936
 21
4.8924129468
  0
LINE
  5
304
100
AcDbEntity
  8
ALL_ASSEMBLY_MEMBERS
100
AcDbLine
 62
7
  6
CONTINUOUS
 10
4.7677371516
 20
4.8924129468
 11
4.7648178375
 21
4.8924129468
  0
LINE
  5
305
100
AcDbEntity
  8
ALL_ASSEMBLY_MEMBERS
100
AcDbLine
 62
7
  6
CONTINUOUS
 10
4.7522046167
 20
4.8924129468
 11
4.7545231451
 21
4.8924129468
  0
LINE
  5
306
100
AcDbEntity
  8
ALL_ASSEMBLY_MEMBERS
100
AcDbLine
 62
7
  6
CONTINUOUS
 10
5.1951233571
 20
4.8468127629
 11
5.1868720037
 21
4.8486367702
  0
LINE
  5
307
100
AcDbEntity
  8
ALL_ASSEMBLY_MEMBERS
100
AcDbLine
 62
7
  6
CONTINUOUS
 10
5.2556332829
 20
4.8468127629
 11
5.2473819296
 21
4.8486367702
  0
LINE
  5
308
100
AcDbEntity
  8
ALL_ASSEMBLY_MEMBERS
100
AcDbLine
 62
7
  6
CONTINUOUS
 10
5.1951233571
 20
4.8559327999
 11
5.188247228
 21
4.8577568071
  0
LINE
  5
309
100
AcDbEntity
  8
ALL_ASSEMBLY_MEMBERS
100
AcDbLine
 62
7
  6
CONTINUOUS
 10
5.2556332829
 20
4.8559327999
 11
5.2487571499
 21
4.8577568071
  0
LINE
  5
30A
100
AcDbEntity
  8
ALL_ASSEMBLY_MEMBERS
100
AcDbLine
 62
7
  6
CONTINUOUS
 10
5.1868720037
 20
4.8486367702
 11
5.1799958746
 21
4.8541087921
  0
LINE
  5
30B
100
AcDbEntity
  8
ALL_ASSEMBLY_MEMBERS
100
AcDbLine
 62
7
  6
CONTINUOUS
 10
5.2473819296
 20
4.8486367702
 11
5.2405057965
 21
4.8541087921
  0
LINE
  5
30C
100
AcDbEntity
  8
ALL_ASSEMBLY_MEMBERS
100
AcDbLine
 62
7
  6
CONTINUOUS
 10
5.2102508395
 20
4.9252450807
 11
5.2033747104
 21
4.9307171022
  0
LINE
  5
30D
100
AcDbEntity
  8
ALL_ASSEMBLY_MEMBERS
100
AcDbLine
 62
7
  6
CONTINUOUS
 10
5.2707607614
 20
4.9252450807
 11
5.2638846363
 21
4.9307171022
  0
LINE
  5
30E
100
AcDbEntity
  8
ALL_ASSEMBLY_MEMBERS
100
AcDbLine
 62
7
  6
CONTINUOUS
 10
5.188247228
 20
4.8577568071
 11
5.1841215513
 21
4.8614048214
  0
LINE
  5
30F
100
AcDbEntity
  8
ALL_ASSEMBLY_MEMBERS
100
AcDbLine
 62
7
  6
CONTINUOUS
 10
5.2487571499
 20
4.8577568071
 11
5.2446314732
 21
4.8614048214
  0
LINE
  5
310
100
AcDbEntity
  8
ALL_ASSEMBLY_MEMBERS
100
AcDbLine
 62
7
  6
CONTINUOUS
 10
5.2061251589
 20
4.9179490521
 11
5.2019994822
 21
4.9215970664
  0
LINE
  5
311
100
AcDbEntity
  8
ALL_ASSEMBLY_MEMBERS
100
AcDbLine
 62
7
  6
CONTINUOUS
 10
5.2666350848
 20
4.9179490521
 11
5.2625094081
 21
4.9215970664
  0
LINE
  5
312
100
AcDbEntity
  8
ALL_ASSEMBLY_MEMBERS
100
AcDbLine
 62
7
  6
CONTINUOUS
 10
5.2405057965
 20
4.8541087921
 11
5.2363801199
 21
4.8595808142
  0
LINE
  5
313
100
AcDbEntity
  8
ALL_ASSEMBLY_MEMBERS
100
AcDbLine
 62
7
  6
CONTINUOUS
 10
5.2143765162
 20
4.9197730593
 11
5.2102508395
 21
4.9252450807
  0
LINE
  5
314
100
AcDbEntity
  8
ALL_ASSEMBLY_MEMBERS
100
AcDbLine
 62
7
  6
CONTINUOUS
 10
5.2748864381
 20
4.9197730593
 11
5.2707607614
 21
4.9252450807
  0
LINE
  5
315
100
AcDbEntity
  8
ALL_ASSEMBLY_MEMBERS
100
AcDbLine
 62
7
  6
CONTINUOUS
 10
5.2721359896
 20
4.9070050041
 11
5.2666350848
 21
4.9179490521
  0
LINE
  5
316
100
AcDbEntity
  8
ALL_ASSEMBLY_MEMBERS
100
AcDbLine
 62
7
  6
CONTINUOUS
 10
5.2776368945
 20
4.9124770306
 11
5.2748864381
 21
4.9197730593
  0
LINE
  5
317
100
AcDbEntity
  8
ALL_ASSEMBLY_MEMBERS
100
AcDbLine
 62
7
  6
CONTINUOUS
 10
5.6367479455
 20
4.9197730593
 11
5.6367479455
 21
4.9051809969
  0
LINE
  5
318
100
AcDbEntity
  8
ALL_ASSEMBLY_MEMBERS
100
AcDbLine
 62
7
  6
CONTINUOUS
 10
5.6390896257
 20
4.9197730593
 11
5.6390896257
 21
4.9051809969
  0
LINE
  5
319
100
AcDbEntity
  8
ALL_ASSEMBLY_MEMBERS
100
AcDbLine
 62
7
  6
CONTINUOUS
 10
5.6417514683
 20
4.9119113058
 11
5.6417514683
 21
4.8468127629
  0
LINE
  5
31A
100
AcDbEntity
  8
ALL_ASSEMBLY_MEMBERS
100
AcDbLine
 62
7
  6
CONTINUOUS
 10
5.644086218
 20
4.9179490521
 11
5.644086218
 21
4.8468127629
  0
LINE
  5
31B
100
AcDbEntity
  8
ALL_ASSEMBLY_MEMBERS
100
AcDbLine
 62
7
  6
CONTINUOUS
 10
5.6488552757
 20
4.9325411093
 11
5.6488552757
 21
4.8468127629
  0
LINE
  5
31C
100
AcDbEntity
  8
ALL_ASSEMBLY_MEMBERS
100
AcDbLine
 62
7
  6
CONTINUOUS
 10
5.652539632
 20
4.9197730593
 11
5.652539632
 21
4.9051809969
  0
LINE
  5
31D
100
AcDbEntity
  8
ALL_ASSEMBLY_MEMBERS
100
AcDbLine
 62
7
  6
CONTINUOUS
 10
5.654862893
 20
4.9197730593
 11
5.654862893
 21
4.9051809969
  0
LINE
  5
31E
100
AcDbEntity
  8
ALL_ASSEMBLY_MEMBERS
100
AcDbLine
 62
7
  6
CONTINUOUS
 10
5.6567865944
 20
4.9108872899
 11
5.6567865944
 21
4.8468127629
  0
LINE
  5
31F
100
AcDbEntity
  8
ALL_ASSEMBLY_MEMBERS
100
AcDbLine
 62
7
  6
CONTINUOUS
 10
5.2767624224
 20
3.9641326448
 11
5.2667624224
 21
3.9441326448
  0
LINE
  5
320
100
AcDbEntity
  8
ALL_ASSEMBLY_MEMBERS
100
AcDbLine
 62
7
  6
CONTINUOUS
 10
5.2780124224
 20
3.9241326448
 11
5.2880124224
 21
3.9441326448
  0
LINE
  5
321
100
AcDbEntity
  8
ALL_ASSEMBLY_MEMBERS
100
AcDbLine
 62
7
  6
CONTINUOUS
 10
5.2967624224
 20
3.9241326448
 11
5.3067624224
 21
3.9441326448
  0
LINE
  5
322
100
AcDbEntity
  8
ALL_ASSEMBLY_MEMBERS
100
AcDbLine
 62
7
  6
CONTINUOUS
 10
5.2556332829
 20
4.9234210736
 11
5.2487571499
 21
4.9215970664
  0
LINE
  5
323
100
AcDbEntity
  8
ALL_ASSEMBLY_MEMBERS
100
AcDbLine
 62
7
  6
CONTINUOUS
 10
5.1951233571
 20
4.9234210736
 11
5.188247228
 21
4.9215970664
  0
LINE
  5
324
100
AcDbEntity
  8
ALL_ASSEMBLY_MEMBERS
100
AcDbLine
 62
7
  6
CONTINUOUS
 10
5.2556332829
 20
4.9325411093
 11
5.2473819296
 21
4.9307171022
  0
LINE
  5
325
100
AcDbEntity
  8
ALL_ASSEMBLY_MEMBERS
100
AcDbLine
 62
7
  6
CONTINUOUS
 10
5.1951233571
 20
4.9325411093
 11
5.1868720037
 21
4.9307171022
  0
LINE
  5
326
100
AcDbEntity
  8
ALL_ASSEMBLY_MEMBERS
100
AcDbLine
 62
7
  6
CONTINUOUS
 10
4.7484297562
 20
4.894236954
 11
4.7470025081
 21
4.894236954
  0
LINE
  5
327
100
AcDbEntity
  8
ALL_ASSEMBLY_MEMBERS
100
AcDbLine
 62
7
  6
CONTINUOUS
 10
4.7728398194
 20
4.894236954
 11
4.7751669171
 21
4.894236954
  0
LINE
  5
328
100
AcDbEntity
  8
ALL_ASSEMBLY_MEMBERS
100
AcDbLine
 62
7
  6
CONTINUOUS
 10
4.745622627
 20
4.8960609611
 11
4.7479463089
 21
4.8960609611
  0
LINE
  5
329
100
AcDbEntity
  8
ALL_ASSEMBLY_MEMBERS
100
AcDbLine
 62
7
  6
CONTINUOUS
 10
4.7533945702
 20
4.8978849683
 11
4.7557127174
 21
4.8978849683
  0
LINE
  5
32A
100
AcDbEntity
  8
ALL_ASSEMBLY_MEMBERS
100
AcDbLine
 62
7
  6
CONTINUOUS
 10
5.6738529099
 20
4.8997089754
 11
5.6715330585
 21
4.8997089754
  0
LINE
  5
32B
100
AcDbEntity
  8
ALL_ASSEMBLY_MEMBERS
100
AcDbLine
 62
7
  6
CONTINUOUS
 10
4.770251361
 20
4.8997089754
 11
4.7725759814
 21
4.8997089754
  0
LINE
  5
32C
100
AcDbEntity
  8
ALL_ASSEMBLY_MEMBERS
100
AcDbLine
 62
7
  6
CONTINUOUS
 10
5.6794186622
 20
4.9015329826
 11
5.6741540316
 21
4.9015329826
  0
LINE
  5
32D
100
AcDbEntity
  8
ALL_ASSEMBLY_MEMBERS
100
AcDbLine
 62
7
  6
CONTINUOUS
 10
4.7442902095
 20
4.9015329826
 11
4.7466157101
 21
4.9015329826
  0
LINE
  5
32E
100
AcDbEntity
  8
ALL_ASSEMBLY_MEMBERS
100
AcDbLine
 62
7
  6
CONTINUOUS
 10
4.7648178375
 20
4.9015329826
 11
4.7700596812
 21
4.9015329826
  0
LINE
  5
32F
100
AcDbEntity
  8
ALL_ASSEMBLY_MEMBERS
100
AcDbLine
 62
7
  6
CONTINUOUS
 10
5.654862893
 20
4.9051809969
 11
5.652539632
 21
4.9051809969
  0
LINE
  5
330
100
AcDbEntity
  8
ALL_ASSEMBLY_MEMBERS
100
AcDbLine
 62
7
  6
CONTINUOUS
 10
5.6390896257
 20
4.9051809969
 11
5.6367479455
 21
4.9051809969
  0
LINE
  5
331
100
AcDbEntity
  8
ALL_ASSEMBLY_MEMBERS
100
AcDbLine
 62
7
  6
CONTINUOUS
 10
4.7542026005
 20
4.9051809969
 11
4.756520569
 21
4.9051809969
  0
LINE
  5
332
100
AcDbEntity
  8
ALL_ASSEMBLY_MEMBERS
100
AcDbLine
 62
7
  6
CONTINUOUS
 10
4.7436418334
 20
4.9070050041
 11
4.7459683363
 21
4.9070050041
  0
LINE
  5
333
100
AcDbEntity
  8
ALL_ASSEMBLY_MEMBERS
100
AcDbLine
 62
7
  6
CONTINUOUS
 10
4.7436418334
 20
4.9106530184
 11
4.7459683363
 21
4.9106530184
  0
LINE
  5
334
100
AcDbEntity
  8
ALL_ASSEMBLY_MEMBERS
100
AcDbLine
 62
7
  6
CONTINUOUS
 10
4.7542026005
 20
4.9106530184
 11
4.756520569
 21
4.9106530184
  0
LINE
  5
335
100
AcDbEntity
  8
ALL_ASSEMBLY_MEMBERS
100
AcDbLine
 62
7
  6
CONTINUOUS
 10
4.7442902095
 20
4.9161250449
 11
4.7466157101
 21
4.9161250449
  0
LINE
  5
336
100
AcDbEntity
  8
ALL_ASSEMBLY_MEMBERS
100
AcDbLine
 62
7
  6
CONTINUOUS
 10
5.654862893
 20
4.9197730593
 11
5.652539632
 21
4.9197730593
  0
LINE
  5
337
100
AcDbEntity
  8
ALL_ASSEMBLY_MEMBERS
100
AcDbLine
 62
7
  6
CONTINUOUS
 10
5.6390896257
 20
4.9197730593
 11
5.6367479455
 21
4.9197730593
  0
LINE
  5
338
100
AcDbEntity
  8
ALL_ASSEMBLY_MEMBERS
100
AcDbLine
 62
7
  6
CONTINUOUS
 10
4.7533945702
 20
4.9197730593
 11
4.7557127174
 21
4.9197730593
  0
LINE
  5
339
100
AcDbEntity
  8
ALL_ASSEMBLY_MEMBERS
100
AcDbLine
 62
7
  6
CONTINUOUS
 10
4.745622627
 20
4.9215970664
 11
4.7479463089
 21
4.9215970664
  0
LINE
  5
33A
100
AcDbEntity
  8
ALL_ASSEMBLY_MEMBERS
100
AcDbLine
 62
7
  6
CONTINUOUS
 10
5.6850206721
 20
4.9234210736
 11
5.6710747167
 21
4.9234210736
  0
LINE
  5
33B
100
AcDbEntity
  8
ALL_ASSEMBLY_MEMBERS
100
AcDbLine
 62
7
  6
CONTINUOUS
 10
4.7484297562
 20
4.9234210736
 11
4.7470025081
 21
4.9234210736
  0
LINE
  5
33C
100
AcDbEntity
  8
ALL_ASSEMBLY_MEMBERS
100
AcDbLine
 62
7
  6
CONTINUOUS
 10
4.7601885777
 20
4.9234210736
 11
4.7767574039
 21
4.9234210736
  0
LINE
  5
33D
100
AcDbEntity
  8
ALL_ASSEMBLY_MEMBERS
100
AcDbLine
 62
7
  6
CONTINUOUS
 10
4.7522046167
 20
4.9252450807
 11
4.7545231451
 21
4.9252450807
  0
LINE
  5
33E
100
AcDbEntity
  8
ALL_ASSEMBLY_MEMBERS
100
AcDbLine
 62
7
  6
CONTINUOUS
 10
4.7502803054
 20
4.9307171022
 11
4.7525997713
 21
4.9307171022
  0
LINE
  5
33F
100
AcDbEntity
  8
ALL_ASSEMBLY_MEMBERS
100
AcDbLine
 62
7
  6
CONTINUOUS
 10
5.6850206721
 20
4.9325411093
 11
5.665823974
 21
4.9325411093
  0
LINE
  5
340
100
AcDbEntity
  8
ALL_ASSEMBLY_MEMBERS
100
AcDbLine
 62
7
  6
CONTINUOUS
 10
5.6631275224
 20
4.9325411093
 11
5.6567865944
 21
4.9325411093
  0
LINE
  5
341
100
AcDbEntity
  8
ALL_ASSEMBLY_MEMBERS
100
AcDbLine
 62
7
  6
CONTINUOUS
 10
5.6488552757
 20
4.9325411093
 11
5.6417514683
 21
4.9325411093
  0
LINE
  5
342
100
AcDbEntity
  8
ALL_ASSEMBLY_MEMBERS
100
AcDbLine
 62
7
  6
CONTINUOUS
 10
5.1593674913
 20
4.9325411093
 11
5.1511161379
 21
4.9325411093
  0
LINE
  5
343
100
AcDbEntity
  8
ALL_ASSEMBLY_MEMBERS
100
AcDbLine
 62
7
  6
CONTINUOUS
 10
4.7470025081
 20
4.9325411093
 11
4.7507505386
 21
4.9325411093
  0
LINE
  5
344
100
AcDbEntity
  8
ALL_ASSEMBLY_MEMBERS
100
AcDbLine
 62
7
  6
CONTINUOUS
 10
4.7579844791
 20
4.9325411093
 11
4.7767574039
 21
4.9325411093
  0
LINE
  5
345
100
AcDbEntity
  8
ALL_ASSEMBLY_MEMBERS
100
AcDbLine
 62
7
  6
CONTINUOUS
 10
5.6965124224
 20
4.93539544
 11
5.6938761238
 21
4.93539544
  0
LINE
  5
346
100
AcDbEntity
  8
ALL_ASSEMBLY_MEMBERS
100
AcDbLine
 62
7
  6
CONTINUOUS
 10
5.5001879995
 20
4.93539544
 11
5.477810205
 21
4.93539544
  0
LINE
  5
347
100
AcDbEntity
  8
ALL_ASSEMBLY_MEMBERS
100
AcDbLine
 62
7
  6
CONTINUOUS
 10
4.7271813214
 20
4.93539544
 11
4.7296487209
 21
4.93539544
  0
LINE
  5
348
100
AcDbEntity
  8
ALL_ASSEMBLY_MEMBERS
100
AcDbLine
 62
7
  6
CONTINUOUS
 10
4.9233368452
 20
4.93539544
 11
4.9457146397
 21
4.93539544
  0
LINE
  5
349
100
AcDbEntity
  8
ALL_ASSEMBLY_MEMBERS
100
AcDbLine
 62
7
  6
CONTINUOUS
 10
4.7192624224
 20
4.9846080385
 11
5.7042624224
 21
4.9846080385
  0
LINE
  5
34A
100
AcDbEntity
  8
ALL_ASSEMBLY_MEMBERS
100
AcDbLine
 62
7
  6
CONTINUOUS
 10
5.2033747104
 20
4.9307171022
 11
5.1951233571
 21
4.9325411093
  0
LINE
  5
34B
100
AcDbEntity
  8
ALL_ASSEMBLY_MEMBERS
100
AcDbLine
 62
7
  6
CONTINUOUS
 10
5.2638846363
 20
4.9307171022
 11
5.2556332829
 21
4.9325411093
  0
LINE
  5
34C
100
AcDbEntity
  8
ALL_ASSEMBLY_MEMBERS
100
AcDbLine
 62
7
  6
CONTINUOUS
 10
5.2019994822
 20
4.9215970664
 11
5.1951233571
 21
4.9234210736
  0
LINE
  5
34D
100
AcDbEntity
  8
ALL_ASSEMBLY_MEMBERS
100
AcDbLine
 62
7
  6
CONTINUOUS
 10
5.2625094081
 20
4.9215970664
 11
5.2556332829
 21
4.9234210736
  0
LINE
  5
34E
100
AcDbEntity
  8
ALL_ASSEMBLY_MEMBERS
100
AcDbLine
 62
7
  6
CONTINUOUS
 10
5.6591068845
 20
4.9179490521
 11
5.6591068845
 21
4.8468127629
  0
LINE
  5
34F
100
AcDbEntity
  8
ALL_ASSEMBLY_MEMBERS
100
AcDbLine
 62
7
  6
CONTINUOUS
 10
5.6631275224
 20
4.9325411093
 11
5.6631275224
 21
4.8468127629
  0
LINE
  5
350
100
AcDbEntity
  8
ALL_ASSEMBLY_MEMBERS
100
AcDbLine
 62
7
  6
CONTINUOUS
 10
5.665823974
 20
4.9325411093
 11
5.665823974
 21
4.8851169182
  0
LINE
  5
351
100
AcDbEntity
  8
ALL_ASSEMBLY_MEMBERS
100
AcDbLine
 62
7
  6
CONTINUOUS
 10
5.6681417912
 20
4.9325411093
 11
5.6681417912
 21
4.8851169182
  0
LINE
  5
352
100
AcDbEntity
  8
ALL_ASSEMBLY_MEMBERS
100
AcDbLine
 62
7
  6
CONTINUOUS
 10
5.6710747167
 20
4.9234210736
 11
5.6710747167
 21
4.894236954
  0
LINE
  5
353
100
AcDbEntity
  8
ALL_ASSEMBLY_MEMBERS
100
AcDbLine
 62
7
  6
CONTINUOUS
 10
5.681487816
 20
4.8759968799
 11
5.681487816
 21
4.8723488656
  0
LINE
  5
354
100
AcDbEntity
  8
ALL_ASSEMBLY_MEMBERS
100
AcDbLine
 62
7
  6
CONTINUOUS
 10
5.6838224053
 20
4.8759968799
 11
5.6838224053
 21
4.8723488656
  0
LINE
  5
355
100
AcDbEntity
  8
ALL_ASSEMBLY_MEMBERS
100
AcDbLine
 62
7
  6
CONTINUOUS
 10
5.6850206721
 20
4.9325411093
 11
5.6850206721
 21
4.9234210736
  0
LINE
  5
356
100
AcDbEntity
  8
ALL_ASSEMBLY_MEMBERS
100
AcDbLine
 62
7
  6
CONTINUOUS
 10
5.6857878081
 20
4.877820887
 11
5.6857878081
 21
4.8705248584
  0
LINE
  5
357
100
AcDbEntity
  8
ALL_ASSEMBLY_MEMBERS
100
AcDbLine
 62
7
  6
CONTINUOUS
 10
5.6938761238
 20
4.93539544
 11
5.6938761238
 21
4.8468127629
  0
LINE
  5
358
100
AcDbEntity
  8
ALL_ASSEMBLY_MEMBERS
100
AcDbLine
 62
7
  6
CONTINUOUS
 10
5.6940458869
 20
4.9846080385
 11
5.6940458869
 21
4.93539544
  0
LINE
  5
359
100
AcDbEntity
  8
ALL_ASSEMBLY_MEMBERS
100
AcDbLine
 62
7
  6
CONTINUOUS
 10
5.6940458869
 20
4.8468127629
 11
5.6940458869
 21
4.7877576448
  0
LINE
  5
35A
100
AcDbEntity
  8
ALL_ASSEMBLY_MEMBERS
100
AcDbLine
 62
7
  6
CONTINUOUS
 10
5.6963435233
 20
4.93539544
 11
5.6963435233
 21
4.8468127629
  0
LINE
  5
35B
100
AcDbEntity
  8
ALL_ASSEMBLY_MEMBERS
100
AcDbLine
 62
7
  6
CONTINUOUS
 10
5.6965124224
 20
4.93539544
 11
5.6965124224
 21
4.8468127629
  0
LINE
  5
35C
100
AcDbEntity
  8
ALL_ASSEMBLY_MEMBERS
100
AcDbLine
 62
7
  6
CONTINUOUS
 10
5.6967624224
 20
4.3602937194
 11
5.6967624224
 21
4.7877576448
  0
LINE
  5
35D
100
AcDbEntity
  8
ALL_ASSEMBLY_MEMBERS
100
AcDbLine
 62
7
  6
CONTINUOUS
 10
5.7042624224
 20
4.9846080385
 11
5.7042624224
 21
5.2685528843
  0
LINE
  5
35E
100
AcDbEntity
  8
ALL_ASSEMBLY_MEMBERS
100
AcDbLine
 62
7
  6
CONTINUOUS
 10
5.221761907
 20
5.0396080385
 11
5.2017629377
 21
5.0396080385
  0
LINE
  5
35F
100
AcDbEntity
  8
ALL_ASSEMBLY_MEMBERS
100
AcDbLine
 62
7
  6
CONTINUOUS
 10
5.2017629377
 20
5.1196080385
 11
5.221761907
 21
5.1196080385
  0
LINE
  5
360
100
AcDbEntity
  8
1_PLATE
100
AcDbLine
 62
7
  6
CONTINUOUS
 10
4.0242624224
 20
5.2685528843
 11
6.3992624224
 21
5.2685528843
  0
LINE
  5
361
100
AcDbEntity
  8
1_PLATE
100
AcDbLine
 62
7
  6
CONTINUOUS
 10
3.7157624224
 20
5.2997864935
 11
6.7077624224
 21
5.2997864935
  0
LINE
  5
362
100
AcDbEntity
  8
1_PLATE
100
AcDbLine
 62
7
  6
CONTINUOUS
 10
6.7904264298
 20
5.331050462
 11
3.6330984149
 21
5.331050462
  0
LINE
  5
363
100
AcDbEntity
  8
1_PLATE
100
AcDbLine
 62
7
  6
CONTINUOUS
 10
3.4617624224
 20
5.3462030385
 11
6.9617624224
 21
5.3462030385
  0
LINE
  5
364
100
AcDbEntity
  8
1_PLATE
100
AcDbLine
 62
7
  6
CONTINUOUS
 10
7.0867624224
 20
5.4712030385
 11
3.3367624224
 21
5.4712030385
  0
LINE
  5
365
100
AcDbEntity
  8
1_PLATE
100
AcDbLine
 62
7
  6
CONTINUOUS
 10
7.0867624224
 20
5.5467030385
 11
3.3367624224
 21
5.5467030385
  0
LINE
  5
366
100
AcDbEntity
  8
1_PLATE
100
AcDbLine
 62
7
  6
CONTINUOUS
 10
7.0867624224
 20
5.5467030385
 11
7.0867624224
 21
5.4712030385
  0
ARC
  5
367
100
AcDbEntity
  8
ALL_ASSEMBLY_MEMBERS
100
AcDbCircle
 62
7
  6
CONTINUOUS
 10
4.9282624224
 20
4.3602937194
 40
0.2015
100
AcDbArc
 50
180.0
 51
258.6164589941
  0
ARC
  5
368
100
AcDbEntity
  8
ALL_ASSEMBLY_MEMBERS
100
AcDbCircle
 62
7
  6
CONTINUOUS
 10
4.8576512528
 20
4.0095814082
 40
0.15625
100
AcDbArc
 50
18.8599610433
 51
78.6164589941
  0
ARC
  5
369
100
AcDbEntity
  8
ALL_ASSEMBLY_MEMBERS
100
AcDbCircle
 62
7
  6
CONTINUOUS
 10
5.1241688598
 20
3.9468150485
 40
0.0477549516
100
AcDbArc
 50
37.5883763232
 51
42.2390137963
  0
ARC
  5
36A
100
AcDbEntity
  8
ALL_ASSEMBLY_MEMBERS
100
AcDbCircle
 62
7
  6
CONTINUOUS
 10
5.128081121
 20
3.9508565346
 40
0.0421204083
100
AcDbArc
 50
51.2245880455
 51
51.908850615
  0
ARC
  5
36B
100
AcDbEntity
  8
ALL_ASSEMBLY_MEMBERS
100
AcDbCircle
 62
7
  6
CONTINUOUS
 10
5.1314278434
 20
3.9353743914
 40
0.042084308
100
AcDbArc
 50
14.0639525561
 51
21.6316984761
  0
ARC
  5
36C
100
AcDbEntity
  8
ALL_ASSEMBLY_MEMBERS
100
AcDbCircle
 62
7
  6
CONTINUOUS
 10
5.1488861612
 20
3.944722124
 40
0.0409386543
100
AcDbArc
 50
183.202867289
 51
193.0922585958
  0
ARC
  5
36D
100
AcDbEntity
  8
ALL_ASSEMBLY_MEMBERS
100
AcDbCircle
 62
7
  6
CONTINUOUS
 10
5.1288971452
 20
3.951912859
 40
0.0407856331
100
AcDbArc
 50
51.8956092094
 51
56.8494827189
  0
ARC
  5
36E
100
AcDbEntity
  8
ALL_ASSEMBLY_MEMBERS
100
AcDbCircle
 62
7
  6
CONTINUOUS
 10
5.0180124224
 20
3.5906326448
 40
0.0375
100
AcDbArc
 50
0.0
 51
90.0
  0
ARC
  5
36F
100
AcDbEntity
  8
ALL_ASSEMBLY_MEMBERS
100
AcDbCircle
 62
7
  6
CONTINUOUS
 10
5.1331484517
 20
3.9505262038
 40
0.0370613858
100
AcDbArc
 50
52.2193662704
 51
59.9092345697
  0
ARC
  5
370
100
AcDbEntity
  8
ALL_ASSEMBLY_MEMBERS
100
AcDbCircle
 62
7
  6
CONTINUOUS
 10
5.0367407014
 20
4.0707576448
 40
0.033
100
AcDbArc
 50
198.8599610433
 51
270.0
  0
ARC
  5
371
100
AcDbEntity
  8
ALL_ASSEMBLY_MEMBERS
100
AcDbCircle
 62
7
  6
CONTINUOUS
 10
5.133980801
 20
3.9479246387
 40
0.0324687535
100
AcDbArc
 50
81.6242669223
 51
99.4020596259
  0
ARC
  5
372
100
AcDbEntity
  8
ALL_ASSEMBLY_MEMBERS
100
AcDbCircle
 62
7
  6
CONTINUOUS
 10
5.1377227945
 20
3.9376875023
 40
0.0322254662
100
AcDbArc
 50
302.7044848227
 51
308.1563614013
  0
ARC
  5
373
100
AcDbEntity
  8
ALL_ASSEMBLY_MEMBERS
100
AcDbCircle
 62
7
  6
CONTINUOUS
 10
5.1375850084
 20
3.9496303695
 40
0.0256657059
100
AcDbArc
 50
117.2290678346
 51
123.7117379951
  0
ARC
  5
374
100
AcDbEntity
  8
ALL_ASSEMBLY_MEMBERS
100
AcDbCircle
 62
7
  6
CONTINUOUS
 10
5.1372073688
 20
3.950354952
 40
0.0248486302
100
AcDbArc
 50
110.5957557564
 51
117.2192469153
  0
ARC
  5
375
100
AcDbEntity
  8
ALL_ASSEMBLY_MEMBERS
100
AcDbCircle
 62
7
  6
CONTINUOUS
 10
5.1367310597
 20
3.9349314226
 40
0.0247475671
100
AcDbArc
 50
285.5903278675
 51
291.9436994558
  0
ARC
  5
376
100
AcDbEntity
  8
ALL_ASSEMBLY_MEMBERS
100
AcDbCircle
 62
7
  6
CONTINUOUS
 10
5.0705124224
 20
3.5806326448
 40
0.01
100
AcDbArc
 50
0.0
 51
90.0
  0
ARC
  5
377
100
AcDbEntity
  8
ALL_ASSEMBLY_MEMBERS
100
AcDbCircle
 62
7
  6
CONTINUOUS
 10
5.0455124224
 20
3.8756326448
 40
0.01
100
AcDbArc
 50
270.0
 51
360.0
  0
ARC
  5
378
100
AcDbEntity
  8
1_PLATE
100
AcDbCircle
 62
7
  6
CONTINUOUS
 10
4.0242624224
 20
5.4562030385
 40
0.1876501541
100
AcDbArc
 50
236.5042044368
 51
270.0
  0
ARC
  5
379
100
AcDbEntity
  8
1_PLATE
100
AcDbCircle
 62
7
  6
CONTINUOUS
 10
3.5502624224
 20
5.2372030385
 40
0.1251764377
100
AcDbArc
 50
48.5662292994
 51
60.6409205307
  0
ARC
  5
37A
100
AcDbEntity
  8
1_PLATE
100
AcDbCircle
 62
7
  6
CONTINUOUS
 10
3.4617624224
 20
5.4712030385
 40
0.125
100
AcDbArc
 50
180.0
 51
270.0
  0
ARC
  5
37B
100
AcDbEntity
  8
1_PLATE
100
AcDbCircle
 62
7
  6
CONTINUOUS
 10
3.7157624224
 20
5.4247030385
 40
0.124916545
100
AcDbArc
 50
228.5662292994
 51
270.0
  0
ARC
  5
37C
100
AcDbEntity
  8
ALL_ASSEMBLY_MEMBERS
100
AcDbCircle
 62
7
  6
CONTINUOUS
 10
5.4952624224
 20
4.3602937194
 40
0.2015
100
AcDbArc
 50
281.3835410059
 51
360.0
  0
ARC
  5
37D
100
AcDbEntity
  8
ALL_ASSEMBLY_MEMBERS
100
AcDbCircle
 62
7
  6
CONTINUOUS
 10
5.5658735919
 20
4.0095814082
 40
0.15625
100
AcDbArc
 50
101.3835410059
 51
161.1400389567
  0
CIRCLE
  5
37E
100
AcDbEntity
  8
ALL_ASSEMBLY_MEMBERS
100
AcDbCircle
 62
7
  6
CONTINUOUS
 10
5.2117624224
 20
4.4597576448
 40
0.07
  0
CIRCLE
  5
37F
100
AcDbEntity
  8
ALL_ASSEMBLY_MEMBERS
100
AcDbCircle
 62
7
  6
CONTINUOUS
 10
5.2117624224
 20
4.4597576448
 40
0.065
  0
ARC
  5
380
100
AcDbEntity
  8
ALL_ASSEMBLY_MEMBERS
100
AcDbCircle
 62
7
  6
CONTINUOUS
 10
5.3039926641
 20
3.9441256243
 40
0.053156616
100
AcDbArc
 50
161.2602473169
 51
179.99243289
  0
ARC
  5
381
100
AcDbEntity
  8
ALL_ASSEMBLY_MEMBERS
100
AcDbCircle
 62
7
  6
CONTINUOUS
 10
5.3032563698
 20
3.9443428357
 40
0.0523891072
100
AcDbArc
 50
156.5110328747
 51
161.2265047868
  0
ARC
  5
382
100
AcDbEntity
  8
ALL_ASSEMBLY_MEMBERS
100
AcDbCircle
 62
7
  6
CONTINUOUS
 10
5.3025999907
 20
3.9446355262
 40
0.0516704598
100
AcDbArc
 50
151.8516779533
 51
156.5185982595
  0
ARC
  5
383
100
AcDbEntity
  8
ALL_ASSEMBLY_MEMBERS
100
AcDbCircle
 62
7
  6
CONTINUOUS
 10
5.3011016495
 20
3.9454919963
 40
0.0499453072
100
AcDbArc
 50
142.4907858249
 51
151.9071136735
  0
ARC
  5
384
100
AcDbEntity
  8
ALL_ASSEMBLY_MEMBERS
100
AcDbCircle
 62
7
  6
CONTINUOUS
 10
5.2718720468
 20
3.9455713617
 40
0.0489190351
100
AcDbArc
 50
357.125292332
 51
1.4996891368
  0
ARC
  5
385
100
AcDbEntity
  8
ALL_ASSEMBLY_MEMBERS
100
AcDbCircle
 62
7
  6
CONTINUOUS
 10
5.299220537
 20
3.9469296948
 40
0.0475777059
100
AcDbArc
 50
138.328644219
 51
142.4848529436
  0
ARC
  5
386
100
AcDbEntity
  8
ALL_ASSEMBLY_MEMBERS
100
AcDbCircle
 62
7
  6
CONTINUOUS
 10
5.2985408432
 20
3.9475276113
 40
0.0466724659
100
AcDbArc
 50
137.7356891864
 51
138.3221709058
  0
CIRCLE
  5
387
100
AcDbEntity
  8
ALL_ASSEMBLY_MEMBERS
100
AcDbCircle
 62
7
  6
CONTINUOUS
 10
5.2117624224
 20
4.4597576448
 40
0.0445454545
  0
ARC
  5
388
100
AcDbEntity
  8
ALL_ASSEMBLY_MEMBERS
100
AcDbCircle
 62
7
  6
CONTINUOUS
 10
5.2946626851
 20
3.9434832669
 40
0.0416029335
100
AcDbArc
 50
179.105637002
 51
187.8492849322
  0
ARC
  5
389
100
AcDbEntity
  8
ALL_ASSEMBLY_MEMBERS
100
AcDbCircle
 62
7
  6
CONTINUOUS
 10
5.4055124224
 20
3.5906326448
 40
0.0375
100
AcDbArc
 50
90.0
 51
180.0
  0
ARC
  5
38A
100
AcDbEntity
  8
ALL_ASSEMBLY_MEMBERS
100
AcDbCircle
 62
7
  6
CONTINUOUS
 10
5.2881062006
 20
3.9390830436
 40
0.0335375188
100
AcDbArc
 50
230.0350207598
 51
235.0634539068
  0
ARC
  5
38B
100
AcDbEntity
  8
ALL_ASSEMBLY_MEMBERS
100
AcDbCircle
 62
7
  6
CONTINUOUS
 10
5.3867841434
 20
4.0707576448
 40
0.033
100
AcDbArc
 50
270.0
 51
341.1400389567
  0
ARC
  5
38C
100
AcDbEntity
  8
ALL_ASSEMBLY_MEMBERS
100
AcDbCircle
 62
7
  6
CONTINUOUS
 10
5.2819833843
 20
3.9517566768
 40
0.0292235868
100
AcDbArc
 50
125.7687754748
 51
126.7692232665
  0
ARC
  5
38D
100
AcDbEntity
  8
ALL_ASSEMBLY_MEMBERS
100
AcDbCircle
 62
7
  6
CONTINUOUS
 10
5.2841308419
 20
3.9382118165
 40
0.0280317438
100
AcDbArc
 50
246.2591133451
 51
257.1428728603
  0
ARC
  5
38E
100
AcDbEntity
  8
ALL_ASSEMBLY_MEMBERS
100
AcDbCircle
 62
7
  6
CONTINUOUS
 10
5.283969717
 20
3.9375390073
 40
0.027340057
100
AcDbArc
 50
257.1583205548
 51
263.3054517808
  0
ARC
  5
38F
100
AcDbEntity
  8
ALL_ASSEMBLY_MEMBERS
100
AcDbCircle
 62
7
  6
CONTINUOUS
 10
5.2839246402
 20
3.9372148294
 40
0.0270128355
100
AcDbArc
 50
263.3202524915
 51
264.9641785141
  0
ARC
  5
390
100
AcDbEntity
  8
ALL_ASSEMBLY_MEMBERS
100
AcDbCircle
 62
7
  6
CONTINUOUS
 10
5.2800916807
 20
3.9551362877
 40
0.0253409364
100
AcDbArc
 50
109.307626933
 51
114.9866691086
  0
ARC
  5
391
100
AcDbEntity
  8
ALL_ASSEMBLY_MEMBERS
100
AcDbCircle
 62
7
  6
CONTINUOUS
 10
5.2794911465
 20
3.9582784927
 40
0.0221140442
100
AcDbArc
 50
73.87888235
 51
85.8435677768
  0
ARC
  5
392
100
AcDbEntity
  8
ALL_ASSEMBLY_MEMBERS
100
AcDbCircle
 62
7
  6
CONTINUOUS
 10
5.3530124224
 20
3.5806326448
 40
0.01
100
AcDbArc
 50
90.0
 51
180.0
  0
ARC
  5
393
100
AcDbEntity
  8
ALL_ASSEMBLY_MEMBERS
100
AcDbCircle
 62
7
  6
CONTINUOUS
 10
5.3780124224
 20
3.8756326448
 40
0.01
100
AcDbArc
 50
180.0
 51
270.0
  0
ARC
  5
394
100
AcDbEntity
  8
1_PLATE
100
AcDbCircle
 62
7
  6
CONTINUOUS
 10
6.3992624224
 20
5.4562030385
 40
0.1876501541
100
AcDbArc
 50
270.0
 51
303.4957955632
  0
ARC
  5
395
100
AcDbEntity
  8
1_PLATE
100
AcDbCircle
 62
7
  6
CONTINUOUS
 10
6.8732624224
 20
5.2372030385
 40
0.1251764377
100
AcDbArc
 50
119.3590794693
 51
131.4337707006
  0
ARC
  5
396
100
AcDbEntity
  8
1_PLATE
100
AcDbCircle
 62
7
  6
CONTINUOUS
 10
6.9617624224
 20
5.4712030385
 40
0.125
100
AcDbArc
 50
270.0
 51
360.0
  0
ARC
  5
397
100
AcDbEntity
  8
1_PLATE
100
AcDbCircle
 62
7
  6
CONTINUOUS
 10
6.7077624224
 20
5.4247030385
 40
0.124916545
100
AcDbArc
 50
270.0
 51
311.4337707007
  0
SPLINE
  5
398
100
AcDbEntity
  8
ALL_ASSEMBLY_MEMBERS
100
AcDbSpline
 62
7
  6
CONTINUOUS
 70
0
 71
3
 72
11
 73
7
 74
0
 42
0.0000001
 43
0.0000001
 44
0.0000000001
 40
0.0
 40
0.0
 40
0.0
 40
0.0
 40
0.2530180378
 40
0.5041925509
 40
0.7532606234
 40
1.0
 40
1.0
 40
1.0
 40
1.0
 10
5.1090116424
 20
3.935448712
 30
0.0
 10
5.1091992241
 20
3.9346445121
 30
0.0
 10
5.1096228616
 20
3.9330531107
 30
0.0
 10
5.110404346
 20
3.9307204802
 30
0.0
 10
5.1113261
 20
3.9284617138
 30
0.0
 10
5.1120348964
 20
3.9270054619
 30
0.0
 10
5.1124114216
 20
3.9262936129
 30
0.0
  0
SPLINE
  5
399
100
AcDbEntity
  8
ALL_ASSEMBLY_MEMBERS
100
AcDbSpline
 62
7
  6
CONTINUOUS
 70
0
 71
3
 72
25
 73
21
 74
0
 42
0.0000001
 43
0.0000001
 44
0.0000000001
 40
0.0
 40
0.0
 40
0.0
 40
0.0
 40
0.0673709548
 40
0.1007752379
 40
0.1339825965
 40
0.1997827971
 40
0.2647692996
 40
0.3289451872
 40
0.3923326491
 40
0.4549721221
 40
0.5169231746
 40
0.578263245
 40
0.6390861538
 40
0.6995011726
 40
0.7596297054
 40
0.8196038164
 40
0.8495838058
 40
0.8795772879
 40
0.9396580665
 40
1.0
 40
1.0
 40
1.0
 40
1.0
 10
5.1124114216
 20
3.9262936129
 30
0.0
 10
5.1128036685
 20
3.9255520407
 30
0.0
 10
5.1134295862
 20
3.9244627883
 30
0.0
 10
5.1143382122
 20
3.923063212
 30
0.0
 10
5.1152860355
 20
3.9217136469
 30
0.0
 10
5.1165516551
 20
3.9201084083
 30
0.0
 10
5.1181966343
 20
3.9183197453
 30
0.0
 10
5.1199542691
 20
3.9166852272
 30
0.0
 10
5.1218142878
 20
3.9152147632
 30
0.0
 10
5.1237661191
 20
3.9139177682
 30
0.0
 10
5.1257981352
 20
3.9128022366
 30
0.0
 10
5.1278984699
 20
3.9118758421
 30
0.0
 10
5.1300543175
 20
3.9111444841
 30
0.0
 10
5.1322527026
 20
3.9106137414
 30
0.0
 10
5.1344798423
 20
3.9102872324
 30
0.0
 10
5.1363489904
 20
3.9101879584
 30
0.0
 10
5.1378428643
 20
3.9102127338
 30
0.0
 10
5.1393353118
 20
3.910307143
 30
0.0
 10
5.1411945675
 20
3.9105559095
 30
0.0
 10
5.1426583803
 20
3.9108924955
 30
0.0
 10
5.1433821471
 20
3.9110943693
 30
0.0
  0
SPLINE
  5
39A
100
AcDbEntity
  8
ALL_ASSEMBLY_MEMBERS
100
AcDbSpline
 62
7
  6
CONTINUOUS
 70
0
 71
3
 72
15
 73
11
 74
0
 42
0.0000001
 43
0.0000001
 44
0.0000000001
 40
0.0
 40
0.0
 40
0.0
 40
0.0
 40
0.120380099
 40
0.2418671159
 40
0.3646050514
 40
0.4887001813
 40
0.6142392836
 40
0.7413020341
 40
0.8699243904
 40
1.0
 40
1.0
 40
1.0
 40
1.0
 10
5.14597911
 20
3.9119767795
 30
0.0
 10
5.1466134152
 20
3.9122321243
 30
0.0
 10
5.1478674036
 20
3.9127976447
 30
0.0
 10
5.1496826818
 20
3.9137988728
 30
0.0
 10
5.1514305993
 20
3.9149524734
 30
0.0
 10
5.1531017036
 20
3.9162524629
 30
0.0
 10
5.1546866519
 20
3.9176929205
 30
0.0
 10
5.1561768923
 20
3.9192667274
 30
0.0
 10
5.1575633491
 20
3.9209658584
 30
0.0
 10
5.1584088373
 20
3.9221694876
 30
0.0
 10
5.1588119026
 20
3.9227887033
 30
0.0
  0
SPLINE
  5
39B
100
AcDbEntity
  8
ALL_ASSEMBLY_MEMBERS
100
AcDbSpline
 62
7
  6
CONTINUOUS
 70
0
 71
3
 72
53
 73
49
 74
0
 42
0.0000001
 43
0.0000001
 44
0.0000000001
 40
0.0
 40
0.0
 40
0.0
 40
0.0
 40
0.0334291084
 40
0.0667942003
 40
0.0834215145
 40
0.0999987315
 40
0.1329657405
 40
0.1656393653
 40
0.1818515261
 40
0.1979700027
 40
0.2139897367
 40
0.2299066137
 40
0.2614109999
 40
0.2770037033
 40
0.2924865603
 40
0.3078603382
 40
0.3231267938
 40
0.3382890947
 40
0.3533512936
 40
0.3831858599
 40
0.4126938857
 40
0.4419427393
 40
0.4565000848
 40
0.4710231591
 40
0.5
 40
0.5289768409
 40
0.5434999152
 40
0.5580572607
 40
0.5873061143
 40
0.6168141401
 40
0.6466487064
 40
0.6617109053
 40
0.6768732062
 40
0.6921396618
 40
0.7075134397
 40
0.7229962967
 40
0.7385890001
 40
0.7700933863
 40
0.7860102633
 40
0.8020299973
 40
0.8181484739
 40
0.8343606347
 40
0.8670342595
 40
0.9000012685
 40
0.9165784855
 40
0.9332057997
 40
0.9665708916
 40
1.0
 40
1.0
 40
1.0
 40
1.0
 10
5.1636092099
 20
3.9441326448
 30
0.0
 10
5.1636092099
 20
3.9431190963
 30
0.0
 10
5.1635229774
 20
3.9410929639
 30
0.0
 10
5.1632008879
 20
3.9385810487
 30
0.0
 10
5.162815524
 20
3.93659926
 30
0.0
 10
5.162347991
 20
3.9346476638
 30
0.0
 10
5.161609891
 20
3.9322631408
 30
0.0
 10
5.1606690324
 20
3.9299628762
 30
0.0
 10
5.1598008467
 20
3.928192873
 30
0.0
 10
5.1590959066
 20
3.9269069504
 30
0.0
 10
5.1583371482
 20
3.9256624592
 30
0.0
 10
5.1572599713
 20
3.924068265
 30
0.0
 10
5.1560792551
 20
3.9225617781
 30
0.0
 10
5.15480231
 20
3.9211576043
 30
0.0
 10
5.153804252
 20
3.9201631485
 30
0.0
 10
5.1527651791
 20
3.9192263744
 30
0.0
 10
5.1516874387
 20
3.9183496579
 30
0.0
 10
5.1505736659
 20
3.9175350153
 30
0.0
 10
5.1490494636
 20
3.9165374717
 30
0.0
 10
5.1470661093
 20
3.9154527519
 30
0.0
 10
5.144579506
 20
3.9144236498
 30
0.0
 10
5.142439587
 20
3.9138038653
 30
0.0
 10
5.1407047886
 20
3.9134561032
 30
0.0
 10
5.1389613129
 20
3.9132077723
 30
0.0
 10
5.1367624224
 20
3.9130825996
 30
0.0
 10
5.1345635318
 20
3.9132077723
 30
0.0
 10
5.1328200561
 20
3.9134561032
 30
0.0
 10
5.1310852577
 20
3.9138038653
 30
0.0
 10
5.1289453387
 20
3.9144236498
 30
0.0
 10
5.1264587354
 20
3.9154527519
 30
0.0
 10
5.1244753811
 20
3.9165374717
 30
0.0
 10
5.1229511788
 20
3.9175350153
 30
0.0
 10
5.121837406
 20
3.9183496579
 30
0.0
 10
5.1207596656
 20
3.9192263744
 30
0.0
 10
5.1197205927
 20
3.9201631485
 30
0.0
 10
5.1187225347
 20
3.9211576043
 30
0.0
 10
5.1174455896
 20
3.9225617781
 30
0.0
 10
5.1162648734
 20
3.924068265
 30
0.0
 10
5.1151876966
 20
3.9256624592
 30
0.0
 10
5.1144289382
 20
3.9269069504
 30
0.0
 10
5.113723998
 20
3.928192873
 30
0.0
 10
5.1128558123
 20
3.9299628762
 30
0.0
 10
5.1119149537
 20
3.9322631408
 30
0.0
 10
5.1111768537
 20
3.9346476638
 30
0.0
 10
5.1107093208
 20
3.93659926
 30
0.0
 10
5.1103239568
 20
3.9385810487
 30
0.0
 10
5.1100018673
 20
3.9410929639
 30
0.0
 10
5.1099156348
 20
3.9431190963
 30
0.0
 10
5.1099156348
 20
3.9441326448
 30
0.0
  0
SPLINE
  5
39C
100
AcDbEntity
  8
ALL_ASSEMBLY_MEMBERS
100
AcDbSpline
 62
7
  6
CONTINUOUS
 70
0
 71
3
 72
13
 73
9
 74
0
 42
0.0000001
 43
0.0000001
 44
0.0000000001
 40
0.0
 40
0.0
 40
0.0
 40
0.0
 40
0.1212162861
 40
0.2438663657
 40
0.367792928
 40
0.4928628747
 40
0.745430897
 40
1.0
 40
1.0
 40
1.0
 40
1.0
 10
5.1588119026
 20
3.9227887033
 30
0.0
 10
5.159365957
 20
3.923525125
 30
0.0
 10
5.1604164432
 20
3.9250561269
 30
0.0
 10
5.1617994303
 20
3.9274899201
 30
0.0
 10
5.1629887447
 20
3.9300566
 30
0.0
 10
5.1643074952
 20
3.9336383334
 30
0.0
 10
5.165421467
 20
3.9383353693
 30
0.0
 10
5.1657197191
 20
3.9421972322
 30
0.0
 10
5.1657197191
 20
3.9441326448
 30
0.0
  0
SPLINE
  5
39D
100
AcDbEntity
  8
ALL_ASSEMBLY_MEMBERS
100
AcDbSpline
 62
7
  6
CONTINUOUS
 70
0
 71
3
 72
16
 73
12
 74
0
 42
0.0000001
 43
0.0000001
 44
0.0000000001
 40
0.0
 40
0.0
 40
0.0
 40
0.0
 40
0.1268356935
 40
0.2533725618
 40
0.3794679182
 40
0.4423247418
 40
0.5050261183
 40
0.6298888488
 40
0.7540241947
 40
0.8774268058
 40
1.0
 40
1.0
 40
1.0
 40
1.0
 10
5.1705482664
 20
3.9508883039
 30
0.0
 10
5.170183778
 20
3.9518063535
 30
0.0
 10
5.1693896367
 20
3.9536149318
 30
0.0
 10
5.1680048285
 20
3.956228425
 30
0.0
 10
5.1666931173
 20
3.9583090302
 30
0.0
 10
5.1655529701
 20
3.9599035838
 30
0.0
 10
5.1643570433
 20
3.9614445986
 30
0.0
 10
5.1627550941
 20
3.9632721688
 30
0.0
 10
5.1606682077
 20
3.9652909086
 30
0.0
 10
5.1584311575
 20
3.967113817
 30
0.0
 10
5.1568434961
 20
3.968191009
 30
0.0
 10
5.1560300152
 20
3.9686904489
 30
0.0
  0
SPLINE
  5
39E
100
AcDbEntity
  8
ALL_ASSEMBLY_MEMBERS
100
AcDbSpline
 62
7
  6
CONTINUOUS
 70
0
 71
3
 72
15
 73
11
 74
0
 42
0.0000001
 43
0.0000001
 44
0.0000000001
 40
0.0
 40
0.0
 40
0.0
 40
0.0
 40
0.1283996572
 40
0.2564456432
 40
0.3837692271
 40
0.5100577352
 40
0.6350235624
 40
0.7584331467
 40
0.88012878
 40
1.0
 40
1.0
 40
1.0
 40
1.0
 10
5.1657197191
 20
3.9441326448
 30
0.0
 10
5.1657197191
 20
3.9452910805
 30
0.0
 10
5.1656126352
 20
3.9476061943
 30
0.0
 10
5.1651324784
 20
3.9510399551
 30
0.0
 10
5.1643380614
 20
3.9543957122
 30
0.0
 10
5.1632385109
 20
3.9576349533
 30
0.0
 10
5.1618460082
 20
3.9607209499
 30
0.0
 10
5.1601762218
 20
3.9636187849
 30
0.0
 10
5.1582481228
 20
3.9662949305
 30
0.0
 10
5.1567931535
 20
3.9679241309
 30
0.0
 10
5.1560300152
 20
3.9686904489
 30
0.0
  0
SPLINE
  5
39F
100
AcDbEntity
  8
ALL_ASSEMBLY_MEMBERS
100
AcDbSpline
 62
7
  6
CONTINUOUS
 70
0
 71
3
 72
21
 73
17
 74
0
 42
0.0000001
 43
0.0000001
 44
0.0000000001
 40
0.0
 40
0.0
 40
0.0
 40
0.0
 40
0.0649299911
 40
0.1298360075
 40
0.1946007488
 40
0.2591447719
 40
0.3234169515
 40
0.3873659806
 40
0.450934937
 40
0.5140706724
 40
0.6388206905
 40
0.7614223442
 40
0.8219071039
 40
0.8818239961
 40
0.9411816192
 40
1.0
 40
1.0
 40
1.0
 40
1.0
 10
5.1099156348
 20
3.9441326448
 30
0.0
 10
5.1099156348
 20
3.9448084978
 30
0.0
 10
5.1099540605
 20
3.9461602634
 30
0.0
 10
5.1101260845
 20
3.9481795711
 30
0.0
 10
5.1104121726
 20
3.9501819234
 30
0.0
 10
5.1108110781
 20
3.9521581408
 30
0.0
 10
5.1113209272
 20
3.9540999327
 30
0.0
 10
5.1119397637
 20
3.9559991077
 30
0.0
 10
5.1126646704
 20
3.9578477834
 30
0.0
 10
5.1137642941
 20
3.9602243824
 30
0.0
 10
5.1153843319
 20
3.9630307393
 30
0.0
 10
5.1173251574
 20
3.9655920488
 30
0.0
 10
5.1190430229
 20
3.9674507108
 30
0.0
 10
5.1204018235
 20
3.9687391745
 30
0.0
 10
5.1218307735
 20
3.9699221798
 30
0.0
 10
5.1228307393
 20
3.9706405461
 30
0.0
 10
5.1233401604
 20
3.9709801415
 30
0.0
  0
SPLINE
  5
3A0
100
AcDbEntity
  8
ALL_ASSEMBLY_MEMBERS
100
AcDbSpline
 62
7
  6
CONTINUOUS
 70
0
 71
3
 72
36
 73
32
 74
0
 42
0.0000001
 43
0.0000001
 44
0.0000000001
 40
0.0
 40
0.0
 40
0.0
 40
0.0
 40
0.0296865642
 40
0.0592342838
 40
0.0886725589
 40
0.1180330899
 40
0.1473487281
 40
0.1766529847
 40
0.2059799127
 40
0.2353627227
 40
0.2648340815
 40
0.2944249063
 40
0.324164006
 40
0.3540781745
 40
0.3841907005
 40
0.4145221925
 40
0.4758768812
 40
0.538265105
 40
0.5698723738
 40
0.6017451457
 40
0.6338776925
 40
0.6662615193
 40
0.7317089331
 40
0.7647646995
 40
0.7980064804
 40
0.8314102594
 40
0.86495308
 40
0.8986139653
 40
0.932370082
 40
0.9661822474
 40
1.0
 40
1.0
 40
1.0
 40
1.0
 10
5.1284663088
 20
3.9736153968
 30
0.0
 10
5.1289662242
 20
3.9738029575
 30
0.0
 10
5.1299763729
 20
3.974144447
 30
0.0
 10
5.1315189537
 20
3.9745538939
 30
0.0
 10
5.1330798758
 20
3.9748577528
 30
0.0
 10
5.1346536246
 20
3.9750547822
 30
0.0
 10
5.1362347092
 20
3.9751446181
 30
0.0
 10
5.1378176422
 20
3.9751266211
 30
0.0
 10
5.1393968873
 20
3.9750009939
 30
0.0
 10
5.1409669766
 20
3.9747683094
 30
0.0
 10
5.142522382
 20
3.9744290564
 30
0.0
 10
5.1440577503
 20
3.973984758
 30
0.0
 10
5.1455677296
 20
3.973436835
 30
0.0
 10
5.14704699
 20
3.9727871029
 30
0.0
 10
5.1484905871
 20
3.9720380799
 30
0.0
 10
5.1503676212
 20
3.9709061373
 30
0.0
 10
5.1526007167
 20
3.9692522799
 30
0.0
 10
5.154631854
 20
3.967323255
 30
0.0
 10
5.1561307908
 20
3.9656253013
 30
0.0
 10
5.1571928063
 20
3.9642714823
 30
0.0
 10
5.1581840505
 20
3.9628479872
 30
0.0
 10
5.1594105192
 20
3.9608569565
 30
0.0
 10
5.1604770938
 20
3.9587520225
 30
0.0
 10
5.1613750514
 20
3.9565583135
 30
0.0
 10
5.1619657222
 20
3.9548642101
 30
0.0
 10
5.1624690116
 20
3.9531330928
 30
0.0
 10
5.1628831066
 20
3.9513707462
 30
0.0
 10
5.1632068016
 20
3.9495831535
 30
0.0
 10
5.1634386588
 20
3.9477764516
 30
0.0
 10
5.1635780845
 20
3.9459575081
 30
0.0
 10
5.1636092099
 20
3.9447408907
 30
0.0
 10
5.1636092099
 20
3.9441326448
 30
0.0
  0
SPLINE
  5
3A1
100
AcDbEntity
  8
ALL_ASSEMBLY_MEMBERS
100
AcDbSpline
 62
7
  6
CONTINUOUS
 70
0
 71
3
 72
34
 73
30
 74
0
 42
0.0000001
 43
0.0000001
 44
0.0000000001
 40
0.0
 40
0.0
 40
0.0
 40
0.0
 40
0.0630595634
 40
0.1270257522
 40
0.1917741835
 40
0.224405285
 40
0.2571604455
 40
0.2900092368
 40
0.3229191947
 40
0.3558553384
 40
0.3887813916
 40
0.4216604379
 40
0.4544550001
 40
0.5196154945
 40
0.5840066979
 40
0.6158476285
 40
0.6474048456
 40
0.6786540496
 40
0.7095755195
 40
0.7401532812
 40
0.7703771171
 40
0.8002412891
 40
0.8297464306
 40
0.8588984782
 40
0.8877097556
 40
0.9161985222
 40
0.9443889049
 40
0.9723110483
 40
1.0
 40
1.0
 40
1.0
 40
1.0
 10
5.1560300152
 20
3.9686904489
 30
0.0
 10
5.1570473314
 20
3.9677253195
 30
0.0
 10
5.1589688413
 20
3.9656418172
 30
0.0
 10
5.1614419184
 20
3.9621547297
 30
0.0
 10
5.1631438519
 20
3.9589849375
 30
0.0
 10
5.1642777244
 20
3.9563209598
 30
0.0
 10
5.1650120109
 20
3.9542621204
 30
0.0
 10
5.1656249966
 20
3.9521576229
 30
0.0
 10
5.1661140472
 20
3.9500167852
 30
0.0
 10
5.1664776987
 20
3.9478493875
 30
0.0
 10
5.1667142979
 20
3.9456651818
 30
0.0
 10
5.1668235178
 20
3.9434739996
 30
0.0
 10
5.1667988518
 20
3.9405633155
 30
0.0
 10
5.166452672
 20
3.9369609466
 30
0.0
 10
5.1656880827
 20
3.9334449593
 30
0.0
 10
5.1648336231
 20
3.9307331819
 30
0.0
 10
5.1640787549
 20
3.9287669922
 30
0.0
 10
5.1632110569
 20
3.9268704221
 30
0.0
 10
5.1622351609
 20
3.9250518097
 30
0.0
 10
5.1611554856
 20
3.9233195917
 30
0.0
 10
5.1599775701
 20
3.92168144
 30
0.0
 10
5.1587068684
 20
3.92014493
 30
0.0
 10
5.1573496162
 20
3.9187169514
 30
0.0
 10
5.1559122688
 20
3.9174040145
 30
0.0
 10
5.1544016377
 20
3.9162121775
 30
0.0
 10
5.1528250545
 20
3.9151467137
 30
0.0
 10
5.151189818
 20
3.9142127546
 30
0.0
 10
5.1495040546
 20
3.9134142901
 30
0.0
 10
5.1483471007
 20
3.9129732632
 30
0.0
 10
5.1477635084
 20
3.9127769295
 30
0.0
  0
SPLINE
  5
3A2
100
AcDbEntity
  8
ALL_ASSEMBLY_MEMBERS
100
AcDbSpline
 62
7
  6
CONTINUOUS
 70
0
 71
3
 72
22
 73
18
 74
0
 42
0.0000001
 43
0.0000001
 44
0.0000000001
 40
0.0
 40
0.0
 40
0.0
 40
0.0
 40
0.0651404515
 40
0.1300888956
 40
0.1948018398
 40
0.2592295802
 40
0.3870046688
 40
0.4503309376
 40
0.5132291561
 40
0.5756777188
 40
0.6376625665
 40
0.6991766278
 40
0.7602207144
 40
0.8208039937
 40
0.8809434217
 40
0.9406645052
 40
1.0
 40
1.0
 40
1.0
 40
1.0
 10
5.253444421
 20
3.9378001917
 30
0.0
 10
5.2535959064
 20
3.9370990105
 30
0.0
 10
5.2539351003
 20
3.9357063361
 30
0.0
 10
5.2545523006
 20
3.9336508063
 30
0.0
 10
5.2552757731
 20
3.9316383794
 30
0.0
 10
5.2563754278
 20
3.9290304634
 30
0.0
 10
5.2576806216
 20
3.9265295794
 30
0.0
 10
5.2591811681
 20
3.9241675757
 30
0.0
 10
5.2603949221
 20
3.9224796782
 30
0.0
 10
5.2616958959
 20
3.9208770976
 30
0.0
 10
5.263079882
 20
3.9193661652
 30
0.0
 10
5.2645418267
 20
3.9179526438
 30
0.0
 10
5.2660768508
 20
3.9166424274
 30
0.0
 10
5.2676792876
 20
3.9154405905
 30
0.0
 10
5.2693435528
 20
3.9143522163
 30
0.0
 10
5.2710634342
 20
3.9133818271
 30
0.0
 10
5.2722467085
 20
3.9128144339
 30
0.0
 10
5.2728451641
 20
3.912552092
 30
0.0
  0
SPLINE
  5
3A3
100
AcDbEntity
  8
ALL_ASSEMBLY_MEMBERS
100
AcDbSpline
 62
7
  6
CONTINUOUS
 70
0
 71
3
 72
23
 73
19
 74
0
 42
0.0000001
 43
0.0000001
 44
0.0000000001
 40
0.0
 40
0.0
 40
0.0
 40
0.0
 40
0.0607103891
 40
0.1214049974
 40
0.1821485997
 40
0.2430044616
 40
0.3040352336
 40
0.3652999988
 40
0.4268534196
 40
0.4887468393
 40
0.5510250056
 40
0.6137276064
 40
0.6768825581
 40
0.7405113839
 40
0.8046352376
 40
0.8692723909
 40
0.9344124449
 40
1.0
 40
1.0
 40
1.0
 40
1.0
 10
5.2815534927
 20
3.9103062631
 30
0.0
 10
5.2821567712
 20
3.9102531066
 30
0.0
 10
5.2833671501
 20
3.9101874103
 30
0.0
 10
5.2851853348
 20
3.9102117691
 30
0.0
 10
5.2869992072
 20
3.9103595953
 30
0.0
 10
5.2888022054
 20
3.9106303569
 30
0.0
 10
5.2905878173
 20
3.9110236832
 30
0.0
 10
5.2923495616
 20
3.9115382794
 30
0.0
 10
5.2940809987
 20
3.9121725593
 30
0.0
 10
5.2957756671
 20
3.9129246194
 30
0.0
 10
5.2974273995
 20
3.9137917133
 30
0.0
 10
5.2990298242
 20
3.914771171
 30
0.0
 10
5.3005770587
 20
3.9158592227
 30
0.0
 10
5.302063103
 20
3.9170522137
 30
0.0
 10
5.3034824163
 20
3.9183458742
 30
0.0
 10
5.3048295221
 20
3.9197356354
 30
0.0
 10
5.3060987865
 20
3.9212159865
 30
0.0
 10
5.3068872448
 20
3.9222558557
 30
0.0
 10
5.3072669026
 20
3.9227887033
 30
0.0
  0
SPLINE
  5
3A4
100
AcDbEntity
  8
ALL_ASSEMBLY_MEMBERS
100
AcDbSpline
 62
7
  6
CONTINUOUS
 70
0
 71
3
 72
13
 73
9
 74
0
 42
0.0000001
 43
0.0000001
 44
0.0000000001
 40
0.0
 40
0.0
 40
0.0
 40
0.0
 40
0.1212162861
 40
0.2438663656
 40
0.3677929279
 40
0.4928628747
 40
0.745430897
 40
1.0
 40
1.0
 40
1.0
 40
1.0
 10
5.3072669026
 20
3.9227887033
 30
0.0
 10
5.3078209571
 20
3.923525125
 30
0.0
 10
5.3088714433
 20
3.9250561269
 30
0.0
 10
5.3102544303
 20
3.9274899201
 30
0.0
 10
5.3114437448
 20
3.9300566
 30
0.0
 10
5.3127624952
 20
3.9336383334
 30
0.0
 10
5.3138764671
 20
3.9383353693
 30
0.0
 10
5.3141747191
 20
3.9421972322
 30
0.0
 10
5.3141747191
 20
3.9441326448
 30
0.0
  0
SPLINE
  5
3A5
100
AcDbEntity
  8
ALL_ASSEMBLY_MEMBERS
100
AcDbSpline
 62
7
  6
CONTINUOUS
 70
0
 71
3
 72
15
 73
11
 74
0
 42
0.0000001
 43
0.0000001
 44
0.0000000001
 40
0.0
 40
0.0
 40
0.0
 40
0.0
 40
0.1283996572
 40
0.2564456431
 40
0.3837692271
 40
0.5100577351
 40
0.6350235624
 40
0.7584331467
 40
0.8801287799
 40
1.0
 40
1.0
 40
1.0
 40
1.0
 10
5.3141747191
 20
3.9441326448
 30
0.0
 10
5.3141747191
 20
3.9452910805
 30
0.0
 10
5.3140676353
 20
3.9476061943
 30
0.0
 10
5.3135874784
 20
3.9510399551
 30
0.0
 10
5.3127930614
 20
3.9543957122
 30
0.0
 10
5.3116935109
 20
3.9576349533
 30
0.0
 10
5.3103010082
 20
3.9607209499
 30
0.0
 10
5.3086312218
 20
3.9636187849
 30
0.0
 10
5.3067031229
 20
3.9662949305
 30
0.0
 10
5.3052481536
 20
3.9679241309
 30
0.0
 10
5.3044850152
 20
3.9686904489
 30
0.0
  0
SPLINE
  5
3A6
100
AcDbEntity
  8
ALL_ASSEMBLY_MEMBERS
100
AcDbSpline
 62
7
  6
CONTINUOUS
 70
0
 71
3
 72
53
 73
49
 74
0
 42
0.0000001
 43
0.0000001
 44
0.0000000001
 40
0.0
 40
0.0
 40
0.0
 40
0.0
 40
0.0334291084
 40
0.0667942003
 40
0.0834215145
 40
0.0999987315
 40
0.1329657405
 40
0.1656393653
 40
0.1818515261
 40
0.1979700027
 40
0.2139897367
 40
0.2299066137
 40
0.2614109999
 40
0.2770037033
 40
0.2924865603
 40
0.3078603382
 40
0.3231267938
 40
0.3382890947
 40
0.3533512936
 40
0.3831858599
 40
0.4126938857
 40
0.4419427393
 40
0.4565000848
 40
0.4710231591
 40
0.5
 40
0.5289768409
 40
0.5434999152
 40
0.5580572607
 40
0.5873061143
 40
0.6168141401
 40
0.6466487064
 40
0.6617109053
 40
0.6768732062
 40
0.6921396618
 40
0.7075134397
 40
0.7229962967
 40
0.7385890001
 40
0.7700933863
 40
0.7860102633
 40
0.8020299973
 40
0.8181484739
 40
0.8343606347
 40
0.8670342595
 40
0.9000012685
 40
0.9165784855
 40
0.9332057997
 40
0.9665708916
 40
1.0
 40
1.0
 40
1.0
 40
1.0
 10
5.3136092099
 20
3.9441326448
 30
0.0
 10
5.3136092099
 20
3.9431190963
 30
0.0
 10
5.3135229774
 20
3.9410929639
 30
0.0
 10
5.3132008879
 20
3.9385810487
 30
0.0
 10
5.312815524
 20
3.93659926
 30
0.0
 10
5.312347991
 20
3.9346476638
 30
0.0
 10
5.311609891
 20
3.9322631408
 30
0.0
 10
5.3106690324
 20
3.9299628762
 30
0.0
 10
5.3098008467
 20
3.928192873
 30
0.0
 10
5.3090959066
 20
3.9269069504
 30
0.0
 10
5.3083371482
 20
3.9256624592
 30
0.0
 10
5.3072599713
 20
3.924068265
 30
0.0
 10
5.3060792551
 20
3.9225617781
 30
0.0
 10
5.30480231
 20
3.9211576043
 30
0.0
 10
5.303804252
 20
3.9201631485
 30
0.0
 10
5.3027651791
 20
3.9192263744
 30
0.0
 10
5.3016874387
 20
3.9183496579
 30
0.0
 10
5.3005736659
 20
3.9175350153
 30
0.0
 10
5.2990494636
 20
3.9165374717
 30
0.0
 10
5.2970661093
 20
3.9154527519
 30
0.0
 10
5.294579506
 20
3.9144236498
 30
0.0
 10
5.292439587
 20
3.9138038653
 30
0.0
 10
5.2907047886
 20
3.9134561032
 30
0.0
 10
5.2889613129
 20
3.9132077723
 30
0.0
 10
5.2867624224
 20
3.9130825996
 30
0.0
 10
5.2845635318
 20
3.9132077723
 30
0.0
 10
5.2828200561
 20
3.9134561032
 30
0.0
 10
5.2810852577
 20
3.9138038653
 30
0.0
 10
5.2789453387
 20
3.9144236498
 30
0.0
 10
5.2764587354
 20
3.9154527519
 30
0.0
 10
5.2744753811
 20
3.9165374717
 30
0.0
 10
5.2729511788
 20
3.9175350153
 30
0.0
 10
5.271837406
 20
3.9183496579
 30
0.0
 10
5.2707596656
 20
3.9192263744
 30
0.0
 10
5.2697205927
 20
3.9201631485
 30
0.0
 10
5.2687225347
 20
3.9211576043
 30
0.0
 10
5.2674455896
 20
3.9225617781
 30
0.0
 10
5.2662648734
 20
3.924068265
 30
0.0
 10
5.2651876966
 20
3.9256624592
 30
0.0
 10
5.2644289382
 20
3.9269069504
 30
0.0
 10
5.263723998
 20
3.928192873
 30
0.0
 10
5.2628558123
 20
3.9299628762
 30
0.0
 10
5.2619149537
 20
3.9322631408
 30
0.0
 10
5.2611768537
 20
3.9346476638
 30
0.0
 10
5.2607093208
 20
3.93659926
 30
0.0
 10
5.2603239568
 20
3.9385810487
 30
0.0
 10
5.2600018673
 20
3.9410929639
 30
0.0
 10
5.2599156348
 20
3.9431190963
 30
0.0
 10
5.2599156348
 20
3.9441326448
 30
0.0
  0
SPLINE
  5
3A7
100
AcDbEntity
  8
ALL_ASSEMBLY_MEMBERS
100
AcDbSpline
 62
7
  6
CONTINUOUS
 70
0
 71
3
 72
27
 73
23
 74
0
 42
0.0000001
 43
0.0000001
 44
0.0000000001
 40
0.0
 40
0.0
 40
0.0
 40
0.0
 40
0.0659761142
 40
0.1321117538
 40
0.1982534327
 40
0.2642950753
 40
0.3301116983
 40
0.3628968473
 40
0.3955718676
 40
0.4605064526
 40
0.4927419371
 40
0.5247936638
 40
0.588261228
 40
0.6507791513
 40
0.712216037
 40
0.7424993432
 40
0.7724708619
 40
0.8314137518
 40
0.8889913921
 40
0.917271756
 40
0.945208518
 40
1.0
 40
1.0
 40
1.0
 40
1.0
 10
5.311424207
 20
3.9215959034
 30
0.0
 10
5.3119158578
 20
3.9226083616
 30
0.0
 10
5.312827064
 20
3.9246722436
 30
0.0
 10
5.3139672861
 20
3.9278593206
 30
0.0
 10
5.3148738555
 20
3.9311219736
 30
0.0
 10
5.3155393098
 20
3.9344365391
 30
0.0
 10
5.3158888039
 20
3.93722626
 30
0.0
 10
5.3160422777
 20
3.9394609805
 30
0.0
 10
5.3161111504
 20
3.941684789
 30
0.0
 10
5.3160538739
 20
3.9439017342
 30
0.0
 10
5.3158682596
 20
3.9460988277
 30
0.0
 10
5.3155995729
 20
3.9482621189
 30
0.0
 10
5.3151075481
 20
3.9509161451
 30
0.0
 10
5.3142671126
 20
3.954004747
 30
0.0
 10
5.3133602514
 20
3.9564786914
 30
0.0
 10
5.3125160297
 20
3.958375977
 30
0.0
 10
5.3116047793
 20
3.9601945017
 30
0.0
 10
5.3103300061
 20
3.9623486858
 30
0.0
 10
5.3088656074
 20
3.9643437183
 30
0.0
 10
5.3075966928
 20
3.9658140445
 30
0.0
 10
5.30628354
 20
3.9671793938
 30
0.0
 10
5.3052218045
 20
3.9681152682
 30
0.0
 10
5.3044850152
 20
3.9686904489
 30
0.0
  0
SPLINE
  5
3A8
100
AcDbEntity
  8
ALL_ASSEMBLY_MEMBERS
100
AcDbSpline
 62
7
  6
CONTINUOUS
 70
0
 71
3
 72
38
 73
34
 74
0
 42
0.0000001
 43
0.0000001
 44
0.0000000001
 40
0.0
 40
0.0
 40
0.0
 40
0.0
 40
0.0339179855
 40
0.0678254354
 40
0.1016639347
 40
0.1353925352
 40
0.1689856749
 40
0.2024183139
 40
0.2356624321
 40
0.2686910573
 40
0.3339885399
 40
0.3662534535
 40
0.3982375428
 40
0.4299338731
 40
0.4613409781
 40
0.4924615734
 40
0.5233032364
 40
0.5538787035
 40
0.5842046957
 40
0.6143032493
 40
0.6441999934
 40
0.6739246888
 40
0.7035104571
 40
0.7329928439
 40
0.7624099187
 40
0.7918005608
 40
0.8212046514
 40
0.8506614129
 40
0.8802092597
 40
0.9098847225
 40
0.9397216269
 40
0.9697511168
 40
1.0
 40
1.0
 40
1.0
 40
1.0
 10
5.2599156348
 20
3.9441326448
 30
0.0
 10
5.2599156348
 20
3.9447902824
 30
0.0
 10
5.2599520183
 20
3.9461056385
 30
0.0
 10
5.260114924
 20
3.9480710165
 30
0.0
 10
5.260385846
 20
3.9500208066
 30
0.0
 10
5.2607637397
 20
3.9519464927
 30
0.0
 10
5.2612468387
 20
3.9538404205
 30
0.0
 10
5.2618334581
 20
3.9556950173
 30
0.0
 10
5.2625209639
 20
3.9575030557
 30
0.0
 10
5.2635644515
 20
3.9598320274
 30
0.0
 10
5.2648013235
 20
3.9620496421
 30
0.0
 10
5.2662201291
 20
3.9641238005
 30
0.0
 10
5.2673634593
 20
3.9655928712
 30
0.0
 10
5.2685855824
 20
3.9669748854
 30
0.0
 10
5.2698814844
 20
3.968264411
 30
0.0
 10
5.2712458814
 20
3.9694562467
 30
0.0
 10
5.2726734424
 20
3.970545319
 30
0.0
 10
5.2741581482
 20
3.9715275063
 30
0.0
 10
5.2756942109
 20
3.9723984831
 30
0.0
 10
5.2772752684
 20
3.9731548779
 30
0.0
 10
5.278894929
 20
3.9737936046
 30
0.0
 10
5.2805466821
 20
3.9743118086
 30
0.0
 10
5.2822236995
 20
3.9747077396
 30
0.0
 10
5.2839192583
 20
3.9749793595
 30
0.0
 10
5.2856263822
 20
3.9751258442
 30
0.0
 10
5.2873381483
 20
3.9751465174
 30
0.0
 10
5.2890475545
 20
3.975041117
 30
0.0
 10
5.2907476705
 20
3.9748104411
 30
0.0
 10
5.2924315117
 20
3.9744550094
 30
0.0
 10
5.2940922732
 20
3.97397664
 30
0.0
 10
5.2957232072
 20
3.9733771358
 30
0.0
 10
5.2973175341
 20
3.9726589303
 30
0.0
 10
5.2983480099
 20
3.9721051575
 30
0.0
 10
5.2988547909
 20
3.9718099423
 30
0.0
  0
SPLINE
  5
3A9
100
AcDbEntity
  8
ALL_ASSEMBLY_MEMBERS
100
AcDbSpline
 62
7
  6
CONTINUOUS
 70
0
 71
3
 72
21
 73
17
 74
0
 42
0.0000001
 43
0.0000001
 44
0.0000000001
 40
0.0
 40
0.0
 40
0.0
 40
0.0
 40
0.0585897665
 40
0.1177256119
 40
0.177437906
 40
0.2377453292
 40
0.2986543644
 40
0.3601610388
 40
0.4222486206
 40
0.4848918439
 40
0.5480549424
 40
0.6116942298
 40
0.740111524
 40
0.8697281252
 40
0.9348479639
 40
1.0
 40
1.0
 40
1.0
 40
1.0
 10
5.2988547909
 20
3.9718099423
 30
0.0
 10
5.2994081966
 20
3.9714875669
 30
0.0
 10
5.3004962466
 20
3.9707977914
 30
0.0
 10
5.3020553915
 20
3.9696413273
 30
0.0
 10
5.3035416403
 20
3.9683634708
 30
0.0
 10
5.3049479583
 20
3.966970579
 30
0.0
 10
5.3062677097
 20
3.9654692348
 30
0.0
 10
5.3074945236
 20
3.9638665294
 30
0.0
 10
5.3086228572
 20
3.962170256
 30
0.0
 10
5.3096470279
 20
3.9603882848
 30
0.0
 10
5.3105626157
 20
3.9585292013
 30
0.0
 10
5.311635282
 20
3.9559521187
 30
0.0
 10
5.312680535
 20
3.9525848724
 30
0.0
 10
5.3133123843
 20
3.9491000942
 30
0.0
 10
5.3135665387
 20
3.9462692701
 30
0.0
 10
5.3136092099
 20
3.9448448341
 30
0.0
 10
5.3136092099
 20
3.9441326448
 30
0.0
  0
SPLINE
  5
3AA
100
AcDbEntity
  8
ALL_ASSEMBLY_MEMBERS
100
AcDbSpline
 62
7
  6
CONTINUOUS
 70
0
 71
3
 72
11
 73
7
 74
0
 42
0.0000001
 43
0.0000001
 44
0.0000000001
 40
0.0
 40
0.0
 40
0.0
 40
0.0
 40
0.2476094727
 40
0.4963836294
 40
0.7470996135
 40
1.0
 40
1.0
 40
1.0
 40
1.0
 10
5.1361599225
 20
3.9865876342
 30
0.0
 10
5.1374994815
 20
3.986587611
 30
0.0
 10
5.1401879762
 20
3.986418029
 30
0.0
 10
5.1441675393
 20
3.9856548549
 30
0.0
 10
5.1480483843
 20
3.9843947188
 30
0.0
 10
5.1505259842
 20
3.9832427945
 30
0.0
 10
5.1517299665
 20
3.9825929096
 30
0.0
  0
SPLINE
  5
3AB
100
AcDbEntity
  8
ALL_ASSEMBLY_MEMBERS
100
AcDbSpline
 62
7
  6
CONTINUOUS
 70
0
 71
3
 72
17
 73
13
 74
0
 42
0.0000001
 43
0.0000001
 44
0.0000000001
 40
0.0
 40
0.0
 40
0.0
 40
0.0
 40
0.1299319256
 40
0.2595365043
 40
0.3879024346
 40
0.5145722941
 40
0.5772050329
 40
0.6392949046
 40
0.700818236
 40
0.7617693423
 40
0.8819039079
 40
1.0
 40
1.0
 40
1.0
 40
1.0
 10
5.3216908586
 20
3.9441326448
 30
0.0
 10
5.3215879551
 20
3.9421894722
 30
0.0
 10
5.3211387975
 20
3.9383166688
 30
0.0
 10
5.3197514528
 20
3.9326599583
 30
0.0
 10
5.3176645104
 20
3.9272734512
 30
0.0
 10
5.3153667631
 20
3.9230894864
 30
0.0
 10
5.3132203538
 20
3.9199931924
 30
0.0
 10
5.3114730485
 20
3.9178159529
 30
0.0
 10
5.3095902255
 20
3.9157887929
 30
0.0
 10
5.3069255025
 20
3.9133147739
 30
0.0
 10
5.3033069046
 20
3.9106416179
 30
0.0
 10
5.3001222872
 20
3.9089934215
 30
0.0
 10
5.298490076
 20
3.9083122683
 30
0.0
  0
SPLINE
  5
3AC
100
AcDbEntity
  8
ALL_ASSEMBLY_MEMBERS
100
AcDbSpline
 62
7
  6
CONTINUOUS
 70
0
 71
3
 72
12
 73
8
 74
0
 42
0.0000001
 43
0.0000001
 44
0.0000000001
 40
0.0
 40
0.0
 40
0.0
 40
0.0
 40
0.2513831468
 40
0.5005710103
 40
0.6250291425
 40
0.749639612
 40
1.0
 40
1.0
 40
1.0
 40
1.0
 10
5.298490076
 20
3.9083122683
 30
0.0
 10
5.2967821536
 20
3.9075995193
 30
0.0
 10
5.2932503579
 20
3.9064717066
 30
0.0
 10
5.2886605342
 20
3.9058796097
 30
0.0
 10
5.2849877248
 20
3.905911372
 30
0.0
 10
5.2813258133
 20
3.9062809625
 30
0.0
 10
5.2786235379
 20
3.9069362689
 30
0.0
 10
5.2768787529
 20
3.907530342
 30
0.0
  0
SPLINE
  5
3AD
100
AcDbEntity
  8
ALL_ASSEMBLY_MEMBERS
100
AcDbSpline
 62
7
  6
CONTINUOUS
 70
0
 71
3
 72
9
 73
5
 74
0
 42
0.0000001
 43
0.0000001
 44
0.0000000001
 40
0.0
 40
0.0
 40
0.0
 40
0.0
 40
0.4965542548
 40
1.0
 40
1.0
 40
1.0
 40
1.0
 10
5.2768787529
 20
3.907530342
 30
0.0
 10
5.2754726941
 20
3.9080090839
 30
0.0
 10
5.2727078669
 20
3.909180434
 30
0.0
 10
5.2701349772
 20
3.9107271955
 30
0.0
 10
5.268900307
 20
3.9115894296
 30
0.0
  0
SPLINE
  5
3AE
100
AcDbEntity
  8
ALL_ASSEMBLY_MEMBERS
100
AcDbSpline
 62
7
  6
CONTINUOUS
 70
0
 71
3
 72
14
 73
10
 74
0
 42
0.0000001
 43
0.0000001
 44
0.0000000001
 40
0.0
 40
0.0
 40
0.0
 40
0.0
 40
0.1204868077
 40
0.2424735023
 40
0.3659411918
 40
0.4907741768
 40
0.7436288793
 40
0.8715246638
 40
1.0
 40
1.0
 40
1.0
 40
1.0
 10
5.2665644063
 20
3.913378642
 30
0.0
 10
5.2656919188
 20
3.9141092477
 30
0.0
 10
5.2640082412
 20
3.9156680823
 30
0.0
 10
5.2617081138
 20
3.9182545794
 30
0.0
 10
5.2596404166
 20
3.9210820363
 30
0.0
 10
5.2572081444
 20
3.925148686
 30
0.0
 10
5.255330521
 20
3.9295729962
 30
0.0
 10
5.2540508292
 20
3.9342136076
 30
0.0
 10
5.2536151869
 20
3.9365995671
 30
0.0
 10
5.2534495406
 20
3.9378016479
 30
0.0
  0
SPLINE
  5
3AF
100
AcDbEntity
  8
ALL_ASSEMBLY_MEMBERS
100
AcDbSpline
 62
7
  6
CONTINUOUS
 70
0
 71
3
 72
9
 73
5
 74
0
 42
0.0000001
 43
0.0000001
 44
0.0000000001
 40
0.0
 40
0.0
 40
0.0
 40
0.0
 40
0.2527267792
 40
1.0
 40
1.0
 40
1.0
 40
1.0
 10
5.2540651949
 20
3.9621307339
 30
0.0
 10
5.2544051385
 20
3.9629693436
 30
0.0
 10
5.2558492531
 20
3.9662463262
 30
0.0
 10
5.2576871644
 20
3.9693518598
 30
0.0
 10
5.2592654333
 20
3.9715124177
 30
0.0
  0
SPLINE
  5
3B0
100
AcDbEntity
  8
ALL_ASSEMBLY_MEMBERS
100
AcDbSpline
 62
7
  6
CONTINUOUS
 70
0
 71
3
 72
9
 73
5
 74
0
 42
0.0000001
 43
0.0000001
 44
0.0000000001
 40
0.0
 40
0.0
 40
0.0
 40
0.0
 40
0.2525425585
 40
1.0
 40
1.0
 40
1.0
 40
1.0
 10
5.2592654333
 20
3.9715124177
 30
0.0
 10
5.2596080301
 20
3.9719814127
 30
0.0
 10
5.2610035661
 20
3.9738096788
 30
0.0
 10
5.2625545897
 20
3.9755197513
 30
0.0
 10
5.2637917186
 20
3.97671328
 30
0.0
  0
SPLINE
  5
3B1
100
AcDbEntity
  8
ALL_ASSEMBLY_MEMBERS
100
AcDbSpline
 62
7
  6
CONTINUOUS
 70
0
 71
3
 72
9
 73
5
 74
0
 42
0.0000001
 43
0.0000001
 44
0.0000000001
 40
0.0
 40
0.0
 40
0.0
 40
0.0
 40
0.505670996
 40
1.0
 40
1.0
 40
1.0
 40
1.0
 10
5.2637917186
 20
3.97671328
 30
0.0
 10
5.2653985314
 20
3.9782634639
 30
0.0
 10
5.2688508783
 20
3.9810584084
 30
0.0
 10
5.2727608611
 20
3.9831732335
 30
0.0
 10
5.2747725195
 20
3.9840200136
 30
0.0
  0
SPLINE
  5
3B2
100
AcDbEntity
  8
ALL_ASSEMBLY_MEMBERS
100
AcDbSpline
 62
7
  6
CONTINUOUS
 70
0
 71
3
 72
11
 73
7
 74
0
 42
0.0000001
 43
0.0000001
 44
0.0000000001
 40
0.0
 40
0.0
 40
0.0
 40
0.0
 40
0.252142091
 40
0.5024898673
 40
0.7515735969
 40
1.0
 40
1.0
 40
1.0
 40
1.0
 10
5.2747725195
 20
3.9840200136
 30
0.0
 10
5.2757742689
 20
3.9844416863
 30
0.0
 10
5.2778129879
 20
3.985185354
 30
0.0
 10
5.2809559817
 20
3.9859919322
 30
0.0
 10
5.2841479131
 20
3.986479429
 30
0.0
 10
5.2862940582
 20
3.9865876526
 30
0.0
 10
5.2873649222
 20
3.9865876342
 30
0.0
  0
SPLINE
  5
3B3
100
AcDbEntity
  8
ALL_ASSEMBLY_MEMBERS
100
AcDbSpline
 62
7
  6
CONTINUOUS
 70
0
 71
3
 72
15
 73
11
 74
0
 42
0.0000001
 43
0.0000001
 44
0.0000000001
 40
0.0
 40
0.0
 40
0.0
 40
0.0
 40
0.116624004
 40
0.2359330186
 40
0.3578676915
 40
0.4824482292
 40
0.6094217249
 40
0.7383757468
 40
0.8688490563
 40
1.0
 40
1.0
 40
1.0
 40
1.0
 10
5.3029349662
 20
3.9825929096
 30
0.0
 10
5.3044250496
 20
3.9816875558
 30
0.0
 10
5.3073017394
 20
3.9796194305
 30
0.0
 10
5.3111548647
 20
3.9758821581
 30
0.0
 10
5.3145128448
 20
3.9715423873
 30
0.0
 10
5.3173043595
 20
3.9666872374
 30
0.0
 10
5.3194733291
 20
3.9614109057
 30
0.0
 10
5.3209693849
 20
3.9558147149
 30
0.0
 10
5.321755568
 20
3.9500138918
 30
0.0
 10
5.3217945474
 20
3.9460906469
 30
0.0
 10
5.3216908586
 20
3.9441326448
 30
0.0
  0
SPLINE
  5
3B4
100
AcDbEntity
  8
ALL_ASSEMBLY_MEMBERS
100
AcDbSpline
 62
7
  6
CONTINUOUS
 70
0
 71
3
 72
14
 73
10
 74
0
 42
0.0000001
 43
0.0000001
 44
0.0000000001
 40
0.0
 40
0.0
 40
0.0
 40
0.0
 40
0.1302953463
 40
0.2599851688
 40
0.5146621653
 40
0.6393580442
 40
0.7618879628
 40
0.8821044369
 40
1.0
 40
1.0
 40
1.0
 40
1.0
 10
5.1722729207
 20
3.9441326448
 30
0.0
 10
5.1722506596
 20
3.9425638103
 30
0.0
 10
5.1720473544
 20
3.9394328914
 30
0.0
 10
5.1710244993
 20
3.9333133558
 30
0.0
 10
5.1690767501
 20
3.9274419318
 30
0.0
 10
5.1662512573
 20
3.9220880154
 30
0.0
 10
5.163751244
 20
3.9184246088
 30
0.0
 10
5.1608912291
 20
3.9151434461
 30
0.0
 10
5.1587485022
 20
3.9132245976
 30
0.0
 10
5.1576319994
 20
3.9123477266
 30
0.0
  0
SPLINE
  5
3B5
100
AcDbEntity
  8
ALL_ASSEMBLY_MEMBERS
100
AcDbSpline
 62
7
  6
CONTINUOUS
 70
0
 71
3
 72
17
 73
13
 74
0
 42
0.0000001
 43
0.0000001
 44
0.0000000001
 40
0.0
 40
0.0
 40
0.0
 40
0.0
 40
0.1262668573
 40
0.2504075879
 40
0.373204009
 40
0.4344424226
 40
0.4957029506
 40
0.6186764872
 40
0.6807450728
 40
0.7433147186
 40
0.8701918803
 40
1.0
 40
1.0
 40
1.0
 40
1.0
 10
5.1551344133
 20
3.9105707879
 30
0.0
 10
5.1537518242
 20
3.909684217
 30
0.0
 10
5.1508654076
 20
3.9081389529
 30
0.0
 10
5.1462468991
 20
3.9065751543
 30
0.0
 10
5.1422641605
 20
3.9059552651
 30
0.0
 10
5.139070799
 20
3.9058792834
 30
0.0
 10
5.1358810115
 20
3.9060838493
 30
0.0
 10
5.1327194948
 20
3.9067108806
 30
0.0
 10
5.1296649633
 20
3.9077422381
 30
0.0
 10
5.126663229
 20
3.9090526139
 30
0.0
 10
5.1230809963
 20
3.9111927736
 30
0.0
 10
5.1205209749
 20
3.9133617517
 30
0.0
 10
5.1193207091
 20
3.9145493354
 30
0.0
  0
SPLINE
  5
3B6
100
AcDbEntity
  8
ALL_ASSEMBLY_MEMBERS
100
AcDbSpline
 62
7
  6
CONTINUOUS
 70
0
 71
3
 72
12
 73
8
 74
0
 42
0.0000001
 43
0.0000001
 44
0.0000000001
 40
0.0
 40
0.0
 40
0.0
 40
0.0
 40
0.241025211
 40
0.3640970925
 40
0.4887170992
 40
0.7419818472
 40
1.0
 40
1.0
 40
1.0
 40
1.0
 10
5.1193207091
 20
3.9145493354
 30
0.0
 10
5.1179679959
 20
3.9158877558
 30
0.0
 10
5.1160968619
 20
3.9180936421
 30
0.0
 10
5.1139807585
 20
3.9213234804
 30
0.0
 10
5.1120834276
 20
3.924798488
 30
0.0
 10
5.1102131399
 20
3.9294805713
 30
0.0
 10
5.1093023891
 20
3.9334316073
 30
0.0
 10
5.1089953178
 20
3.935445439
 30
0.0
  0
SPLINE
  5
3B7
100
AcDbEntity
  8
ALL_ASSEMBLY_MEMBERS
100
AcDbSpline
 62
7
  6
CONTINUOUS
 70
0
 71
3
 72
15
 73
11
 74
0
 42
0.0000001
 43
0.0000001
 44
0.0000000001
 40
0.0
 40
0.0
 40
0.0
 40
0.0
 40
0.1196724199
 40
0.2411862639
 40
0.3645453833
 40
0.4896226434
 40
0.616103092
 40
0.7436464881
 40
0.871856845
 40
1.0
 40
1.0
 40
1.0
 40
1.0
 10
5.1558537369
 20
3.9798181197
 30
0.0
 10
5.1571370119
 20
3.978825284
 30
0.0
 10
5.1595982748
 20
3.976657006
 30
0.0
 10
5.1628827014
 20
3.9729481943
 30
0.0
 10
5.1657423331
 20
3.9688131181
 30
0.0
 10
5.1681330376
 20
3.9643146346
 30
0.0
 10
5.1700175929
 20
3.9595210961
 30
0.0
 10
5.1713657369
 20
3.9545059489
 30
0.0
 10
5.1721526269
 20
3.9493507731
 30
0.0
 10
5.1722975706
 20
3.9458698185
 30
0.0
 10
5.1722729207
 20
3.9441326448
 30
0.0
  0
SPLINE
  5
3B8
100
AcDbEntity
  8
ALL_ASSEMBLY_MEMBERS
100
AcDbSpline
 62
7
  6
CONTINUOUS
 70
0
 71
3
 72
11
 73
7
 74
0
 42
0.0000001
 43
0.0000001
 44
0.0000000001
 40
0.0
 40
0.0
 40
0.0
 40
0.0
 40
0.2470113402
 40
0.4954098748
 40
0.7461410012
 40
1.0
 40
1.0
 40
1.0
 40
1.0
 10
5.287361603
 20
3.9865538454
 30
0.0
 10
5.2885790688
 20
3.9864961675
 30
0.0
 10
5.2910163613
 20
3.9862305529
 30
0.0
 10
5.2946087377
 20
3.9853853681
 30
0.0
 10
5.2981050283
 20
3.9841032497
 30
0.0
 10
5.3003319542
 20
3.9829750663
 30
0.0
 10
5.301415145
 20
3.9823459764
 30
0.0
  0
SPLINE
  5
3B9
100
AcDbEntity
  8
ALL_ASSEMBLY_MEMBERS
100
AcDbSpline
 62
7
  6
CONTINUOUS
 70
0
 71
3
 72
9
 73
5
 74
0
 42
0.0000001
 43
0.0000001
 44
0.0000000001
 40
0.0
 40
0.0
 40
0.0
 40
0.0
 40
0.2475543929
 40
1.0
 40
1.0
 40
1.0
 40
1.0
 10
5.301415145
 20
3.9823459764
 30
0.0
 10
5.3018837
 20
3.9820738515
 30
0.0
 10
5.3037490416
 20
3.9809279215
 30
0.0
 10
5.3055015602
 20
3.9795996934
 30
0.0
 10
5.3067425568
 20
3.9785169379
 30
0.0
  0
SPLINE
  5
3BA
100
AcDbEntity
  8
ALL_ASSEMBLY_MEMBERS
100
AcDbSpline
 62
7
  6
CONTINUOUS
 70
0
 71
3
 72
14
 73
10
 74
0
 42
0.0000001
 43
0.0000001
 44
0.0000000001
 40
0.0
 40
0.0
 40
0.0
 40
0.0
 40
0.1180428354
 40
0.2383315785
 40
0.3608400028
 40
0.4854645923
 40
0.6120134126
 40
0.7402183662
 40
1.0
 40
1.0
 40
1.0
 40
1.0
 10
5.3067425568
 20
3.9785169379
 30
0.0
 10
5.3077980423
 20
3.9775960387
 30
0.0
 10
5.3098216735
 20
3.9756097904
 30
0.0
 10
5.3125254549
 20
3.9722789457
 30
0.0
 10
5.3148971563
 20
3.9686104023
 30
0.0
 10
5.3169026714
 20
3.9646468514
 30
0.0
 10
5.3185197575
 20
3.9604366999
 30
0.0
 10
5.3201345586
 20
3.954541242
 30
0.0
 10
5.3206934954
 20
3.9499332783
 30
0.0
 10
5.3207743255
 20
3.9468516475
 30
0.0
  0
SPLINE
  5
3BB
100
AcDbEntity
  8
ALL_ASSEMBLY_MEMBERS
100
AcDbSpline
 62
7
  6
CONTINUOUS
 70
0
 71
3
 72
11
 73
7
 74
0
 42
0.0000001
 43
0.0000001
 44
0.0000000001
 40
0.0
 40
0.0
 40
0.0
 40
0.0
 40
0.2513732975
 40
0.502399855
 40
0.7522104686
 40
1.0
 40
1.0
 40
1.0
 40
1.0
 10
5.3207295218
 20
3.9431179711
 30
0.0
 10
5.320642392
 20
3.9413788594
 30
0.0
 10
5.3202840321
 20
3.93790942
 30
0.0
 10
5.3191974182
 20
3.9328034575
 30
0.0
 10
5.3175768195
 20
3.9278671182
 30
0.0
 10
5.31614717
 20
3.9247214551
 30
0.0
 10
5.3153497753
 20
3.9232014475
 30
0.0
  0
SPLINE
  5
3BC
100
AcDbEntity
  8
ALL_ASSEMBLY_MEMBERS
100
AcDbSpline
 62
7
  6
CONTINUOUS
 70
0
 71
3
 72
11
 73
7
 74
0
 42
0.0000001
 43
0.0000001
 44
0.0000000001
 40
0.0
 40
0.0
 40
0.0
 40
0.0
 40
0.2476094727
 40
0.4963836294
 40
0.7470996135
 40
1.0
 40
1.0
 40
1.0
 40
1.0
 10
5.2873649222
 20
3.9865876342
 30
0.0
 10
5.2887044812
 20
3.986587611
 30
0.0
 10
5.2913929759
 20
3.986418029
 30
0.0
 10
5.295372539
 20
3.9856548549
 30
0.0
 10
5.299253384
 20
3.9843947188
 30
0.0
 10
5.3017309839
 20
3.9832427945
 30
0.0
 10
5.3029349662
 20
3.9825929096
 30
0.0
  0
SPLINE
  5
3BD
100
AcDbEntity
  8
ALL_ASSEMBLY_MEMBERS
100
AcDbSpline
 62
7
  6
CONTINUOUS
 70
0
 71
3
 72
15
 73
11
 74
0
 42
0.0000001
 43
0.0000001
 44
0.0000000001
 40
0.0
 40
0.0
 40
0.0
 40
0.0
 40
0.1327511392
 40
0.2647650836
 40
0.3948457489
 40
0.522254253
 40
0.6465662945
 40
0.7675031861
 40
0.8851718014
 40
1.0
 40
1.0
 40
1.0
 40
1.0
 10
5.3232426815
 20
3.9441326448
 30
0.0
 10
5.3232426815
 20
3.9462027269
 30
0.0
 10
5.3230677863
 20
3.9503335416
 30
0.0
 10
5.3222822318
 20
3.9564478232
 30
0.0
 10
5.3209695789
 20
3.9623871455
 30
0.0
 10
5.319124391
 20
3.9680584183
 30
0.0
 10
5.3167432354
 20
3.9733726609
 30
0.0
 10
5.3138183482
 20
3.9782359866
 30
0.0
 10
5.3103467667
 20
3.9825400642
 30
0.0
 10
5.3076437509
 20
3.9849864186
 30
0.0
 10
5.3062141164
 20
3.9860645574
 30
0.0
  0
SPLINE
  5
3BE
100
AcDbEntity
  8
ALL_ASSEMBLY_MEMBERS
100
AcDbSpline
 62
7
  6
CONTINUOUS
 70
0
 71
3
 72
19
 73
15
 74
0
 42
0.0000001
 43
0.0000001
 44
0.0000000001
 40
0.0
 40
0.0
 40
0.0
 40
0.0
 40
0.1200921135
 40
0.1798510186
 40
0.2396128265
 40
0.3597332752
 40
0.4204986849
 40
0.481881977
 40
0.6067509991
 40
0.6704205575
 40
0.7348883137
 40
0.8001458053
 40
0.8661453241
 40
1.0
 40
1.0
 40
1.0
 40
1.0
 10
5.3062141164
 20
3.9860645574
 30
0.0
 10
5.3049278047
 20
3.9870346114
 30
0.0
 10
5.3028781523
 20
3.9883357187
 30
0.0
 10
5.2999594539
 20
3.9896906321
 30
0.0
 10
5.2969298531
 20
3.9907774062
 30
0.0
 10
5.2937481991
 20
3.9914402607
 30
0.0
 10
5.2905020881
 20
3.9916631856
 30
0.0
 10
5.2871851521
 20
3.9915868296
 30
0.0
 10
5.2838542052
 20
3.9910604345
 30
0.0
 10
5.2805895119
 20
3.9901223831
 30
0.0
 10
5.2781585994
 20
3.9892076652
 30
0.0
 10
5.2757759599
 20
3.9880983899
 30
0.0
 10
5.2726665536
 20
3.9863672887
 30
0.0
 10
5.2704649616
 20
3.9848184769
 30
0.0
 10
5.2690649979
 20
3.9836938858
 30
0.0
  0
SPLINE
  5
3BF
100
AcDbEntity
  8
ALL_ASSEMBLY_MEMBERS
100
AcDbSpline
 62
7
  6
CONTINUOUS
 70
0
 71
3
 72
9
 73
5
 74
0
 42
0.0000001
 43
0.0000001
 44
0.0000000001
 40
0.0
 40
0.0
 40
0.0
 40
0.0
 40
0.2483805389
 40
1.0
 40
1.0
 40
1.0
 40
1.0
 10
5.2690649979
 20
3.9836938858
 30
0.0
 10
5.2686153995
 20
3.9833327233
 30
0.0
 10
5.2668351319
 20
3.9818417725
 30
0.0
 10
5.2651745704
 20
3.9802087307
 30
0.0
 10
5.2640008771
 20
3.9789172563
 30
0.0
  0
SPLINE
  5
3C0
100
AcDbEntity
  8
ALL_ASSEMBLY_MEMBERS
100
AcDbSpline
 62
7
  6
CONTINUOUS
 70
0
 71
3
 72
14
 73
10
 74
0
 42
0.0000001
 43
0.0000001
 44
0.0000000001
 40
0.0
 40
0.0
 40
0.0
 40
0.0
 40
0.1267668408
 40
0.2536408457
 40
0.3802095905
 40
0.5062801532
 40
0.6317196317
 40
0.7561907799
 40
1.0
 40
1.0
 40
1.0
 40
1.0
 10
5.2508361143
 20
3.9441326448
 30
0.0
 10
5.2508361143
 20
3.9421056785
 30
0.0
 10
5.2510708448
 20
3.9380463629
 30
0.0
 10
5.2521099754
 20
3.9320436341
 30
0.0
 10
5.2538287272
 20
3.9262094786
 30
0.0
 10
5.2561976408
 20
3.9206334457
 30
0.0
 10
5.2591851686
 20
3.9153983378
 30
0.0
 10
5.263891101
 20
3.9090469341
 30
0.0
 10
5.2682754045
 20
3.9049797432
 30
0.0
 10
5.2714855036
 20
3.9027677065
 30
0.0
  0
SPLINE
  5
3C1
100
AcDbEntity
  8
ALL_ASSEMBLY_MEMBERS
100
AcDbSpline
 62
7
  6
CONTINUOUS
 70
0
 71
3
 72
28
 73
24
 74
0
 42
0.0000001
 43
0.0000001
 44
0.0000000001
 40
0.0
 40
0.0
 40
0.0
 40
0.0
 40
0.0642036527
 40
0.0957916378
 40
0.1269901517
 40
0.1881625189
 40
0.2182060987
 40
0.247902995
 40
0.2773113157
 40
0.3065025851
 40
0.3355450371
 40
0.3645133051
 40
0.4225525514
 40
0.4518275038
 40
0.481336746
 40
0.541267656
 40
0.6026819625
 40
0.6657019601
 40
0.7302941414
 40
0.7963094457
 40
0.8635383872
 40
0.9316167372
 40
1.0
 40
1.0
 40
1.0
 40
1.0
 10
5.2714855036
 20
3.9027677065
 30
0.0
 10
5.2729661252
 20
3.9017474298
 30
0.0
 10
5.2752830765
 20
3.9003716331
 30
0.0
 10
5.2785260149
 20
3.8989046741
 30
0.0
 10
5.2817926097
 20
3.8977212075
 30
0.0
 10
5.2851528854
 20
3.8969494472
 30
0.0
 10
5.2885275853
 20
3.8966286146
 30
0.0
 10
5.2910280066
 20
3.8966182895
 30
0.0
 10
5.2934946406
 20
3.8968379358
 30
0.0
 10
5.2959123058
 20
3.8972814412
 30
0.0
 10
5.2982667173
 20
3.8979443306
 30
0.0
 10
5.3013029318
 20
3.8991143957
 30
0.0
 10
5.3041721196
 20
3.9006964503
 30
0.0
 10
5.3068178927
 20
3.9026257112
 30
0.0
 10
5.3093401922
 20
3.9047969062
 30
0.0
 10
5.3122164274
 20
3.9079134298
 30
0.0
 10
5.3151823668
 20
3.9121563566
 30
0.0
 10
5.3176809797
 20
3.9168363534
 30
0.0
 10
5.3197175159
 20
3.9218720092
 30
0.0
 10
5.321296146
 20
3.9271911225
 30
0.0
 10
5.3224198818
 20
3.9327233071
 30
0.0
 10
5.3230928454
 20
3.9383939844
 30
0.0
 10
5.3232426815
 20
3.9422174775
 30
0.0
 10
5.3232426815
 20
3.9441326448
 30
0.0
  0
SPLINE
  5
3C2
100
AcDbEntity
  8
ALL_ASSEMBLY_MEMBERS
100
AcDbSpline
 62
7
  6
CONTINUOUS
 70
0
 71
3
 72
12
 73
8
 74
0
 42
0.0000001
 43
0.0000001
 44
0.0000000001
 40
0.0
 40
0.0
 40
0.0
 40
0.0
 40
0.2512449554
 40
0.3769980449
 40
0.5025029591
 40
0.7522464475
 40
1.0
 40
1.0
 40
1.0
 40
1.0
 10
5.1726887304
 20
3.9441326448
 30
0.0
 10
5.1726887304
 20
3.946990884
 30
0.0
 10
5.1723385274
 20
3.9512899692
 30
0.0
 10
5.1711929373
 20
3.9568951128
 30
0.0
 10
5.1696003076
 20
3.9623737148
 30
0.0
 10
5.1667991279
 20
3.968919175
 30
0.0
 10
5.1637300853
 20
3.9737116292
 30
0.0
 10
5.1620105237
 20
3.9759448249
 30
0.0
  0
SPLINE
  5
3C3
100
AcDbEntity
  8
ALL_ASSEMBLY_MEMBERS
100
AcDbSpline
 62
7
  6
CONTINUOUS
 70
0
 71
3
 72
9
 73
5
 74
0
 42
0.0000001
 43
0.0000001
 44
0.0000000001
 40
0.0
 40
0.0
 40
0.0
 40
0.0
 40
0.2516900323
 40
1.0
 40
1.0
 40
1.0
 40
1.0
 10
5.1595240967
 20
3.9789171142
 30
0.0
 10
5.1591310651
 20
3.9793495904
 30
0.0
 10
5.15753734
 20
3.9810382853
 30
0.0
 10
5.1558143916
 20
3.98260578
 30
0.0
 10
5.1544598399
 20
3.9836938911
 30
0.0
  0
SPLINE
  5
3C4
100
AcDbEntity
  8
ALL_ASSEMBLY_MEMBERS
100
AcDbSpline
 62
7
  6
CONTINUOUS
 70
0
 71
3
 72
27
 73
23
 74
0
 42
0.0000001
 43
0.0000001
 44
0.0000000001
 40
0.0
 40
0.0
 40
0.0
 40
0.0
 40
0.0639900447
 40
0.1264957891
 40
0.1571927351
 40
0.1875084294
 40
0.2174590956
 40
0.2470801937
 40
0.2764357452
 40
0.3055949419
 40
0.3346240093
 40
0.3636022289
 40
0.4217204504
 40
0.4805805538
 40
0.540661285
 40
0.602221671
 40
0.6653743016
 40
0.7300744377
 40
0.7961741565
 40
0.8634649665
 40
0.9315850174
 40
1.0
 40
1.0
 40
1.0
 40
1.0
 10
5.1512003755
 20
3.9860600958
 30
0.0
 10
5.1497172754
 20
3.9870271808
 30
0.0
 10
5.1466518194
 20
3.9887434206
 30
0.0
 10
5.1425674238
 20
3.990292345
 30
0.0
 10
5.1392435935
 20
3.9911026035
 30
0.0
 10
5.136753938
 20
3.9914923844
 30
0.0
 10
5.1342693972
 20
3.991662729
 30
0.0
 10
5.1318060195
 20
3.9916077425
 30
0.0
 10
5.1293798213
 20
3.9913298492
 30
0.0
 10
5.1270053053
 20
3.9908345303
 30
0.0
 10
5.1246962289
 20
3.9901258312
 30
0.0
 10
5.1217206258
 20
3.9889036154
 30
0.0
 10
5.1182027392
 20
3.9868758967
 30
0.0
 10
5.1144054506
 20
3.9837493558
 30
0.0
 10
5.111053117
 20
3.9800250422
 30
0.0
 10
5.1081559943
 20
3.9757959909
 30
0.0
 10
5.1057156246
 20
3.9711459232
 30
0.0
 10
5.1037261666
 20
3.9661524378
 30
0.0
 10
5.1021840003
 20
3.9608851327
 30
0.0
 10
5.1010861096
 20
3.9554119531
 30
0.0
 10
5.1004285664
 20
3.9498050693
 30
0.0
 10
5.1002821632
 20
3.9460256265
 30
0.0
 10
5.1002821632
 20
3.9441326448
 30
0.0
  0
SPLINE
  5
3C5
100
AcDbEntity
  8
ALL_ASSEMBLY_MEMBERS
100
AcDbSpline
 62
7
  6
CONTINUOUS
 70
0
 71
3
 72
15
 73
11
 74
0
 42
0.0000001
 43
0.0000001
 44
0.0000000001
 40
0.0
 40
0.0
 40
0.0
 40
0.0
 40
0.1310393783
 40
0.2606637062
 40
0.3883074007
 40
0.5139102259
 40
0.637607593
 40
0.7596099076
 40
0.8802486422
 40
1.0
 40
1.0
 40
1.0
 40
1.0
 10
5.1028601952
 20
3.9621307339
 30
0.0
 10
5.1035955072
 20
3.9638106688
 30
0.0
 10
5.1052586855
 20
3.9670687854
 30
0.0
 10
5.1083014113
 20
3.971587085
 30
0.0
 10
5.1118397527
 20
3.9756302862
 30
0.0
 10
5.1158094202
 20
3.9791275556
 30
0.0
 10
5.1201484326
 20
3.9820155632
 30
0.0
 10
5.1247825325
 20
3.9842482612
 30
0.0
 10
5.1296352399
 20
3.9857785722
 30
0.0
 10
5.1329703422
 20
3.9863173678
 30
0.0
 10
5.1346399806
 20
3.9864614421
 30
0.0
  0
SPLINE
  5
3C6
100
AcDbEntity
  8
ALL_ASSEMBLY_MEMBERS
100
AcDbSpline
 62
7
  6
CONTINUOUS
 70
0
 71
3
 72
10
 73
6
 74
0
 42
0.0000001
 43
0.0000001
 44
0.0000000001
 40
0.0
 40
0.0
 40
0.0
 40
0.0
 40
0.2483399567
 40
0.4973454155
 40
1.0
 40
1.0
 40
1.0
 40
1.0
 10
5.2810939684
 20
3.9803343743
 30
0.0
 10
5.2803075939
 20
3.9803917346
 30
0.0
 10
5.2787251007
 20
3.9804228003
 30
0.0
 10
5.2755579445
 20
3.98015146
 30
0.0
 10
5.2732192112
 20
3.9795792981
 30
0.0
 10
5.2717129529
 20
3.9790519725
 30
0.0
  0
SPLINE
  5
3C7
100
AcDbEntity
  8
ALL_ASSEMBLY_MEMBERS
100
AcDbSpline
 62
7
  6
CONTINUOUS
 70
0
 71
3
 72
9
 73
5
 74
0
 42
0.0000001
 43
0.0000001
 44
0.0000000001
 40
0.0
 40
0.0
 40
0.0
 40
0.0
 40
0.2472718588
 40
1.0
 40
1.0
 40
1.0
 40
1.0
 10
5.2693874821
 20
3.9781054669
 30
0.0
 10
5.2689982755
 20
3.9779244063
 30
0.0
 10
5.2674424332
 20
3.9771535661
 30
0.0
 10
5.2659620109
 20
3.976231966
 30
0.0
 10
5.2649017424
 20
3.9754681833
 30
0.0
  0
SPLINE
  5
3C8
100
AcDbEntity
  8
ALL_ASSEMBLY_MEMBERS
100
AcDbSpline
 62
7
  6
CONTINUOUS
 70
0
 71
3
 72
9
 73
5
 74
0
 42
0.0000001
 43
0.0000001
 44
0.0000000001
 40
0.0
 40
0.0
 40
0.0
 40
0.0
 40
0.4936510142
 40
1.0
 40
1.0
 40
1.0
 40
1.0
 10
5.2644903382
 20
3.9751663194
 30
0.0
 10
5.2634680542
 20
3.9744024375
 30
0.0
 10
5.2614962579
 20
3.9727188015
 30
0.0
 10
5.2597425631
 20
3.9708105144
 30
0.0
 10
5.2589127216
 20
3.9697981887
 30
0.0
  0
SPLINE
  5
3C9
100
AcDbEntity
  8
ALL_ASSEMBLY_MEMBERS
100
AcDbSpline
 62
7
  6
CONTINUOUS
 70
0
 71
3
 72
9
 73
5
 74
0
 42
0.0000001
 43
0.0000001
 44
0.0000000001
 40
0.0
 40
0.0
 40
0.0
 40
0.0
 40
0.2455297459
 40
1.0
 40
1.0
 40
1.0
 40
1.0
 10
5.2589127216
 20
3.9697981887
 30
0.0
 10
5.2584414175
 20
3.9692232436
 30
0.0
 10
5.2565974646
 20
3.9668202153
 30
0.0
 10
5.255053768
 20
3.9641901904
 30
0.0
 10
5.2540651949
 20
3.9621307339
 30
0.0
  0
SPLINE
  5
3CA
100
AcDbEntity
  8
ALL_ASSEMBLY_MEMBERS
100
AcDbSpline
 62
7
  6
CONTINUOUS
 70
0
 71
3
 72
18
 73
14
 74
0
 42
0.0000001
 43
0.0000001
 44
0.0000000001
 40
0.0
 40
0.0
 40
0.0
 40
0.0
 40
0.1328475183
 40
0.1985786471
 40
0.2636883119
 40
0.3918005248
 40
0.5172888426
 40
0.5791631542
 40
0.640479011
 40
0.7012835914
 40
0.7616392
 40
0.8812208731
 40
1.0
 40
1.0
 40
1.0
 40
1.0
 10
5.1028601952
 20
3.9621307339
 30
0.0
 10
5.1035893343
 20
3.9639294534
 30
0.0
 10
5.1048540763
 20
3.9665524971
 30
0.0
 10
5.1068630442
 20
3.9698421332
 30
0.0
 10
5.1090495067
 20
3.9729328122
 30
0.0
 10
5.1121262455
 20
3.9764491282
 30
0.0
 10
5.1156387536
 20
3.9794607448
 30
0.0
 10
5.1186478091
 20
3.981502066
 30
0.0
 10
5.1209824053
 20
3.9828400215
 30
0.0
 10
5.1233934439
 20
3.9839842564
 30
0.0
 10
5.1266831025
 20
3.9852375471
 30
0.0
 10
5.1309358953
 20
3.9863009981
 30
0.0
 10
5.1344245746
 20
3.9865876641
 30
0.0
 10
5.1361599225
 20
3.9865876342
 30
0.0
  0
SPLINE
  5
3CB
100
AcDbEntity
  8
ALL_ASSEMBLY_MEMBERS
100
AcDbSpline
 62
7
  6
CONTINUOUS
 70
0
 71
3
 72
15
 73
11
 74
0
 42
0.0000001
 43
0.0000001
 44
0.0000000001
 40
0.0
 40
0.0
 40
0.0
 40
0.0
 40
0.1220059156
 40
0.244584098
 40
0.3679570914
 40
0.4922559078
 40
0.6176181588
 40
0.7441299578
 40
0.8716968581
 40
1.0
 40
1.0
 40
1.0
 40
1.0
 10
5.1286766591
 20
3.9799572163
 30
0.0
 10
5.1273807581
 20
3.979744364
 30
0.0
 10
5.1248055759
 20
3.9791637218
 30
0.0
 10
5.121060954
 20
3.9778487954
 30
0.0
 10
5.1174636426
 20
3.9761146427
 30
0.0
 10
5.1140500872
 20
3.9739859665
 30
0.0
 10
5.1108507315
 20
3.9714926044
 30
0.0
 10
5.1078936186
 20
3.9686655504
 30
0.0
 10
5.1052048551
 20
3.9655413985
 30
0.0
 10
5.1036076606
 20
3.9632920217
 30
0.0
 10
5.1028601952
 20
3.9621307339
 30
0.0
  0
SPLINE
  5
3CC
100
AcDbEntity
  8
ALL_ASSEMBLY_MEMBERS
100
AcDbSpline
 62
7
  6
CONTINUOUS
 70
0
 71
3
 72
29
 73
25
 74
0
 42
0.0000001
 43
0.0000001
 44
0.0000000001
 40
0.0
 40
0.0
 40
0.0
 40
0.0
 40
0.0682988634
 40
0.1362675291
 40
0.203336514
 40
0.2691359714
 40
0.3334538039
 40
0.3961399093
 40
0.4571907832
 40
0.5167555452
 40
0.5461093251
 40
0.5752553057
 40
0.6331261979
 40
0.6620923437
 40
0.6911835
 40
0.7204715641
 40
0.7500310322
 40
0.7799316294
 40
0.8102119462
 40
0.8408889201
 40
0.8719672781
 40
0.9034474637
 40
0.9353112473
 40
1.0
 40
1.0
 40
1.0
 40
1.0
 10
5.1002821632
 20
3.9441326448
 30
0.0
 10
5.1002821632
 20
3.9421625462
 30
0.0
 10
5.1004406679
 20
3.9382300247
 30
0.0
 10
5.1011525706
 20
3.9324016763
 30
0.0
 10
5.1023416059
 20
3.926724136
 30
0.0
 10
5.1040123504
 20
3.9212782128
 30
0.0
 10
5.1061679464
 20
3.9161405275
 30
0.0
 10
5.1088135947
 20
3.9113903941
 30
0.0
 10
5.1119544921
 20
3.9071181745
 30
0.0
 10
5.1149985491
 20
3.9040188313
 30
0.0
 10
5.117664494
 20
3.9018936102
 30
0.0
 10
5.1204597785
 20
3.9000296652
 30
0.0
 10
5.1234837889
 20
3.8985468366
 30
0.0
 10
5.1266693761
 20
3.8975163053
 30
0.0
 10
5.1291337718
 20
3.8969731481
 30
0.0
 10
5.1316554366
 20
3.8966651499
 30
0.0
 10
5.1342184329
 20
3.8965982737
 30
0.0
 10
5.1368046463
 20
3.8967756437
 30
0.0
 10
5.1393958691
 20
3.897190543
 30
0.0
 10
5.1419740023
 20
3.8978375818
 30
0.0
 10
5.1445205567
 20
3.8987118158
 30
0.0
 10
5.1470198574
 20
3.8998016689
 30
0.0
 10
5.1502850675
 20
3.9015326773
 30
0.0
 10
5.1525970343
 20
3.9031074544
 30
0.0
 10
5.1540656212
 20
3.904258573
 30
0.0
  0
SPLINE
  5
3CD
100
AcDbEntity
  8
ALL_ASSEMBLY_MEMBERS
100
AcDbSpline
 62
7
  6
CONTINUOUS
 70
0
 71
3
 72
9
 73
5
 74
0
 42
0.0000001
 43
0.0000001
 44
0.0000000001
 40
0.0
 40
0.0
 40
0.0
 40
0.0
 40
0.4967600802
 40
1.0
 40
1.0
 40
1.0
 40
1.0
 10
5.1540656212
 20
3.904258573
 30
0.0
 10
5.1555504316
 20
3.9054224081
 30
0.0
 10
5.1583843384
 20
3.9079687366
 30
0.0
 10
5.1608782038
 20
3.9108465775
 30
0.0
 10
5.1620425675
 20
3.9123621268
 30
0.0
  0
SPLINE
  5
3CE
100
AcDbEntity
  8
ALL_ASSEMBLY_MEMBERS
100
AcDbSpline
 62
7
  6
CONTINUOUS
 70
0
 71
3
 72
12
 73
8
 74
0
 42
0.0000001
 43
0.0000001
 44
0.0000000001
 40
0.0
 40
0.0
 40
0.0
 40
0.0
 40
0.2477627654
 40
0.4975068553
 40
0.6230103071
 40
0.748760944
 40
1.0
 40
1.0
 40
1.0
 40
1.0
 10
5.1620425675
 20
3.9123621268
 30
0.0
 10
5.1637571387
 20
3.9145938325
 30
0.0
 10
5.166817106
 20
3.9193817157
 30
0.0
 10
5.1696098401
 20
3.9259188902
 30
0.0
 10
5.1711975768
 20
3.9313897318
 30
0.0
 10
5.172339617
 20
3.9369865055
 30
0.0
 10
5.1726887304
 20
3.9412788616
 30
0.0
 10
5.1726887304
 20
3.9441326448
 30
0.0
  0
SPLINE
  5
3CF
100
AcDbEntity
  8
ALL_ASSEMBLY_MEMBERS
100
AcDbSpline
 62
7
  6
CONTINUOUS
 70
0
 71
3
 72
19
 73
15
 74
0
 42
0.0000001
 43
0.0000001
 44
0.0000000001
 40
0.0
 40
0.0
 40
0.0
 40
0.0
 40
0.1249158798
 40
0.1874766357
 40
0.2500078059
 40
0.3749226349
 40
0.4998388355
 40
0.5623760549
 40
0.624922107
 40
0.6874570601
 40
0.7499641082
 40
0.8124888753
 40
0.8750775682
 40
1.0
 40
1.0
 40
1.0
 40
1.0
 10
5.221761907
 20
5.1196080385
 30
0.0
 10
5.221761907
 20
5.1202617274
 30
0.0
 10
5.2216647927
 20
5.1212463198
 30
0.0
 10
5.2213463724
 20
5.122516829
 30
0.0
 10
5.220904915
 20
5.1237504366
 30
0.0
 10
5.2201290528
 20
5.1252018427
 30
0.0
 10
5.219084277
 20
5.1264735952
 30
0.0
 10
5.2181133635
 20
5.1273530572
 30
0.0
 10
5.2173233067
 20
5.1279387057
 30
0.0
 10
5.2164798506
 20
5.1284440337
 30
0.0
 10
5.215590493
 20
5.1288630553
 30
0.0
 10
5.2146639526
 20
5.1291929103
 30
0.0
 10
5.2133942453
 20
5.129513535
 30
0.0
 10
5.2124099123
 20
5.1296177593
 30
0.0
 10
5.2117561891
 20
5.1296177593
 30
0.0
  0
SPLINE
  5
3D0
100
AcDbEntity
  8
ALL_ASSEMBLY_MEMBERS
100
AcDbSpline
 62
7
  6
CONTINUOUS
 70
0
 71
3
 72
19
 73
15
 74
0
 42
0.0000001
 43
0.0000001
 44
0.0000000001
 40
0.0
 40
0.0
 40
0.0
 40
0.0
 40
0.1249852322
 40
0.1876498082
 40
0.2502234468
 40
0.3127340834
 40
0.3752485557
 40
0.4377807889
 40
0.5003042382
 40
0.6251763742
 40
0.750059398
 40
0.8125725634
 40
0.8751106733
 40
1.0
 40
1.0
 40
1.0
 40
1.0
 10
5.2117561891
 20
5.1296177593
 30
0.0
 10
5.2111026449
 20
5.1296177593
 30
0.0
 10
5.2101181984
 20
5.1295135873
 30
0.0
 10
5.2088492213
 20
5.1291900096
 30
0.0
 10
5.2079235975
 20
5.1288579621
 30
0.0
 10
5.2070351973
 20
5.1284383916
 30
0.0
 10
5.2061928621
 20
5.1279329708
 30
0.0
 10
5.2054042221
 20
5.1273471102
 30
0.0
 10
5.2044351129
 20
5.1264677407
 30
0.0
 10
5.2033924056
 20
5.125196582
 30
0.0
 10
5.2026181527
 20
5.12374635
 30
0.0
 10
5.2021776377
 20
5.1225138951
 30
0.0
 10
5.2018598015
 20
5.1212446532
 30
0.0
 10
5.2017629377
 20
5.1202610812
 30
0.0
 10
5.2017629377
 20
5.1196080385
 30
0.0
  0
SPLINE
  5
3D1
100
AcDbEntity
  8
ALL_ASSEMBLY_MEMBERS
100
AcDbSpline
 62
7
  6
CONTINUOUS
 70
0
 71
3
 72
19
 73
15
 74
0
 42
0.0000001
 43
0.0000001
 44
0.0000000001
 40
0.0
 40
0.0
 40
0.0
 40
0.0
 40
0.1248897374
 40
0.1874284864
 40
0.2499423405
 40
0.3748263175
 40
0.4996987803
 40
0.5622219563
 40
0.6247539668
 40
0.6872683074
 40
0.7497784126
 40
0.8123512284
 40
0.8750150897
 40
1.0
 40
1.0
 40
1.0
 40
1.0
 10
5.2017629377
 20
5.0396080385
 30
0.0
 10
5.2017629377
 20
5.0389549913
 30
0.0
 10
5.2018598031
 20
5.0379714103
 30
0.0
 10
5.2021776456
 20
5.0367021559
 30
0.0
 10
5.2026181698
 20
5.0354696866
 30
0.0
 10
5.2033924395
 20
5.034019445
 30
0.0
 10
5.2044351621
 20
5.0327482847
 30
0.0
 10
5.2054042802
 20
5.0318689193
 30
0.0
 10
5.2061929255
 20
5.0312830661
 30
0.0
 10
5.2070352588
 20
5.0307776444
 30
0.0
 10
5.207923659
 20
5.030358083
 30
0.0
 10
5.2088492821
 20
5.0300260554
 30
0.0
 10
5.2101182578
 20
5.0297024955
 30
0.0
 10
5.2111027013
 20
5.0295983206
 30
0.0
 10
5.2117562461
 20
5.0295983206
 30
0.0
  0
SPLINE
  5
3D2
100
AcDbEntity
  8
ALL_ASSEMBLY_MEMBERS
100
AcDbSpline
 62
7
  6
CONTINUOUS
 70
0
 71
3
 72
19
 73
15
 74
0
 42
0.0000001
 43
0.0000001
 44
0.0000000001
 40
0.0
 40
0.0
 40
0.0
 40
0.0
 40
0.1249225465
 40
0.1875115499
 40
0.2500366903
 40
0.3125439719
 40
0.3750791332
 40
0.4376254688
 40
0.5001629066
 40
0.625079081
 40
0.7499938268
 40
0.8125248195
 40
0.8750850005
 40
1.0
 40
1.0
 40
1.0
 40
1.0
 10
5.2117562461
 20
5.0295983206
 30
0.0
 10
5.2124099675
 20
5.0295983206
 30
0.0
 10
5.2133942999
 20
5.0297025444
 30
0.0
 10
5.2146640035
 20
5.0300231825
 30
0.0
 10
5.2155905414
 20
5.0303530474
 30
0.0
 10
5.2164798996
 20
5.0307720695
 30
0.0
 10
5.2173233535
 20
5.0312774019
 30
0.0
 10
5.2181134078
 20
5.031863054
 30
0.0
 10
5.2190843126
 20
5.0327425223
 30
0.0
 10
5.2201290808
 20
5.0340142736
 30
0.0
 10
5.2209049319
 20
5.0354656777
 30
0.0
 10
5.2213463797
 20
5.0366992788
 30
0.0
 10
5.2216647982
 20
5.0379697747
 30
0.0
 10
5.221761907
 20
5.0389543565
 30
0.0
 10
5.221761907
 20
5.0396080385
 30
0.0
  0
SPLINE
  5
3D3
100
AcDbEntity
  8
ALL_ASSEMBLY_MEMBERS
100
AcDbSpline
 62
7
  6
CONTINUOUS
 70
0
 71
3
 72
23
 73
19
 74
0
 42
0.0000001
 43
0.0000001
 44
0.0000000001
 40
0.0
 40
0.0
 40
0.0
 40
0.0
 40
0.0625896051
 40
0.1251105549
 40
0.1875529431
 40
0.2499536192
 40
0.312371529
 40
0.3748505889
 40
0.4374004402
 40
0.4999979437
 40
0.5625956039
 40
0.6251456092
 40
0.6876247296
 40
0.7500420843
 40
0.8124423434
 40
0.8748846849
 40
0.9374075992
 40
1.0
 40
1.0
 40
1.0
 40
1.0
 10
5.2117624224
 20
4.5472576448
 30
0.0
 10
5.2172673547
 20
4.5472576448
 30
0.0
 10
5.2283100142
 20
4.5460189821
 30
0.0
 10
5.2440182249
 20
4.5405893012
 30
0.0
 10
5.2582077589
 20
4.5319740423
 30
0.0
 10
5.2703502128
 20
4.5206876365
 30
0.0
 10
5.2800944031
 20
4.5072834133
 30
0.0
 10
5.2872043547
 20
4.4923077449
 30
0.0
 10
5.2915284993
 20
4.4762920903
 30
0.0
 10
5.2929795311
 20
4.4597581797
 30
0.0
 10
5.2915286874
 20
4.4432242387
 30
0.0
 10
5.2872047134
 20
4.4272085032
 30
0.0
 10
5.2800949372
 20
4.4122327864
 30
0.0
 10
5.2703509694
 20
4.3988285012
 30
0.0
 10
5.25820873
 20
4.3875420064
 30
0.0
 10
5.2440192449
 20
4.3789264024
 30
0.0
 10
5.2283106719
 20
4.3734964748
 30
0.0
 10
5.2172676006
 20
4.3722576448
 30
0.0
 10
5.2117624224
 20
4.3722576448
 30
0.0
  0
SPLINE
  5
3D4
100
AcDbEntity
  8
ALL_ASSEMBLY_MEMBERS
100
AcDbSpline
 62
7
  6
CONTINUOUS
 70
0
 71
3
 72
23
 73
19
 74
0
 42
0.0000001
 43
0.0000001
 44
0.0000000001
 40
0.0
 40
0.0
 40
0.0
 40
0.0
 40
0.0625893598
 40
0.125110194
 40
0.187552642
 40
0.249953392
 40
0.3123713752
 40
0.3748504743
 40
0.437400375
 40
0.4999979289
 40
0.5625956395
 40
0.6251456932
 40
0.687624854
 40
0.7500422825
 40
0.8124426153
 40
0.874885017
 40
0.937407823
 40
1.0
 40
1.0
 40
1.0
 40
1.0
 10
5.2117624224
 20
4.3722576448
 30
0.0
 10
5.2062575116
 20
4.3722576448
 30
0.0
 10
5.1952148833
 20
4.3734962937
 30
0.0
 10
5.179506695
 20
4.3789259573
 30
0.0
 10
5.1653171479
 20
4.3875411975
 30
0.0
 10
5.1531746719
 20
4.3988276073
 30
0.0
 10
5.1434304632
 20
4.4122318378
 30
0.0
 10
5.1363204998
 20
4.4272075167
 30
0.0
 10
5.1319963477
 20
4.4432231821
 30
0.0
 10
5.1305453128
 20
4.459757106
 30
0.0
 10
5.1319961582
 20
4.4762910603
 30
0.0
 10
5.1363201383
 20
4.492306807
 30
0.0
 10
5.1434299252
 20
4.507282535
 30
0.0
 10
5.1531739101
 20
4.5206868285
 30
0.0
 10
5.1653161706
 20
4.5319733284
 30
0.0
 10
5.1795056685
 20
4.5405889155
 30
0.0
 10
5.195214221
 20
4.5460188283
 30
0.0
 10
5.2062572638
 20
4.5472576448
 30
0.0
 10
5.2117624224
 20
4.5472576448
 30
0.0
  0
ELLIPSE
  5
3D5
100
AcDbEntity
  8
ALL_ASSEMBLY_MEMBERS
100
AcDbEllipse
 62
7
  6
CONTINUOUS
 10
5.2117624224
 20
4.8843151978
 30
0.0
 11
0.4356620756
 21
0.3097087495
 31
0.0
 40
0.6863174071
 41
-3.9803437747
 42
-3.9676270558
  0
ELLIPSE
  5
3D6
100
AcDbEntity
  8
ALL_ASSEMBLY_MEMBERS
100
AcDbEllipse
 62
7
  6
CONTINUOUS
 10
5.2117624224
 20
4.8945777162
 30
0.0
 11
0.4845296417
 21
0.0531218498
 31
0.0
 40
0.2751161207
 41
2.7138845034
 42
2.7266070117
  0
ELLIPSE
  5
3D7
100
AcDbEntity
  8
ALL_ASSEMBLY_MEMBERS
100
AcDbEllipse
 62
7
  6
CONTINUOUS
 10
5.2117624224
 20
4.8537680299
 30
0.0
 11
0.4845296416
 21
-0.0531218552
 31
0.0
 40
0.2751161442
 41
-2.726607006
 42
-2.7138844977
  0
ELLIPSE
  5
3D8
100
AcDbEntity
  8
ALL_ASSEMBLY_MEMBERS
100
AcDbEllipse
 62
7
  6
CONTINUOUS
 10
5.2117624224
 20
4.8640305492
 30
0.0
 11
-0.4356620527
 21
0.3097088087
 31
0.0
 40
0.6863174268
 41
0.8260345095
 42
0.8387512283
  0
ELLIPSE
  5
3D9
100
AcDbEntity
  8
ALL_ASSEMBLY_MEMBERS
100
AcDbEllipse
 62
7
  6
CONTINUOUS
 10
5.2117624224
 20
4.8761571117
 30
0.0
 11
-0.2110172983
 21
0.9517381511
 31
0.0
 40
0.4585406789
 41
1.4848993014
 42
1.4925274221
  0
ELLIPSE
  5
3DA
100
AcDbEntity
  8
ALL_ASSEMBLY_MEMBERS
100
AcDbEllipse
 62
7
  6
CONTINUOUS
 10
5.2117624224
 20
4.8835333011
 30
0.0
 11
-0.1839239125
 21
1.4338152941
 31
0.0
 40
0.3128035903
 41
1.5410292945
 42
1.5461141727
  0
ELLIPSE
  5
3DB
100
AcDbEntity
  8
ALL_ASSEMBLY_MEMBERS
100
AcDbEllipse
 62
7
  6
CONTINUOUS
 10
5.2117624224
 20
4.844502715
 30
0.0
 11
0.4841680723
 21
0.069531332
 31
0.0
 40
0.3415053426
 41
2.6695629887
 42
2.6797561081
  0
ELLIPSE
  5
3DC
100
AcDbEntity
  8
ALL_ASSEMBLY_MEMBERS
100
AcDbEllipse
 62
7
  6
CONTINUOUS
 10
5.2117624224
 20
4.8224125447
 30
0.0
 11
0.4021127937
 21
0.3867250719
 31
0.0
 40
0.7000252448
 41
-4.164805553
 42
-4.15715572
  0
ELLIPSE
  5
3DD
100
AcDbEntity
  8
ALL_ASSEMBLY_MEMBERS
100
AcDbEllipse
 62
7
  6
CONTINUOUS
 10
5.2117624224
 20
4.7736720946
 30
0.0
 11
0.2001645895
 21
1.0730713555
 31
0.0
 40
0.4114299686
 41
1.5606800957
 42
1.5657826121
  0
ELLIPSE
  5
3DE
100
AcDbEntity
  8
ALL_ASSEMBLY_MEMBERS
100
AcDbEllipse
 62
7
  6
CONTINUOUS
 10
5.2117624224
 20
4.6804679219
 30
0.0
 11
0.173492527
 21
2.1521377604
 31
0.0
 40
0.2103210759
 41
1.498485551
 42
1.5010376571
  0
ELLIPSE
  5
3DF
100
AcDbEntity
  8
ALL_ASSEMBLY_MEMBERS
100
AcDbEllipse
 62
7
  6
CONTINUOUS
 10
5.2117624224
 20
5.0678779132
 30
0.0
 11
-0.1734925196
 21
2.1521387659
 31
0.0
 40
0.210320979
 41
-4.6426302942
 42
-4.6400781881
  0
ELLIPSE
  5
3E0
100
AcDbEntity
  8
ALL_ASSEMBLY_MEMBERS
100
AcDbEllipse
 62
7
  6
CONTINUOUS
 10
5.2117624224
 20
4.9746736317
 30
0.0
 11
-0.2001646079
 21
1.0730711015
 31
0.0
 40
0.4114300582
 41
-4.7073753074
 42
-4.7022727909
  0
ELLIPSE
  5
3E1
100
AcDbEntity
  8
ALL_ASSEMBLY_MEMBERS
100
AcDbEllipse
 62
7
  6
CONTINUOUS
 10
5.2117624224
 20
4.9259332021
 30
0.0
 11
-0.4021127937
 21
0.3867250719
 31
0.0
 40
0.7000252448
 41
1.0155630664
 42
1.0232128994
  0
ELLIPSE
  5
3E2
100
AcDbEntity
  8
ALL_ASSEMBLY_MEMBERS
100
AcDbEllipse
 62
7
  6
CONTINUOUS
 10
5.2117624224
 20
4.9038430318
 30
0.0
 11
0.4841680723
 21
-0.069531332
 31
0.0
 40
0.3415053426
 41
-2.6797561081
 42
-2.6695629887
  0
ELLIPSE
  5
3E3
100
AcDbEntity
  8
ALL_ASSEMBLY_MEMBERS
100
AcDbEllipse
 62
7
  6
CONTINUOUS
 10
5.2117624224
 20
4.9033269424
 30
0.0
 11
0.4841680714
 21
0.0695313633
 31
0.0
 40
0.3415054598
 41
2.7840417005
 42
2.7942212431
  0
ELLIPSE
  5
3E4
100
AcDbEntity
  8
ALL_ASSEMBLY_MEMBERS
100
AcDbEllipse
 62
7
  6
CONTINUOUS
 10
5.2117624224
 20
4.9178589126
 30
0.0
 11
0.3546536662
 21
0.4793660332
 31
0.0
 40
0.6893673371
 41
-4.2104130135
 42
-4.2002376741
  0
ELLIPSE
  5
3E5
100
AcDbEntity
  8
ALL_ASSEMBLY_MEMBERS
100
AcDbEllipse
 62
7
  6
CONTINUOUS
 10
5.2117624224
 20
4.9341848192
 30
0.0
 11
0.2001647206
 21
1.0730695455
 31
0.0
 40
0.4114306072
 41
-4.6105355829
 42
-4.6054491537
  0
ELLIPSE
  5
3E6
100
AcDbEntity
  8
ALL_ASSEMBLY_MEMBERS
100
AcDbEllipse
 62
7
  6
CONTINUOUS
 10
5.2117624224
 20
4.8834731779
 30
0.0
 11
-0.200164647
 21
1.0730705612
 31
0.0
 40
0.4114302488
 41
1.4638566668
 42
1.468943096
  0
ELLIPSE
  5
3E7
100
AcDbEntity
  8
ALL_ASSEMBLY_MEMBERS
100
AcDbEllipse
 62
7
  6
CONTINUOUS
 10
5.2117624224
 20
4.899799115
 30
0.0
 11
-0.3546536662
 21
0.4793660332
 31
0.0
 40
0.6893673371
 41
1.0586450205
 42
1.06882036
  0
ELLIPSE
  5
3E8
100
AcDbEntity
  8
ALL_ASSEMBLY_MEMBERS
100
AcDbEllipse
 62
7
  6
CONTINUOUS
 10
5.2117624224
 20
4.9143310852
 30
0.0
 11
0.4841680714
 21
-0.0695313633
 31
0.0
 40
0.3415054598
 41
-2.7942212431
 42
-2.7840417005
  0
ELLIPSE
  5
3E9
100
AcDbEntity
  8
ALL_ASSEMBLY_MEMBERS
100
AcDbEllipse
 62
7
  6
CONTINUOUS
 10
5.2117624224
 20
4.8650227883
 30
0.0
 11
0.4841680714
 21
0.0695313633
 31
0.0
 40
0.3415054598
 41
2.7840417005
 42
2.7942212431
  0
ELLIPSE
  5
3EA
100
AcDbEntity
  8
ALL_ASSEMBLY_MEMBERS
100
AcDbEllipse
 62
7
  6
CONTINUOUS
 10
5.2117624224
 20
4.8722887747
 30
0.0
 11
0.4668511673
 21
0.2089255909
 31
0.0
 40
0.6246664746
 41
2.5502781873
 42
2.5604535267
  0
ELLIPSE
  5
3EB
100
AcDbEntity
  8
ALL_ASSEMBLY_MEMBERS
100
AcDbEllipse
 62
7
  6
CONTINUOUS
 10
5.2117624224
 20
4.890428695
 30
0.0
 11
0.2110171867
 21
0.9517391668
 31
0.0
 40
0.4585402462
 41
-4.5883562274
 42
-4.5807268405
  0
ELLIPSE
  5
3EC
100
AcDbEntity
  8
ALL_ASSEMBLY_MEMBERS
100
AcDbEllipse
 62
7
  6
CONTINUOUS
 10
5.2117624224
 20
4.8524450252
 30
0.0
 11
-0.211017168
 21
0.9517393376
 31
0.0
 40
0.4585401734
 41
1.4391342299
 42
1.4467636167
  0
ELLIPSE
  5
3ED
100
AcDbEntity
  8
ALL_ASSEMBLY_MEMBERS
100
AcDbEllipse
 62
7
  6
CONTINUOUS
 10
5.2117624224
 20
4.8705849506
 30
0.0
 11
0.4668511673
 21
-0.2089255909
 31
0.0
 40
0.6246664746
 41
-2.5604535267
 42
-2.5502781873
  0
ELLIPSE
  5
3EE
100
AcDbEntity
  8
ALL_ASSEMBLY_MEMBERS
100
AcDbEllipse
 62
7
  6
CONTINUOUS
 10
5.2117624224
 20
4.877850937
 30
0.0
 11
0.4841680714
 21
-0.0695313633
 31
0.0
 40
0.3415054598
 41
-2.7942212431
 42
-2.7840417005
  0
ELLIPSE
  5
3EF
100
AcDbEntity
  8
ALL_ASSEMBLY_MEMBERS
100
AcDbEllipse
 62
7
  6
CONTINUOUS
 10
5.2117624224
 20
4.861464922
 30
0.0
 11
0.4668512029
 21
-0.2089254365
 31
0.0
 40
0.6246663258
 41
-2.6063101801
 42
-2.6012078026
  0
ELLIPSE
  5
3F0
100
AcDbEntity
  8
ALL_ASSEMBLY_MEMBERS
100
AcDbEllipse
 62
7
  6
CONTINUOUS
 10
5.2117624224
 20
4.8305168898
 30
0.0
 11
-0.2578960711
 21
0.7014332479
 31
0.0
 40
0.5851642007
 41
1.2648458323
 42
1.272503669
  0
ELLIPSE
  5
3F1
100
AcDbEntity
  8
ALL_ASSEMBLY_MEMBERS
100
AcDbEllipse
 62
7
  6
CONTINUOUS
 10
5.2117624224
 20
4.7631488092
 30
0.0
 11
-0.1839239562
 21
1.4338136914
 31
0.0
 40
0.3128039274
 41
1.4315508783
 42
1.436659149
  0
ELLIPSE
  5
3F2
100
AcDbEntity
  8
ALL_ASSEMBLY_MEMBERS
100
AcDbEllipse
 62
7
  6
CONTINUOUS
 10
5.2117624224
 20
4.9872718225
 30
0.0
 11
0.3259986888
 21
0.53452672
 31
0.0
 40
0.6711697407
 41
-1.3248817727
 42
-1.3025825674
  0
ELLIPSE
  5
3F3
100
AcDbEntity
  8
ALL_ASSEMBLY_MEMBERS
100
AcDbEllipse
 62
7
  6
CONTINUOUS
 10
5.2117624224
 20
5.0881933525
 30
0.0
 11
0.1770586083
 21
1.7931568303
 31
0.0
 40
0.2516550235
 41
-4.5935119134
 42
-4.5884036427
  0
ELLIPSE
  5
3F4
100
AcDbEntity
  8
ALL_ASSEMBLY_MEMBERS
100
AcDbEllipse
 62
7
  6
CONTINUOUS
 10
5.2117624224
 20
4.9871411378
 30
0.0
 11
0.2578960711
 21
0.7014332479
 31
0.0
 40
0.5851642007
 41
-4.4140963225
 42
-4.4064384859
  0
ELLIPSE
  5
3F5
100
AcDbEntity
  8
ALL_ASSEMBLY_MEMBERS
100
AcDbEllipse
 62
7
  6
CONTINUOUS
 10
5.2117624224
 20
4.9623827132
 30
0.0
 11
0.4356621873
 21
0.3097084593
 31
0.0
 40
0.6863173103
 41
-3.8709533301
 42
-3.8582013196
  0
ELLIPSE
  5
3F6
100
AcDbEntity
  8
ALL_ASSEMBLY_MEMBERS
100
AcDbEllipse
 62
7
  6
CONTINUOUS
 10
5.2117624224
 20
4.9412723058
 30
0.0
 11
0.4845296421
 21
0.0531218233
 31
0.0
 40
0.2751160055
 41
2.8232569308
 42
2.835996958
  0
ELLIPSE
  5
3F7
100
AcDbEntity
  8
ALL_ASSEMBLY_MEMBERS
100
AcDbEllipse
 62
7
  6
CONTINUOUS
 10
5.2117624224
 20
4.9447116301
 30
0.0
 11
0.3259987817
 21
0.5345265359
 31
0.0
 40
0.671169814
 41
-1.2507643659
 42
-1.2286210799
  0
ELLIPSE
  5
3F8
100
AcDbEntity
  8
ALL_ASSEMBLY_MEMBERS
100
AcDbEllipse
 62
7
  6
CONTINUOUS
 10
5.2117624224
 20
4.8735933144
 30
0.0
 11
0.4630591816
 21
0.2245111552
 31
0.0
 40
0.6386464466
 41
-0.6183052266
 42
-0.6035566623
  0
ELLIPSE
  5
3F9
100
AcDbEntity
  8
ALL_ASSEMBLY_MEMBERS
100
AcDbEllipse
 62
7
  6
CONTINUOUS
 10
5.2117624224
 20
4.8849237353
 30
0.0
 11
0.4846322909
 21
0.0448829864
 31
0.0
 40
0.2379966242
 41
-0.3253141803
 42
-0.3105556307
  0
ELLIPSE
  5
3FA
100
AcDbEntity
  8
ALL_ASSEMBLY_MEMBERS
100
AcDbEllipse
 62
7
  6
CONTINUOUS
 10
5.2117624224
 20
4.8634220114
 30
0.0
 11
0.4846322909
 21
-0.0448829864
 31
0.0
 40
0.2379966242
 41
0.3105556307
 42
0.3253141803
  0
ELLIPSE
  5
3FB
100
AcDbEntity
  8
ALL_ASSEMBLY_MEMBERS
100
AcDbEllipse
 62
7
  6
CONTINUOUS
 10
5.2117624224
 20
4.8728640259
 30
0.0
 11
0.4734427814
 21
-0.1768432279
 31
0.0
 40
0.588594106
 41
0.5196885314
 42
0.5307507159
  0
ELLIPSE
  5
3FC
100
AcDbEntity
  8
ALL_ASSEMBLY_MEMBERS
100
AcDbEllipse
 62
7
  6
CONTINUOUS
 10
5.2117624224
 20
4.8957824246
 30
0.0
 11
-0.207495773
 21
0.9858241387
 31
0.0
 40
0.4443956471
 41
-1.6987885097
 42
-1.6914161614
  0
ELLIPSE
  5
3FD
100
AcDbEntity
  8
ALL_ASSEMBLY_MEMBERS
100
AcDbEllipse
 62
7
  6
CONTINUOUS
 10
5.2117624224
 20
4.8386325784
 30
0.0
 11
0.4847035227
 21
0.0351495033
 31
0.0
 40
0.1909698234
 41
-0.2802019056
 42
-0.2617015349
  0
ELLIPSE
  5
3FE
100
AcDbEntity
  8
ALL_ASSEMBLY_MEMBERS
100
AcDbEllipse
 62
7
  6
CONTINUOUS
 10
5.2117624224
 20
4.8186241948
 30
0.0
 11
0.4782981758
 21
0.1456294577
 31
0.0
 40
0.5412725914
 41
-0.4111891223
 42
-0.3926539211
  0
ELLIPSE
  5
3FF
100
AcDbEntity
  8
ALL_ASSEMBLY_MEMBERS
100
AcDbEllipse
 62
7
  6
CONTINUOUS
 10
5.2117624224
 20
4.7752541614
 30
0.0
 11
0.2800134072
 21
0.636735321
 31
0.0
 40
0.6214444929
 41
-1.1842741772
 42
-1.1731335909
  0
ELLIPSE
  5
400
100
AcDbEntity
  8
ALL_ASSEMBLY_MEMBERS
100
AcDbEllipse
 62
7
  6
CONTINUOUS
 10
5.2117624224
 20
4.6998726336
 30
0.0
 11
0.190868369
 21
1.2357421379
 31
0.0
 40
0.3605861895
 41
-1.3842710587
 42
-1.3768349866
  0
ELLIPSE
  5
401
100
AcDbEntity
  8
ALL_ASSEMBLY_MEMBERS
100
AcDbEllipse
 62
7
  6
CONTINUOUS
 10
5.2117624224
 20
5.0484731358
 30
0.0
 11
-0.1908683611
 21
1.2357423122
 31
0.0
 40
0.3605861413
 41
-1.7647576494
 42
-1.7573215773
  0
ELLIPSE
  5
402
100
AcDbEntity
  8
ALL_ASSEMBLY_MEMBERS
100
AcDbEllipse
 62
7
  6
CONTINUOUS
 10
5.2117624224
 20
4.9730915778
 30
0.0
 11
-0.2800134331
 21
0.6367352539
 31
0.0
 40
0.6214445296
 41
-1.968459128
 42
-1.9573185418
  0
ELLIPSE
  5
403
100
AcDbEntity
  8
ALL_ASSEMBLY_MEMBERS
100
AcDbEllipse
 62
7
  6
CONTINUOUS
 10
5.2117624224
 20
4.9297215482
 30
0.0
 11
0.4782981788
 21
-0.1456294353
 31
0.0
 40
0.541272552
 41
0.3926538838
 42
0.411189085
  0
ELLIPSE
  5
404
100
AcDbEntity
  8
ALL_ASSEMBLY_MEMBERS
100
AcDbEllipse
 62
7
  6
CONTINUOUS
 10
5.2117624224
 20
4.9097131664
 30
0.0
 11
0.4847035227
 21
-0.0351495
 31
0.0
 40
0.1909698069
 41
0.2617015324
 42
0.2802019031
  0
ELLIPSE
  5
405
100
AcDbEntity
  8
ALL_ASSEMBLY_MEMBERS
100
AcDbEllipse
 62
7
  6
CONTINUOUS
 10
5.2117624224
 20
4.837716764
 30
0.0
 11
0.484529642
 21
-0.0531218287
 31
0.0
 40
0.275116029
 41
-2.8385463295
 42
-2.8258040739
  0
ELLIPSE
  5
406
100
AcDbEntity
  8
ALL_ASSEMBLY_MEMBERS
100
AcDbEllipse
 62
7
  6
CONTINUOUS
 10
5.2117624224
 20
4.8158767492
 30
0.0
 11
-0.4356621459
 21
0.3097085669
 31
0.0
 40
0.6863173461
 41
0.7140568349
 42
0.7268114943
  0
ELLIPSE
  5
407
100
AcDbEntity
  8
ALL_ASSEMBLY_MEMBERS
100
AcDbEllipse
 62
7
  6
CONTINUOUS
 10
5.2117624224
 20
4.7903887165
 30
0.0
 11
-0.2578960294
 21
0.701433387
 31
0.0
 40
0.5851641221
 41
1.2622921148
 42
1.2699517446
  0
ELLIPSE
  5
408
100
AcDbEntity
  8
ALL_ASSEMBLY_MEMBERS
100
AcDbEllipse
 62
7
  6
CONTINUOUS
 10
5.2117624224
 20
4.6866005812
 30
0.0
 11
-0.1770586193
 21
1.7931559956
 31
0.0
 40
0.2516551382
 41
1.4442558639
 42
1.4493654161
  0
ELLIPSE
  5
409
100
AcDbEntity
  8
ALL_ASSEMBLY_MEMBERS
100
AcDbEllipse
 62
7
  6
CONTINUOUS
 10
5.2117624224
 20
5.0562731683
 30
0.0
 11
0.177058616
 21
1.7931562471
 31
0.0
 40
0.2516551037
 41
-4.5909580771
 42
-4.5858485249
  0
ELLIPSE
  5
40A
100
AcDbEntity
  8
ALL_ASSEMBLY_MEMBERS
100
AcDbEllipse
 62
7
  6
CONTINUOUS
 10
5.2117624224
 20
4.935186976
 30
0.0
 11
0.3546537589
 21
0.4793658574
 31
0.0
 40
0.6893673822
 41
-4.1543810131
 42
-4.1441693573
  0
ELLIPSE
  5
40B
100
AcDbEntity
  8
ALL_ASSEMBLY_MEMBERS
100
AcDbEllipse
 62
7
  6
CONTINUOUS
 10
5.2117624224
 20
4.9197129574
 30
0.0
 11
0.4668512029
 21
0.2089254365
 31
0.0
 40
0.6246663258
 41
2.6012078026
 42
2.6063101801
  0
ELLIPSE
  5
40C
100
AcDbEntity
  8
ALL_ASSEMBLY_MEMBERS
100
AcDbEllipse
 62
7
  6
CONTINUOUS
 10
5.2117624224
 20
4.8646268879
 30
0.0
 11
0.4817044942
 21
-0.0691776629
 31
0.0
 40
0.3415058114
 41
-2.7050160301
 42
-2.6947853447
  0
ELLIPSE
  5
40D
100
AcDbEntity
  8
ALL_ASSEMBLY_MEMBERS
100
AcDbEllipse
 62
7
  6
CONTINUOUS
 10
5.2117624224
 20
4.8322807985
 30
0.0
 11
0.4644757236
 21
-0.2078624458
 31
0.0
 40
0.6246664002
 41
-2.6016242452
 42
-2.5913732513
  0
ELLIPSE
  5
40E
100
AcDbEntity
  8
ALL_ASSEMBLY_MEMBERS
100
AcDbEllipse
 62
7
  6
CONTINUOUS
 10
5.2117624224
 20
4.8322807985
 30
0.0
 11
0.4668511851
 21
-0.2089255137
 31
0.0
 40
0.6246664002
 41
-2.601207666
 42
-2.5910091369
  0
ELLIPSE
  5
40F
100
AcDbEntity
  8
ALL_ASSEMBLY_MEMBERS
100
AcDbEllipse
 62
7
  6
CONTINUOUS
 10
5.2117624224
 20
4.8450188051
 30
0.0
 11
0.4817044969
 21
-0.0691775694
 31
0.0
 40
0.3415054598
 41
-2.8149612884
 42
-2.8098396765
  0
ELLIPSE
  5
410
100
AcDbEntity
  8
ALL_ASSEMBLY_MEMBERS
100
AcDbEllipse
 62
7
  6
CONTINUOUS
 10
5.2117624224
 20
4.8450188051
 30
0.0
 11
0.4841680714
 21
-0.0695313633
 31
0.0
 40
0.3415054598
 41
-2.8145971741
 42
-2.804406043
  0
ELLIPSE
  5
411
100
AcDbEntity
  8
ALL_ASSEMBLY_MEMBERS
100
AcDbEllipse
 62
7
  6
CONTINUOUS
 10
5.2117624224
 20
4.8646268879
 30
0.0
 11
0.4841680686
 21
-0.0695314572
 31
0.0
 40
0.3415058114
 41
-2.7052120566
 42
-2.6950335265
  0
ELLIPSE
  5
412
100
AcDbEntity
  8
ALL_ASSEMBLY_MEMBERS
100
AcDbEllipse
 62
7
  6
CONTINUOUS
 10
5.2117624224
 20
5.0018638519
 30
0.0
 11
0.3259988447
 21
0.534526411
 31
0.0
 40
0.6711698637
 41
-1.3248813381
 42
-1.3025821329
  0
ELLIPSE
  5
413
100
AcDbEntity
  8
ALL_ASSEMBLY_MEMBERS
100
AcDbEllipse
 62
7
  6
CONTINUOUS
 10
5.2117624224
 20
5.0018638519
 30
0.0
 11
0.3243400769
 21
0.5318066001
 31
0.0
 40
0.6711698637
 41
-1.3256157268
 42
-1.3032004624
  0
ELLIPSE
  5
414
100
AcDbEntity
  8
ALL_ASSEMBLY_MEMBERS
100
AcDbEllipse
 62
7
  6
CONTINUOUS
 10
5.2117624224
 20
4.9106770479
 30
0.0
 11
0.4820642286
 21
-0.0528514816
 31
0.0
 40
0.2751158134
 41
-2.6982804374
 42
-2.6854723786
  0
ELLIPSE
  5
415
100
AcDbEntity
  8
ALL_ASSEMBLY_MEMBERS
100
AcDbEllipse
 62
7
  6
CONTINUOUS
 10
5.2117624224
 20
4.9106770479
 30
0.0
 11
0.4845296428
 21
-0.0531217792
 31
0.0
 40
0.2751158134
 41
-2.6986070031
 42
-2.6858644385
  0
ELLIPSE
  5
416
100
AcDbEntity
  8
ALL_ASSEMBLY_MEMBERS
100
AcDbEllipse
 62
7
  6
CONTINUOUS
 10
5.2117624224
 20
4.9326132306
 30
0.0
 11
-0.4334453124
 21
0.30813287
 31
0.0
 40
0.6863174071
 41
0.879885828
 42
0.8927065257
  0
ELLIPSE
  5
417
100
AcDbEntity
  8
ALL_ASSEMBLY_MEMBERS
100
AcDbEllipse
 62
7
  6
CONTINUOUS
 10
5.2117624224
 20
4.9326132306
 30
0.0
 11
-0.4356620756
 21
0.3097087495
 31
0.0
 40
0.6863174071
 41
0.879493768
 42
0.8922487784
  0
ELLIPSE
  5
418
100
AcDbEntity
  8
ALL_ASSEMBLY_MEMBERS
100
AcDbEllipse
 62
7
  6
CONTINUOUS
 10
5.2117624224
 20
4.9795175361
 30
0.0
 11
-0.2099434945
 21
0.9468962978
 31
0.0
 40
0.4585403189
 41
1.5591997581
 42
1.5668991476
  0
ELLIPSE
  5
419
100
AcDbEntity
  8
ALL_ASSEMBLY_MEMBERS
100
AcDbEllipse
 62
7
  6
CONTINUOUS
 10
5.2117624224
 20
4.9795175361
 30
0.0
 11
-0.2110172055
 21
0.951738996
 31
0.0
 40
0.4585403189
 41
1.5587420108
 42
1.5664018812
  0
ELLIPSE
  5
41A
100
AcDbEntity
  8
ALL_ASSEMBLY_MEMBERS
100
AcDbEllipse
 62
7
  6
CONTINUOUS
 10
5.2117624224
 20
4.9593036766
 30
0.0
 11
0.3259989376
 21
0.5345262269
 31
0.0
 40
0.6711699369
 41
-1.2507639313
 42
-1.2286206453
  0
ELLIPSE
  5
41B
100
AcDbEntity
  8
ALL_ASSEMBLY_MEMBERS
100
AcDbEllipse
 62
7
  6
CONTINUOUS
 10
5.2117624224
 20
4.9593036766
 30
0.0
 11
0.3243401693
 21
0.5318064169
 31
0.0
 40
0.6711699369
 41
-1.2511147927
 42
-1.2288578778
  0
ELLIPSE
  5
41C
100
AcDbEntity
  8
ALL_ASSEMBLY_MEMBERS
100
AcDbEllipse
 62
7
  6
CONTINUOUS
 10
5.2117624224
 20
4.8837188589
 30
0.0
 11
0.4817044942
 21
0.0691776629
 31
0.0
 40
0.3415058114
 41
8.9779706519
 42
8.9882013373
  0
ELLIPSE
  5
41D
100
AcDbEntity
  8
ALL_ASSEMBLY_MEMBERS
100
AcDbEllipse
 62
7
  6
CONTINUOUS
 10
5.2117624224
 20
4.9252691171
 30
0.0
 11
0.4820642278
 21
-0.0528515343
 31
0.0
 40
0.2751160439
 41
-2.8133316337
 42
-2.8005427031
  0
ELLIPSE
  5
41E
100
AcDbEntity
  8
ALL_ASSEMBLY_MEMBERS
100
AcDbEllipse
 62
7
  6
CONTINUOUS
 10
5.2117624224
 20
4.8837188589
 30
0.0
 11
0.4841680686
 21
0.0695314572
 31
0.0
 40
0.3415058114
 41
2.6950335265
 42
2.7052120566
  0
ELLIPSE
  5
41F
100
AcDbEntity
  8
ALL_ASSEMBLY_MEMBERS
100
AcDbEllipse
 62
7
  6
CONTINUOUS
 10
5.2117624224
 20
4.9252691171
 30
0.0
 11
0.484529642
 21
-0.0531218322
 31
0.0
 40
0.2751160439
 41
-2.8130721217
 42
-2.8003483937
  0
ELLIPSE
  5
420
100
AcDbEntity
  8
ALL_ASSEMBLY_MEMBERS
100
AcDbEllipse
 62
7
  6
CONTINUOUS
 10
5.2117624224
 20
4.8699787268
 30
0.0
 11
0.3528493905
 21
0.4769263331
 31
0.0
 40
0.6893674814
 41
-4.2792623293
 42
-4.2690356602
  0
ELLIPSE
  5
421
100
AcDbEntity
  8
ALL_ASSEMBLY_MEMBERS
100
AcDbEllipse
 62
7
  6
CONTINUOUS
 10
5.2117624224
 20
4.9143731516
 30
0.0
 11
-0.4334454607
 21
0.308132485
 31
0.0
 40
0.686317278
 41
0.7648147469
 42
0.777597438
  0
ELLIPSE
  5
422
100
AcDbEntity
  8
ALL_ASSEMBLY_MEMBERS
100
AcDbEllipse
 62
7
  6
CONTINUOUS
 10
5.2117624224
 20
4.9143731516
 30
0.0
 11
-0.4356622246
 21
0.3097083626
 31
0.0
 40
0.686317278
 41
0.7650090563
 42
0.7777266395
  0
ELLIPSE
  5
423
100
AcDbEntity
  8
ALL_ASSEMBLY_MEMBERS
100
AcDbEllipse
 62
7
  6
CONTINUOUS
 10
5.2117624224
 20
4.8699787268
 30
0.0
 11
0.3546539631
 21
0.4793654706
 31
0.0
 40
0.6893674814
 41
-4.2790663028
 42
-4.2688917277
  0
ELLIPSE
  5
424
100
AcDbEntity
  8
ALL_ASSEMBLY_MEMBERS
100
AcDbEllipse
 62
7
  6
CONTINUOUS
 10
5.2117624224
 20
4.9071251953
 30
0.0
 11
-0.2565838281
 21
0.6978641712
 31
0.0
 40
0.5851642007
 41
1.3334926163
 42
1.3411601046
  0
ELLIPSE
  5
425
100
AcDbEntity
  8
ALL_ASSEMBLY_MEMBERS
100
AcDbEllipse
 62
7
  6
CONTINUOUS
 10
5.2117624224
 20
5.0605222846
 30
0.0
 11
-0.176157672
 21
1.7840339535
 31
0.0
 40
0.251654861
 41
-4.6398114528
 42
-4.6346753393
  0
ELLIPSE
  5
426
100
AcDbEntity
  8
ALL_ASSEMBLY_MEMBERS
100
AcDbEllipse
 62
7
  6
CONTINUOUS
 10
5.2117624224
 20
4.9071251953
 30
0.0
 11
-0.2578960711
 21
0.7014332479
 31
0.0
 40
0.5851642007
 41
1.3336218178
 42
1.3412502738
  0
ELLIPSE
  5
427
100
AcDbEntity
  8
ALL_ASSEMBLY_MEMBERS
100
AcDbEllipse
 62
7
  6
CONTINUOUS
 10
5.2117624224
 20
4.9026381824
 30
0.0
 11
0.4846322902
 21
-0.0448830582
 31
0.0
 40
0.2379969588
 41
0.2735943692
 42
0.2883920801
  0
ELLIPSE
  5
428
100
AcDbEntity
  8
ALL_ASSEMBLY_MEMBERS
100
AcDbEllipse
 62
7
  6
CONTINUOUS
 10
5.2117624224
 20
4.9026381824
 30
0.0
 11
0.4821663537
 21
-0.0446546814
 31
0.0
 40
0.2379969588
 41
6.5562793864
 42
6.5711534012
  0
ELLIPSE
  5
429
100
AcDbEntity
  8
ALL_ASSEMBLY_MEMBERS
100
AcDbEllipse
 62
7
  6
CONTINUOUS
 10
5.2117624224
 20
4.8881533968
 30
0.0
 11
-0.1761576992
 21
1.7840318986
 31
0.0
 40
0.2516551449
 41
1.5282335062
 42
1.533344561
  0
ELLIPSE
  5
42A
100
AcDbEntity
  8
ALL_ASSEMBLY_MEMBERS
100
AcDbEllipse
 62
7
  6
CONTINUOUS
 10
5.2117624224
 20
4.922720223
 30
0.0
 11
0.4734427814
 21
-0.1768432279
 31
0.0
 40
0.588594106
 41
0.4568564648
 42
0.4679686539
  0
ELLIPSE
  5
42B
100
AcDbEntity
  8
ALL_ASSEMBLY_MEMBERS
100
AcDbEllipse
 62
7
  6
CONTINUOUS
 10
5.2117624224
 20
4.922720223
 30
0.0
 11
0.47103378
 21
-0.175943403
 31
0.0
 40
0.588594106
 41
0.4562987307
 42
0.467468364
  0
ELLIPSE
  5
42C
100
AcDbEntity
  8
ALL_ASSEMBLY_MEMBERS
100
AcDbEllipse
 62
7
  6
CONTINUOUS
 10
5.2117624224
 20
4.9674441914
 30
0.0
 11
-0.2501318493
 21
0.728790877
 31
0.0
 40
0.569753021
 41
-1.8799443451
 42
-1.8725288025
  0
ELLIPSE
  5
42D
100
AcDbEntity
  8
ALL_ASSEMBLY_MEMBERS
100
AcDbEllipse
 62
7
  6
CONTINUOUS
 10
5.2117624224
 20
4.9674441914
 30
0.0
 11
-0.2488591127
 21
0.7250825974
 31
0.0
 40
0.569753021
 41
-1.880540491
 42
-1.8730865367
  0
ELLIPSE
  5
42E
100
AcDbEntity
  8
ALL_ASSEMBLY_MEMBERS
100
AcDbEllipse
 62
7
  6
CONTINUOUS
 10
5.2117624224
 20
5.0534205431
 30
0.0
 11
-0.1826258381
 21
1.484169538
 31
0.0
 40
0.3025481177
 41
-1.7277547305
 42
-1.7240446013
  0
ELLIPSE
  5
42F
100
AcDbEntity
  8
ALL_ASSEMBLY_MEMBERS
100
AcDbEllipse
 62
7
  6
CONTINUOUS
 10
5.2117624224
 20
5.0534205431
 30
0.0
 11
-0.1816965899
 21
1.4766176932
 31
0.0
 40
0.3025481177
 41
-1.7283701194
 42
-1.7246407472
  0
ELLIPSE
  5
430
100
AcDbEntity
  8
ALL_ASSEMBLY_MEMBERS
100
AcDbEllipse
 62
7
  6
CONTINUOUS
 10
5.2117624224
 20
4.6949252852
 30
0.0
 11
0.1826258551
 21
1.4841688429
 31
0.0
 40
0.3025482548
 41
-1.4175480146
 42
-1.4138378854
  0
ELLIPSE
  5
431
100
AcDbEntity
  8
ALL_ASSEMBLY_MEMBERS
100
AcDbEllipse
 62
7
  6
CONTINUOUS
 10
5.2117624224
 20
4.6949252852
 30
0.0
 11
0.1816966067
 21
1.4766170017
 31
0.0
 40
0.3025482548
 41
-1.4169518687
 42
-1.4132224965
  0
ELLIPSE
  5
432
100
AcDbEntity
  8
ALL_ASSEMBLY_MEMBERS
100
AcDbEllipse
 62
7
  6
CONTINUOUS
 10
5.2117624224
 20
4.7809015365
 30
0.0
 11
0.250131799
 21
0.7287910644
 31
0.0
 40
0.5697529161
 41
-1.269063972
 42
-1.2616484294
  0
ELLIPSE
  5
433
100
AcDbEntity
  8
ALL_ASSEMBLY_MEMBERS
100
AcDbEllipse
 62
7
  6
CONTINUOUS
 10
5.2117624224
 20
4.7809015365
 30
0.0
 11
0.2488590627
 21
0.7250827838
 31
0.0
 40
0.5697529161
 41
-1.2685062378
 42
-1.2610522835
  0
ELLIPSE
  5
434
100
AcDbEntity
  8
ALL_ASSEMBLY_MEMBERS
100
AcDbEllipse
 62
7
  6
CONTINUOUS
 10
5.2117624224
 20
4.8256255238
 30
0.0
 11
0.4734427814
 21
0.1768432279
 31
0.0
 40
0.588594106
 41
-0.4679686539
 42
-0.4568564648
  0
ELLIPSE
  5
435
100
AcDbEntity
  8
ALL_ASSEMBLY_MEMBERS
100
AcDbEllipse
 62
7
  6
CONTINUOUS
 10
5.2117624224
 20
4.8256255238
 30
0.0
 11
0.47103378
 21
0.175943403
 31
0.0
 40
0.588594106
 41
-0.467468364
 42
-0.4562987307
  0
ELLIPSE
  5
436
100
AcDbEntity
  8
ALL_ASSEMBLY_MEMBERS
100
AcDbEllipse
 62
7
  6
CONTINUOUS
 10
5.2117624224
 20
4.8457075644
 30
0.0
 11
0.4846322902
 21
0.0448830582
 31
0.0
 40
0.2379969588
 41
-0.2883920801
 42
-0.2735943692
  0
ELLIPSE
  5
437
100
AcDbEntity
  8
ALL_ASSEMBLY_MEMBERS
100
AcDbEllipse
 62
7
  6
CONTINUOUS
 10
5.2117624224
 20
4.8457075644
 30
0.0
 11
0.4821663537
 21
0.0446546814
 31
0.0
 40
0.2379969588
 41
-0.287968094
 42
-0.2730940792
  0
ELLIPSE
  5
438
100
AcDbEntity
  8
ALL_ASSEMBLY_MEMBERS
100
AcDbEllipse
 62
7
  6
CONTINUOUS
 10
5.2117624224
 20
5.0605222846
 30
0.0
 11
-0.1770585927
 21
1.7931580129
 31
0.0
 40
0.251654861
 41
-4.6403087193
 42
-4.6351990007
  0
ELLIPSE
  5
439
100
AcDbEntity
  8
ALL_ASSEMBLY_MEMBERS
100
AcDbEllipse
 62
7
  6
CONTINUOUS
 10
5.2117624224
 20
4.8881533968
 30
0.0
 11
-0.17705862
 21
1.7931559474
 31
0.0
 40
0.2516551449
 41
1.5283236754
 42
1.5334087178
  0
ELLIPSE
  5
43A
100
AcDbEntity
  8
ALL_ASSEMBLY_MEMBERS
100
AcDbEllipse
 62
7
  6
CONTINUOUS
 10
5.2117624224
 20
4.9231806841
 30
0.0
 11
0.182988122
 21
1.4265173665
 31
0.0
 40
0.3128040763
 41
-4.6596770866
 42
-4.6545660318
  0
ELLIPSE
  5
43B
100
AcDbEntity
  8
ALL_ASSEMBLY_MEMBERS
100
AcDbEllipse
 62
7
  6
CONTINUOUS
 10
5.2117624224
 20
4.9343350684
 30
0.0
 11
0.4817044969
 21
0.0691775694
 31
0.0
 40
0.3415054598
 41
9.0930249837
 42
9.0981465956
  0
ELLIPSE
  5
43C
100
AcDbEntity
  8
ALL_ASSEMBLY_MEMBERS
100
AcDbEllipse
 62
7
  6
CONTINUOUS
 10
5.2117624224
 20
4.9231806841
 30
0.0
 11
0.1839239755
 21
1.4338129838
 31
0.0
 40
0.3128040763
 41
-4.6597412434
 42
-4.654656201
  0
ELLIPSE
  5
43D
100
AcDbEntity
  8
ALL_ASSEMBLY_MEMBERS
100
AcDbEllipse
 62
7
  6
CONTINUOUS
 10
5.2117624224
 20
4.9343350684
 30
0.0
 11
0.4841680714
 21
0.0695313633
 31
0.0
 40
0.3415054598
 41
2.804406043
 42
2.8145971741
  0
ELLIPSE
  5
43E
100
AcDbEntity
  8
ALL_ASSEMBLY_MEMBERS
100
AcDbEllipse
 62
7
  6
CONTINUOUS
 10
5.2117624224
 20
4.9105328322
 30
0.0
 11
0.2565838281
 21
0.6978641712
 31
0.0
 40
0.5851642007
 41
-4.4827527582
 42
-4.4750852699
  0
ELLIPSE
  5
43F
100
AcDbEntity
  8
ALL_ASSEMBLY_MEMBERS
100
AcDbEllipse
 62
7
  6
CONTINUOUS
 10
5.2117624224
 20
4.9105328322
 30
0.0
 11
0.2578960711
 21
0.7014332479
 31
0.0
 40
0.5851642007
 41
-4.4828429274
 42
-4.4752144714
  0
ELLIPSE
  5
440
100
AcDbEntity
  8
ALL_ASSEMBLY_MEMBERS
100
AcDbEllipse
 62
7
  6
CONTINUOUS
 10
5.2117624224
 20
4.8738943454
 30
0.0
 11
-0.207495773
 21
0.9858241387
 31
0.0
 40
0.4443956471
 41
-1.6766755349
 42
-1.6693064443
  0
ELLIPSE
  5
441
100
AcDbEntity
  8
ALL_ASSEMBLY_MEMBERS
100
AcDbEllipse
 62
7
  6
CONTINUOUS
 10
5.2117624224
 20
4.8738943454
 30
0.0
 11
-0.2064399799
 21
0.9808080064
 31
0.0
 40
0.4443956471
 41
-1.676740052
 42
-1.6693332706
  0
ELLIPSE
  5
442
100
AcDbEntity
  8
ALL_ASSEMBLY_MEMBERS
100
AcDbEllipse
 62
7
  6
CONTINUOUS
 10
5.2117624224
 20
4.8697311739
 30
0.0
 11
-0.2800134072
 21
0.636735321
 31
0.0
 40
0.6214444929
 41
-1.8612406191
 42
-1.8501855787
  0
ELLIPSE
  5
443
100
AcDbEntity
  8
ALL_ASSEMBLY_MEMBERS
100
AcDbEllipse
 62
7
  6
CONTINUOUS
 10
5.2117624224
 20
4.8697311739
 30
0.0
 11
-0.2785886254
 21
0.6334954443
 31
0.0
 40
0.6214444929
 41
-1.8613616941
 42
-1.8502500958
  0
ELLIPSE
  5
444
100
AcDbEntity
  8
ALL_ASSEMBLY_MEMBERS
100
AcDbEllipse
 62
7
  6
CONTINUOUS
 10
5.2117624224
 20
4.8611388666
 30
0.0
 11
0.4782981758
 21
-0.1456294577
 31
0.0
 40
0.5412725914
 41
0.4702996175
 42
0.4887317785
  0
ELLIPSE
  5
445
100
AcDbEntity
  8
ALL_ASSEMBLY_MEMBERS
100
AcDbEllipse
 62
7
  6
CONTINUOUS
 10
5.2117624224
 20
4.8611388666
 30
0.0
 11
0.475864469
 21
-0.1448884567
 31
0.0
 40
0.5412725914
 41
0.4700841696
 42
0.4886107035
  0
ELLIPSE
  5
446
100
AcDbEntity
  8
ALL_ASSEMBLY_MEMBERS
100
AcDbEllipse
 62
7
  6
CONTINUOUS
 10
5.2117624224
 20
4.8528041309
 30
0.0
 11
0.4847035229
 21
-0.0351494601
 31
0.0
 40
0.1909696071
 41
0.3023654898
 42
0.3208119973
  0
ELLIPSE
  5
447
100
AcDbEntity
  8
ALL_ASSEMBLY_MEMBERS
100
AcDbEllipse
 62
7
  6
CONTINUOUS
 10
5.2117624224
 20
4.8528041309
 30
0.0
 11
0.482237224
 21
-0.0349706104
 31
0.0
 40
0.1909696071
 41
0.3020554476
 42
0.3205965494
  0
ELLIPSE
  5
448
100
AcDbEntity
  8
ALL_ASSEMBLY_MEMBERS
100
AcDbEllipse
 62
7
  6
CONTINUOUS
 10
5.2117624224
 20
4.9598110793
 30
0.0
 11
0.3528491689
 21
0.4769267529
 31
0.0
 40
0.6893673732
 41
-4.1693178615
 42
-4.1590668675
  0
ELLIPSE
  5
449
100
AcDbEntity
  8
ALL_ASSEMBLY_MEMBERS
100
AcDbEllipse
 62
7
  6
CONTINUOUS
 10
5.2117624224
 20
4.9014728852
 30
0.0
 11
0.4644757768
 21
0.2078622154
 31
0.0
 40
0.6246661769
 41
2.545321506
 42
2.5504339689
  0
ELLIPSE
  5
44A
100
AcDbEntity
  8
ALL_ASSEMBLY_MEMBERS
100
AcDbEllipse
 62
7
  6
CONTINUOUS
 10
5.2117624224
 20
4.9014728852
 30
0.0
 11
0.4668512386
 21
0.2089252821
 31
0.0
 40
0.6246661769
 41
2.5451923044
 42
2.5502787336
  0
ELLIPSE
  5
44B
100
AcDbEntity
  8
ALL_ASSEMBLY_MEMBERS
100
AcDbEllipse
 62
7
  6
CONTINUOUS
 10
5.2117624224
 20
4.9598110793
 30
0.0
 11
0.3546537404
 21
0.4793658925
 31
0.0
 40
0.6893673732
 41
-4.1696819759
 42
-4.1594834467
  0
ELLIPSE
  5
44C
100
AcDbEntity
  8
ALL_ASSEMBLY_MEMBERS
100
AcDbEllipse
 62
7
  6
CONTINUOUS
 10
5.2117624224
 20
4.8797049942
 30
0.0
 11
0.4644757768
 21
-0.2078622154
 31
0.0
 40
0.6246661769
 41
-2.5504339689
 42
-2.545321506
  0
ELLIPSE
  5
44D
100
AcDbEntity
  8
ALL_ASSEMBLY_MEMBERS
100
AcDbEllipse
 62
7
  6
CONTINUOUS
 10
5.2117624224
 20
4.8797049942
 30
0.0
 11
0.4668512386
 21
-0.2089252821
 31
0.0
 40
0.6246661769
 41
-2.5502787336
 42
-2.5451923044
  0
ELLIPSE
  5
44E
100
AcDbEntity
  8
ALL_ASSEMBLY_MEMBERS
100
AcDbEllipse
 62
7
  6
CONTINUOUS
 10
5.2117624224
 20
4.8751750153
 30
0.0
 11
-0.3528490951
 21
0.4769268928
 31
0.0
 40
0.6893673371
 41
1.0737775876
 42
1.0840006492
  0
ELLIPSE
  5
44F
100
AcDbEntity
  8
ALL_ASSEMBLY_MEMBERS
100
AcDbEllipse
 62
7
  6
CONTINUOUS
 10
5.2117624224
 20
4.8751750153
 30
0.0
 11
-0.3546536662
 21
0.4793660332
 31
0.0
 40
0.6893673371
 41
1.0739067891
 42
1.0840778115
  0
ELLIPSE
  5
450
100
AcDbEntity
  8
ALL_ASSEMBLY_MEMBERS
100
AcDbEllipse
 62
7
  6
CONTINUOUS
 10
5.2117624224
 20
5.0034971796
 30
0.0
 11
0.1991461286
 21
1.0676108832
 31
0.0
 40
0.4114301116
 41
-4.5541034629
 42
-4.5489748047
  0
ELLIPSE
  5
451
100
AcDbEntity
  8
ALL_ASSEMBLY_MEMBERS
100
AcDbEllipse
 62
7
  6
CONTINUOUS
 10
5.2117624224
 20
4.8562332701
 30
0.0
 11
-0.1761577058
 21
1.7840313981
 31
0.0
 40
0.251655214
 41
1.5307890648
 42
1.5358999382
  0
ELLIPSE
  5
452
100
AcDbEntity
  8
ALL_ASSEMBLY_MEMBERS
100
AcDbEllipse
 62
7
  6
CONTINUOUS
 10
5.2117624224
 20
5.0034971796
 30
0.0
 11
0.2001646188
 21
1.0730709503
 31
0.0
 40
0.4114301116
 41
-4.5545200421
 42
-4.5494176646
  0
ELLIPSE
  5
453
100
AcDbEntity
  8
ALL_ASSEMBLY_MEMBERS
100
AcDbEllipse
 62
7
  6
CONTINUOUS
 10
5.2117624224
 20
4.8562332701
 30
0.0
 11
-0.1770586266
 21
1.7931554444
 31
0.0
 40
0.251655214
 41
1.530866227
 42
1.5359510908
  0
ELLIPSE
  5
454
100
AcDbEntity
  8
ALL_ASSEMBLY_MEMBERS
100
AcDbEllipse
 62
7
  6
CONTINUOUS
 10
5.2117624224
 20
4.8866404514
 30
0.0
 11
0.1761577091
 21
1.7840311479
 31
0.0
 40
0.2516552486
 41
1.6056927228
 42
1.6108035962
  0
ELLIPSE
  5
455
100
AcDbEntity
  8
ALL_ASSEMBLY_MEMBERS
100
AcDbEllipse
 62
7
  6
CONTINUOUS
 10
5.2117624224
 20
4.8866404514
 30
0.0
 11
0.1770586299
 21
1.7931551929
 31
0.0
 40
0.2516552486
 41
-4.677543737
 42
-4.6724588732
  0
ELLIPSE
  5
456
100
AcDbEntity
  8
ALL_ASSEMBLY_MEMBERS
100
AcDbEllipse
 62
7
  6
CONTINUOUS
 10
5.2117624224
 20
4.870404674
 30
0.0
 11
0.2565838006
 21
0.6978642627
 31
0.0
 40
0.5851641487
 41
-4.4853083988
 42
-4.4776413078
  0
ELLIPSE
  5
457
100
AcDbEntity
  8
ALL_ASSEMBLY_MEMBERS
100
AcDbEllipse
 62
7
  6
CONTINUOUS
 10
5.2117624224
 20
4.870404674
 30
0.0
 11
0.2578960435
 21
0.70143334
 31
0.0
 40
0.5851641487
 41
-4.485385561
 42
-4.4777574963
  0
ELLIPSE
  5
458
100
AcDbEntity
  8
ALL_ASSEMBLY_MEMBERS
100
AcDbEllipse
 62
7
  6
CONTINUOUS
 10
5.2117624224
 20
4.8955416151
 30
0.0
 11
0.4847035229
 21
0.0351494568
 31
0.0
 40
0.1909695906
 41
-0.3208119948
 42
-0.3023654873
  0
ELLIPSE
  5
459
100
AcDbEntity
  8
ALL_ASSEMBLY_MEMBERS
100
AcDbEllipse
 62
7
  6
CONTINUOUS
 10
5.2117624224
 20
4.8955416151
 30
0.0
 11
0.482237224
 21
0.0349706071
 31
0.0
 40
0.1909695906
 41
-0.3205965469
 42
-0.3020554451
  0
ELLIPSE
  5
45A
100
AcDbEntity
  8
ALL_ASSEMBLY_MEMBERS
100
AcDbEllipse
 62
7
  6
CONTINUOUS
 10
5.2117624224
 20
4.8872068801
 30
0.0
 11
0.4782981788
 21
0.1456294353
 31
0.0
 40
0.541272552
 41
-0.4887317412
 42
-0.4702995801
  0
ELLIPSE
  5
45B
100
AcDbEntity
  8
ALL_ASSEMBLY_MEMBERS
100
AcDbEllipse
 62
7
  6
CONTINUOUS
 10
5.2117624224
 20
4.8872068801
 30
0.0
 11
0.4758644719
 21
0.1448884344
 31
0.0
 40
0.541272552
 41
-0.4732157386
 42
-0.4700841322
  0
ELLIPSE
  5
45C
100
AcDbEntity
  8
ALL_ASSEMBLY_MEMBERS
100
AcDbEllipse
 62
7
  6
CONTINUOUS
 10
5.2117624224
 20
4.8638863247
 30
0.0
 11
0.4334452897
 21
0.3081329288
 31
0.0
 40
0.6863174268
 41
-3.9217468707
 42
-3.9089651839
  0
ELLIPSE
  5
45D
100
AcDbEntity
  8
ALL_ASSEMBLY_MEMBERS
100
AcDbEllipse
 62
7
  6
CONTINUOUS
 10
5.2117624224
 20
4.8638863247
 30
0.0
 11
0.4356620527
 21
0.3097088087
 31
0.0
 40
0.6863174268
 41
-3.9218630593
 42
-3.9091464651
  0
ELLIPSE
  5
45E
100
AcDbEntity
  8
ALL_ASSEMBLY_MEMBERS
100
AcDbEllipse
 62
7
  6
CONTINUOUS
 10
5.2117624224
 20
4.8141609295
 30
0.0
 11
-0.1991462019
 21
1.0676098726
 31
0.0
 40
0.41143047
 41
1.4073819844
 42
1.4125106426
  0
ELLIPSE
  5
45F
100
AcDbEntity
  8
ALL_ASSEMBLY_MEMBERS
100
AcDbEllipse
 62
7
  6
CONTINUOUS
 10
5.2117624224
 20
4.8141609295
 30
0.0
 11
-0.2001646924
 21
1.0730699345
 31
0.0
 40
0.41143047
 41
1.4078248443
 42
1.4129272218
  0
ELLIPSE
  5
460
100
AcDbEntity
  8
ALL_ASSEMBLY_MEMBERS
100
AcDbEllipse
 62
7
  6
CONTINUOUS
 10
5.2117624224
 20
4.8537199521
 30
0.0
 11
0.482064228
 21
0.0528515221
 31
0.0
 40
0.2751159905
 41
2.797985741
 42
2.8107732586
  0
ELLIPSE
  5
461
100
AcDbEntity
  8
ALL_ASSEMBLY_MEMBERS
100
AcDbEllipse
 62
7
  6
CONTINUOUS
 10
5.2117624224
 20
4.8537199521
 30
0.0
 11
0.4845296422
 21
0.0531218199
 31
0.0
 40
0.2751159905
 41
2.7978044598
 42
2.8105267963
  0
ELLIPSE
  5
462
100
AcDbEntity
  8
ALL_ASSEMBLY_MEMBERS
100
AcDbEllipse
 62
7
  6
CONTINUOUS
 10
5.2117624224
 20
4.6878234865
 30
0.0
 11
0.1761576753
 21
1.7840337033
 31
0.0
 40
0.2516548955
 41
1.4930826931
 42
1.4982188066
  0
ELLIPSE
  5
463
100
AcDbEntity
  8
ALL_ASSEMBLY_MEMBERS
100
AcDbEllipse
 62
7
  6
CONTINUOUS
 10
5.2117624224
 20
4.8578469483
 30
0.0
 11
-0.3528491689
 21
0.4769267529
 31
0.0
 40
0.6893673732
 41
1.017474214
 42
1.0277252079
  0
ELLIPSE
  5
464
100
AcDbEntity
  8
ALL_ASSEMBLY_MEMBERS
100
AcDbEllipse
 62
7
  6
CONTINUOUS
 10
5.2117624224
 20
4.8578469483
 30
0.0
 11
-0.3546537404
 21
0.4793658925
 31
0.0
 40
0.6893673732
 41
1.0178907931
 42
1.0280893223
  0
ELLIPSE
  5
465
100
AcDbEntity
  8
ALL_ASSEMBLY_MEMBERS
100
AcDbEllipse
 62
7
  6
CONTINUOUS
 10
5.2117624224
 20
4.8833229591
 30
0.0
 11
0.4817044969
 21
-0.0691775694
 31
0.0
 40
0.3415054598
 41
-2.8149612884
 42
-2.8098396765
  0
ELLIPSE
  5
466
100
AcDbEntity
  8
ALL_ASSEMBLY_MEMBERS
100
AcDbEllipse
 62
7
  6
CONTINUOUS
 10
5.2117624224
 20
4.6878234865
 30
0.0
 11
0.177058596
 21
1.7931577614
 31
0.0
 40
0.2516548955
 41
1.4936063544
 42
1.498716073
  0
ELLIPSE
  5
467
100
AcDbEntity
  8
ALL_ASSEMBLY_MEMBERS
100
AcDbEllipse
 62
7
  6
CONTINUOUS
 10
5.2117624224
 20
4.8833229591
 30
0.0
 11
0.4841680714
 21
-0.0695313633
 31
0.0
 40
0.3415054598
 41
-2.8145971741
 42
-2.804406043
  0
ELLIPSE
  5
468
100
AcDbEntity
  8
ALL_ASSEMBLY_MEMBERS
100
AcDbEllipse
 62
7
  6
CONTINUOUS
 10
5.2117624224
 20
4.7688282026
 30
0.0
 11
0.2099434851
 21
0.9468963828
 31
0.0
 40
0.4585402825
 41
-4.7084918227
 42
-4.7007924332
  0
ELLIPSE
  5
469
100
AcDbEntity
  8
ALL_ASSEMBLY_MEMBERS
100
AcDbEllipse
 62
7
  6
CONTINUOUS
 10
5.2117624224
 20
4.7688282026
 30
0.0
 11
0.2110171961
 21
0.9517390814
 31
0.0
 40
0.4585402825
 41
-4.7079945563
 42
-4.7003346858
  0
ELLIPSE
  5
46A
100
AcDbEntity
  8
ALL_ASSEMBLY_MEMBERS
100
AcDbEllipse
 62
7
  6
CONTINUOUS
 10
5.2117624224
 20
4.8157325122
 30
0.0
 11
0.4334452897
 21
0.3081329288
 31
0.0
 40
0.6863174268
 41
-4.0342992866
 42
-4.0214785888
  0
ELLIPSE
  5
46B
100
AcDbEntity
  8
ALL_ASSEMBLY_MEMBERS
100
AcDbEllipse
 62
7
  6
CONTINUOUS
 10
5.2117624224
 20
4.8157325122
 30
0.0
 11
0.4356620527
 21
0.3097088087
 31
0.0
 40
0.6863174268
 41
-4.0338415392
 42
-4.0210865289
  0
ELLIPSE
  5
46C
100
AcDbEntity
  8
ALL_ASSEMBLY_MEMBERS
100
AcDbEllipse
 62
7
  6
CONTINUOUS
 10
5.2117624224
 20
4.8376686967
 30
0.0
 11
0.4820642285
 21
0.052851487
 31
0.0
 40
0.2751158369
 41
2.6854723729
 42
2.6982804317
  0
ELLIPSE
  5
46D
100
AcDbEntity
  8
ALL_ASSEMBLY_MEMBERS
100
AcDbEllipse
 62
7
  6
CONTINUOUS
 10
5.2117624224
 20
4.8376686967
 30
0.0
 11
0.4845296427
 21
0.0531217846
 31
0.0
 40
0.2751158369
 41
2.6858644329
 42
2.6986069975
  0
ELLIPSE
  5
46E
100
AcDbEntity
  8
ALL_ASSEMBLY_MEMBERS
100
AcDbEllipse
 62
7
  6
CONTINUOUS
 10
5.2117624224
 20
4.8978549202
 30
0.0
 11
0.4817044969
 21
0.0691775694
 31
0.0
 40
0.3415054598
 41
9.0930249837
 42
9.0981465956
  0
ELLIPSE
  5
46F
100
AcDbEntity
  8
ALL_ASSEMBLY_MEMBERS
100
AcDbEllipse
 62
7
  6
CONTINUOUS
 10
5.2117624224
 20
4.9054212961
 30
0.0
 11
-0.182988171
 21
1.4265155693
 31
0.0
 40
0.3128044563
 41
1.5564159305
 42
1.5615284492
  0
ELLIPSE
  5
470
100
AcDbEntity
  8
ALL_ASSEMBLY_MEMBERS
100
AcDbEllipse
 62
7
  6
CONTINUOUS
 10
5.2117624224
 20
4.8978549202
 30
0.0
 11
0.4841680714
 21
0.0695313633
 31
0.0
 40
0.3415054598
 41
2.804406043
 42
2.8145971741
  0
ELLIPSE
  5
471
100
AcDbEntity
  8
ALL_ASSEMBLY_MEMBERS
100
AcDbEllipse
 62
7
  6
CONTINUOUS
 10
5.2117624224
 20
4.9054212961
 30
0.0
 11
-0.1839240248
 21
1.4338111775
 31
0.0
 40
0.3128044563
 41
1.556285014
 42
1.5613714981
  0
ELLIPSE
  5
472
100
AcDbEntity
  8
ALL_ASSEMBLY_MEMBERS
100
AcDbEllipse
 62
7
  6
CONTINUOUS
 10
5.2117624224
 20
4.9105929268
 30
0.0
 11
0.4644757236
 21
0.2078624458
 31
0.0
 40
0.6246664002
 41
2.5913732513
 42
2.6016242452
  0
ELLIPSE
  5
473
100
AcDbEntity
  8
ALL_ASSEMBLY_MEMBERS
100
AcDbEllipse
 62
7
  6
CONTINUOUS
 10
5.2117624224
 20
4.9105929268
 30
0.0
 11
0.4668511851
 21
0.2089255137
 31
0.0
 40
0.6246664002
 41
2.5910091369
 42
2.601207666
  0
ELLIPSE
  5
474
100
AcDbEntity
  8
ALL_ASSEMBLY_MEMBERS
100
AcDbEllipse
 62
7
  6
CONTINUOUS
 10
5.2117624224
 20
4.9591329783
 30
0.0
 11
0.2099434699
 21
0.946896522
 31
0.0
 40
0.4585402229
 41
-4.5293809328
 42
-4.5216870953
  0
ELLIPSE
  5
475
100
AcDbEntity
  8
ALL_ASSEMBLY_MEMBERS
100
AcDbEllipse
 62
7
  6
CONTINUOUS
 10
5.2117624224
 20
4.9591329783
 30
0.0
 11
0.2110171808
 21
0.9517392213
 31
0.0
 40
0.4585402229
 41
-4.529797512
 42
-4.5221431086
  0
ELLIPSE
  5
476
100
AcDbEntity
  8
ALL_ASSEMBLY_MEMBERS
100
AcDbEllipse
 62
7
  6
CONTINUOUS
 10
5.2117624224
 20
4.876077005
 30
0.0
 11
-0.4000667381
 21
0.3847573131
 31
0.0
 40
0.7000252448
 41
0.972439552
 42
0.9801098693
  0
ELLIPSE
  5
477
100
AcDbEntity
  8
ALL_ASSEMBLY_MEMBERS
100
AcDbEllipse
 62
7
  6
CONTINUOUS
 10
5.2117624224
 20
4.7837407606
 30
0.0
 11
-0.2099434885
 21
0.9468963521
 31
0.0
 40
0.4585402957
 41
1.3800943987
 42
1.3877882363
  0
ELLIPSE
  5
478
100
AcDbEntity
  8
ALL_ASSEMBLY_MEMBERS
100
AcDbEllipse
 62
7
  6
CONTINUOUS
 10
5.2117624224
 20
4.876077005
 30
0.0
 11
-0.4021127937
 21
0.3867250719
 31
0.0
 40
0.7000252448
 41
0.9722826009
 42
0.9799138428
  0
ELLIPSE
  5
479
100
AcDbEntity
  8
ALL_ASSEMBLY_MEMBERS
100
AcDbEllipse
 62
7
  6
CONTINUOUS
 10
5.2117624224
 20
4.7837407606
 30
0.0
 11
-0.2110171995
 21
0.9517390505
 31
0.0
 40
0.4585402957
 41
1.380550412
 42
1.3882048155
  0
ENDSEC
  0
SECTION
  2
OBJECTS
  0
DICTIONARY
  5
C
100
AcDbDictionary
280
0
281
1
  3
ACAD_GROUP
350
D
  3
ACAD_MLINESTYLE
350
17
  3
ACAD_LAYOUT
350
1A
  3
ACAD_PLOTSETTINGS
350
19
  3
ACAD_PLOTSTYLENAME
350
E
  0
DICTIONARY
  5
D
102
{ACAD_REACTORS
330
C
102
}
100
AcDbDictionary
280
0
281
1
  0
ACDBDICTIONARYWDFLT
  5
E
102
{ACAD_REACTORS
330
C
102
}
100
AcDbDictionary
281
1
  3
Normal
350
F
100
AcDbDictionaryWithDefault
340
F
  0
DICTIONARY
  5
17
102
{ACAD_REACTORS
330
C
102
}
100
AcDbDictionary
280
0
281
1
  3
Standard
350
18
  0
DICTIONARY
  5
19
102
{ACAD_REACTORS
330
C
102
}
100
AcDbDictionary
281
1
  0
DICTIONARY
  5
1A
102
{ACAD_REACTORS
330
C
102
}
100
AcDbDictionary
281
1
  3
Model
350
47A
  3
Layout1
350
47B
  0
ACDBPLACEHOLDER
  5
F
102
{ACAD_REACTORS
330
E
102
}
  0
MLINESTYLE
  5
18
102
{ACAD_REACTORS
330
17
102
}
100
AcDbMlineStyle
  2
STANDARD
 70
0
  3

 62
256
 51
90.0
 52
90.0
 71
2
 49
0.5
 62
256
  6
BYLAYER
 49
-0.5
 62
256
  6
BYLAYER
  0
LAYOUT
  5
47A
102
{ACAD_REACTORS
330
1A
102
}
100
AcDbPlotSettings
  1

  2
none_device
  4
ANSI_A_(11.00_x_8.50_Inches)
  6

 40
0.0
 41
0.0
 42
0.0
 43
0.0
 44
279.4
 45
215.9
 46
0.0
 47
0.0
 48
0.0
 49
0.0
140
0.0
141
0.0
142
1.0
143
1.0
 70
1024
 72
0
 73
0
 74
0
  7

 75
0
147
1.0
148
0.0
149
0.0
100
AcDbLayout
  1
Model
 70
0
 71
0
 10
0.0
 20
0.0
 11
11.0
 21
8.5
 12
0.0
 22
0.0
 32
0.0
 14
0.0
 24
0.0
 34
0.0
 15
0.0
 25
0.0
 35
0.0
146
0.0
 13
0.0
 23
0.0
 33
0.0
 16
1.0
 26
0.0
 36
0.0
 17
0.0
 27
1.0
 37
0.0
 76
0
330
21E
345
0
346
0
  0
LAYOUT
  5
47B
102
{ACAD_REACTORS
330
1A
102
}
100
AcDbPlotSettings
  1

  2
none_device
  4
ANSI_A_(11.00_x_8.50_Inches)
  6

 40
0.0
 41
0.0
 42
0.0
 43
0.0
 44
279.4
 45
215.9
 46
0.0
 47
0.0
 48
0.0
 49
0.0
140
0.0
141
0.0
142
1.0
143
1.0
 70
0
 72
0
 73
0
 74
0
  7

 75
0
147
1.0
148
0.0
149
0.0
100
AcDbLayout
  1
Layout1
 70
0
 71
1
 10
0.0
 20
0.0
 11
11.0
 21
8.5
 12
0.0
 22
0.0
 32
0.0
 14
0.0
 24
0.0
 34
0.0
 15
0.0
 25
0.0
 35
0.0
146
0.0
 13
0.0
 23
0.0
 33
0.0
 16
1.0
 26
0.0
 36
0.0
 17
0.0
 27
1.0
 37
0.0
 76
0
330
21F
345
0
346
0
  0
ENDSEC
  0
EOF
