999
DXF file: 3-925_TOP.dxf
999
Pro/ENGINEER 2018400 by Parametric Technology Corporation
  0
SECTION
  2
HEADER
  9
$ACADVER
  1
AC1027
  9
$DWGCODEPAGE
  3
ANSI_1252
  9
$EXTMAX
 10
11.0
 20
8.5
 30
0.0
  9
$EXTMIN
 10
0.0
 20
0.0
 30
0.0
  9
$LIMMIN
 10
0.0
 20
0.0
  9
$LIMMAX
 10
11.0
 20
8.5
  9
$VIEWCTR
 10
5.5
 20
4.25
  9
$VIEWSIZE
 40
8.5
  9
$CLAYER
  8
0
  9
$LTSCALE
 40
0.605
  9
$CELTYPE
  6
BYLAYER
  9
$DIMSCALE
 40
1.0
  9
$DIMASZ
 40
0.1
  9
$DIMEXO
 40
0.0625
  9
$DIMDLI
 40
0.418
  9
$DIMEXE
 40
0.125
  9
$DIMCEN
 40
0.099
  9
$DIMLFAC
 40
1.0
  9
$DIMBLK
  1
_FILLED
  9
$DIMALT
 70
1
  9
$DIMALTD
 70
2
  9
$DIMALTTD
 70
2
  9
$DIMALTF
 40
25.4
  9
$DIMTXT
 40
0.08
  9
$DIMTOL
 70
1
  9
$DIMLIM
 70
0
  9
$DIMTFAC
 40
1.0
  9
$DIMTP
 40
0.001
  9
$DIMTM
 40
0.001
  9
$DIMGAP
 40
0.09
  9
$DIMDSEP
 70
46
  9
$AUNITS
 70
0
  9
$PDMODE
 70
3
  9
$PDSIZE
 40
0.3125
  9
$HANDSEED
  5
416
  9
$TILEMODE
 70
1
  9
$MEASUREMENT
 70
0
  9
$INSUNITS
 70
1
  0
ENDSEC
  0
SECTION
  2
CLASSES
  0
CLASS
  1
ACDBDICTIONARYWDFLT
  2
AcDbDictionaryWithDefault
  3
AutoCAD 2000
 90
0
 91
1
280
0
281
0
  0
CLASS
  1
ACDBPLACEHOLDER
  2
AcDbPlaceHolder
  3
AutoCAD 2000
 90
0
 91
1
280
0
281
0
  0
CLASS
  1
LAYOUT
  2
AcDbLayout
  3
AutoCAD 2000
 90
0
 91
0
280
0
281
0
  0
ENDSEC
  0
SECTION
  2
TABLES
  0
TABLE
  2
VPORT
  5
8
100
AcDbSymbolTable
 70
2
  0
VPORT
  5
1F4
100
AcDbSymbolTableRecord
100
AcDbViewportTableRecord
  2
*ACTIVE
 70
0
 10
0.0
 20
0.0
 11
1.0
 21
1.0
 12
5.5
 22
4.25
 13
0.0
 23
0.0
 14
1.0
 24
1.0
 15
0.0
 25
0.0
 16
0.0
 26
0.0
 36
1.0
 17
0.0
 27
0.0
 37
0.0
 40
8.5
 41
1.2941176471
 42
50.0
 43
0.0
 44
0.0
 50
0.0
 51
0.0
 71
0
 72
100
 73
1
 74
1
 75
0
 76
0
 77
0
 78
0
  0
ENDTAB
  0
TABLE
  2
LTYPE
  5
5
100
AcDbSymbolTable
 70
6
  0
LTYPE
  5
14
100
AcDbSymbolTableRecord
100
AcDbLinetypeTableRecord
  2
BYBLOCK
 70
0
  3

 72
65
 73
0
 40
0.0
  0
LTYPE
  5
15
100
AcDbSymbolTableRecord
100
AcDbLinetypeTableRecord
  2
BYLAYER
 70
0
  3

 72
65
 73
0
 40
0.0
  0
LTYPE
  5
16
100
AcDbSymbolTableRecord
100
AcDbLinetypeTableRecord
  2
CONTINUOUS
 70
64
  3
Solid line
 72
65
 73
0
 40
0.0
  0
LTYPE
  5
1F5
100
AcDbSymbolTableRecord
100
AcDbLinetypeTableRecord
  2
CENTER
 70
64
  3
____ _ ____ _ ____ _ ____ _ ____ _ ____ _ ____
 72
65
 73
4
 40
0.6
 49
0.375
 74
0
 49
-0.075
 74
0
 49
0.075
 74
0
 49
-0.075
 74
0
  0
LTYPE
  5
1F6
100
AcDbSymbolTableRecord
100
AcDbLinetypeTableRecord
  2
HIDDEN
 70
64
  3
- - - - - - - - - - - - - - - - - - - -
 72
65
 73
2
 40
0.2
 49
0.1
 74
0
 49
-0.1
 74
0
  0
LTYPE
  5
1F7
100
AcDbSymbolTableRecord
100
AcDbLinetypeTableRecord
  2
PHANTOM
 70
64
  3
_____ _ _ _____ _ _ _____ _ _ _____
 72
65
 73
6
 40
0.8
 49
0.45
 74
0
 49
-0.05
 74
0
 49
0.1
 74
0
 49
-0.05
 74
0
 49
0.1
 74
0
 49
-0.05
 74
0
  0
LTYPE
  5
1F8
100
AcDbSymbolTableRecord
100
AcDbLinetypeTableRecord
  2
DOT
 70
64
  3
. . . . . . . . . . . . . . . . . . . .
 72
65
 73
2
 40
0.2
 49
0.1
 74
0
 49
-0.1
 74
0
  0
LTYPE
  5
1F9
100
AcDbSymbolTableRecord
100
AcDbLinetypeTableRecord
  2
DASHED
 70
64
  3
- - - - - - - - - - - - - - - - - - - -
 72
65
 73
2
 40
0.2
 49
0.1
 74
0
 49
-0.1
 74
0
  0
ENDTAB
  0
TABLE
  2
LAYER
  5
2
100
AcDbSymbolTable
 70
36
  0
LAYER
  5
10
100
AcDbSymbolTableRecord
100
AcDbLayerTableRecord
  2
0
 70
0
 62
7
  6
CONTINUOUS
370
-3
390
F
  0
LAYER
  5
1FA
100
AcDbSymbolTableRecord
100
AcDbLayerTableRecord
  2
DEFAULT_1
 70
0
 62
7
  6
CENTER
370
-3
390
F
  0
LAYER
  5
1FB
100
AcDbSymbolTableRecord
100
AcDbLayerTableRecord
  2
DEFAULT_2
 70
0
 62
8
  6
HIDDEN
370
-3
390
F
  0
LAYER
  5
1FC
100
AcDbSymbolTableRecord
100
AcDbLayerTableRecord
  2
DEFAULT_3
 70
0
 62
7
  6
PHANTOM
370
-3
390
F
  0
LAYER
  5
1FD
100
AcDbSymbolTableRecord
100
AcDbLayerTableRecord
  2
_  SHELL
 70
0
 62
7
  6
CONTINUOUS
370
-3
390
F
  0
LAYER
  5
1FE
100
AcDbSymbolTableRecord
100
AcDbLayerTableRecord
  2
06___PRT_ALL_SURFS
 70
0
 62
7
  6
CONTINUOUS
370
-3
390
F
  0
LAYER
  5
1FF
100
AcDbSymbolTableRecord
100
AcDbLayerTableRecord
  2
2-141_ASSY_DATUMS
 70
0
 62
7
  6
CONTINUOUS
370
-3
390
F
  0
LAYER
  5
200
100
AcDbSymbolTableRecord
100
AcDbLayerTableRecord
  2
2-142_ASSY_DATUMS
 70
0
 62
7
  6
CONTINUOUS
370
-3
390
F
  0
LAYER
  5
201
100
AcDbSymbolTableRecord
100
AcDbLayerTableRecord
  2
2-144_ASSY_PLANES
 70
0
 62
7
  6
CONTINUOUS
370
-3
390
F
  0
LAYER
  5
202
100
AcDbSymbolTableRecord
100
AcDbLayerTableRecord
  2
3-163C
 70
0
 62
7
  6
CONTINUOUS
370
-3
390
F
  0
LAYER
  5
203
100
AcDbSymbolTableRecord
100
AcDbLayerTableRecord
  2
3-163H
 70
0
 62
7
  6
CONTINUOUS
370
-3
390
F
  0
LAYER
  5
204
100
AcDbSymbolTableRecord
100
AcDbLayerTableRecord
  2
ALL_ASSEMBLY_MEMBERS
 70
0
 62
7
  6
CONTINUOUS
370
-3
390
F
  0
LAYER
  5
205
100
AcDbSymbolTableRecord
100
AcDbLayerTableRecord
  2
ALL_FEATURES
 70
0
 62
7
  6
CONTINUOUS
370
-3
390
F
  0
LAYER
  5
206
100
AcDbSymbolTableRecord
100
AcDbLayerTableRecord
  2
AXES_FEATURES
 70
0
 62
7
  6
CONTINUOUS
370
-3
390
F
  0
LAYER
  5
207
100
AcDbSymbolTableRecord
100
AcDbLayerTableRecord
  2
CHAMFER_FEATURES
 70
0
 62
7
  6
CONTINUOUS
370
-3
390
F
  0
LAYER
  5
208
100
AcDbSymbolTableRecord
100
AcDbLayerTableRecord
  2
CURVES
 70
0
 62
7
  6
CONTINUOUS
370
-3
390
F
  0
LAYER
  5
209
100
AcDbSymbolTableRecord
100
AcDbLayerTableRecord
  2
CUT_FEATURES
 70
0
 62
7
  6
CONTINUOUS
370
-3
390
F
  0
LAYER
  5
20A
100
AcDbSymbolTableRecord
100
AcDbLayerTableRecord
  2
DATUM_CURVES
 70
0
 62
7
  6
CONTINUOUS
370
-3
390
F
  0
LAYER
  5
20B
100
AcDbSymbolTableRecord
100
AcDbLayerTableRecord
  2
DATUM_PLANES
 70
0
 62
7
  6
CONTINUOUS
370
-3
390
F
  0
LAYER
  5
20C
100
AcDbSymbolTableRecord
100
AcDbLayerTableRecord
  2
DATUM_SHAPER
 70
0
 62
7
  6
CONTINUOUS
370
-3
390
F
  0
LAYER
  5
20D
100
AcDbSymbolTableRecord
100
AcDbLayerTableRecord
  2
DEFAULT_COORDINATE_SYSTEM
 70
0
 62
7
  6
CONTINUOUS
370
-3
390
F
  0
LAYER
  5
20E
100
AcDbSymbolTableRecord
100
AcDbLayerTableRecord
  2
DEFAULT_DATUM_AXES
 70
0
 62
7
  6
CONTINUOUS
370
-3
390
F
  0
LAYER
  5
20F
100
AcDbSymbolTableRecord
100
AcDbLayerTableRecord
  2
DEFAULT_DATUM_CURVES
 70
0
 62
7
  6
CONTINUOUS
370
-3
390
F
  0
LAYER
  5
210
100
AcDbSymbolTableRecord
100
AcDbLayerTableRecord
  2
DEFAULT_DATUM_PLANES
 70
0
 62
7
  6
CONTINUOUS
370
-3
390
F
  0
LAYER
  5
211
100
AcDbSymbolTableRecord
100
AcDbLayerTableRecord
  2
DEFAULT_SURFACES
 70
0
 62
7
  6
CONTINUOUS
370
-3
390
F
  0
LAYER
  5
212
100
AcDbSymbolTableRecord
100
AcDbLayerTableRecord
  2
DIMENSIONS
 70
0
 62
7
  6
CONTINUOUS
370
-3
390
F
  0
LAYER
  5
213
100
AcDbSymbolTableRecord
100
AcDbLayerTableRecord
  2
HOLE_FEATURES
 70
0
 62
7
  6
CONTINUOUS
370
-3
390
F
  0
LAYER
  5
214
100
AcDbSymbolTableRecord
100
AcDbLayerTableRecord
  2
INTF_BLANK
 70
0
 62
7
  6
CONTINUOUS
370
-3
390
F
  0
LAYER
  5
215
100
AcDbSymbolTableRecord
100
AcDbLayerTableRecord
  2
LAY0001
 70
0
 62
7
  6
CONTINUOUS
370
-3
390
F
  0
LAYER
  5
216
100
AcDbSymbolTableRecord
100
AcDbLayerTableRecord
  2
PART_REFERENCE_DIMENSIONS
 70
0
 62
7
  6
CONTINUOUS
370
-3
390
F
  0
LAYER
  5
217
100
AcDbSymbolTableRecord
100
AcDbLayerTableRecord
  2
PLATEDSURFAREA
 70
0
 62
7
  6
CONTINUOUS
370
-3
390
F
  0
LAYER
  5
218
100
AcDbSymbolTableRecord
100
AcDbLayerTableRecord
  2
PLATED_SURAFCE
 70
0
 62
7
  6
CONTINUOUS
370
-3
390
F
  0
LAYER
  5
219
100
AcDbSymbolTableRecord
100
AcDbLayerTableRecord
  2
PLATED_SURFACE_AREA
 70
0
 62
7
  6
CONTINUOUS
370
-3
390
F
  0
LAYER
  5
21A
100
AcDbSymbolTableRecord
100
AcDbLayerTableRecord
  2
PROTRUSION_FEATURES
 70
0
 62
7
  6
CONTINUOUS
370
-3
390
F
  0
LAYER
  5
21B
100
AcDbSymbolTableRecord
100
AcDbLayerTableRecord
  2
QUILT
 70
0
 62
7
  6
CONTINUOUS
370
-3
390
F
  0
LAYER
  5
21C
100
AcDbSymbolTableRecord
100
AcDbLayerTableRecord
  2
QUILTS
 70
0
 62
7
  6
CONTINUOUS
370
-3
390
F
  0
LAYER
  5
21D
100
AcDbSymbolTableRecord
100
AcDbLayerTableRecord
  2
REFERENCE_DIMENSIONS
 70
0
 62
7
  6
CONTINUOUS
370
-3
390
F
  0
LAYER
  5
21E
100
AcDbSymbolTableRecord
100
AcDbLayerTableRecord
  2
ROUND_FEATURES
 70
0
 62
7
  6
CONTINUOUS
370
-3
390
F
  0
LAYER
  5
21F
100
AcDbSymbolTableRecord
100
AcDbLayerTableRecord
  2
SHELL
 70
0
 62
7
  6
CONTINUOUS
370
-3
390
F
  0
LAYER
  5
220
100
AcDbSymbolTableRecord
100
AcDbLayerTableRecord
  2
XSEC_DATUMS
 70
0
 62
7
  6
CONTINUOUS
370
-3
390
F
  0
LAYER
  5
221
100
AcDbSymbolTableRecord
100
AcDbLayerTableRecord
  2
___SHELL
 70
0
 62
7
  6
CONTINUOUS
370
-3
390
F
  0
ENDTAB
  0
TABLE
  2
STYLE
  5
3
100
AcDbSymbolTable
 70
1
  0
STYLE
  5
11
100
AcDbSymbolTableRecord
100
AcDbTextStyleTableRecord
  2
STANDARD
 70
0
 40
0.0
 41
0.8
 50
0.0
 71
0
 42
0.2
  3
txt
  4

  0
STYLE
  5
222
100
AcDbSymbolTableRecord
100
AcDbTextStyleTableRecord
  2
TEXTSTYLE_1
 70
0
 40
0.0
 41
0.8
 50
0.0
 71
0
 42
0.2
  3
gdt
  4

  0
ENDTAB
  0
TABLE
  2
VIEW
  5
6
100
AcDbSymbolTable
 70
0
  0
ENDTAB
  0
TABLE
  2
UCS
  5
7
100
AcDbSymbolTable
 70
0
  0
ENDTAB
  0
TABLE
  2
APPID
  5
9
100
AcDbSymbolTable
 70
1
  0
APPID
  5
223
100
AcDbSymbolTableRecord
100
AcDbRegAppTableRecord
  2
ACAD
 70
0
  0
ENDTAB
  0
TABLE
  2
BLOCK_RECORD
  5
1
100
AcDbSymbolTable
 70
0
  0
BLOCK_RECORD
  5
224
100
AcDbSymbolTableRecord
100
AcDbBlockTableRecord
  2
*Model_Space
  0
BLOCK_RECORD
  5
225
100
AcDbSymbolTableRecord
100
AcDbBlockTableRecord
  2
*Paper_Space
  0
BLOCK_RECORD
  5
226
100
AcDbSymbolTableRecord
100
AcDbBlockTableRecord
  2
_FILLED
  0
ENDTAB
  0
TABLE
  2
DIMSTYLE
  5
A
100
AcDbSymbolTable
 70
1
100
AcDbDimStyleTable
 71
0
  0
DIMSTYLE
105
227
100
AcDbSymbolTableRecord
100
AcDbDimStyleTableRecord
  2
STANDARD
 70
0
  3

  4

 40
1.0
 41
0.1
 42
0.0625
 43
0.38
 44
0.125
 45
0.0
 46
0.0
 47
0.001
 48
0.001
140
0.08
141
0.09
142
0.0
143
25.4
144
1.0
145
0.0
146
1.0
147
0.09
 71
1.0
 72
0.0
 73
1
 74
1
 75
0
 76
0
 77
0
 78
4
 79
1
170
1
171
2
172
0
173
0
174
0
175
0
176
0
177
0
178
0
270
2
179
3
271
3
272
3
273
2
274
2
275
0
280
0
281
0
282
0
283
1
284
4
285
0
286
0
287
3
288
0
340
11
278
46
341
226
342
226
343
226
344
226
  0
ENDTAB
  0
ENDSEC
  0
SECTION
  2
BLOCKS
  0
BLOCK
  5
20
100
AcDbEntity
  8
0
100
AcDbBlockBegin
  2
*Model_Space
 70
0
 10
0.0
 20
0.0
 30
0.0
  3
*Model_Space
  1

  0
ENDBLK
  5
21
100
AcDbEntity
  8
0
100
AcDbBlockEnd
  0
BLOCK
  5
1C
100
AcDbEntity
  8
0
100
AcDbBlockBegin
  2
*Paper_Space
 70
0
 10
0.0
 20
0.0
 30
0.0
  3
*Paper_Space
  1

  0
ENDBLK
  5
1D
100
AcDbEntity
  8
0
100
AcDbBlockEnd
  0
BLOCK
  5
228
100
AcDbEntity
  8
0
100
AcDbBlockBegin
  2
_FILLED
 70
64
 10
0.0
 20
0.0
  3
_FILLED
  1

  0
SOLID
  5
229
100
AcDbEntity
  8
0
  6
BYBLOCK
 62
0
100
AcDbTrace
 10
0.0
 20
0.0
 11
-1.0
 21
0.2
 12
-1.0
 22
-0.2
 13
-1.0
 23
-0.2
  0
ENDBLK
  5
22A
100
AcDbEntity
  8
0
  6
BYBLOCK
 62
0
100
AcDbBlockEnd
  0
ENDSEC
  0
SECTION
  2
ENTITIES
  0
MTEXT
  5
22B
100
AcDbEntity
  8
0
100
AcDbMText
 62
2
  6
CONTINUOUS
  7
STANDARD
 71
3
 72
1
 10
1.4870000614
 20
1.5795012476
 30
0.0
 11
1.0
 21
0.0
 31
0.0
 73
2
 44
0.9
  1
SCALE  .500
 40
0.08
 41
0.704
  0
LINE
  5
22C
100
AcDbEntity
  8
0
100
AcDbLine
 62
7
  6
CONTINUOUS
 10
0.0
 20
0.0
 11
0.0
 21
8.5
  0
LINE
  5
22D
100
AcDbEntity
  8
0
100
AcDbLine
 62
7
  6
CONTINUOUS
 10
0.0
 20
0.0
 11
11.0
 21
0.0
  0
LINE
  5
22E
100
AcDbEntity
  8
0
100
AcDbLine
 62
7
  6
CONTINUOUS
 10
0.0
 20
8.5
 11
11.0
 21
8.5
  0
LINE
  5
22F
100
AcDbEntity
  8
0
100
AcDbLine
 62
7
  6
CONTINUOUS
 10
11.0
 20
0.0
 11
11.0
 21
8.5
  0
LINE
  5
230
100
AcDbEntity
  8
ALL_ASSEMBLY_MEMBERS
100
AcDbLine
 62
7
  6
CONTINUOUS
 10
2.7308791824
 20
4.7003001289
 11
2.7308791824
 21
4.9255669411
  0
LINE
  5
231
100
AcDbEntity
  8
ALL_ASSEMBLY_MEMBERS
100
AcDbLine
 62
7
  6
CONTINUOUS
 10
2.7719238109
 20
4.7290398872
 11
2.7719238109
 21
4.8968271828
  0
LINE
  5
232
100
AcDbEntity
  8
ALL_ASSEMBLY_MEMBERS
100
AcDbLine
 62
7
  6
CONTINUOUS
 10
2.7845124224
 20
4.7183880901
 11
2.7845124224
 21
4.9074789798
  0
LINE
  5
233
100
AcDbEntity
  8
ALL_ASSEMBLY_MEMBERS
100
AcDbLine
 62
7
  6
CONTINUOUS
 10
2.7969440017
 20
4.7174748884
 11
2.7969440017
 21
4.9083921816
  0
LINE
  5
234
100
AcDbEntity
  8
ALL_ASSEMBLY_MEMBERS
100
AcDbLine
 62
7
  6
CONTINUOUS
 10
2.8727624224
 20
5.799933535
 11
2.8727624224
 21
5.830933535
  0
LINE
  5
235
100
AcDbEntity
  8
ALL_ASSEMBLY_MEMBERS
100
AcDbLine
 62
7
  6
CONTINUOUS
 10
2.9150124224
 20
5.624329726
 11
2.9150124224
 21
5.799933535
  0
LINE
  5
236
100
AcDbEntity
  8
ALL_ASSEMBLY_MEMBERS
100
AcDbLine
 62
7
  6
CONTINUOUS
 10
2.9776794118
 20
4.8904629101
 11
2.9776794159
 21
4.7354042888
  0
LINE
  5
237
100
AcDbEntity
  8
ALL_ASSEMBLY_MEMBERS
100
AcDbLine
 62
7
  6
CONTINUOUS
 10
2.9795124224
 20
4.6192914864
 11
2.9795124224
 21
4.654933535
  0
LINE
  5
238
100
AcDbEntity
  8
ALL_ASSEMBLY_MEMBERS
100
AcDbLine
 62
7
  6
CONTINUOUS
 10
2.9887594321
 20
4.8615387288
 11
2.9887594325
 21
4.7643288104
  0
LINE
  5
239
100
AcDbEntity
  8
ALL_ASSEMBLY_MEMBERS
100
AcDbLine
 62
7
  6
CONTINUOUS
 10
2.9645124224
 20
4.915433535
 11
2.9795124224
 21
4.954933535
  0
LINE
  5
23A
100
AcDbEntity
  8
ALL_ASSEMBLY_MEMBERS
100
AcDbLine
 62
7
  6
CONTINUOUS
 10
3.5638441422
 20
5.616683535
 11
3.5715124224
 21
5.6243297258
  0
LINE
  5
23B
100
AcDbEntity
  8
ALL_ASSEMBLY_MEMBERS
100
AcDbLine
 62
7
  6
CONTINUOUS
 10
3.0715124224
 20
4.980433535
 11
3.0715124224
 21
5.159933535
  0
LINE
  5
23C
100
AcDbEntity
  8
ALL_ASSEMBLY_MEMBERS
100
AcDbLine
 62
7
  6
CONTINUOUS
 10
3.1107624224
 20
4.5745522135
 11
3.1107624224
 21
4.5749945483
  0
LINE
  5
23D
100
AcDbEntity
  8
ALL_ASSEMBLY_MEMBERS
100
AcDbLine
 62
7
  6
CONTINUOUS
 10
3.1190124224
 20
4.5724540024
 11
3.1190124224
 21
4.5732656592
  0
LINE
  5
23E
100
AcDbEntity
  8
ALL_ASSEMBLY_MEMBERS
100
AcDbLine
 62
7
  6
CONTINUOUS
 10
3.1390124224
 20
4.5699949755
 11
3.1390124224
 21
4.5694903798
  0
LINE
  5
23F
100
AcDbEntity
  8
ALL_ASSEMBLY_MEMBERS
100
AcDbLine
 62
7
  6
CONTINUOUS
 10
3.1395124224
 20
4.5702198614
 11
3.1395124224
 21
4.5694686469
  0
LINE
  5
240
100
AcDbEntity
  8
ALL_ASSEMBLY_MEMBERS
100
AcDbLine
 62
7
  6
CONTINUOUS
 10
3.1472624224
 20
4.5695469612
 11
3.1472624224
 21
4.5691077614
  0
LINE
  5
241
100
AcDbEntity
  8
ALL_ASSEMBLY_MEMBERS
100
AcDbLine
 62
7
  6
CONTINUOUS
 10
3.1557624224
 20
4.568093843
 11
3.1557624224
 21
4.568532464
  0
LINE
  5
242
100
AcDbEntity
  8
ALL_ASSEMBLY_MEMBERS
100
AcDbLine
 62
7
  6
CONTINUOUS
 10
3.1635124224
 20
4.5666079108
 11
3.1635124224
 21
4.5673563358
  0
LINE
  5
243
100
AcDbEntity
  8
ALL_ASSEMBLY_MEMBERS
100
AcDbLine
 62
7
  6
CONTINUOUS
 10
3.1640124224
 20
4.5670132375
 11
3.1640124224
 21
4.5665105927
  0
LINE
  5
244
100
AcDbEntity
  8
ALL_ASSEMBLY_MEMBERS
100
AcDbLine
 62
7
  6
CONTINUOUS
 10
3.1840124224
 20
4.5655042533
 11
3.1840124224
 21
4.5647007453
  0
LINE
  5
245
100
AcDbEntity
  8
ALL_ASSEMBLY_MEMBERS
100
AcDbLine
 62
7
  6
CONTINUOUS
 10
3.1922624224
 20
4.5652535696
 11
3.1922624224
 21
4.5648168093
  0
LINE
  5
246
100
AcDbEntity
  8
ALL_ASSEMBLY_MEMBERS
100
AcDbLine
 62
7
  6
CONTINUOUS
 10
3.2214124224
 20
4.5632416757
 11
3.2214124224
 21
4.5627414769
  0
LINE
  5
247
100
AcDbEntity
  8
ALL_ASSEMBLY_MEMBERS
100
AcDbLine
 62
7
  6
CONTINUOUS
 10
3.2432624224
 20
5.799933535
 11
3.2432624224
 21
5.6749622265
  0
LINE
  5
248
100
AcDbEntity
  8
ALL_ASSEMBLY_MEMBERS
100
AcDbLine
 62
7
  6
CONTINUOUS
 10
3.2639124224
 20
4.5632087531
 11
3.2639124224
 21
4.5627085756
  0
LINE
  5
249
100
AcDbEntity
  8
ALL_ASSEMBLY_MEMBERS
100
AcDbLine
 62
7
  6
CONTINUOUS
 10
3.5135124224
 20
5.3421253156
 11
3.5505794195
 21
5.3950841292
  0
LINE
  5
24A
100
AcDbEntity
  8
ALL_ASSEMBLY_MEMBERS
100
AcDbLine
 62
7
  6
CONTINUOUS
 10
3.292505063
 20
4.5649713776
 11
3.292505063
 21
4.56447006
  0
LINE
  5
24B
100
AcDbEntity
  8
ALL_ASSEMBLY_MEMBERS
100
AcDbLine
 62
7
  6
CONTINUOUS
 10
3.3071110551
 20
4.5662762549
 11
3.3071110551
 21
4.56577409
  0
LINE
  5
24C
100
AcDbEntity
  8
ALL_ASSEMBLY_MEMBERS
100
AcDbLine
 62
7
  6
CONTINUOUS
 10
3.3200124224
 20
4.5674527377
 11
3.3200124224
 21
4.5669498063
  0
LINE
  5
24D
100
AcDbEntity
  8
ALL_ASSEMBLY_MEMBERS
100
AcDbLine
 62
7
  6
CONTINUOUS
 10
3.3215124224
 20
4.5663922888
 11
3.3215124224
 21
4.5675407584
  0
LINE
  5
24E
100
AcDbEntity
  8
ALL_ASSEMBLY_MEMBERS
100
AcDbLine
 62
7
  6
CONTINUOUS
 10
3.3395124224
 20
4.5695824672
 11
3.3395124224
 21
4.5684309497
  0
LINE
  5
24F
100
AcDbEntity
  8
ALL_ASSEMBLY_MEMBERS
100
AcDbLine
 62
7
  6
CONTINUOUS
 10
3.3410124224
 20
4.569834986
 11
3.3410124224
 21
4.5693304954
  0
LINE
  5
250
100
AcDbEntity
  8
ALL_ASSEMBLY_MEMBERS
100
AcDbLine
 62
7
  6
CONTINUOUS
 10
3.3539137896
 20
4.5715875648
 11
3.3539137896
 21
4.571081921
  0
LINE
  5
251
100
AcDbEntity
  8
ALL_ASSEMBLY_MEMBERS
100
AcDbLine
 62
7
  6
CONTINUOUS
 10
3.3685197817
 20
4.573601729
 11
3.3685197817
 21
4.5730947533
  0
LINE
  5
252
100
AcDbEntity
  8
ALL_ASSEMBLY_MEMBERS
100
AcDbLine
 62
7
  6
CONTINUOUS
 10
3.4150124224
 20
4.980433535
 11
3.4150124224
 21
5.159933535
  0
LINE
  5
253
100
AcDbEntity
  8
ALL_ASSEMBLY_MEMBERS
100
AcDbLine
 62
7
  6
CONTINUOUS
 10
3.5070124224
 20
4.670433535
 11
3.5220124224
 21
4.710433535
  0
LINE
  5
254
100
AcDbEntity
  8
ALL_ASSEMBLY_MEMBERS
100
AcDbLine
 62
7
  6
CONTINUOUS
 10
2.7719238109
 20
4.7290398872
 11
2.7308791824
 21
4.7003001289
  0
LINE
  5
255
100
AcDbEntity
  8
ALL_ASSEMBLY_MEMBERS
100
AcDbLine
 62
7
  6
CONTINUOUS
 10
2.9795124224
 20
4.670433535
 11
2.9645124224
 21
4.710433535
  0
LINE
  5
256
100
AcDbEntity
  8
ALL_ASSEMBLY_MEMBERS
100
AcDbLine
 62
7
  6
CONTINUOUS
 10
3.4977654126
 20
4.7643287571
 11
3.4977654123
 21
4.8615387845
  0
LINE
  5
257
100
AcDbEntity
  8
ALL_ASSEMBLY_MEMBERS
100
AcDbLine
 62
7
  6
CONTINUOUS
 10
3.5070124224
 20
4.6192914864
 11
3.5070124224
 21
4.654933535
  0
LINE
  5
258
100
AcDbEntity
  8
ALL_ASSEMBLY_MEMBERS
100
AcDbLine
 62
7
  6
CONTINUOUS
 10
3.5088454329
 20
4.7354042594
 11
3.5088454288
 21
4.8904629232
  0
LINE
  5
259
100
AcDbEntity
  8
ALL_ASSEMBLY_MEMBERS
100
AcDbLine
 62
7
  6
CONTINUOUS
 10
3.5715124224
 20
5.799933535
 11
3.5715124224
 21
5.624329726
  0
LINE
  5
25A
100
AcDbEntity
  8
ALL_ASSEMBLY_MEMBERS
100
AcDbLine
 62
7
  6
CONTINUOUS
 10
3.6137624224
 20
5.799933535
 11
3.6137624224
 21
5.830933535
  0
LINE
  5
25B
100
AcDbEntity
  8
ALL_ASSEMBLY_MEMBERS
100
AcDbLine
 62
7
  6
CONTINUOUS
 10
3.6895808431
 20
4.7174748884
 11
3.6895808431
 21
4.9083921816
  0
LINE
  5
25C
100
AcDbEntity
  8
ALL_ASSEMBLY_MEMBERS
100
AcDbLine
 62
7
  6
CONTINUOUS
 10
3.7020124224
 20
4.7183880901
 11
3.7020124224
 21
4.9074789798
  0
LINE
  5
25D
100
AcDbEntity
  8
ALL_ASSEMBLY_MEMBERS
100
AcDbLine
 62
7
  6
CONTINUOUS
 10
3.4998794985
 20
4.609473859
 11
3.5070124224
 21
4.6192914864
  0
LINE
  5
25E
100
AcDbEntity
  8
ALL_ASSEMBLY_MEMBERS
100
AcDbLine
 62
7
  6
CONTINUOUS
 10
2.9795124224
 20
4.654933535
 11
2.9929358161
 21
4.662683535
  0
LINE
  5
25F
100
AcDbEntity
  8
ALL_ASSEMBLY_MEMBERS
100
AcDbLine
 62
7
  6
CONTINUOUS
 10
2.9866453462
 20
4.609473859
 11
2.9795124224
 21
4.6192914864
  0
LINE
  5
260
100
AcDbEntity
  8
ALL_ASSEMBLY_MEMBERS
100
AcDbLine
 62
7
  6
CONTINUOUS
 10
3.7146010339
 20
4.7290398872
 11
3.7146010339
 21
4.8968271828
  0
LINE
  5
261
100
AcDbEntity
  8
ALL_ASSEMBLY_MEMBERS
100
AcDbLine
 62
7
  6
CONTINUOUS
 10
3.7556456624
 20
4.7003001289
 11
3.7556456624
 21
4.9255669411
  0
LINE
  5
262
100
AcDbEntity
  8
ALL_ASSEMBLY_MEMBERS
100
AcDbLine
 62
7
  6
CONTINUOUS
 10
3.7146010339
 20
4.8968271828
 11
3.7556456624
 21
4.9255669411
  0
LINE
  5
263
100
AcDbEntity
  8
ALL_ASSEMBLY_MEMBERS
100
AcDbLine
 62
7
  6
CONTINUOUS
 10
3.4935890286
 20
4.662683535
 11
3.5070124224
 21
4.670433535
  0
LINE
  5
264
100
AcDbEntity
  8
ALL_ASSEMBLY_MEMBERS
100
AcDbLine
 62
7
  6
CONTINUOUS
 10
2.9795124224
 20
4.954933535
 11
3.0580124224
 21
4.980433535
  0
LINE
  5
265
100
AcDbEntity
  8
ALL_ASSEMBLY_MEMBERS
100
AcDbLine
 62
7
  6
CONTINUOUS
 10
3.5220124224
 20
4.915433535
 11
3.5070124224
 21
4.954933535
  0
LINE
  5
266
100
AcDbEntity
  8
ALL_ASSEMBLY_MEMBERS
100
AcDbLine
 62
7
  6
CONTINUOUS
 10
2.9730124224
 20
5.3421253156
 11
2.9359454253
 21
5.3950841292
  0
LINE
  5
267
100
AcDbEntity
  8
ALL_ASSEMBLY_MEMBERS
100
AcDbLine
 62
7
  6
CONTINUOUS
 10
3.4705174004
 20
4.599933535
 11
3.4998794985
 21
4.609473859
  0
LINE
  5
268
100
AcDbEntity
  8
ALL_ASSEMBLY_MEMBERS
100
AcDbLine
 62
7
  6
CONTINUOUS
 10
5.5867624224
 20
3.104933535
 11
4.8367624224
 21
3.104933535
  0
LINE
  5
269
100
AcDbEntity
  8
ALL_ASSEMBLY_MEMBERS
100
AcDbLine
 62
7
  6
CONTINUOUS
 10
4.5117624224
 20
6.018433535
 11
4.5117627576
 21
5.6244428166
  0
LINE
  5
26A
100
AcDbEntity
  8
ALL_ASSEMBLY_MEMBERS
100
AcDbLine
 62
7
  6
CONTINUOUS
 10
2.9929358161
 20
4.662683535
 11
2.9795124224
 21
4.670433535
  0
LINE
  5
26B
100
AcDbEntity
  8
ALL_ASSEMBLY_MEMBERS
100
AcDbLine
 62
7
  6
CONTINUOUS
 10
2.7719238109
 20
4.8968271828
 11
2.7308791824
 21
4.9255669411
  0
LWPOLYLINE
  5
26C
100
AcDbEntity
  8
ALL_ASSEMBLY_MEMBERS
100
AcDbPolyline
 62
7
  6
CONTINUOUS
 90
3
 70
0
 10
4.8437996995
 20
2.6189759183
 10
4.8438794818
 20
2.6163577861
 10
4.8440342741
 20
2.6108481735
  0
LINE
  5
26D
100
AcDbEntity
  8
ALL_ASSEMBLY_MEMBERS
100
AcDbLine
 62
7
  6
CONTINUOUS
 10
2.9226807025
 20
5.616683535
 11
2.9150124224
 21
5.6243297258
  0
LINE
  5
26E
100
AcDbEntity
  8
ALL_ASSEMBLY_MEMBERS
100
AcDbLine
 62
7
  6
CONTINUOUS
 10
4.8440342741
 20
2.6108481735
 11
4.844149282
 21
2.6062801326
  0
LINE
  5
26F
100
AcDbEntity
  8
ALL_ASSEMBLY_MEMBERS
100
AcDbLine
 62
7
  6
CONTINUOUS
 10
4.844149282
 20
2.6062801326
 11
4.8442874481
 21
2.6000304146
  0
LINE
  5
270
100
AcDbEntity
  8
ALL_ASSEMBLY_MEMBERS
100
AcDbLine
 62
7
  6
CONTINUOUS
 10
4.8442874481
 20
2.6000304146
 11
4.8443320872
 21
2.5977810028
  0
LINE
  5
271
100
AcDbEntity
  8
ALL_ASSEMBLY_MEMBERS
100
AcDbLine
 62
7
  6
CONTINUOUS
 10
4.8367624224
 20
3.768433535
 11
4.8367624224
 21
3.104933535
  0
LINE
  5
272
100
AcDbEntity
  8
ALL_ASSEMBLY_MEMBERS
100
AcDbLine
 62
7
  6
CONTINUOUS
 10
4.8617624224
 20
6.018433535
 11
4.8617624224
 21
5.768433535
  0
LINE
  5
273
100
AcDbEntity
  8
ALL_ASSEMBLY_MEMBERS
100
AcDbLine
 62
7
  6
CONTINUOUS
 10
6.9165124224
 20
4.954308535
 11
6.9950124224
 21
4.979808535
  0
LINE
  5
274
100
AcDbEntity
  8
ALL_ASSEMBLY_MEMBERS
100
AcDbLine
 62
7
  6
CONTINUOUS
 10
5.5867624224
 20
3.768433535
 11
4.8367624224
 21
3.768433535
  0
LINE
  5
275
100
AcDbEntity
  8
ALL_ASSEMBLY_MEMBERS
100
AcDbLine
 62
7
  6
CONTINUOUS
 10
3.0160074443
 20
4.599933535
 11
2.9866453462
 21
4.609473859
  0
LINE
  5
276
100
AcDbEntity
  8
ALL_ASSEMBLY_MEMBERS
100
AcDbLine
 62
7
  6
CONTINUOUS
 10
3.5070124224
 20
4.654933535
 11
3.4935890286
 21
4.662683535
  0
LINE
  5
277
100
AcDbEntity
  8
ALL_ASSEMBLY_MEMBERS
100
AcDbLine
 62
7
  6
CONTINUOUS
 10
3.7146010339
 20
4.7290398872
 11
3.7556456624
 21
4.7003001289
  0
LINE
  5
278
100
AcDbEntity
  8
ALL_ASSEMBLY_MEMBERS
100
AcDbLine
 62
7
  6
CONTINUOUS
 10
5.0242624224
 20
3.768433535
 11
5.0242624224
 21
3.104933535
  0
LINE
  5
279
100
AcDbEntity
  8
ALL_ASSEMBLY_MEMBERS
100
AcDbLine
 62
7
  6
CONTINUOUS
 10
7.3405928823
 20
4.5785679332
 11
7.3405767714
 21
4.5785634877
  0
LINE
  5
27A
100
AcDbEntity
  8
ALL_ASSEMBLY_MEMBERS
100
AcDbLine
 62
7
  6
CONTINUOUS
 10
5.3992624224
 20
3.768433535
 11
5.3992624224
 21
3.104933535
  0
LINE
  5
27B
100
AcDbEntity
  8
ALL_ASSEMBLY_MEMBERS
100
AcDbLine
 62
7
  6
CONTINUOUS
 10
7.4075174004
 20
4.599308535
 11
7.4368794985
 21
4.608848859
  0
LINE
  5
27C
100
AcDbEntity
  8
ALL_ASSEMBLY_MEMBERS
100
AcDbLine
 62
7
  6
CONTINUOUS
 10
7.3472364238
 20
4.5805872254
 11
7.3574676342
 21
4.5824501215
  0
LINE
  5
27D
100
AcDbEntity
  8
ALL_ASSEMBLY_MEMBERS
100
AcDbLine
 62
7
  6
CONTINUOUS
 10
7.3409031278
 20
4.5794374452
 11
7.3472364238
 21
4.5805872254
  0
LINE
  5
27E
100
AcDbEntity
  8
ALL_ASSEMBLY_MEMBERS
100
AcDbLine
 62
7
  6
CONTINUOUS
 10
7.3404501945
 20
4.5793553714
 11
7.3597616827
 21
4.5828727758
  0
LINE
  5
27F
100
AcDbEntity
  8
ALL_ASSEMBLY_MEMBERS
100
AcDbLine
 62
7
  6
CONTINUOUS
 10
7.2802624224
 20
4.5687886187
 11
7.2984033625
 21
4.5713681138
  0
LINE
  5
280
100
AcDbEntity
  8
ALL_ASSEMBLY_MEMBERS
100
AcDbLine
 62
7
  6
CONTINUOUS
 10
3.2213789674
 20
4.5627457555
 11
3.2214124224
 21
4.5627414769
  0
LINE
  5
281
100
AcDbEntity
  8
ALL_ASSEMBLY_MEMBERS
100
AcDbLine
 62
7
  6
CONTINUOUS
 10
5.5617624224
 20
6.018433535
 11
5.5617624224
 21
5.768433535
  0
LINE
  5
282
100
AcDbEntity
  8
ALL_ASSEMBLY_MEMBERS
100
AcDbLine
 62
7
  6
CONTINUOUS
 10
5.5867624224
 20
3.768433535
 11
5.5867624224
 21
3.104933535
  0
LWPOLYLINE
  5
283
100
AcDbEntity
  8
ALL_ASSEMBLY_MEMBERS
100
AcDbPolyline
 62
7
  6
CONTINUOUS
 90
3
 70
0
 10
5.5791926997
 20
2.5977780321
 10
5.5792976688
 20
2.6028789075
 10
5.5793843744
 20
2.6066477223
  0
LINE
  5
284
100
AcDbEntity
  8
ALL_ASSEMBLY_MEMBERS
100
AcDbLine
 62
7
  6
CONTINUOUS
 10
5.5793843744
 20
2.6066477223
 11
5.5795055588
 21
2.611410458
  0
LINE
  5
285
100
AcDbEntity
  8
ALL_ASSEMBLY_MEMBERS
100
AcDbLine
 62
7
  6
CONTINUOUS
 10
5.5795055588
 20
2.611410458
 11
5.5797252317
 21
2.6189786865
  0
LINE
  5
286
100
AcDbEntity
  8
ALL_ASSEMBLY_MEMBERS
100
AcDbLine
 62
7
  6
CONTINUOUS
 10
6.7089238109
 20
4.7284148872
 11
6.6678791824
 21
4.6996751289
  0
LINE
  5
287
100
AcDbEntity
  8
ALL_ASSEMBLY_MEMBERS
100
AcDbLine
 62
7
  6
CONTINUOUS
 10
6.9165124224
 20
4.654308535
 11
6.9299358161
 21
4.662058535
  0
LINE
  5
288
100
AcDbEntity
  8
ALL_ASSEMBLY_MEMBERS
100
AcDbLine
 62
7
  6
CONTINUOUS
 10
7.1184311297
 20
4.5642809048
 11
7.1184124224
 21
4.5642794203
  0
LINE
  5
289
100
AcDbEntity
  8
ALL_ASSEMBLY_MEMBERS
100
AcDbLine
 62
7
  6
CONTINUOUS
 10
7.1184347222
 20
4.5642811512
 11
7.1184311297
 21
4.5642809048
  0
LINE
  5
28A
100
AcDbEntity
  8
ALL_ASSEMBLY_MEMBERS
100
AcDbLine
 62
7
  6
CONTINUOUS
 10
7.1184124224
 20
4.5642831676
 11
7.1184063881
 21
4.5642828857
  0
LINE
  5
28B
100
AcDbEntity
  8
ALL_ASSEMBLY_MEMBERS
100
AcDbLine
 62
7
  6
CONTINUOUS
 10
5.6180124224
 20
4.393433535
 11
4.8055124224
 21
4.393433535
  0
LINE
  5
28C
100
AcDbEntity
  8
ALL_ASSEMBLY_MEMBERS
100
AcDbLine
 62
7
  6
CONTINUOUS
 10
7.3778347506
 20
4.5874038884
 11
6.9826900941
 21
4.5874038884
  0
LINE
  5
28D
100
AcDbEntity
  8
ALL_ASSEMBLY_MEMBERS
100
AcDbLine
 62
7
  6
CONTINUOUS
 10
3.4408347421
 20
4.5880288285
 11
3.0456901026
 21
4.5880288285
  0
LINE
  5
28E
100
AcDbEntity
  8
ALL_ASSEMBLY_MEMBERS
100
AcDbLine
 62
7
  6
CONTINUOUS
 10
3.2808756069
 20
4.5634091428
 11
3.2817624224
 21
4.56339
  0
LINE
  5
28F
100
AcDbEntity
  8
ALL_ASSEMBLY_MEMBERS
100
AcDbLine
 62
7
  6
CONTINUOUS
 10
3.2816884835
 20
4.5633939865
 11
3.2817624224
 21
4.56339
  0
LINE
  5
290
100
AcDbEntity
  8
ALL_ASSEMBLY_MEMBERS
100
AcDbLine
 62
7
  6
CONTINUOUS
 10
3.2639124224
 20
4.5627085756
 11
3.2633432321
 21
4.5627446885
  0
LINE
  5
291
100
AcDbEntity
  8
ALL_ASSEMBLY_MEMBERS
100
AcDbLine
 62
7
  6
CONTINUOUS
 10
3.5070124224
 20
4.954933535
 11
3.4285124224
 21
4.980433535
  0
LINE
  5
292
100
AcDbEntity
  8
ALL_ASSEMBLY_MEMBERS
100
AcDbLine
 62
7
  6
CONTINUOUS
 10
7.5008441422
 20
5.616683535
 11
7.5200918286
 21
5.6358757763
  0
LINE
  5
293
100
AcDbEntity
  8
ALL_ASSEMBLY_MEMBERS
100
AcDbLine
 62
7
  6
CONTINUOUS
 10
7.4305890286
 20
4.662058535
 11
7.4440124224
 21
4.669808535
  0
LINE
  5
294
100
AcDbEntity
  8
ALL_ASSEMBLY_MEMBERS
100
AcDbLine
 62
7
  6
CONTINUOUS
 10
3.2214552202
 20
4.5627466921
 11
3.2214335205
 21
4.562744214
  0
LINE
  5
295
100
AcDbEntity
  8
ALL_ASSEMBLY_MEMBERS
100
AcDbLine
 62
7
  6
CONTINUOUS
 10
3.2214957146
 20
4.5627508863
 11
3.2214552202
 21
4.5627466921
  0
LINE
  5
296
100
AcDbEntity
  8
ALL_ASSEMBLY_MEMBERS
100
AcDbLine
 62
7
  6
CONTINUOUS
 10
3.221454657
 20
4.5627522876
 11
3.2213789674
 21
4.5627457555
  0
LINE
  5
297
100
AcDbEntity
  8
ALL_ASSEMBLY_MEMBERS
100
AcDbLine
 62
7
  6
CONTINUOUS
 10
3.2032624224
 20
4.5634660323
 11
3.2033339033
 21
4.5634703722
  0
LINE
  5
298
100
AcDbEntity
  8
ALL_ASSEMBLY_MEMBERS
100
AcDbLine
 62
7
  6
CONTINUOUS
 10
3.292505063
 20
4.5649713776
 11
3.2916584563
 21
4.5649479384
  0
LINE
  5
299
100
AcDbEntity
  8
ALL_ASSEMBLY_MEMBERS
100
AcDbLine
 62
7
  6
CONTINUOUS
 10
3.2032624224
 20
4.5634660323
 11
3.2041541979
 21
4.5634856101
  0
LINE
  5
29A
100
AcDbEntity
  8
ALL_ASSEMBLY_MEMBERS
100
AcDbLine
 62
7
  6
CONTINUOUS
 10
3.2036452269
 20
4.5634768913
 11
3.2041541979
 21
4.5634856101
  0
LINE
  5
29B
100
AcDbEntity
  8
ALL_ASSEMBLY_MEMBERS
100
AcDbLine
 62
7
  6
CONTINUOUS
 10
6.9530101071
 20
4.599308535
 11
7.4075147376
 21
4.599308535
  0
LINE
  5
29C
100
AcDbEntity
  8
ALL_ASSEMBLY_MEMBERS
100
AcDbLine
 62
7
  6
CONTINUOUS
 10
3.0160101071
 20
4.599933535
 11
3.4705147376
 21
4.599933535
  0
LINE
  5
29D
100
AcDbEntity
  8
ALL_ASSEMBLY_MEMBERS
100
AcDbLine
 62
7
  6
CONTINUOUS
 10
6.9236453462
 20
4.608848859
 11
7.4368794985
 21
4.608848859
  0
LINE
  5
29E
100
AcDbEntity
  8
ALL_ASSEMBLY_MEMBERS
100
AcDbLine
 62
7
  6
CONTINUOUS
 10
2.9866453462
 20
4.609473859
 11
3.4998794985
 21
4.609473859
  0
LINE
  5
29F
100
AcDbEntity
  8
ALL_ASSEMBLY_MEMBERS
100
AcDbLine
 62
7
  6
CONTINUOUS
 10
6.9165124224
 20
4.6186664864
 11
7.4440124224
 21
4.6186664864
  0
LINE
  5
2A0
100
AcDbEntity
  8
ALL_ASSEMBLY_MEMBERS
100
AcDbLine
 62
7
  6
CONTINUOUS
 10
2.9795124224
 20
4.6192914864
 11
3.5070124224
 21
4.6192914864
  0
LINE
  5
2A1
100
AcDbEntity
  8
ALL_ASSEMBLY_MEMBERS
100
AcDbLine
 62
7
  6
CONTINUOUS
 10
6.9165124224
 20
4.654308535
 11
7.4440124224
 21
4.654308535
  0
LINE
  5
2A2
100
AcDbEntity
  8
ALL_ASSEMBLY_MEMBERS
100
AcDbLine
 62
7
  6
CONTINUOUS
 10
2.9795124224
 20
4.654933535
 11
3.5070124224
 21
4.654933535
  0
LINE
  5
2A3
100
AcDbEntity
  8
ALL_ASSEMBLY_MEMBERS
100
AcDbLine
 62
7
  6
CONTINUOUS
 10
6.9299358161
 20
4.662058535
 11
7.4305890286
 21
4.662058535
  0
LINE
  5
2A4
100
AcDbEntity
  8
ALL_ASSEMBLY_MEMBERS
100
AcDbLine
 62
7
  6
CONTINUOUS
 10
2.9929358161
 20
4.662683535
 11
3.4935890286
 21
4.662683535
  0
LINE
  5
2A5
100
AcDbEntity
  8
ALL_ASSEMBLY_MEMBERS
100
AcDbLine
 62
7
  6
CONTINUOUS
 10
6.9165124224
 20
4.669808535
 11
7.4440124224
 21
4.669808535
  0
LINE
  5
2A6
100
AcDbEntity
  8
ALL_ASSEMBLY_MEMBERS
100
AcDbLine
 62
7
  6
CONTINUOUS
 10
2.9795124224
 20
4.670433535
 11
3.5070124224
 21
4.670433535
  0
LINE
  5
2A7
100
AcDbEntity
  8
ALL_ASSEMBLY_MEMBERS
100
AcDbLine
 62
7
  6
CONTINUOUS
 10
7.4590124224
 20
4.709808535
 11
7.2718960347
 21
4.709808535
  0
LINE
  5
2A8
100
AcDbEntity
  8
ALL_ASSEMBLY_MEMBERS
100
AcDbLine
 62
7
  6
CONTINUOUS
 10
6.9015124224
 20
4.709808535
 11
7.08862881
 21
4.709808535
  0
LINE
  5
2A9
100
AcDbEntity
  8
ALL_ASSEMBLY_MEMBERS
100
AcDbLine
 62
7
  6
CONTINUOUS
 10
3.5220124224
 20
4.710433535
 11
3.3348960347
 21
4.710433535
  0
LINE
  5
2AA
100
AcDbEntity
  8
ALL_ASSEMBLY_MEMBERS
100
AcDbLine
 62
7
  6
CONTINUOUS
 10
2.9645124224
 20
4.710433535
 11
3.15162881
 21
4.710433535
  0
LINE
  5
2AB
100
AcDbEntity
  8
ALL_ASSEMBLY_MEMBERS
100
AcDbLine
 62
7
  6
CONTINUOUS
 10
7.1002624224
 20
4.5659468271
 11
7.1003700729
 21
4.5659441102
  0
LINE
  5
2AC
100
AcDbEntity
  8
ALL_ASSEMBLY_MEMBERS
100
AcDbLine
 62
7
  6
CONTINUOUS
 10
7.1003723141
 20
4.5659438289
 11
7.1011852466
 21
4.5659192459
  0
LINE
  5
2AD
100
AcDbEntity
  8
ALL_ASSEMBLY_MEMBERS
100
AcDbLine
 62
7
  6
CONTINUOUS
 10
7.1227066971
 20
4.5649172948
 11
7.1278057445
 21
4.5646498644
  0
LWPOLYLINE
  5
2AE
100
AcDbEntity
  8
ALL_ASSEMBLY_MEMBERS
100
AcDbPolyline
 62
7
  6
CONTINUOUS
 90
3
 70
0
 10
7.1278057445
 20
4.5646498644
 10
7.135812832
 20
4.5642287954
 10
7.1384630923
 20
4.5640889776
  0
LINE
  5
2AF
100
AcDbEntity
  8
ALL_ASSEMBLY_MEMBERS
100
AcDbLine
 62
7
  6
CONTINUOUS
 10
7.1184242905
 20
4.5651405607
 11
7.1606768764
 21
4.5629070946
  0
LINE
  5
2B0
100
AcDbEntity
  8
ALL_ASSEMBLY_MEMBERS
100
AcDbLine
 62
7
  6
CONTINUOUS
 10
7.1384630923
 20
4.5640889776
 11
7.1508242356
 21
4.5634333812
  0
LINE
  5
2B1
100
AcDbEntity
  8
ALL_ASSEMBLY_MEMBERS
100
AcDbLine
 62
7
  6
CONTINUOUS
 10
7.1508242356
 20
4.5634333812
 11
7.1530424227
 21
4.563315284
  0
LWPOLYLINE
  5
2B2
100
AcDbEntity
  8
ALL_ASSEMBLY_MEMBERS
100
AcDbPolyline
 62
7
  6
CONTINUOUS
 90
6
 70
0
 10
7.1609124224
 20
4.5620500311
 10
7.1608428001
 20
4.5620540342
 10
7.1607950185
 20
4.5620614321
 10
7.160734921
 20
4.562072374
 10
7.1606089068
 20
4.5620877172
 10
7.1604171392
 20
4.5621071481
  0
LINE
  5
2B3
100
AcDbEntity
  8
ALL_ASSEMBLY_MEMBERS
100
AcDbLine
 62
7
  6
CONTINUOUS
 10
7.1773470931
 20
4.5619124721
 11
7.178732662
 21
4.5618139518
  0
LINE
  5
2B4
100
AcDbEntity
  8
ALL_ASSEMBLY_MEMBERS
100
AcDbLine
 62
7
  6
CONTINUOUS
 10
7.1775329529
 20
4.5618992876
 11
7.1777001016
 21
4.5618874051
  0
LINE
  5
2B5
100
AcDbEntity
  8
ALL_ASSEMBLY_MEMBERS
100
AcDbLine
 62
7
  6
CONTINUOUS
 10
7.1780990163
 20
4.5618588156
 11
7.1782037648
 21
4.561851361
  0
LWPOLYLINE
  5
2B6
100
AcDbEntity
  8
ALL_ASSEMBLY_MEMBERS
100
AcDbPolyline
 62
7
  6
CONTINUOUS
 90
7
 70
0
 10
7.1784508893
 20
4.5618335919
 10
7.1785069016
 20
4.5618289842
 10
7.1785680967
 20
4.5618249144
 10
7.1786272798
 20
4.5618213836
 10
7.1786499137
 20
4.5618183948
 10
7.1787075084
 20
4.5618158424
 10
7.1787631141
 20
4.5618139224
  0
LINE
  5
2B7
100
AcDbEntity
  8
ALL_ASSEMBLY_MEMBERS
100
AcDbLine
 62
7
  6
CONTINUOUS
 10
7.1609124224
 20
4.5620500311
 11
7.1604243541
 21
4.5621069738
  0
LINE
  5
2B8
100
AcDbEntity
  8
ALL_ASSEMBLY_MEMBERS
100
AcDbLine
 62
7
  6
CONTINUOUS
 10
7.0825825041
 20
4.5685826691
 11
7.0811080092
 21
4.5687650933
  0
LINE
  5
2B9
100
AcDbEntity
  8
ALL_ASSEMBLY_MEMBERS
100
AcDbLine
 62
7
  6
CONTINUOUS
 10
7.0263301206
 20
4.5777575517
 11
7.0262624224
 21
4.5777666976
  0
LINE
  5
2BA
100
AcDbEntity
  8
ALL_ASSEMBLY_MEMBERS
100
AcDbLine
 62
7
  6
CONTINUOUS
 10
5.9117624224
 20
6.018433535
 11
5.9117620872
 21
5.6244428166
  0
LINE
  5
2BB
100
AcDbEntity
  8
ALL_ASSEMBLY_MEMBERS
100
AcDbLine
 62
7
  6
CONTINUOUS
 10
7.6516010339
 20
4.8962021828
 11
7.6926456624
 21
4.9249419411
  0
LINE
  5
2BC
100
AcDbEntity
  8
ALL_ASSEMBLY_MEMBERS
100
AcDbLine
 62
7
  6
CONTINUOUS
 10
3.3693643582
 20
4.573771029
 11
3.3685197817
 21
4.573601729
  0
LINE
  5
2BD
100
AcDbEntity
  8
ALL_ASSEMBLY_MEMBERS
100
AcDbLine
 62
7
  6
CONTINUOUS
 10
3.2639368365
 20
4.5632130048
 11
3.2639124224
 21
4.5632087531
  0
LWPOLYLINE
  5
2BE
100
AcDbEntity
  8
ALL_ASSEMBLY_MEMBERS
100
AcDbPolyline
 62
7
  6
CONTINUOUS
 90
5
 70
0
 10
3.2639124224
 20
4.5627085756
 10
3.2639371355
 20
4.5627128368
 10
3.2638227886
 20
4.5627200014
 10
3.2636016399
 20
4.5627301778
 10
3.2633296575
 20
4.5627443125
  0
LINE
  5
2BF
100
AcDbEntity
  8
ALL_ASSEMBLY_MEMBERS
100
AcDbLine
 62
7
  6
CONTINUOUS
 10
7.4590124224
 20
4.914808535
 11
7.2718960347
 21
4.914808535
  0
LINE
  5
2C0
100
AcDbEntity
  8
ALL_ASSEMBLY_MEMBERS
100
AcDbLine
 62
7
  6
CONTINUOUS
 10
6.9015124224
 20
4.914808535
 11
7.08862881
 21
4.914808535
  0
LINE
  5
2C1
100
AcDbEntity
  8
ALL_ASSEMBLY_MEMBERS
100
AcDbLine
 62
7
  6
CONTINUOUS
 10
3.5220124224
 20
4.915433535
 11
3.3348960347
 21
4.915433535
  0
LINE
  5
2C2
100
AcDbEntity
  8
ALL_ASSEMBLY_MEMBERS
100
AcDbLine
 62
7
  6
CONTINUOUS
 10
2.9645124224
 20
4.915433535
 11
3.15162881
 21
4.915433535
  0
LINE
  5
2C3
100
AcDbEntity
  8
ALL_ASSEMBLY_MEMBERS
100
AcDbLine
 62
7
  6
CONTINUOUS
 10
6.9165124224
 20
4.954308535
 11
7.4440124224
 21
4.954308535
  0
LINE
  5
2C4
100
AcDbEntity
  8
ALL_ASSEMBLY_MEMBERS
100
AcDbLine
 62
7
  6
CONTINUOUS
 10
2.9795124224
 20
4.954933535
 11
3.5070124224
 21
4.954933535
  0
LINE
  5
2C5
100
AcDbEntity
  8
ALL_ASSEMBLY_MEMBERS
100
AcDbLine
 62
7
  6
CONTINUOUS
 10
6.9950124224
 20
4.979808535
 11
7.3655124224
 21
4.979808535
  0
LINE
  5
2C6
100
AcDbEntity
  8
ALL_ASSEMBLY_MEMBERS
100
AcDbLine
 62
7
  6
CONTINUOUS
 10
3.0580124224
 20
4.980433535
 11
3.4285124224
 21
4.980433535
  0
LINE
  5
2C7
100
AcDbEntity
  8
ALL_ASSEMBLY_MEMBERS
100
AcDbLine
 62
7
  6
CONTINUOUS
 10
5.6805124224
 20
5.018433535
 11
4.7430124224
 21
5.018433535
  0
LINE
  5
2C8
100
AcDbEntity
  8
ALL_ASSEMBLY_MEMBERS
100
AcDbLine
 62
7
  6
CONTINUOUS
 10
7.0265725068
 20
4.5772127218
 11
7.0262624224
 21
4.5772564458
  0
LINE
  5
2C9
100
AcDbEntity
  8
ALL_ASSEMBLY_MEMBERS
100
AcDbLine
 62
7
  6
CONTINUOUS
 10
7.0292469311
 20
4.5768251137
 11
7.0262624277
 21
4.5772565258
  0
LINE
  5
2CA
100
AcDbEntity
  8
ALL_ASSEMBLY_MEMBERS
100
AcDbLine
 62
7
  6
CONTINUOUS
 10
7.0292469311
 20
4.5773349955
 11
7.0263172181
 21
4.5777595328
  0
LINE
  5
2CB
100
AcDbEntity
  8
ALL_ASSEMBLY_MEMBERS
100
AcDbLine
 62
7
  6
CONTINUOUS
 10
7.0170632226
 20
4.5797358885
 11
7.0390728102
 21
4.5758710784
  0
LINE
  5
2CC
100
AcDbEntity
  8
ALL_ASSEMBLY_MEMBERS
100
AcDbLine
 62
7
  6
CONTINUOUS
 10
7.0262138111
 20
4.5781270335
 11
7.0286685263
 21
4.5776946751
  0
LINE
  5
2CD
100
AcDbEntity
  8
ALL_ASSEMBLY_MEMBERS
100
AcDbLine
 62
7
  6
CONTINUOUS
 10
7.0052624224
 20
4.5818162135
 11
7.0174756335
 21
4.5796632893
  0
LINE
  5
2CE
100
AcDbEntity
  8
ALL_ASSEMBLY_MEMBERS
100
AcDbLine
 62
7
  6
CONTINUOUS
 10
7.0139208506
 20
4.5802901252
 11
7.0156264424
 21
4.5799888614
  0
LINE
  5
2CF
100
AcDbEntity
  8
ALL_ASSEMBLY_MEMBERS
100
AcDbLine
 62
7
  6
CONTINUOUS
 10
7.0262624224
 20
4.5772564458
 11
7.0262635553
 21
4.5772562332
  0
LINE
  5
2D0
100
AcDbEntity
  8
ALL_ASSEMBLY_MEMBERS
100
AcDbLine
 62
7
  6
CONTINUOUS
 10
7.0085124224
 20
5.159308535
 11
7.3520124224
 21
5.159308535
  0
LINE
  5
2D1
100
AcDbEntity
  8
ALL_ASSEMBLY_MEMBERS
100
AcDbLine
 62
7
  6
CONTINUOUS
 10
3.0715124224
 20
5.159933535
 11
3.4150124224
 21
5.159933535
  0
LINE
  5
2D2
100
AcDbEntity
  8
ALL_ASSEMBLY_MEMBERS
100
AcDbLine
 62
7
  6
CONTINUOUS
 10
7.3796886633
 20
5.174933535
 11
6.9808361814
 21
5.174933535
  0
LINE
  5
2D3
100
AcDbEntity
  8
ALL_ASSEMBLY_MEMBERS
100
AcDbLine
 62
7
  6
CONTINUOUS
 10
3.4426868648
 20
5.174933535
 11
3.0438379799
 21
5.174933535
  0
LINE
  5
2D4
100
AcDbEntity
  8
ALL_ASSEMBLY_MEMBERS
100
AcDbLine
 62
7
  6
CONTINUOUS
 10
7.3951322861
 20
5.1891339134
 11
6.9653925586
 21
5.1891339134
  0
LINE
  5
2D5
100
AcDbEntity
  8
ALL_ASSEMBLY_MEMBERS
100
AcDbLine
 62
7
  6
CONTINUOUS
 10
3.4581322861
 20
5.1891339135
 11
3.0283925586
 21
5.1891339135
  0
LINE
  5
2D6
100
AcDbEntity
  8
ALL_ASSEMBLY_MEMBERS
100
AcDbLine
 62
7
  6
CONTINUOUS
 10
6.9530074443
 20
4.599308535
 11
6.9236453462
 21
4.608848859
  0
LINE
  5
2D7
100
AcDbEntity
  8
ALL_ASSEMBLY_MEMBERS
100
AcDbLine
 62
7
  6
CONTINUOUS
 10
6.9015124224
 20
4.914808535
 11
6.9165124224
 21
4.954308535
  0
LINE
  5
2D8
100
AcDbEntity
  8
ALL_ASSEMBLY_MEMBERS
100
AcDbLine
 62
7
  6
CONTINUOUS
 10
7.4505124224
 20
5.3421253156
 11
7.4875794195
 21
5.3950841292
  0
LINE
  5
2D9
100
AcDbEntity
  8
ALL_ASSEMBLY_MEMBERS
100
AcDbLine
 62
7
  6
CONTINUOUS
 10
4.6975534797
 20
5.3945366733
 11
4.6969663377
 21
5.3945329401
  0
LINE
  5
2DA
100
AcDbEntity
  8
ALL_ASSEMBLY_MEMBERS
100
AcDbLine
 62
7
  6
CONTINUOUS
 10
5.727868283
 20
5.3923517925
 11
5.725970068
 21
5.392340102
  0
LINE
  5
2DB
100
AcDbEntity
  8
ALL_ASSEMBLY_MEMBERS
100
AcDbLine
 62
7
  6
CONTINUOUS
 10
2.9730124224
 20
5.3421253156
 11
3.5135124224
 21
5.3421253156
  0
LINE
  5
2DC
100
AcDbEntity
  8
ALL_ASSEMBLY_MEMBERS
100
AcDbLine
 62
7
  6
CONTINUOUS
 10
6.9100124224
 20
5.3421253156
 11
7.4505124224
 21
5.3421253156
  0
LINE
  5
2DD
100
AcDbEntity
  8
ALL_ASSEMBLY_MEMBERS
100
AcDbLine
 62
7
  6
CONTINUOUS
 10
4.9177578404
 20
5.3934335351
 11
4.9134522132
 21
5.3934335351
  0
LINE
  5
2DE
100
AcDbEntity
  8
ALL_ASSEMBLY_MEMBERS
100
AcDbLine
 62
7
  6
CONTINUOUS
 10
4.6194476313
 20
5.3934335351
 11
4.6180124224
 21
5.393433535
  0
LINE
  5
2DF
100
AcDbEntity
  8
ALL_ASSEMBLY_MEMBERS
100
AcDbLine
 62
7
  6
CONTINUOUS
 10
5.505767004
 20
5.3934335351
 11
5.5100726314
 21
5.3934335351
  0
LINE
  5
2E0
100
AcDbEntity
  8
ALL_ASSEMBLY_MEMBERS
100
AcDbLine
 62
7
  6
CONTINUOUS
 10
5.8040772132
 20
5.3934335351
 11
5.8055124224
 21
5.393433535
  0
LINE
  5
2E1
100
AcDbEntity
  8
ALL_ASSEMBLY_MEMBERS
100
AcDbLine
 62
7
  6
CONTINUOUS
 10
2.9359454253
 20
5.3950841292
 11
3.5505794195
 21
5.3950841292
  0
LINE
  5
2E2
100
AcDbEntity
  8
ALL_ASSEMBLY_MEMBERS
100
AcDbLine
 62
7
  6
CONTINUOUS
 10
6.8729454253
 20
5.3950841292
 11
7.4875794195
 21
5.3950841292
  0
LINE
  5
2E3
100
AcDbEntity
  8
ALL_ASSEMBLY_MEMBERS
100
AcDbLine
 62
7
  6
CONTINUOUS
 10
5.7284514229
 20
5.3945203656
 11
5.725971197
 21
5.3945343151
  0
LINE
  5
2E4
100
AcDbEntity
  8
ALL_ASSEMBLY_MEMBERS
100
AcDbLine
 62
7
  6
CONTINUOUS
 10
7.1184063881
 20
4.5642828857
 11
7.1184124224
 21
4.5642794203
  0
LINE
  5
2E5
100
AcDbEntity
  8
ALL_ASSEMBLY_MEMBERS
100
AcDbLine
 62
7
  6
CONTINUOUS
 10
6.9299358161
 20
4.662058535
 11
6.9165124224
 21
4.669808535
  0
LINE
  5
2E6
100
AcDbEntity
  8
ALL_ASSEMBLY_MEMBERS
100
AcDbLine
 62
7
  6
CONTINUOUS
 10
6.6678791824
 20
4.6996751289
 11
6.6678791824
 21
4.9249419411
  0
LINE
  5
2E7
100
AcDbEntity
  8
ALL_ASSEMBLY_MEMBERS
100
AcDbLine
 62
7
  6
CONTINUOUS
 10
6.7089238109
 20
4.7284148872
 11
6.7089238109
 21
4.8962021828
  0
LINE
  5
2E8
100
AcDbEntity
  8
ALL_ASSEMBLY_MEMBERS
100
AcDbLine
 62
7
  6
CONTINUOUS
 10
6.7215124224
 20
4.7177630901
 11
6.7215124224
 21
4.9068539798
  0
LINE
  5
2E9
100
AcDbEntity
  8
ALL_ASSEMBLY_MEMBERS
100
AcDbLine
 62
7
  6
CONTINUOUS
 10
6.7339440017
 20
4.7168498884
 11
6.7339440017
 21
4.9077671816
  0
LINE
  5
2EA
100
AcDbEntity
  8
ALL_ASSEMBLY_MEMBERS
100
AcDbLine
 62
7
  6
CONTINUOUS
 10
7.4368794985
 20
4.608848859
 11
7.4440124224
 21
4.6186664864
  0
LINE
  5
2EB
100
AcDbEntity
  8
ALL_ASSEMBLY_MEMBERS
100
AcDbLine
 62
7
  6
CONTINUOUS
 10
2.9340124224
 20
5.509183535
 11
3.5525124224
 21
5.509183535
  0
LINE
  5
2EC
100
AcDbEntity
  8
ALL_ASSEMBLY_MEMBERS
100
AcDbLine
 62
7
  6
CONTINUOUS
 10
6.8710124224
 20
5.509183535
 11
7.4895124224
 21
5.509183535
  0
LINE
  5
2ED
100
AcDbEntity
  8
ALL_ASSEMBLY_MEMBERS
100
AcDbLine
 62
7
  6
CONTINUOUS
 10
2.9226807025
 20
5.616683535
 11
3.5638441422
 21
5.616683535
  0
LINE
  5
2EE
100
AcDbEntity
  8
ALL_ASSEMBLY_MEMBERS
100
AcDbLine
 62
7
  6
CONTINUOUS
 10
6.8596807025
 20
5.616683535
 11
7.5008441422
 21
5.616683535
  0
LINE
  5
2EF
100
AcDbEntity
  8
ALL_ASSEMBLY_MEMBERS
100
AcDbLine
 62
7
  6
CONTINUOUS
 10
7.4440124224
 20
4.954308535
 11
7.3655124224
 21
4.979808535
  0
LINE
  5
2F0
100
AcDbEntity
  8
ALL_ASSEMBLY_MEMBERS
100
AcDbLine
 62
7
  6
CONTINUOUS
 10
6.7089238109
 20
4.8962021828
 11
6.6678791824
 21
4.9249419411
  0
LINE
  5
2F1
100
AcDbEntity
  8
ALL_ASSEMBLY_MEMBERS
100
AcDbLine
 62
7
  6
CONTINUOUS
 10
6.8097624224
 20
5.799933535
 11
6.8097624224
 21
5.830933535
  0
LINE
  5
2F2
100
AcDbEntity
  8
ALL_ASSEMBLY_MEMBERS
100
AcDbLine
 62
7
  6
CONTINUOUS
 10
6.8141471201
 20
5.799933535
 11
6.8141471201
 21
5.674961507
  0
LINE
  5
2F3
100
AcDbEntity
  8
ALL_ASSEMBLY_MEMBERS
100
AcDbLine
 62
7
  6
CONTINUOUS
 10
6.9146794118
 20
4.8898379101
 11
6.9146794159
 21
4.7347792888
  0
LINE
  5
2F4
100
AcDbEntity
  8
ALL_ASSEMBLY_MEMBERS
100
AcDbLine
 62
7
  6
CONTINUOUS
 10
6.9165124224
 20
4.6186664864
 11
6.9165124224
 21
4.654308535
  0
LINE
  5
2F5
100
AcDbEntity
  8
ALL_ASSEMBLY_MEMBERS
100
AcDbLine
 62
7
  6
CONTINUOUS
 10
6.9257594321
 20
4.8609137288
 11
6.9257594325
 21
4.7637038104
  0
LINE
  5
2F6
100
AcDbEntity
  8
ALL_ASSEMBLY_MEMBERS
100
AcDbLine
 62
7
  6
CONTINUOUS
 10
5.9117620872
 20
5.768433535
 11
4.5117627576
 21
5.768433535
  0
LINE
  5
2F7
100
AcDbEntity
  8
ALL_ASSEMBLY_MEMBERS
100
AcDbLine
 62
7
  6
CONTINUOUS
 10
6.8136742953
 20
5.799933535
 11
6.8097633174
 21
5.799933535
  0
LINE
  5
2F8
100
AcDbEntity
  8
ALL_ASSEMBLY_MEMBERS
100
AcDbLine
 62
7
  6
CONTINUOUS
 10
2.8727640122
 20
5.799933535
 11
3.6137608325
 21
5.799933535
  0
LINE
  5
2F9
100
AcDbEntity
  8
ALL_ASSEMBLY_MEMBERS
100
AcDbLine
 62
7
  6
CONTINUOUS
 10
6.8141471201
 20
5.799933535
 11
7.5507615273
 21
5.799933535
  0
LINE
  5
2FA
100
AcDbEntity
  8
ALL_ASSEMBLY_MEMBERS
100
AcDbLine
 62
7
  6
CONTINUOUS
 10
2.8367610855
 20
5.830933535
 11
3.6497624484
 21
5.830933535
  0
LINE
  5
2FB
100
AcDbEntity
  8
ALL_ASSEMBLY_MEMBERS
100
AcDbLine
 62
7
  6
CONTINUOUS
 10
6.7737618234
 20
5.830933535
 11
7.5867630214
 21
5.830933535
  0
LINE
  5
2FC
100
AcDbEntity
  8
ALL_ASSEMBLY_MEMBERS
100
AcDbLine
 62
7
  6
CONTINUOUS
 10
7.4440124224
 20
4.654308535
 11
7.4305890286
 21
4.662058535
  0
LINE
  5
2FD
100
AcDbEntity
  8
ALL_ASSEMBLY_MEMBERS
100
AcDbLine
 62
7
  6
CONTINUOUS
 10
6.9236453462
 20
4.608848859
 11
6.9165124224
 21
4.6186664864
  0
LINE
  5
2FE
100
AcDbEntity
  8
ALL_ASSEMBLY_MEMBERS
100
AcDbLine
 62
7
  6
CONTINUOUS
 10
7.0085124224
 20
4.979808535
 11
7.0085124224
 21
5.159308535
  0
LINE
  5
2FF
100
AcDbEntity
  8
ALL_ASSEMBLY_MEMBERS
100
AcDbLine
 62
7
  6
CONTINUOUS
 10
7.0262624224
 20
4.5777666976
 11
7.0262624224
 21
4.5772565262
  0
LINE
  5
300
100
AcDbEntity
  8
ALL_ASSEMBLY_MEMBERS
100
AcDbLine
 62
7
  6
CONTINUOUS
 10
7.0292469311
 20
4.5773349955
 11
7.0292469311
 21
4.5768251137
  0
LINE
  5
301
100
AcDbEntity
  8
ALL_ASSEMBLY_MEMBERS
100
AcDbLine
 62
7
  6
CONTINUOUS
 10
7.0773842642
 20
4.5694298051
 11
7.0773842642
 21
4.5689251702
  0
LINE
  5
302
100
AcDbEntity
  8
ALL_ASSEMBLY_MEMBERS
100
AcDbLine
 62
7
  6
CONTINUOUS
 10
7.0811080092
 20
4.5687650933
 11
7.0811080092
 21
4.5682608946
  0
LINE
  5
303
100
AcDbEntity
  8
ALL_ASSEMBLY_MEMBERS
100
AcDbLine
 62
7
  6
CONTINUOUS
 10
7.0821621228
 20
5.799933535
 11
7.0821621228
 21
5.674961264
  0
LINE
  5
304
100
AcDbEntity
  8
ALL_ASSEMBLY_MEMBERS
100
AcDbLine
 62
7
  6
CONTINUOUS
 10
7.1184124224
 20
4.5647810199
 11
7.1184124224
 21
4.5642794203
  0
LINE
  5
305
100
AcDbEntity
  8
ALL_ASSEMBLY_MEMBERS
100
AcDbLine
 62
7
  6
CONTINUOUS
 10
7.1609124224
 20
4.562550187
 11
7.1609124224
 21
4.5620500311
  0
LINE
  5
306
100
AcDbEntity
  8
ALL_ASSEMBLY_MEMBERS
100
AcDbLine
 62
7
  6
CONTINUOUS
 10
7.1852624224
 20
4.5625272672
 11
7.1852624224
 21
4.5629630895
  0
LINE
  5
307
100
AcDbEntity
  8
ALL_ASSEMBLY_MEMBERS
100
AcDbLine
 62
7
  6
CONTINUOUS
 10
7.1960124224
 20
4.5619685227
 11
7.1960124224
 21
4.5626923044
  0
LINE
  5
308
100
AcDbEntity
  8
ALL_ASSEMBLY_MEMBERS
100
AcDbLine
 62
7
  6
CONTINUOUS
 10
7.2140124224
 20
4.5632677643
 11
7.2140124224
 21
4.5625434448
  0
LINE
  5
309
100
AcDbEntity
  8
ALL_ASSEMBLY_MEMBERS
100
AcDbLine
 62
7
  6
CONTINUOUS
 10
7.4440124224
 20
4.669808535
 11
7.4590124224
 21
4.709808535
  0
LINE
  5
30A
100
AcDbEntity
  8
ALL_ASSEMBLY_MEMBERS
100
AcDbLine
 62
7
  6
CONTINUOUS
 10
2.7432624224
 20
5.924933535
 11
3.7432624224
 21
5.924933535
  0
LINE
  5
30B
100
AcDbEntity
  8
ALL_ASSEMBLY_MEMBERS
100
AcDbLine
 62
7
  6
CONTINUOUS
 10
6.6802624224
 20
5.924933535
 11
7.6802624224
 21
5.924933535
  0
LINE
  5
30C
100
AcDbEntity
  8
ALL_ASSEMBLY_MEMBERS
100
AcDbLine
 62
7
  6
CONTINUOUS
 10
5.9117624224
 20
6.018433535
 11
4.5117624224
 21
6.018433535
  0
LINE
  5
30D
100
AcDbEntity
  8
ALL_ASSEMBLY_MEMBERS
100
AcDbLine
 62
7
  6
CONTINUOUS
 10
2.6532624224
 20
6.018433535
 11
3.8332624224
 21
6.018433535
  0
LINE
  5
30E
100
AcDbEntity
  8
ALL_ASSEMBLY_MEMBERS
100
AcDbLine
 62
7
  6
CONTINUOUS
 10
6.5902634296
 20
6.018433535
 11
7.7702614151
 21
6.018433535
  0
LINE
  5
30F
100
AcDbEntity
  8
ALL_ASSEMBLY_MEMBERS
100
AcDbLine
 62
7
  6
CONTINUOUS
 10
7.6516010339
 20
4.7284148872
 11
7.6926456624
 21
4.6996751289
  0
LINE
  5
310
100
AcDbEntity
  8
ALL_ASSEMBLY_MEMBERS
100
AcDbLine
 62
7
  6
CONTINUOUS
 10
6.9165124224
 20
4.669808535
 11
6.9015124224
 21
4.709808535
  0
LINE
  5
311
100
AcDbEntity
  8
ALL_ASSEMBLY_MEMBERS
100
AcDbLine
 62
7
  6
CONTINUOUS
 10
7.2247624224
 20
4.564226908
 11
7.2247624224
 21
4.5637903736
  0
LINE
  5
312
100
AcDbEntity
  8
ALL_ASSEMBLY_MEMBERS
100
AcDbLine
 62
7
  6
CONTINUOUS
 10
7.2752624224
 20
4.568358544
 11
7.2752624224
 21
4.5687976738
  0
LINE
  5
313
100
AcDbEntity
  8
ALL_ASSEMBLY_MEMBERS
100
AcDbLine
 62
7
  6
CONTINUOUS
 10
7.2802624224
 20
4.5682844046
 11
7.2802624224
 21
4.5691934153
  0
LINE
  5
314
100
AcDbEntity
  8
ALL_ASSEMBLY_MEMBERS
100
AcDbLine
 62
7
  6
CONTINUOUS
 10
7.2984033625
 20
4.5719559791
 11
7.2984033625
 21
4.5714496793
  0
LINE
  5
315
100
AcDbEntity
  8
ALL_ASSEMBLY_MEMBERS
100
AcDbLine
 62
7
  6
CONTINUOUS
 10
7.2984033625
 20
4.5708622169
 11
7.2984033625
 21
4.5713681138
  0
LINE
  5
316
100
AcDbEntity
  8
ALL_ASSEMBLY_MEMBERS
100
AcDbLine
 62
7
  6
CONTINUOUS
 10
7.3014033625
 20
4.572548773
 11
7.3014033625
 21
4.5720420809
  0
LINE
  5
317
100
AcDbEntity
  8
ALL_ASSEMBLY_MEMBERS
100
AcDbLine
 62
7
  6
CONTINUOUS
 10
7.3153348164
 20
4.5748865404
 11
7.3153348164
 21
4.5743782954
  0
LINE
  5
318
100
AcDbEntity
  8
ALL_ASSEMBLY_MEMBERS
100
AcDbLine
 62
7
  6
CONTINUOUS
 10
7.3381024253
 20
4.5787369673
 11
7.3381024253
 21
4.5782261436
  0
LINE
  5
319
100
AcDbEntity
  8
ALL_ASSEMBLY_MEMBERS
100
AcDbLine
 62
7
  6
CONTINUOUS
 10
7.3405928823
 20
4.5790789872
 11
7.3405928823
 21
4.5785679332
  0
LINE
  5
31A
100
AcDbEntity
  8
ALL_ASSEMBLY_MEMBERS
100
AcDbLine
 62
7
  6
CONTINUOUS
 10
7.3520124224
 20
4.979808535
 11
7.3520124224
 21
5.159308535
  0
LINE
  5
31B
100
AcDbEntity
  8
ALL_ASSEMBLY_MEMBERS
100
AcDbLine
 62
7
  6
CONTINUOUS
 10
7.4347654126
 20
4.7637037571
 11
7.4347654123
 21
4.8609137845
  0
LINE
  5
31C
100
AcDbEntity
  8
ALL_ASSEMBLY_MEMBERS
100
AcDbLine
 62
7
  6
CONTINUOUS
 10
6.8596807025
 20
5.616683535
 11
6.8404330161
 21
5.6358757763
  0
LINE
  5
31D
100
AcDbEntity
  8
ALL_ASSEMBLY_MEMBERS
100
AcDbLine
 62
7
  6
CONTINUOUS
 10
6.9100124224
 20
5.3421253156
 11
6.8729454253
 21
5.3950841292
  0
LINE
  5
31E
100
AcDbEntity
  8
ALL_ASSEMBLY_MEMBERS
100
AcDbLine
 62
7
  6
CONTINUOUS
 10
7.4440124224
 20
4.6186664864
 11
7.4440124224
 21
4.654308535
  0
LINE
  5
31F
100
AcDbEntity
  8
ALL_ASSEMBLY_MEMBERS
100
AcDbLine
 62
7
  6
CONTINUOUS
 10
7.4458454329
 20
4.7347792594
 11
7.4458454288
 21
4.8898379232
  0
LINE
  5
320
100
AcDbEntity
  8
ALL_ASSEMBLY_MEMBERS
100
AcDbLine
 62
7
  6
CONTINUOUS
 10
7.448277425
 20
5.799933535
 11
7.448277425
 21
5.674961264
  0
LINE
  5
321
100
AcDbEntity
  8
ALL_ASSEMBLY_MEMBERS
100
AcDbLine
 62
7
  6
CONTINUOUS
 10
7.5463777246
 20
5.799933535
 11
7.5463777246
 21
5.674961507
  0
LINE
  5
322
100
AcDbEntity
  8
ALL_ASSEMBLY_MEMBERS
100
AcDbLine
 62
7
  6
CONTINUOUS
 10
7.5507624224
 20
5.799933535
 11
7.5507624224
 21
5.830933535
  0
LINE
  5
323
100
AcDbEntity
  8
ALL_ASSEMBLY_MEMBERS
100
AcDbLine
 62
7
  6
CONTINUOUS
 10
7.6265808431
 20
4.7168498884
 11
7.6265808431
 21
4.9077671816
  0
LINE
  5
324
100
AcDbEntity
  8
ALL_ASSEMBLY_MEMBERS
100
AcDbLine
 62
7
  6
CONTINUOUS
 10
7.6390124224
 20
4.7177630901
 11
7.6390124224
 21
4.9068539798
  0
LINE
  5
325
100
AcDbEntity
  8
ALL_ASSEMBLY_MEMBERS
100
AcDbLine
 62
7
  6
CONTINUOUS
 10
7.6516010339
 20
4.7284148872
 11
7.6516010339
 21
4.8962021828
  0
LINE
  5
326
100
AcDbEntity
  8
ALL_ASSEMBLY_MEMBERS
100
AcDbLine
 62
7
  6
CONTINUOUS
 10
7.4590124224
 20
4.914808535
 11
7.4440124224
 21
4.954308535
  0
LINE
  5
327
100
AcDbEntity
  8
ALL_ASSEMBLY_MEMBERS
100
AcDbLine
 62
7
  6
CONTINUOUS
 10
7.6926456624
 20
4.6996751289
 11
7.6926456624
 21
4.9249419411
  0
ARC
  5
328
100
AcDbEntity
  8
ALL_ASSEMBLY_MEMBERS
100
AcDbCircle
 62
7
  6
CONTINUOUS
 10
-77.2778044658
 20
3.1068645116
 40
82.6770669107
100
AcDbArc
 50
359.8726751818
 51
359.9986618199
  0
ARC
  5
329
100
AcDbEntity
  8
ALL_ASSEMBLY_MEMBERS
100
AcDbCircle
 62
7
  6
CONTINUOUS
 10
3.4806002487
 20
3.7119307201
 40
0.8689308076
100
AcDbArc
 50
97.4764608738
 51
97.8840195846
  0
ARC
  5
32A
100
AcDbEntity
  8
ALL_ASSEMBLY_MEMBERS
100
AcDbCircle
 62
7
  6
CONTINUOUS
 10
3.3649523228
 20
3.8247000272
 40
0.7438083731
100
AcDbArc
 50
95.081451768
 51
95.5238283172
  0
ARC
  5
32B
100
AcDbEntity
  8
ALL_ASSEMBLY_MEMBERS
100
AcDbCircle
 62
7
  6
CONTINUOUS
 10
5.2117614675
 20
2.6049340343
 40
0.3675009099
100
AcDbArc
 50
300.0000900008
 51
358.8842622479
  0
ARC
  5
32C
100
AcDbEntity
  8
ALL_ASSEMBLY_MEMBERS
100
AcDbCircle
 62
7
  6
CONTINUOUS
 10
3.0420640992
 20
4.2087697692
 40
0.3721777212
100
AcDbArc
 50
79.2371023926
 51
79.3630779354
  0
ARC
  5
32D
100
AcDbEntity
  8
ALL_ASSEMBLY_MEMBERS
100
AcDbCircle
 62
7
  6
CONTINUOUS
 10
3.1736929461
 20
4.2073083058
 40
0.3579904405
100
AcDbArc
 50
87.0266515578
 51
87.1515655447
  0
ARC
  5
32E
100
AcDbEntity
  8
ALL_ASSEMBLY_MEMBERS
100
AcDbCircle
 62
7
  6
CONTINUOUS
 10
3.1118399018
 20
4.2299674163
 40
0.3409672539
100
AcDbArc
 50
82.4685731616
 51
82.5987393359
  0
ARC
  5
32F
100
AcDbEntity
  8
ALL_ASSEMBLY_MEMBERS
100
AcDbCircle
 62
7
  6
CONTINUOUS
 10
3.1106532092
 20
4.2321395933
 40
0.3389510005
100
AcDbArc
 50
83.7995369162
 51
83.9502754132
  0
ARC
  5
330
100
AcDbEntity
  8
ALL_ASSEMBLY_MEMBERS
100
AcDbCircle
 62
7
  6
CONTINUOUS
 10
2.6520124224
 20
4.812933535
 40
0.1375
100
AcDbArc
 50
55.0
 51
305.0
  0
ARC
  5
331
100
AcDbEntity
  8
ALL_ASSEMBLY_MEMBERS
100
AcDbCircle
 62
7
  6
CONTINUOUS
 10
2.8883244429
 20
4.632183535
 40
0.125
100
AcDbArc
 50
47.7235805176
 51
136.9739483152
  0
ARC
  5
332
100
AcDbEntity
  8
ALL_ASSEMBLY_MEMBERS
100
AcDbCircle
 62
7
  6
CONTINUOUS
 10
2.8883244429
 20
4.993683535
 40
0.125
100
AcDbArc
 50
223.0260516848
 51
312.2764324857
  0
ARC
  5
333
100
AcDbEntity
  8
ALL_ASSEMBLY_MEMBERS
100
AcDbCircle
 62
7
  6
CONTINUOUS
 10
3.0495124224
 20
4.6025336508
 40
0.015
100
AcDbArc
 50
189.9838742489
 51
255.2370022574
  0
ARC
  5
334
100
AcDbEntity
  8
ALL_ASSEMBLY_MEMBERS
100
AcDbCircle
 62
7
  6
CONTINUOUS
 10
2.7910956534
 20
4.722933535
 40
0.008
100
AcDbArc
 50
214.6234510997
 51
316.9739483152
  0
ARC
  5
335
100
AcDbEntity
  8
ALL_ASSEMBLY_MEMBERS
100
AcDbCircle
 62
7
  6
CONTINUOUS
 10
2.7910956534
 20
4.902933535
 40
0.008
100
AcDbArc
 50
43.0260516848
 51
145.3765489003
  0
ARC
  5
336
100
AcDbEntity
  8
ALL_ASSEMBLY_MEMBERS
100
AcDbCircle
 62
7
  6
CONTINUOUS
 10
2.7765124224
 20
4.9033803991
 40
0.008
100
AcDbArc
 50
235.0
 51
360.0
  0
ARC
  5
337
100
AcDbEntity
  8
ALL_ASSEMBLY_MEMBERS
100
AcDbCircle
 62
7
  6
CONTINUOUS
 10
2.7765124224
 20
4.7224866708
 40
0.008
100
AcDbArc
 50
0.0
 51
125.0
  0
ARC
  5
338
100
AcDbEntity
  8
ALL_ASSEMBLY_MEMBERS
100
AcDbCircle
 62
7
  6
CONTINUOUS
 10
2.7169929713
 20
5.1629318707
 40
0.3125
100
AcDbArc
 50
4.8096995456
 51
34.9889904702
  0
ARC
  5
339
100
AcDbEntity
  8
ALL_ASSEMBLY_MEMBERS
100
AcDbCircle
 62
7
  6
CONTINUOUS
 10
3.0194999829
 20
5.4535657366
 40
0.1019875605
100
AcDbArc
 50
146.9521644936
 51
214.9889904702
  0
ARC
  5
33A
100
AcDbEntity
  8
ALL_ASSEMBLY_MEMBERS
100
AcDbCircle
 62
7
  6
CONTINUOUS
 10
2.7468304779
 20
6.018433535
 40
0.0935680556
100
AcDbArc
 50
180.0
 51
267.8145949287
  0
ARC
  5
33B
100
AcDbEntity
  8
ALL_ASSEMBLY_MEMBERS
100
AcDbCircle
 62
7
  6
CONTINUOUS
 10
2.8367610855
 20
5.924433535
 40
0.0935
100
AcDbArc
 50
179.6936039968
 51
270.0
  0
ARC
  5
33C
100
AcDbEntity
  8
ALL_ASSEMBLY_MEMBERS
100
AcDbCircle
 62
7
  6
CONTINUOUS
 10
2.8621251555
 20
5.5559530473
 40
0.0857622668
100
AcDbArc
 50
326.9521644936
 51
45.0826423158
  0
ARC
  5
33D
100
AcDbEntity
  8
ALL_ASSEMBLY_MEMBERS
100
AcDbCircle
 62
7
  6
CONTINUOUS
 10
3.0438379781
 20
5.190433535
 40
0.0155
100
AcDbArc
 50
184.8096995456
 51
270.0
  0
ARC
  5
33E
100
AcDbEntity
  8
ALL_ASSEMBLY_MEMBERS
100
AcDbCircle
 62
7
  6
CONTINUOUS
 10
3.2907625422
 20
4.9636024866
 40
0.3981739294
100
AcDbArc
 50
281.2613500377
 51
281.8845226274
  0
ARC
  5
33F
100
AcDbEntity
  8
ALL_ASSEMBLY_MEMBERS
100
AcDbCircle
 62
7
  6
CONTINUOUS
 10
3.2813812379
 20
4.9512030761
 40
0.3868929636
100
AcDbArc
 50
271.0191025854
 51
271.64757734
  0
CIRCLE
  5
340
100
AcDbEntity
  8
ALL_ASSEMBLY_MEMBERS
100
AcDbCircle
 62
7
  6
CONTINUOUS
 10
3.2432624224
 20
4.812933535
 40
0.1375
  0
ARC
  5
341
100
AcDbEntity
  8
ALL_ASSEMBLY_MEMBERS
100
AcDbCircle
 62
7
  6
CONTINUOUS
 10
3.8345124224
 20
4.812933535
 40
0.1375
100
AcDbArc
 50
235.0
 51
125.0
  0
ARC
  5
342
100
AcDbEntity
  8
ALL_ASSEMBLY_MEMBERS
100
AcDbCircle
 62
7
  6
CONTINUOUS
 10
3.5982004018
 20
4.632183535
 40
0.125
100
AcDbArc
 50
43.0260516848
 51
132.276419581
  0
ARC
  5
343
100
AcDbEntity
  8
ALL_ASSEMBLY_MEMBERS
100
AcDbCircle
 62
7
  6
CONTINUOUS
 10
3.5982004018
 20
4.993683535
 40
0.125
100
AcDbArc
 50
227.723567347
 51
316.9739483152
  0
ARC
  5
344
100
AcDbEntity
  8
ALL_ASSEMBLY_MEMBERS
100
AcDbCircle
 62
7
  6
CONTINUOUS
 10
3.2699506752
 20
4.6826794951
 40
0.1197169434
100
AcDbArc
 50
278.7984262834
 51
280.9847290636
  0
ARC
  5
345
100
AcDbEntity
  8
ALL_ASSEMBLY_MEMBERS
100
AcDbCircle
 62
7
  6
CONTINUOUS
 10
3.3645884288
 20
4.6878217337
 40
0.1141512121
100
AcDbArc
 50
271.8444016373
 51
274.1062769364
  0
ARC
  5
346
100
AcDbEntity
  8
ALL_ASSEMBLY_MEMBERS
100
AcDbCircle
 62
7
  6
CONTINUOUS
 10
3.4370124224
 20
4.6025336508
 40
0.015
100
AcDbArc
 50
284.7629977426
 51
350.0161257511
  0
ARC
  5
347
100
AcDbEntity
  8
ALL_ASSEMBLY_MEMBERS
100
AcDbCircle
 62
7
  6
CONTINUOUS
 10
3.6954291913
 20
4.722933535
 40
0.008
100
AcDbArc
 50
223.0260516848
 51
325.3765489003
  0
ARC
  5
348
100
AcDbEntity
  8
ALL_ASSEMBLY_MEMBERS
100
AcDbCircle
 62
7
  6
CONTINUOUS
 10
3.6954291913
 20
4.902933535
 40
0.008
100
AcDbArc
 50
34.6234510997
 51
136.9739483152
  0
ARC
  5
349
100
AcDbEntity
  8
ALL_ASSEMBLY_MEMBERS
100
AcDbCircle
 62
7
  6
CONTINUOUS
 10
3.7100124224
 20
4.7224866708
 40
0.008
100
AcDbArc
 50
55.0
 51
180.0
  0
ARC
  5
34A
100
AcDbEntity
  8
ALL_ASSEMBLY_MEMBERS
100
AcDbCircle
 62
7
  6
CONTINUOUS
 10
3.7100124224
 20
4.9033803991
 40
0.008
100
AcDbArc
 50
180.0
 51
305.0
  0
ARC
  5
34B
100
AcDbEntity
  8
ALL_ASSEMBLY_MEMBERS
100
AcDbCircle
 62
7
  6
CONTINUOUS
 10
3.2432624224
 20
5.337770231
 40
0.775336696
100
AcDbArc
 50
277.1310724379
 51
284.7629977426
  0
ARC
  5
34C
100
AcDbEntity
  8
ALL_ASSEMBLY_MEMBERS
100
AcDbCircle
 62
7
  6
CONTINUOUS
 10
3.2432624224
 20
5.337770231
 40
0.775336696
100
AcDbArc
 50
255.2370022574
 51
260.778420816
  0
ARC
  5
34D
100
AcDbEntity
  8
ALL_ASSEMBLY_MEMBERS
100
AcDbCircle
 62
7
  6
CONTINUOUS
 10
3.2432624224
 20
5.337770231
 40
0.775336696
100
AcDbArc
 50
265.6172746801
 51
267.0427698572
  0
ARC
  5
34E
100
AcDbEntity
  8
ALL_ASSEMBLY_MEMBERS
100
AcDbCircle
 62
7
  6
CONTINUOUS
 10
3.2432624224
 20
5.337770231
 40
0.775336696
100
AcDbArc
 50
272.8462409177
 51
275.7923749822
  0
ARC
  5
34F
100
AcDbEntity
  8
ALL_ASSEMBLY_MEMBERS
100
AcDbCircle
 62
7
  6
CONTINUOUS
 10
3.2432624224
 20
5.337770231
 40
0.775336696
100
AcDbArc
 50
268.3851163544
 51
271.526172792
  0
ARC
  5
350
100
AcDbEntity
  8
ALL_ASSEMBLY_MEMBERS
100
AcDbCircle
 62
7
  6
CONTINUOUS
 10
3.2432624224
 20
5.337770231
 40
0.7753341165
100
AcDbArc
 50
262.5336851554
 51
263.8733563277
  0
ARC
  5
351
100
AcDbEntity
  8
ALL_ASSEMBLY_MEMBERS
100
AcDbCircle
 62
7
  6
CONTINUOUS
 10
3.2432624224
 20
5.337770231
 40
0.7753070704
100
AcDbArc
 50
262.5333829776
 51
263.8730418353
  0
ARC
  5
352
100
AcDbEntity
  8
ALL_ASSEMBLY_MEMBERS
100
AcDbCircle
 62
7
  6
CONTINUOUS
 10
3.2432624224
 20
5.337770231
 40
0.774836696
100
AcDbArc
 50
264.0903261853
 51
265.6144409851
  0
ARC
  5
353
100
AcDbEntity
  8
ALL_ASSEMBLY_MEMBERS
100
AcDbCircle
 62
7
  6
CONTINUOUS
 10
3.2432624224
 20
5.337770231
 40
0.774836696
100
AcDbArc
 50
260.7783111888
 51
262.3018033615
  0
ARC
  5
354
100
AcDbEntity
  8
ALL_ASSEMBLY_MEMBERS
100
AcDbCircle
 62
7
  6
CONTINUOUS
 10
3.2432624224
 20
5.337770231
 40
0.774836696
100
AcDbArc
 50
275.8015042412
 51
277.1356980315
  0
ARC
  5
355
100
AcDbEntity
  8
ALL_ASSEMBLY_MEMBERS
100
AcDbCircle
 62
7
  6
CONTINUOUS
 10
3.2432624224
 20
5.337770231
 40
0.774836696
100
AcDbArc
 50
267.6659376369
 51
268.3840739981
  0
ARC
  5
356
100
AcDbEntity
  8
ALL_ASSEMBLY_MEMBERS
100
AcDbCircle
 62
7
  6
CONTINUOUS
 10
3.2432624224
 20
5.337770231
 40
0.774836696
100
AcDbArc
 50
271.5271578603
 51
272.2111307616
  0
ARC
  5
357
100
AcDbEntity
  8
ALL_ASSEMBLY_MEMBERS
100
AcDbCircle
 62
7
  6
CONTINUOUS
 10
3.2432624224
 20
5.337770231
 40
0.7746319705
100
AcDbArc
 50
274.7279382717
 51
275.6861554458
  0
ARC
  5
358
100
AcDbEntity
  8
ALL_ASSEMBLY_MEMBERS
100
AcDbCircle
 62
7
  6
CONTINUOUS
 10
3.2432624224
 20
5.337770231
 40
0.7746319705
100
AcDbArc
 50
277.2494216931
 51
278.2124377674
  0
ARC
  5
359
100
AcDbEntity
  8
ALL_ASSEMBLY_MEMBERS
100
AcDbCircle
 62
7
  6
CONTINUOUS
 10
3.2432624224
 20
5.337770231
 40
0.77419829
100
AcDbArc
 50
260.1456140536
 51
262.8770331308
  0
ARC
  5
35A
100
AcDbEntity
  8
ALL_ASSEMBLY_MEMBERS
100
AcDbCircle
 62
7
  6
CONTINUOUS
 10
3.2432624224
 20
5.337770231
 40
0.77419829
100
AcDbArc
 50
263.5105570412
 51
266.2229285311
  0
ARC
  5
35B
100
AcDbEntity
  8
ALL_ASSEMBLY_MEMBERS
100
AcDbCircle
 62
7
  6
CONTINUOUS
 10
3.2432624224
 20
5.337770231
 40
0.77419829
100
AcDbArc
 50
273.6658269874
 51
279.2914958286
  0
ARC
  5
35C
100
AcDbEntity
  8
ALL_ASSEMBLY_MEMBERS
100
AcDbCircle
 62
7
  6
CONTINUOUS
 10
3.7695318734
 20
5.1629318707
 40
0.3125
100
AcDbArc
 50
145.0110095298
 51
175.1903004544
  0
ARC
  5
35D
100
AcDbEntity
  8
ALL_ASSEMBLY_MEMBERS
100
AcDbCircle
 62
7
  6
CONTINUOUS
 10
3.4670248618
 20
5.4535657366
 40
0.1019875605
100
AcDbArc
 50
325.0110095298
 51
33.0478355064
  0
ARC
  5
35E
100
AcDbEntity
  8
ALL_ASSEMBLY_MEMBERS
100
AcDbCircle
 62
7
  6
CONTINUOUS
 10
3.7396943668
 20
6.018433535
 40
0.0935680556
100
AcDbArc
 50
272.1854050713
 51
360.0
  0
ARC
  5
35F
100
AcDbEntity
  8
ALL_ASSEMBLY_MEMBERS
100
AcDbCircle
 62
7
  6
CONTINUOUS
 10
3.6497637593
 20
5.924433535
 40
0.0935
100
AcDbArc
 50
270.0
 51
0.3063960032
  0
ARC
  5
360
100
AcDbEntity
  8
ALL_ASSEMBLY_MEMBERS
100
AcDbCircle
 62
7
  6
CONTINUOUS
 10
3.6243996892
 20
5.5559530473
 40
0.0857622668
100
AcDbArc
 50
134.9173576842
 51
213.0478355064
  0
ARC
  5
361
100
AcDbEntity
  8
ALL_ASSEMBLY_MEMBERS
100
AcDbCircle
 62
7
  6
CONTINUOUS
 10
3.4426868666
 20
5.190433535
 40
0.0155
100
AcDbArc
 50
270.0
 51
355.1903004544
  0
ARC
  5
362
100
AcDbEntity
  8
ALL_ASSEMBLY_MEMBERS
100
AcDbCircle
 62
7
  6
CONTINUOUS
 10
87.7013293084
 20
3.1068645116
 40
82.6770669086
100
AcDbArc
 50
180.0013381801
 51
180.1273248182
  0
ARC
  5
363
100
AcDbEntity
  8
ALL_ASSEMBLY_MEMBERS
100
AcDbCircle
 62
7
  6
CONTINUOUS
 10
6.447729082
 20
0.8910542504
 40
3.7313987284
100
AcDbArc
 50
80.4319992345
 51
80.8617783137
  0
ARC
  5
364
100
AcDbEntity
  8
ALL_ASSEMBLY_MEMBERS
100
AcDbCircle
 62
7
  6
CONTINUOUS
 10
6.9141251691
 20
3.6429706123
 40
0.940236872
100
AcDbArc
 50
79.7702022159
 51
80.0007007224
  0
ARC
  5
365
100
AcDbEntity
  8
ALL_ASSEMBLY_MEMBERS
100
AcDbCircle
 62
7
  6
CONTINUOUS
 10
6.9141103131
 20
3.6439993117
 40
0.9397233536
100
AcDbArc
 50
79.76363142
 51
79.994260557
  0
ARC
  5
366
100
AcDbEntity
  8
ALL_ASSEMBLY_MEMBERS
100
AcDbCircle
 62
7
  6
CONTINUOUS
 10
6.915407226
 20
3.6509350589
 40
0.932667765
100
AcDbArc
 50
79.9986912384
 51
80.246052865
  0
ARC
  5
367
100
AcDbEntity
  8
ALL_ASSEMBLY_MEMBERS
100
AcDbCircle
 62
7
  6
CONTINUOUS
 10
6.9381514958
 20
3.7805585271
 40
0.8005671288
100
AcDbArc
 50
79.9843207461
 51
80.2757326523
  0
ARC
  5
368
100
AcDbEntity
  8
ALL_ASSEMBLY_MEMBERS
100
AcDbCircle
 62
7
  6
CONTINUOUS
 10
5.2117633774
 20
2.6049340344
 40
0.36750091
100
AcDbArc
 50
181.1152745276
 51
299.9998976083
  0
ARC
  5
369
100
AcDbEntity
  8
ALL_ASSEMBLY_MEMBERS
100
AcDbCircle
 62
7
  6
CONTINUOUS
 10
7.1698477335
 20
5.2799403745
 40
0.7171906446
100
AcDbArc
 50
262.8924402574
 51
263.588678062
  0
ARC
  5
36A
100
AcDbEntity
  8
ALL_ASSEMBLY_MEMBERS
100
AcDbCircle
 62
7
  6
CONTINUOUS
 10
7.1698524102
 20
5.2800159026
 40
0.7167658489
100
AcDbArc
 50
263.0065940964
 51
263.2056570372
  0
ARC
  5
36B
100
AcDbEntity
  8
ALL_ASSEMBLY_MEMBERS
100
AcDbCircle
 62
7
  6
CONTINUOUS
 10
6.6539929713
 20
5.1629318707
 40
0.3125
100
AcDbArc
 50
4.8096995456
 51
34.9889904702
  0
ARC
  5
36C
100
AcDbEntity
  8
ALL_ASSEMBLY_MEMBERS
100
AcDbCircle
 62
7
  6
CONTINUOUS
 10
6.5890124224
 20
4.812308535
 40
0.1375
100
AcDbArc
 50
55.0
 51
305.0
  0
ARC
  5
36D
100
AcDbEntity
  8
ALL_ASSEMBLY_MEMBERS
100
AcDbCircle
 62
7
  6
CONTINUOUS
 10
6.8253244429
 20
4.631558535
 40
0.125
100
AcDbArc
 50
47.7235805176
 51
136.9739483152
  0
ARC
  5
36E
100
AcDbEntity
  8
ALL_ASSEMBLY_MEMBERS
100
AcDbCircle
 62
7
  6
CONTINUOUS
 10
6.8253244429
 20
4.993058535
 40
0.125
100
AcDbArc
 50
223.0260516848
 51
312.2764324857
  0
ARC
  5
36F
100
AcDbEntity
  8
ALL_ASSEMBLY_MEMBERS
100
AcDbCircle
 62
7
  6
CONTINUOUS
 10
6.9564999829
 20
5.4535657366
 40
0.1019875605
100
AcDbArc
 50
146.9521644936
 51
214.9889904702
  0
ARC
  5
370
100
AcDbEntity
  8
ALL_ASSEMBLY_MEMBERS
100
AcDbCircle
 62
7
  6
CONTINUOUS
 10
7.1010872144
 20
4.6294323124
 40
0.0632197774
100
AcDbArc
 50
252.2011395062
 51
259.6806962353
  0
ARC
  5
371
100
AcDbEntity
  8
ALL_ASSEMBLY_MEMBERS
100
AcDbCircle
 62
7
  6
CONTINUOUS
 10
6.9808379781
 20
5.190433535
 40
0.0155
100
AcDbArc
 50
184.8096995456
 51
270.0
  0
ARC
  5
372
100
AcDbEntity
  8
ALL_ASSEMBLY_MEMBERS
100
AcDbCircle
 62
7
  6
CONTINUOUS
 10
6.9865124224
 20
4.6019087085
 40
0.015
100
AcDbArc
 50
189.9840981124
 51
255.2369687319
  0
ARC
  5
373
100
AcDbEntity
  8
ALL_ASSEMBLY_MEMBERS
100
AcDbCircle
 62
7
  6
CONTINUOUS
 10
6.7280956534
 20
4.722308535
 40
0.008
100
AcDbArc
 50
214.6234510997
 51
316.9739483152
  0
ARC
  5
374
100
AcDbEntity
  8
ALL_ASSEMBLY_MEMBERS
100
AcDbCircle
 62
7
  6
CONTINUOUS
 10
6.7280956534
 20
4.902308535
 40
0.008
100
AcDbArc
 50
43.0260516848
 51
145.3765489003
  0
ARC
  5
375
100
AcDbEntity
  8
ALL_ASSEMBLY_MEMBERS
100
AcDbCircle
 62
7
  6
CONTINUOUS
 10
6.7135124224
 20
4.9027553991
 40
0.008
100
AcDbArc
 50
235.0
 51
360.0
  0
ARC
  5
376
100
AcDbEntity
  8
ALL_ASSEMBLY_MEMBERS
100
AcDbCircle
 62
7
  6
CONTINUOUS
 10
6.7135124224
 20
4.7218616708
 40
0.008
100
AcDbArc
 50
0.0
 51
125.0
  0
ARC
  5
377
100
AcDbEntity
  8
ALL_ASSEMBLY_MEMBERS
100
AcDbCircle
 62
7
  6
CONTINUOUS
 10
6.6838304779
 20
6.018433535
 40
0.0935680556
100
AcDbArc
 50
180.0
 51
267.8145949287
  0
ARC
  5
378
100
AcDbEntity
  8
ALL_ASSEMBLY_MEMBERS
100
AcDbCircle
 62
7
  6
CONTINUOUS
 10
6.7737610855
 20
5.924433535
 40
0.0935
100
AcDbArc
 50
179.6936039968
 51
270.0
  0
ARC
  5
379
100
AcDbEntity
  8
ALL_ASSEMBLY_MEMBERS
100
AcDbCircle
 62
7
  6
CONTINUOUS
 10
6.7991251555
 20
5.5559530473
 40
0.0857622668
100
AcDbArc
 50
326.9521644936
 51
45.0826423158
  0
ARC
  5
37A
100
AcDbEntity
  8
ALL_ASSEMBLY_MEMBERS
100
AcDbCircle
 62
7
  6
CONTINUOUS
 10
7.2622734655
 20
4.0290078551
 40
0.5360964656
100
AcDbArc
 50
94.012304131
 51
94.1365367219
  0
ARC
  5
37B
100
AcDbEntity
  8
ALL_ASSEMBLY_MEMBERS
100
AcDbCircle
 62
7
  6
CONTINUOUS
 10
7.2931903001
 20
4.3934048633
 40
0.175869836
100
AcDbArc
 50
95.476332172
 51
95.8507992015
  0
ARC
  5
37C
100
AcDbEntity
  8
ALL_ASSEMBLY_MEMBERS
100
AcDbCircle
 62
7
  6
CONTINUOUS
 10
7.3740124224
 20
4.6019087085
 40
0.015
100
AcDbArc
 50
284.7630312681
 51
350.0159018876
  0
ARC
  5
37D
100
AcDbEntity
  8
ALL_ASSEMBLY_MEMBERS
100
AcDbCircle
 62
7
  6
CONTINUOUS
 10
7.1802624224
 20
5.3371435427
 40
0.7753350077
100
AcDbArc
 50
265.4245413833
 51
268.5699233954
  0
ARC
  5
37E
100
AcDbEntity
  8
ALL_ASSEMBLY_MEMBERS
100
AcDbCircle
 62
7
  6
CONTINUOUS
 10
7.1802624224
 20
5.3371435427
 40
0.7753350077
100
AcDbArc
 50
278.7645317508
 51
281.9330066517
  0
ARC
  5
37F
100
AcDbEntity
  8
ALL_ASSEMBLY_MEMBERS
100
AcDbCircle
 62
7
  6
CONTINUOUS
 10
7.1802624224
 20
5.3371435427
 40
0.7753350077
100
AcDbArc
 50
255.2369687319
 51
256.9554333656
  0
ARC
  5
380
100
AcDbEntity
  8
ALL_ASSEMBLY_MEMBERS
100
AcDbCircle
 62
7
  6
CONTINUOUS
 10
7.1802624224
 20
5.3371435427
 40
0.7753350077
100
AcDbArc
 50
283.3860984186
 51
284.7630312681
  0
ARC
  5
381
100
AcDbEntity
  8
ALL_ASSEMBLY_MEMBERS
100
AcDbCircle
 62
7
  6
CONTINUOUS
 10
7.1802624224
 20
5.3371435427
 40
0.7753350077
100
AcDbArc
 50
272.494848989
 51
277.410452506
  0
ARC
  5
382
100
AcDbEntity
  8
ALL_ASSEMBLY_MEMBERS
100
AcDbCircle
 62
7
  6
CONTINUOUS
 10
7.1802624224
 20
5.3371435427
 40
0.7753350077
100
AcDbArc
 50
269.8891527894
 51
271.163975047
  0
ARC
  5
383
100
AcDbEntity
  8
ALL_ASSEMBLY_MEMBERS
100
AcDbCircle
 62
7
  6
CONTINUOUS
 10
7.1802624224
 20
5.3371435427
 40
0.7753350077
100
AcDbArc
 50
258.543590194
 51
264.0776119357
  0
ARC
  5
384
100
AcDbEntity
  8
ALL_ASSEMBLY_MEMBERS
100
AcDbCircle
 62
7
  6
CONTINUOUS
 10
7.1802624224
 20
5.3371435427
 40
0.7748350077
100
AcDbArc
 50
257.8411169327
 51
258.5360971636
  0
ARC
  5
385
100
AcDbEntity
  8
ALL_ASSEMBLY_MEMBERS
100
AcDbCircle
 62
7
  6
CONTINUOUS
 10
7.1802624224
 20
5.3371435427
 40
0.7748350077
100
AcDbArc
 50
264.7856307901
 51
265.4215825475
  0
ARC
  5
386
100
AcDbEntity
  8
ALL_ASSEMBLY_MEMBERS
100
AcDbCircle
 62
7
  6
CONTINUOUS
 10
7.1802624224
 20
5.3371435427
 40
0.7748350077
100
AcDbArc
 50
268.569000377
 51
269.1710827858
  0
ARC
  5
387
100
AcDbEntity
  8
ALL_ASSEMBLY_MEMBERS
100
AcDbCircle
 62
7
  6
CONTINUOUS
 10
7.1802624224
 20
5.3371435427
 40
0.7748350077
100
AcDbArc
 50
281.9408204221
 51
282.4732712817
  0
ARC
  5
388
100
AcDbEntity
  8
ALL_ASSEMBLY_MEMBERS
100
AcDbCircle
 62
7
  6
CONTINUOUS
 10
7.1802624224
 20
5.3371435427
 40
0.7748350077
100
AcDbArc
 50
271.164726262
 51
272.496459931
  0
ARC
  5
389
100
AcDbEntity
  8
ALL_ASSEMBLY_MEMBERS
100
AcDbCircle
 62
7
  6
CONTINUOUS
 10
7.1802624224
 20
5.3371435427
 40
0.7746324123
100
AcDbArc
 50
278.997134317
 51
280.0419785903
  0
ARC
  5
38A
100
AcDbEntity
  8
ALL_ASSEMBLY_MEMBERS
100
AcDbCircle
 62
7
  6
CONTINUOUS
 10
7.1802624224
 20
5.3371435427
 40
0.7741965992
100
AcDbArc
 50
277.0484061868
 51
280.2113995119
  0
ARC
  5
38B
100
AcDbEntity
  8
ALL_ASSEMBLY_MEMBERS
100
AcDbCircle
 62
7
  6
CONTINUOUS
 10
7.1802624224
 20
5.3371435427
 40
0.7741965992
100
AcDbArc
 50
270.3700363569
 51
273.2951168004
  0
ARC
  5
38C
100
AcDbEntity
  8
ALL_ASSEMBLY_MEMBERS
100
AcDbCircle
 62
7
  6
CONTINUOUS
 10
7.1802624224
 20
5.3371435427
 40
0.7741965992
100
AcDbArc
 50
262.0184844139
 51
262.6905233299
  0
CIRCLE
  5
38D
100
AcDbEntity
  8
ALL_ASSEMBLY_MEMBERS
100
AcDbCircle
 62
7
  6
CONTINUOUS
 10
7.1802624224
 20
4.812308535
 40
0.1375
  0
ARC
  5
38E
100
AcDbEntity
  8
ALL_ASSEMBLY_MEMBERS
100
AcDbCircle
 62
7
  6
CONTINUOUS
 10
7.4040248618
 20
5.4535657366
 40
0.1019875605
100
AcDbArc
 50
325.0110095298
 51
33.0478355064
  0
ARC
  5
38F
100
AcDbEntity
  8
ALL_ASSEMBLY_MEMBERS
100
AcDbCircle
 62
7
  6
CONTINUOUS
 10
7.3796868666
 20
5.190433535
 40
0.0155
100
AcDbArc
 50
270.0
 51
355.1903004544
  0
ARC
  5
390
100
AcDbEntity
  8
ALL_ASSEMBLY_MEMBERS
100
AcDbCircle
 62
7
  6
CONTINUOUS
 10
7.5352004018
 20
4.631558535
 40
0.125
100
AcDbArc
 50
43.0260516848
 51
132.276419581
  0
ARC
  5
391
100
AcDbEntity
  8
ALL_ASSEMBLY_MEMBERS
100
AcDbCircle
 62
7
  6
CONTINUOUS
 10
7.6324291913
 20
4.722308535
 40
0.008
100
AcDbArc
 50
223.0260516848
 51
325.3765489003
  0
ARC
  5
392
100
AcDbEntity
  8
ALL_ASSEMBLY_MEMBERS
100
AcDbCircle
 62
7
  6
CONTINUOUS
 10
7.6470124224
 20
4.7218616708
 40
0.008
100
AcDbArc
 50
55.0
 51
180.0
  0
ARC
  5
393
100
AcDbEntity
  8
ALL_ASSEMBLY_MEMBERS
100
AcDbCircle
 62
7
  6
CONTINUOUS
 10
7.7065318734
 20
5.1629318707
 40
0.3125
100
AcDbArc
 50
145.0110095298
 51
175.1903004544
  0
ARC
  5
394
100
AcDbEntity
  8
ALL_ASSEMBLY_MEMBERS
100
AcDbCircle
 62
7
  6
CONTINUOUS
 10
7.7715124224
 20
4.812308535
 40
0.1375
100
AcDbArc
 50
235.0
 51
125.0
  0
ARC
  5
395
100
AcDbEntity
  8
ALL_ASSEMBLY_MEMBERS
100
AcDbCircle
 62
7
  6
CONTINUOUS
 10
7.5352004018
 20
4.993058535
 40
0.125
100
AcDbArc
 50
227.723567347
 51
316.9739483152
  0
ARC
  5
396
100
AcDbEntity
  8
ALL_ASSEMBLY_MEMBERS
100
AcDbCircle
 62
7
  6
CONTINUOUS
 10
7.6324291913
 20
4.902308535
 40
0.008
100
AcDbArc
 50
34.6234510997
 51
136.9739483152
  0
ARC
  5
397
100
AcDbEntity
  8
ALL_ASSEMBLY_MEMBERS
100
AcDbCircle
 62
7
  6
CONTINUOUS
 10
7.6470124224
 20
4.9027553991
 40
0.008
100
AcDbArc
 50
180.0
 51
305.0
  0
ARC
  5
398
100
AcDbEntity
  8
ALL_ASSEMBLY_MEMBERS
100
AcDbCircle
 62
7
  6
CONTINUOUS
 10
7.4424608215
 20
6.8792076382
 40
2.338392866
100
AcDbArc
 50
260.0664145906
 51
260.8063398132
  0
ARC
  5
399
100
AcDbEntity
  8
ALL_ASSEMBLY_MEMBERS
100
AcDbCircle
 62
7
  6
CONTINUOUS
 10
7.6766943668
 20
6.018433535
 40
0.0935680556
100
AcDbArc
 50
272.1854050713
 51
360.0
  0
ARC
  5
39A
100
AcDbEntity
  8
ALL_ASSEMBLY_MEMBERS
100
AcDbCircle
 62
7
  6
CONTINUOUS
 10
7.5867637593
 20
5.924433535
 40
0.0935
100
AcDbArc
 50
270.0
 51
0.3063960032
  0
ARC
  5
39B
100
AcDbEntity
  8
ALL_ASSEMBLY_MEMBERS
100
AcDbCircle
 62
7
  6
CONTINUOUS
 10
7.5613996892
 20
5.5559530473
 40
0.0857622668
100
AcDbArc
 50
134.9173576842
 51
213.0478355064
  0
LINE
  5
39C
100
AcDbEntity
  8
ALL_ASSEMBLY_MEMBERS
100
AcDbLine
 62
7
  6
CONTINUOUS
 10
3.1395124224
 20
4.5694686469
 11
3.1400710127
 21
4.5693732153
  0
LINE
  5
39D
100
AcDbEntity
  8
ALL_ASSEMBLY_MEMBERS
100
AcDbLine
 62
7
  6
CONTINUOUS
 10
3.1400710127
 20
4.5693732153
 11
3.1425124224
 21
4.5690371883
  0
LINE
  5
39E
100
AcDbEntity
  8
ALL_ASSEMBLY_MEMBERS
100
AcDbLine
 62
7
  6
CONTINUOUS
 10
3.1605124224
 20
4.5668918418
 11
3.1635124224
 21
4.5666079108
  0
LINE
  5
39F
100
AcDbEntity
  8
ALL_ASSEMBLY_MEMBERS
100
AcDbLine
 62
7
  6
CONTINUOUS
 10
3.2041541979
 20
4.5634856101
 11
3.2201568192
 21
4.5636006137
  0
LINE
  5
3A0
100
AcDbEntity
  8
ALL_ASSEMBLY_MEMBERS
100
AcDbLine
 62
7
  6
CONTINUOUS
 10
3.2201568192
 20
4.5636006137
 11
3.2214028525
 21
4.5636008434
  0
LINE
  5
3A1
100
AcDbEntity
  8
ALL_ASSEMBLY_MEMBERS
100
AcDbLine
 62
7
  6
CONTINUOUS
 10
3.2214028525
 20
4.5636008434
 11
3.2639232024
 21
4.5635529568
  0
LINE
  5
3A2
100
AcDbEntity
  8
ALL_ASSEMBLY_MEMBERS
100
AcDbLine
 62
7
  6
CONTINUOUS
 10
3.2639232024
 20
4.5635529568
 11
3.2647526983
 21
4.5635509424
  0
LINE
  5
3A3
100
AcDbEntity
  8
ALL_ASSEMBLY_MEMBERS
100
AcDbLine
 62
7
  6
CONTINUOUS
 10
3.2647526983
 20
4.5635509424
 11
3.2808756069
 21
4.5634091428
  0
LINE
  5
3A4
100
AcDbEntity
  8
ALL_ASSEMBLY_MEMBERS
100
AcDbLine
 62
7
  6
CONTINUOUS
 10
3.1640124224
 20
4.5665105927
 11
3.1630339099
 21
4.5666005808
  0
SPLINE
  5
3A5
100
AcDbEntity
  8
ALL_ASSEMBLY_MEMBERS
100
AcDbSpline
 62
7
  6
CONTINUOUS
 70
0
 71
3
 72
11
 73
7
 74
0
 42
0.0000001
 43
0.0000001
 44
0.0000000001
 40
0.0
 40
0.0
 40
0.0
 40
0.0
 40
0.429855874
 40
0.7393771717
 40
0.9285402562
 40
1.0
 40
1.0
 40
1.0
 40
1.0
 10
3.1390287372
 20
4.5694862046
 30
0.0
 10
3.1390263584
 20
4.5694866659
 30
0.0
 10
3.1390223726
 20
4.5694875028
 30
0.0
 10
3.1390169548
 20
4.5694885917
 30
0.0
 10
3.1390144013
 20
4.5694895418
 30
0.0
 10
3.1390124224
 20
4.569489977
 30
0.0
 10
3.1390124224
 20
4.5694903798
 30
0.0
  0
LINE
  5
3A6
100
AcDbEntity
  8
ALL_ASSEMBLY_MEMBERS
100
AcDbLine
 62
7
  6
CONTINUOUS
 10
3.3215124224
 20
4.5670377695
 11
3.3200124224
 21
4.5669498063
  0
LINE
  5
3A7
100
AcDbEntity
  8
ALL_ASSEMBLY_MEMBERS
100
AcDbLine
 62
7
  6
CONTINUOUS
 10
3.1635124224
 20
4.5668534673
 11
3.1565304735
 21
4.5679931861
  0
LINE
  5
3A8
100
AcDbEntity
  8
ALL_ASSEMBLY_MEMBERS
100
AcDbLine
 62
7
  6
CONTINUOUS
 10
3.3675359619
 20
4.5734742276
 11
3.3682886792
 21
4.5735719556
  0
LINE
  5
3A9
100
AcDbEntity
  8
ALL_ASSEMBLY_MEMBERS
100
AcDbLine
 62
7
  6
CONTINUOUS
 10
3.3682886792
 20
4.5735719556
 11
3.3685197817
 21
4.573601729
  0
LINE
  5
3AA
100
AcDbEntity
  8
ALL_ASSEMBLY_MEMBERS
100
AcDbLine
 62
7
  6
CONTINUOUS
 10
3.3071110551
 20
4.56577409
 11
3.2933816062
 21
4.5645556881
  0
LINE
  5
3AB
100
AcDbEntity
  8
ALL_ASSEMBLY_MEMBERS
100
AcDbLine
 62
7
  6
CONTINUOUS
 10
3.2933816062
 20
4.5645556881
 11
3.2928209612
 21
4.5645010986
  0
LINE
  5
3AC
100
AcDbEntity
  8
ALL_ASSEMBLY_MEMBERS
100
AcDbLine
 62
7
  6
CONTINUOUS
 10
3.2928209612
 20
4.5645010986
 11
3.292505063
 21
4.56447006
  0
LINE
  5
3AD
100
AcDbEntity
  8
ALL_ASSEMBLY_MEMBERS
100
AcDbLine
 62
7
  6
CONTINUOUS
 10
3.292505063
 20
4.5649713776
 11
3.2933535429
 21
4.5650543415
  0
LINE
  5
3AE
100
AcDbEntity
  8
ALL_ASSEMBLY_MEMBERS
100
AcDbLine
 62
7
  6
CONTINUOUS
 10
3.1395124224
 20
4.5702198614
 11
3.139863254
 21
4.5702596522
  0
LINE
  5
3AF
100
AcDbEntity
  8
ALL_ASSEMBLY_MEMBERS
100
AcDbLine
 62
7
  6
CONTINUOUS
 10
3.139863254
 20
4.5702596522
 11
3.1444106022
 21
4.5699088651
  0
LINE
  5
3B0
100
AcDbEntity
  8
ALL_ASSEMBLY_MEMBERS
100
AcDbLine
 62
7
  6
CONTINUOUS
 10
3.1840124224
 20
4.5655042533
 11
3.184392738
 21
4.5655648197
  0
LINE
  5
3B1
100
AcDbEntity
  8
ALL_ASSEMBLY_MEMBERS
100
AcDbLine
 62
7
  6
CONTINUOUS
 10
3.184392738
 20
4.5655648197
 11
3.1891022172
 21
4.5654672568
  0
LINE
  5
3B2
100
AcDbEntity
  8
ALL_ASSEMBLY_MEMBERS
100
AcDbLine
 62
7
  6
CONTINUOUS
 10
3.3685197817
 20
4.5730947533
 11
3.3539137896
 21
4.571081921
  0
LINE
  5
3B3
100
AcDbEntity
  8
ALL_ASSEMBLY_MEMBERS
100
AcDbLine
 62
7
  6
CONTINUOUS
 10
3.3410124224
 20
4.5693304954
 11
3.3395124224
 21
4.5690781423
  0
LINE
  5
3B4
100
AcDbEntity
  8
ALL_ASSEMBLY_MEMBERS
100
AcDbLine
 62
7
  6
CONTINUOUS
 10
3.1463757728
 20
4.5692029097
 11
3.1395124224
 21
4.569715118
  0
LINE
  5
3B5
100
AcDbEntity
  8
ALL_ASSEMBLY_MEMBERS
100
AcDbLine
 62
7
  6
CONTINUOUS
 10
3.1137140782
 20
4.5744921714
 11
3.1190124224
 21
4.5732656592
  0
SPLINE
  5
3B6
100
AcDbEntity
  8
ALL_ASSEMBLY_MEMBERS
100
AcDbSpline
 62
7
  6
CONTINUOUS
 70
0
 71
3
 72
25
 73
21
 74
0
 42
0.0000001
 43
0.0000001
 44
0.0000000001
 40
0.0
 40
0.0
 40
0.0
 40
0.0
 40
0.2124233738
 40
0.4068991964
 40
0.4960766741
 40
0.579235933
 40
0.6559283915
 40
0.7257115536
 40
0.7882034611
 40
0.8430773646
 40
0.8900177812
 40
0.92878655
 40
0.9591941064
 40
0.9712093959
 40
0.9810857068
 40
0.9888290539
 40
0.9944617117
 40
0.9965082327
 40
0.9980690546
 40
1.0
 40
1.0
 40
1.0
 40
1.0
 10
3.191482953
 20
4.564856444
 30
0.0
 10
3.1909535301
 20
4.5648827756
 30
0.0
 10
3.1899392977
 20
4.5649308949
 30
0.0
 10
3.1887024774
 20
4.5649828004
 30
0.0
 10
3.1877877561
 20
4.5650164242
 30
0.0
 10
3.1871666668
 20
4.5650368354
 30
0.0
 10
3.1865938685
 20
4.5650530912
 30
0.0
 10
3.1860725501
 20
4.5650650938
 30
0.0
 10
3.1856056012
 20
4.5650727912
 30
0.0
 10
3.1851956034
 20
4.5650761732
 30
0.0
 10
3.1848447846
 20
4.565075271
 30
0.0
 10
3.1845550659
 20
4.5650700899
 30
0.0
 10
3.1843525853
 20
4.5650620172
 30
0.0
 10
3.184222401
 20
4.565052614
 30
0.0
 10
3.1841488214
 20
4.5650451786
 30
0.0
 10
3.1840913614
 20
4.5650366834
 30
0.0
 10
3.1840537668
 20
4.565028602
 30
0.0
 10
3.184031848
 20
4.5650206912
 30
0.0
 10
3.1840198034
 20
4.5650148261
 30
0.0
 10
3.1840124224
 20
4.5650074084
 30
0.0
 10
3.1840124224
 20
4.5650025899
 30
0.0
  0
LINE
  5
3B7
100
AcDbEntity
  8
ALL_ASSEMBLY_MEMBERS
100
AcDbLine
 62
7
  6
CONTINUOUS
 10
3.2633432321
 20
4.5627446885
 11
3.2434825645
 21
4.5630224615
  0
LINE
  5
3B8
100
AcDbEntity
  8
ALL_ASSEMBLY_MEMBERS
100
AcDbLine
 62
7
  6
CONTINUOUS
 10
3.2434825645
 20
4.5630224615
 11
3.2421167747
 21
4.5630246148
  0
SPLINE
  5
3B9
100
AcDbEntity
  8
ALL_ASSEMBLY_MEMBERS
100
AcDbSpline
 62
7
  6
CONTINUOUS
 70
0
 71
3
 72
17
 73
13
 74
0
 42
0.0000001
 43
0.0000001
 44
0.0000000001
 40
0.0
 40
0.0
 40
0.0
 40
0.0
 40
0.2206529986
 40
0.4270014973
 40
0.6103662469
 40
0.761768327
 40
0.8720626009
 40
0.942683217
 40
0.9657286366
 40
0.9822107799
 40
0.9932703648
 40
1.0
 40
1.0
 40
1.0
 40
1.0
 10
3.2421167747
 20
4.5630246148
 30
0.0
 10
3.240599769
 20
4.5630258598
 30
0.0
 10
3.2376640946
 20
4.5630207521
 30
0.0
 10
3.2334678306
 20
4.5629987995
 30
0.0
 10
3.2297477459
 20
4.5629680721
 30
0.0
 10
3.2266881169
 20
4.5629311598
 30
0.0
 10
3.2244038615
 20
4.5628844434
 30
0.0
 10
3.2230022947
 20
4.5628387781
 30
0.0
 10
3.2222458603
 20
4.5628028303
 30
0.0
 10
3.2218986459
 20
4.5627826611
 30
0.0
 10
3.2216636193
 20
4.5627658929
 30
0.0
 10
3.2215417582
 20
4.5627554251
 30
0.0
 10
3.2214957146
 20
4.5627508863
 30
0.0
  0
LINE
  5
3BA
100
AcDbEntity
  8
ALL_ASSEMBLY_MEMBERS
100
AcDbLine
 62
7
  6
CONTINUOUS
 10
3.1584351965
 20
4.5682385715
 11
3.1635124224
 21
4.5673563358
  0
LINE
  5
3BB
100
AcDbEntity
  8
ALL_ASSEMBLY_MEMBERS
100
AcDbLine
 62
7
  6
CONTINUOUS
 10
3.2214124224
 20
4.5632416757
 11
3.2224478394
 21
4.5633124832
  0
SPLINE
  5
3BC
100
AcDbEntity
  8
ALL_ASSEMBLY_MEMBERS
100
AcDbSpline
 62
7
  6
CONTINUOUS
 70
0
 71
3
 72
21
 73
17
 74
0
 42
0.0000001
 43
0.0000001
 44
0.0000000001
 40
0.0
 40
0.0
 40
0.0
 40
0.0
 40
0.0237107948
 40
0.058863947
 40
0.1070100709
 40
0.1680036945
 40
0.2392977875
 40
0.3185836139
 40
0.4929667083
 40
0.6680119565
 40
0.7479337737
 40
0.8202189886
 40
0.8828997616
 40
0.9338327992
 40
0.9725413927
 40
1.0
 40
1.0
 40
1.0
 40
1.0
 10
3.2224478394
 20
4.5633124832
 30
0.0
 10
3.2227644503
 20
4.5633276763
 30
0.0
 10
3.2235507999
 20
4.5633582949
 30
0.0
 10
3.224980838
 20
4.5633973983
 30
0.0
 10
3.2269094844
 20
4.5634334764
 30
0.0
 10
3.2293214198
 20
4.5634632351
 30
0.0
 10
3.2321497051
 20
4.5634888898
 30
0.0
 10
3.2364938473
 20
4.5635172347
 30
0.0
 10
3.2422250887
 20
4.5635339005
 30
0.0
 10
3.2479647935
 20
4.5635063567
 30
0.0
 10
3.2523394685
 20
4.5634685544
 30
0.0
 10
3.2552120031
 20
4.5634370239
 30
0.0
 10
3.2576969448
 20
4.5634028196
 30
0.0
 10
3.2597329046
 20
4.563364652
 30
0.0
 10
3.2612978608
 20
4.5633251334
 30
0.0
 10
3.2621819239
 20
4.5632953515
 30
0.0
 10
3.262548714
 20
4.5632808299
 30
0.0
  0
LINE
  5
3BD
100
AcDbEntity
  8
ALL_ASSEMBLY_MEMBERS
100
AcDbLine
 62
7
  6
CONTINUOUS
 10
3.262548714
 20
4.5632808299
 11
3.2638802121
 21
4.5632114917
  0
SPLINE
  5
3BE
100
AcDbEntity
  8
ALL_ASSEMBLY_MEMBERS
100
AcDbSpline
 62
7
  6
CONTINUOUS
 70
0
 71
3
 72
25
 73
21
 74
0
 42
0.0000001
 43
0.0000001
 44
0.0000000001
 40
0.0
 40
0.0
 40
0.0
 40
0.0
 40
0.0021389716
 40
0.0038657868
 40
0.0060928342
 40
0.0121072559
 40
0.0202442017
 40
0.0305179261
 40
0.0429292199
 40
0.0740993306
 40
0.1135652375
 40
0.1611087159
 40
0.2164516569
 40
0.2792536285
 40
0.3491645805
 40
0.4257746437
 40
0.5086349264
 40
0.597291752
 40
0.7900724867
 40
1.0
 40
1.0
 40
1.0
 40
1.0
 10
3.1190124224
 20
4.5727589062
 30
0.0
 10
3.1190124224
 20
4.5727643512
 30
0.0
 10
3.1190049585
 20
4.5727729171
 30
0.0
 10
3.1189929134
 20
4.5727819725
 30
0.0
 10
3.1189709253
 20
4.5727951231
 30
0.0
 10
3.1189330934
 20
4.5728124889
 30
0.0
 10
3.1188750548
 20
4.5728349933
 30
0.0
 10
3.1188008098
 20
4.5728603526
 30
0.0
 10
3.118669928
 20
4.5729012173
 30
0.0
 10
3.1184663167
 20
4.5729582099
 30
0.0
 10
3.1181749869
 20
4.5730332905
 30
0.0
 10
3.1178227983
 20
4.5731186429
 30
0.0
 10
3.1174118825
 20
4.5732137686
 30
0.0
 10
3.1169446629
 20
4.5733180728
 30
0.0
 10
3.116423892
 20
4.5734309204
 30
0.0
 10
3.1158525948
 20
4.5735516634
 30
0.0
 10
3.1152340551
 20
4.5736796212
 30
0.0
 10
3.1143252281
 20
4.5738641019
 30
0.0
 10
3.1130981732
 20
4.5741068269
 30
0.0
 10
3.112091489
 20
4.5743004843
 30
0.0
 10
3.1115664971
 20
4.5744002833
 30
0.0
  0
LINE
  5
3BF
100
AcDbEntity
  8
ALL_ASSEMBLY_MEMBERS
100
AcDbLine
 62
7
  6
CONTINUOUS
 10
7.3175124224
 20
4.5752099421
 11
7.3404576684
 21
4.5793566632
  0
LINE
  5
3C0
100
AcDbEntity
  8
ALL_ASSEMBLY_MEMBERS
100
AcDbLine
 62
7
  6
CONTINUOUS
 10
7.1011852466
 20
4.5659192459
 11
7.1180148534
 21
4.5651617503
  0
LINE
  5
3C1
100
AcDbEntity
  8
ALL_ASSEMBLY_MEMBERS
100
AcDbLine
 62
7
  6
CONTINUOUS
 10
7.1180148534
 20
4.5651617503
 11
7.1184242905
 21
4.5651405607
  0
LINE
  5
3C2
100
AcDbEntity
  8
ALL_ASSEMBLY_MEMBERS
100
AcDbLine
 62
7
  6
CONTINUOUS
 10
7.1606768764
 20
4.5629070946
 11
7.1622835108
 21
4.5628201828
  0
LINE
  5
3C3
100
AcDbEntity
  8
ALL_ASSEMBLY_MEMBERS
100
AcDbLine
 62
7
  6
CONTINUOUS
 10
7.1622835108
 20
4.5628201828
 11
7.1773462663
 21
4.5619124721
  0
SPLINE
  5
3C4
100
AcDbEntity
  8
ALL_ASSEMBLY_MEMBERS
100
AcDbSpline
 62
7
  6
CONTINUOUS
 70
0
 71
3
 72
20
 73
16
 74
0
 42
0.0000001
 43
0.0000001
 44
0.0000000001
 40
0.0
 40
0.0
 40
0.0
 40
0.0
 40
0.0369318712
 40
0.0728618502
 40
0.1864827918
 40
0.2580584592
 40
0.3288851719
 40
0.3910168866
 40
0.4365077218
 40
0.4574165467
 40
0.4690867479
 40
0.5212213108
 40
0.6217856507
 40
0.778729153
 40
1.0
 40
1.0
 40
1.0
 40
1.0
 10
7.178732662
 20
4.5618139518
 30
0.0
 10
7.1787349585
 20
4.5618137673
 30
0.0
 10
7.178743526
 20
4.5618129627
 30
0.0
 10
7.1787242842
 20
4.561811611
 30
0.0
 10
7.1787150881
 20
4.5618117409
 30
0.0
 10
7.178697969
 20
4.561811324
 30
0.0
 10
7.1786858037
 20
4.5618111287
 30
0.0
 10
7.178673511
 20
4.5618109237
 30
0.0
 10
7.1786680282
 20
4.5618107831
 30
0.0
 10
7.1786592226
 20
4.5618106184
 30
0.0
 10
7.1786667345
 20
4.5618102204
 30
0.0
 10
7.1786749315
 20
4.5618103748
 30
0.0
 10
7.1786956504
 20
4.5618100993
 30
0.0
 10
7.1787247853
 20
4.5618100938
 30
0.0
 10
7.1787486188
 20
4.5618100127
 30
0.0
 10
7.1787624224
 20
4.561809986
 30
0.0
  0
LINE
  5
3C5
100
AcDbEntity
  8
ALL_ASSEMBLY_MEMBERS
100
AcDbLine
 62
7
  6
CONTINUOUS
 10
7.0688512113
 20
4.570853884
 11
7.0727624224
 21
4.5704466507
  0
LINE
  5
3C6
100
AcDbEntity
  8
ALL_ASSEMBLY_MEMBERS
100
AcDbLine
 62
7
  6
CONTINUOUS
 10
7.0292469311
 20
4.5773349955
 11
7.0382487658
 21
4.5759372757
  0
LINE
  5
3C7
100
AcDbEntity
  8
ALL_ASSEMBLY_MEMBERS
100
AcDbLine
 62
7
  6
CONTINUOUS
 10
7.0382487658
 20
4.5759372757
 11
7.0398061292
 21
4.5756881625
  0
LINE
  5
3C8
100
AcDbEntity
  8
ALL_ASSEMBLY_MEMBERS
100
AcDbLine
 62
7
  6
CONTINUOUS
 10
7.0398061292
 20
4.5756881625
 11
7.0439713679
 21
4.5750167903
  0
LINE
  5
3C9
100
AcDbEntity
  8
ALL_ASSEMBLY_MEMBERS
100
AcDbLine
 62
7
  6
CONTINUOUS
 10
7.0721756614
 20
4.5703336184
 11
7.0734173727
 21
4.5701205425
  0
SPLINE
  5
3CA
100
AcDbEntity
  8
ALL_ASSEMBLY_MEMBERS
100
AcDbSpline
 62
7
  6
CONTINUOUS
 70
0
 71
3
 72
27
 73
23
 74
0
 42
0.0000001
 43
0.0000001
 44
0.0000000001
 40
0.0
 40
0.0
 40
0.0
 40
0.0
 40
0.0201141945
 40
0.0543088571
 40
0.1058158298
 40
0.1756337143
 40
0.2608101911
 40
0.3575668905
 40
0.4623914824
 40
0.5698296972
 40
0.6728733617
 40
0.7667714885
 40
0.809190369
 40
0.8478069167
 40
0.9110059188
 40
0.9545475353
 40
0.9696010508
 40
0.9809449681
 40
0.9891431142
 40
0.9947220223
 40
0.9981958951
 40
1.0
 40
1.0
 40
1.0
 40
1.0
 10
7.1604243541
 20
4.5621069738
 30
0.0
 10
7.1601439712
 20
4.5621367285
 30
0.0
 10
7.1593861308
 20
4.562209465
 30
0.0
 10
7.1579079903
 20
4.5623334521
 30
0.0
 10
7.1557338737
 20
4.5624945273
 30
0.0
 10
7.1528456004
 20
4.5626875117
 30
0.0
 10
7.1493235442
 20
4.5629089084
 30
0.0
 10
7.1453110432
 20
4.5631498037
 30
0.0
 10
7.1409862292
 20
4.5633956157
 30
0.0
 10
7.136572278
 20
4.5636254125
 30
0.0
 10
7.1323104016
 20
4.5638293813
 30
0.0
 10
7.1289584528
 20
4.5639797928
 30
0.0
 10
7.1265084625
 20
4.5640836264
 30
0.0
 10
7.1244882442
 20
4.5641649685
 30
0.0
 10
7.1224519384
 20
4.5642377294
 30
0.0
 10
7.120745174
 20
4.5642822854
 30
0.0
 10
7.1197648587
 20
4.5642955313
 30
0.0
 10
7.119279902
 20
4.5642977941
 30
0.0
 10
7.1189277589
 20
4.5642958807
 30
0.0
 10
7.1186859688
 20
4.5642915086
 30
0.0
 10
7.1185338572
 20
4.5642865176
 30
0.0
 10
7.1184599544
 20
4.5642828541
 30
0.0
 10
7.1184347222
 20
4.5642811512
 30
0.0
  0
LINE
  5
3CB
100
AcDbEntity
  8
ALL_ASSEMBLY_MEMBERS
100
AcDbLine
 62
7
  6
CONTINUOUS
 10
7.3405928823
 20
4.5790789872
 11
7.3403142649
 21
4.5790464453
  0
LINE
  5
3CC
100
AcDbEntity
  8
ALL_ASSEMBLY_MEMBERS
100
AcDbLine
 62
7
  6
CONTINUOUS
 10
7.3403142649
 20
4.5790464453
 11
7.3381024253
 21
4.5787369673
  0
LINE
  5
3CD
100
AcDbEntity
  8
ALL_ASSEMBLY_MEMBERS
100
AcDbLine
 62
7
  6
CONTINUOUS
 10
7.0733727712
 20
4.5696231217
 11
7.0721373302
 21
4.5698349454
  0
LINE
  5
3CE
100
AcDbEntity
  8
ALL_ASSEMBLY_MEMBERS
100
AcDbLine
 62
7
  6
CONTINUOUS
 10
7.0721373302
 20
4.5698349454
 11
7.0694246607
 21
4.5702967553
  0
LINE
  5
3CF
100
AcDbEntity
  8
ALL_ASSEMBLY_MEMBERS
100
AcDbLine
 62
7
  6
CONTINUOUS
 10
7.0694246607
 20
4.5702967553
 11
7.0679548793
 21
4.5705454409
  0
LINE
  5
3D0
100
AcDbEntity
  8
ALL_ASSEMBLY_MEMBERS
100
AcDbLine
 62
7
  6
CONTINUOUS
 10
7.0403375942
 20
4.5750941649
 11
7.0387502528
 21
4.5753482971
  0
LINE
  5
3D1
100
AcDbEntity
  8
ALL_ASSEMBLY_MEMBERS
100
AcDbLine
 62
7
  6
CONTINUOUS
 10
7.0387502528
 20
4.5753482971
 11
7.0292469311
 21
4.5768251137
  0
LINE
  5
3D2
100
AcDbEntity
  8
ALL_ASSEMBLY_MEMBERS
100
AcDbLine
 62
7
  6
CONTINUOUS
 10
7.2802624224
 20
4.5686889356
 11
7.2764062388
 21
4.5684719775
  0
LINE
  5
3D3
100
AcDbEntity
  8
ALL_ASSEMBLY_MEMBERS
100
AcDbLine
 62
7
  6
CONTINUOUS
 10
7.1184124224
 20
4.5647810199
 11
7.1194013485
 21
4.5647985459
  0
SPLINE
  5
3D4
100
AcDbEntity
  8
ALL_ASSEMBLY_MEMBERS
100
AcDbSpline
 62
7
  6
CONTINUOUS
 70
0
 71
3
 72
22
 73
18
 74
0
 42
0.0000001
 43
0.0000001
 44
0.0000000001
 40
0.0
 40
0.0
 40
0.0
 40
0.0
 40
0.0231367448
 40
0.0577216295
 40
0.1053515228
 40
0.1659969442
 40
0.2371926454
 40
0.3164566987
 40
0.4911583428
 40
0.5806537353
 40
0.6667951633
 40
0.7470160487
 40
0.819558086
 40
0.8825001109
 40
0.9336529541
 40
0.9724632411
 40
1.0
 40
1.0
 40
1.0
 40
1.0
 10
7.1194013485
 20
4.5647985459
 30
0.0
 10
7.1197114757
 20
4.5647977218
 30
0.0
 10
7.12048516
 20
4.5647884828
 30
0.0
 10
7.1218969243
 20
4.5647547212
 30
0.0
 10
7.1238108452
 20
4.564692291
 30
0.0
 10
7.1262146642
 20
4.5645980618
 30
0.0
 10
7.1290417857
 20
4.5644775715
 30
0.0
 10
7.1333958685
 20
4.5642811224
 30
0.0
 10
7.1379942326
 20
4.5640566431
 30
0.0
 10
7.1426832737
 20
4.5638011096
 30
0.0
 10
7.1461071064
 20
4.56360301
 30
0.0
 10
7.149303612
 20
4.5634102595
 30
0.0
 10
7.152189295
 20
4.5632294286
 30
0.0
 10
7.1546856713
 20
4.5630660969
 30
0.0
 10
7.1567301962
 20
4.5629222999
 30
0.0
 10
7.1583005433
 20
4.5628013458
 30
0.0
 10
7.1591866661
 20
4.5627257562
 30
0.0
 10
7.1595542432
 20
4.5626921877
 30
0.0
  0
LINE
  5
3D5
100
AcDbEntity
  8
ALL_ASSEMBLY_MEMBERS
100
AcDbLine
 62
7
  6
CONTINUOUS
 10
7.1595542432
 20
4.5626921877
 11
7.1609124224
 21
4.562550187
  0
LINE
  5
3D6
100
AcDbEntity
  8
ALL_ASSEMBLY_MEMBERS
100
AcDbLine
 62
7
  6
CONTINUOUS
 10
7.3014033625
 20
4.5720420809
 11
7.2984033625
 21
4.5714496793
  0
LINE
  5
3D7
100
AcDbEntity
  8
ALL_ASSEMBLY_MEMBERS
100
AcDbLine
 62
7
  6
CONTINUOUS
 10
7.3381024253
 20
4.5782261436
 11
7.3186416459
 21
4.574961397
  0
LINE
  5
3D8
100
AcDbEntity
  8
ALL_ASSEMBLY_MEMBERS
100
AcDbLine
 62
7
  6
CONTINUOUS
 10
7.3186416459
 20
4.574961397
 11
7.316989999
 21
4.5746707794
  0
LINE
  5
3D9
100
AcDbEntity
  8
ALL_ASSEMBLY_MEMBERS
100
AcDbLine
 62
7
  6
CONTINUOUS
 10
7.316989999
 20
4.5746707794
 11
7.3153348164
 21
4.5743782954
  0
LINE
  5
3DA
100
AcDbEntity
  8
ALL_ASSEMBLY_MEMBERS
100
AcDbLine
 62
7
  6
CONTINUOUS
 10
7.2984033625
 20
4.5719559791
 11
7.2986564244
 21
4.5720433302
  0
LINE
  5
3DB
100
AcDbEntity
  8
ALL_ASSEMBLY_MEMBERS
100
AcDbLine
 62
7
  6
CONTINUOUS
 10
7.2986564244
 20
4.5720433302
 11
7.2988039153
 21
4.572078119
  0
SPLINE
  5
3DC
100
AcDbEntity
  8
ALL_ASSEMBLY_MEMBERS
100
AcDbSpline
 62
7
  6
CONTINUOUS
 70
0
 71
3
 72
26
 73
22
 74
0
 42
0.0000001
 43
0.0000001
 44
0.0000000001
 40
0.0
 40
0.0
 40
0.0
 40
0.0
 40
0.2113263952
 40
0.4052029722
 40
0.4942250954
 40
0.5773162354
 40
0.6540251629
 40
0.7239198909
 40
0.7865818176
 40
0.8416729815
 40
0.8888874337
 40
0.9279471118
 40
0.9443574651
 40
0.9586593408
 40
0.9708325132
 40
0.9808609658
 40
0.9887433063
 40
0.9944922328
 40
0.9965805631
 40
0.9981630368
 40
1.0
 40
1.0
 40
1.0
 40
1.0
 10
7.2236029598
 20
4.5637077825
 30
0.0
 10
7.2229250155
 20
4.5636587388
 30
0.0
 10
7.2216252891
 20
4.5635621534
 30
0.0
 10
7.2200405806
 20
4.5634369488
 30
0.0
 10
7.2188674765
 20
4.5633390569
 30
0.0
 10
7.218070152
 20
4.5632698766
 30
0.0
 10
7.2173343665
 20
4.5632032204
 30
0.0
 10
7.2166643007
 20
4.5631394833
 30
0.0
 10
7.216063778
 20
4.5630790181
 30
0.0
 10
7.2155362154
 20
4.5630222133
 30
0.0
 10
7.215084593
 20
4.562969417
 30
0.0
 10
7.2147570397
 20
4.5629269651
 30
0.0
 10
7.2145349472
 20
4.5628947097
 30
0.0
 10
7.2143987051
 20
4.5628731443
 30
0.0
 10
7.21428305
 20
4.5628527975
 30
0.0
 10
7.2141881933
 20
4.5628338045
 30
0.0
 10
7.2141140697
 20
4.5628160388
 30
0.0
 10
7.2140657773
 20
4.562801659
 30
0.0
 10
7.2140374416
 20
4.5627898251
 30
0.0
 10
7.2140225178
 20
4.5627817696
 30
0.0
 10
7.2140124224
 20
4.5627730534
 30
0.0
 10
7.2140124224
 20
4.5627671449
 30
0.0
  0
LINE
  5
3DD
100
AcDbEntity
  8
ALL_ASSEMBLY_MEMBERS
100
AcDbLine
 62
7
  6
CONTINUOUS
 10
7.2774446458
 20
4.5690719219
 11
7.2802624224
 21
4.5691934153
  0
LINE
  5
3DE
100
AcDbEntity
  8
ALL_ASSEMBLY_MEMBERS
100
AcDbLine
 62
7
  6
CONTINUOUS
 10
7.3381024253
 20
4.5782261436
 11
7.3405928823
 21
4.5785679332
  0
LINE
  5
3DF
100
AcDbEntity
  8
ALL_ASSEMBLY_MEMBERS
100
AcDbLine
 62
7
  6
CONTINUOUS
 10
7.1887508408
 20
4.5629941883
 11
7.1960124224
 21
4.5626923044
  0
LINE
  5
3E0
100
AcDbEntity
  8
ALL_ASSEMBLY_MEMBERS
100
AcDbLine
 62
7
  6
CONTINUOUS
 10
7.2140124224
 20
4.5632677643
 11
7.2142976105
 21
4.5633557569
  0
LINE
  5
3E1
100
AcDbEntity
  8
ALL_ASSEMBLY_MEMBERS
100
AcDbLine
 62
7
  6
CONTINUOUS
 10
7.2142976105
 20
4.5633557569
 11
7.2213187906
 21
4.5640381429
  0
SPLINE
  5
3E2
100
AcDbEntity
  8
ALL_ASSEMBLY_MEMBERS
100
AcDbSpline
 62
7
  6
CONTINUOUS
 70
0
 71
3
 72
26
 73
22
 74
0
 42
0.0000001
 43
0.0000001
 44
0.0000000001
 40
0.0
 40
0.0
 40
0.0
 40
0.0
 40
0.0017805167
 40
0.0033267401
 40
0.0053788029
 40
0.0079538264
 40
0.0110597182
 40
0.0188773679
 40
0.0288458349
 40
0.0409660964
 40
0.0716073625
 40
0.1106257304
 40
0.1578179102
 40
0.2129286185
 40
0.2756298703
 40
0.3455831192
 40
0.4223852984
 40
0.5055782292
 40
0.5946975941
 40
0.7886948841
 40
1.0
 40
1.0
 40
1.0
 40
1.0
 10
7.1960124224
 20
4.5621920568
 30
0.0
 10
7.1960124224
 20
4.5621978457
 30
0.0
 10
7.1960020889
 20
4.5622062384
 30
0.0
 10
7.1959869529
 20
4.5622132664
 30
0.0
 10
7.1959677299
 20
4.5622200583
 30
0.0
 10
7.1959435632
 20
4.5622266405
 30
0.0
 10
7.1959006947
 20
4.5622363142
 30
0.0
 10
7.1958337494
 20
4.5622478273
 30
0.0
 10
7.1957373811
 20
4.5622609192
 30
0.0
 10
7.1955669764
 20
4.5622797852
 30
0.0
 10
7.1953019817
 20
4.5623019989
 30
0.0
 10
7.1949228675
 20
4.5623267292
 30
0.0
 10
7.1944640166
 20
4.5623507637
 30
0.0
 10
7.1939280461
 20
4.5623739499
 30
0.0
 10
7.1933179752
 20
4.5623961062
 30
0.0
 10
7.1926373021
 20
4.5624170647
 30
0.0
 10
7.1918899414
 20
4.5624366935
 30
0.0
 10
7.1910802141
 20
4.5624548823
 30
0.0
 10
7.1898894719
 20
4.5624776877
 30
0.0
 10
7.1882821563
 20
4.5625013473
 30
0.0
 10
7.1869644844
 20
4.5625145569
 30
0.0
 10
7.1862775039
 20
4.5625200828
 30
0.0
  0
LINE
  5
3E3
100
AcDbEntity
  8
ALL_ASSEMBLY_MEMBERS
100
AcDbLine
 62
7
  6
CONTINUOUS
 10
7.1862775039
 20
4.5625200828
 11
7.1852624224
 21
4.5625272672
  0
SPLINE
  5
3E4
100
AcDbEntity
  8
ALL_ASSEMBLY_MEMBERS
100
AcDbSpline
 62
7
  6
CONTINUOUS
 70
0
 71
3
 72
99
 73
95
 74
0
 42
0.0000001
 43
0.0000001
 44
0.0000000001
 40
0.0
 40
0.0
 40
0.0
 40
0.0
 40
0.0000027205
 40
0.0000108772
 40
0.000024466
 40
0.0000434827
 40
0.0000679229
 40
0.0000977826
 40
0.0001737433
 40
0.0002713311
 40
0.0003905122
 40
0.000531253
 40
0.0006935198
 40
0.0010824967
 40
0.0015571733
 40
0.0021172803
 40
0.0027625485
 40
0.0034927087
 40
0.0043074918
 40
0.0061898506
 40
0.0084074346
 40
0.0109565905
 40
0.013831809
 40
0.0170274692
 40
0.0205379599
 40
0.0243576812
 40
0.0284810443
 40
0.0329024393
 40
0.0426135034
 40
0.0534360971
 40
0.0653151023
 40
0.0781959842
 40
0.0920257882
 40
0.106752911
 40
0.1223266348
 40
0.1386980049
 40
0.1558224652
 40
0.1921615073
 40
0.2310235258
 40
0.2721130533
 40
0.3151439882
 40
0.3372927555
 40
0.3598140183
 40
0.3826614517
 40
0.4057841639
 40
0.4291340468
 40
0.4526605477
 40
0.4999999632
 40
0.547339333
 40
0.5708658086
 40
0.5942156997
 40
0.6173384652
 40
0.6401859748
 40
0.6627073134
 40
0.6848561315
 40
0.7278871203
 40
0.7689766652
 40
0.8078386574
 40
0.8441777066
 40
0.861302173
 40
0.8776735404
 40
0.8932472558
 40
0.9079743711
 40
0.9218041661
 40
0.9346850358
 40
0.9465640293
 40
0.9573866147
 40
0.9670976753
 40
0.9715190696
 40
0.9756424249
 40
0.979462133
 40
0.9829726088
 40
0.9861682555
 40
0.9890434657
 40
0.991592622
 40
0.9938102134
 40
0.9956925688
 40
0.9965073465
 40
0.9972374997
 40
0.9978827597
 40
0.9984428581
 40
0.9989175261
 40
0.9993064949
 40
0.9994687581
 40
0.9996094956
 40
0.999728674
 40
0.9998262595
 40
0.9999022184
 40
0.9999320775
 40
0.9999565173
 40
0.9999755336
 40
0.9999891223
 40
0.9999972792
 40
1.0
 40
1.0
 40
1.0
 40
1.0
 10
6.9015124224
 20
4.914808535
 30
0.0
 10
6.9015126193
 20
4.914808535
 30
0.0
 10
6.9015127868
 20
4.9148074458
 30
0.0
 10
6.9015139166
 20
4.9148063203
 30
0.0
 10
6.9015152925
 20
4.9148035553
 30
0.0
 10
6.9015174548
 20
4.9148001029
 30
0.0
 10
6.901520138
 20
4.9147954978
 30
0.0
 10
6.9015249536
 20
4.9147874026
 30
0.0
 10
6.901532447
 20
4.9147747189
 30
0.0
 10
6.9015432389
 20
4.9147564851
 30
0.0
 10
6.9015564079
 20
4.9147342042
 30
0.0
 10
6.9015719535
 20
4.9147078908
 30
0.0
 10
6.9015974206
 20
4.9146647536
 30
0.0
 10
6.9016351493
 20
4.9146007831
 30
0.0
 10
6.9016874588
 20
4.914511976
 30
0.0
 10
6.9017491256
 20
4.914407148
 30
0.0
 10
6.9018201017
 20
4.9142863388
 30
0.0
 10
6.9019003392
 20
4.914149588
 30
0.0
 10
6.9020257752
 20
4.9139355254
 30
0.0
 10
6.9022053715
 20
4.9136283983
 30
0.0
 10
6.9024478882
 20
4.9132126208
 30
0.0
 10
6.9027259638
 20
4.9127343771
 30
0.0
 10
6.9030386152
 20
4.9121943355
 30
0.0
 10
6.9033848278
 20
4.9115933118
 30
0.0
 10
6.903763567
 20
4.9109321207
 30
0.0
 10
6.9041738039
 20
4.9102115798
 30
0.0
 10
6.9046144991
 20
4.9094325037
 30
0.0
 10
6.9052618413
 20
4.9082803405
 30
0.0
 10
6.9061390149
 20
4.9067010468
 30
0.0
 10
6.9072628163
 20
4.9046412514
 30
0.0
 10
6.9084772675
 20
4.9023696115
 30
0.0
 10
6.9097714185
 20
4.8998938513
 30
0.0
 10
6.911133393
 20
4.8972210613
 30
0.0
 10
6.9125510087
 20
4.8943580538
 30
0.0
 10
6.9140122201
 20
4.8913116051
 30
0.0
 10
6.9155050648
 20
4.8880881755
 30
0.0
 10
6.9175616802
 20
4.8834698053
 30
0.0
 10
6.9201312694
 20
4.8772984354
 30
0.0
 10
6.9230813544
 20
4.8694115375
 30
0.0
 10
6.9258485493
 20
4.8609466363
 30
0.0
 10
6.9278918085
 20
4.8535263112
 30
0.0
 10
6.9293374439
 20
4.8473436243
 30
0.0
 10
6.9303177635
 20
4.8425545763
 30
0.0
 10
6.9311722512
 20
4.8376698707
 30
0.0
 10
6.9318901904
 20
4.8327025644
 30
0.0
 10
6.9324599658
 20
4.8276664842
 30
0.0
 10
6.9330103762
 20
4.820867386
 30
0.0
 10
6.9332923753
 20
4.8123085464
 30
0.0
 10
6.9330103829
 20
4.8037497082
 30
0.0
 10
6.9324599714
 20
4.7969506145
 30
0.0
 10
6.9318901892
 20
4.7919145325
 30
0.0
 10
6.9311722486
 20
4.7869472163
 30
0.0
 10
6.9303177608
 20
4.7820624958
 30
0.0
 10
6.9293374422
 20
4.7772734325
 30
0.0
 10
6.9278918043
 20
4.7710907327
 30
0.0
 10
6.9258485377
 20
4.7636704005
 30
0.0
 10
6.9230813424
 20
4.755205496
 30
0.0
 10
6.9201312553
 20
4.747318599
 30
0.0
 10
6.9175616651
 20
4.7411472307
 30
0.0
 10
6.9155050498
 20
4.7365288595
 30
0.0
 10
6.9140122041
 20
4.7333054308
 30
0.0
 10
6.9125509922
 20
4.7302589838
 30
0.0
 10
6.9111333776
 20
4.7273959778
 30
0.0
 10
6.9097714045
 20
4.7247231895
 30
0.0
 10
6.9084772528
 20
4.7222474323
 30
0.0
 10
6.9072628028
 20
4.7199757943
 30
0.0
 10
6.906139003
 20
4.717916
 30
0.0
 10
6.9052618299
 20
4.7163367071
 30
0.0
 10
6.9046144865
 20
4.7151845456
 30
0.0
 10
6.9041737919
 20
4.714405471
 30
0.0
 10
6.9037635567
 20
4.7136849321
 30
0.0
 10
6.9033848195
 20
4.7130237432
 30
0.0
 10
6.9030386088
 20
4.7124227216
 30
0.0
 10
6.9027259584
 20
4.7118826811
 30
0.0
 10
6.9024478824
 20
4.7114044378
 30
0.0
 10
6.902205364
 20
4.7109886608
 30
0.0
 10
6.9020257676
 20
4.710681534
 30
0.0
 10
6.9019003322
 20
4.7104674722
 30
0.0
 10
6.9018200958
 20
4.7103307226
 30
0.0
 10
6.9017491208
 20
4.7102099147
 30
0.0
 10
6.9016874553
 20
4.7101050881
 30
0.0
 10
6.9016351469
 20
4.7100162824
 30
0.0
 10
6.9015974192
 20
4.7099523131
 30
0.0
 10
6.9015719528
 20
4.7099091767
 30
0.0
 10
6.9015564076
 20
4.7098828639
 30
0.0
 10
6.9015432389
 20
4.7098605835
 30
0.0
 10
6.9015324473
 20
4.7098423502
 30
0.0
 10
6.901524954
 20
4.7098296668
 30
0.0
 10
6.9015201384
 20
4.7098215718
 30
0.0
 10
6.9015174552
 20
4.7098169668
 30
0.0
 10
6.9015152929
 20
4.7098135145
 30
0.0
 10
6.9015139168
 20
4.7098107496
 30
0.0
 10
6.9015127871
 20
4.709809624
 30
0.0
 10
6.9015126193
 20
4.709808535
 30
0.0
 10
6.9015124224
 20
4.709808535
 30
0.0
  0
SPLINE
  5
3E5
100
AcDbEntity
  8
ALL_ASSEMBLY_MEMBERS
100
AcDbSpline
 62
7
  6
CONTINUOUS
 70
0
 71
3
 72
68
 73
64
 74
0
 42
0.0000001
 43
0.0000001
 44
0.0000000001
 40
0.0
 40
0.0
 40
0.0
 40
0.0
 40
0.0109566179
 40
0.0426131657
 40
0.0920231983
 40
0.1223237401
 40
0.1558189903
 40
0.1921583924
 40
0.2310207696
 40
0.2721107167
 40
0.3151421207
 40
0.3372911543
 40
0.3598127143
 40
0.405778375
 40
0.4291285003
 40
0.4526552126
 40
0.4999950588
 40
0.547334951
 40
0.5708616887
 40
0.5942118058
 40
0.6173347482
 40
0.6401824075
 40
0.6627038916
 40
0.6848528744
 40
0.7278842244
 40
0.7689741547
 40
0.8078365589
 40
0.8441759542
 40
0.8613005806
 40
0.8776721122
 40
0.893245992
 40
0.9079732636
 40
0.9218032091
 40
0.934684225
 40
0.9465633552
 40
0.9573860626
 40
0.9670972271
 40
0.9715186667
 40
0.9756420711
 40
0.9794618307
 40
0.9829723568
 40
0.9861680497
 40
0.9890432986
 40
0.9915924829
 40
0.993810093
 40
0.9956924746
 40
0.9965072675
 40
0.9972374363
 40
0.9978827119
 40
0.9984428249
 40
0.9989175061
 40
0.9993064859
 40
0.9994687535
 40
0.9996094948
 40
0.999728676
 40
0.9998262633
 40
0.9999022231
 40
0.9999320821
 40
0.9999565216
 40
0.9999755374
 40
0.9999891252
 40
0.9999972808
 40
1.0
 40
1.0
 40
1.0
 40
1.0
 10
7.4590124224
 20
4.709808535
 30
0.0
 10
7.4586093922
 20
4.7104916621
 30
0.0
 10
7.4570516177
 20
4.7131542641
 30
0.0
 10
7.4537713103
 20
4.7189528022
 30
0.0
 10
7.4500082
 20
4.7260850431
 30
0.0
 10
7.4464175107
 20
4.7334523893
 30
0.0
 10
7.4434187399
 20
4.7400530479
 30
0.0
 10
7.4403936045
 20
4.7473185826
 30
0.0
 10
7.4374434972
 20
4.7552055042
 30
0.0
 10
7.4346763043
 20
4.7636704071
 30
0.0
 10
7.4326330508
 20
4.771090713
 30
0.0
 10
7.4311873835
 20
4.7772734676
 30
0.0
 10
7.4298715364
 20
4.7837020412
 30
0.0
 10
7.4288206334
 20
4.7902713425
 30
0.0
 10
7.4280648654
 20
4.7969505732
 30
0.0
 10
7.4275144669
 20
4.8037497299
 30
0.0
 10
7.4272324675
 20
4.8123085381
 30
0.0
 10
7.427514469
 20
4.8208673876
 30
0.0
 10
7.4280648792
 20
4.8276664854
 30
0.0
 10
7.4286346543
 20
4.8327025662
 30
0.0
 10
7.4293525938
 20
4.8376698725
 30
0.0
 10
7.4302070816
 20
4.8425545777
 30
0.0
 10
7.431187401
 20
4.847343625
 30
0.0
 10
7.4326330359
 20
4.8535263105
 30
0.0
 10
7.4346762945
 20
4.860946634
 30
0.0
 10
7.4374434892
 20
4.8694115337
 30
0.0
 10
7.4403935734
 20
4.8772984306
 30
0.0
 10
7.4429631621
 20
4.8834697996
 30
0.0
 10
7.4450197772
 20
4.8880881689
 30
0.0
 10
7.4465126214
 20
4.8913115983
 30
0.0
 10
7.4479738325
 20
4.8943580473
 30
0.0
 10
7.4493914485
 20
4.8972210552
 30
0.0
 10
7.4507534235
 20
4.8998938459
 30
0.0
 10
7.4520475749
 20
4.9023696072
 30
0.0
 10
7.4532620269
 20
4.9046412483
 30
0.0
 10
7.4543858291
 20
4.9067010446
 30
0.0
 10
7.4552630029
 20
4.908280339
 30
0.0
 10
7.4559103449
 20
4.9094325027
 30
0.0
 10
7.4563510397
 20
4.9102115791
 30
0.0
 10
7.4567612762
 20
4.9109321203
 30
0.0
 10
7.4571400153
 20
4.9115933116
 30
0.0
 10
7.4574862279
 20
4.9121943356
 30
0.0
 10
7.4577988797
 20
4.9127343775
 30
0.0
 10
7.4580769562
 20
4.9132126213
 30
0.0
 10
7.4583194743
 20
4.9136283989
 30
0.0
 10
7.4584990721
 20
4.913935526
 30
0.0
 10
7.4586245092
 20
4.9141495886
 30
0.0
 10
7.4587047473
 20
4.9142863393
 30
0.0
 10
7.458775724
 20
4.9144071484
 30
0.0
 10
7.4588373911
 20
4.9145119763
 30
0.0
 10
7.4588897009
 20
4.9146007833
 30
0.0
 10
7.458927429
 20
4.9146647538
 30
0.0
 10
7.4589528964
 20
4.914707891
 30
0.0
 10
7.4589684402
 20
4.9147342043
 30
0.0
 10
7.4589816132
 20
4.9147564852
 30
0.0
 10
7.4589923922
 20
4.9147747189
 30
0.0
 10
7.4589999133
 20
4.9147874026
 30
0.0
 10
7.4590046853
 20
4.9147954978
 30
0.0
 10
7.4590074583
 20
4.9148001029
 30
0.0
 10
7.4590093872
 20
4.9148035552
 30
0.0
 10
7.4590112899
 20
4.9148063203
 30
0.0
 10
7.4590114941
 20
4.9148074457
 30
0.0
 10
7.4590126192
 20
4.9148085348
 30
0.0
 10
7.4590124224
 20
4.914808535
 30
0.0
  0
SPLINE
  5
3E6
100
AcDbEntity
  8
ALL_ASSEMBLY_MEMBERS
100
AcDbSpline
 62
7
  6
CONTINUOUS
 70
0
 71
3
 72
99
 73
95
 74
0
 42
0.0000001
 43
0.0000001
 44
0.0000000001
 40
0.0
 40
0.0
 40
0.0
 40
0.0
 40
0.0000027205
 40
0.0000108772
 40
0.000024466
 40
0.0000434827
 40
0.0000679229
 40
0.0000977826
 40
0.0001737433
 40
0.0002713311
 40
0.0003905122
 40
0.000531253
 40
0.0006935198
 40
0.0010824967
 40
0.0015571733
 40
0.0021172803
 40
0.0027625485
 40
0.0034927087
 40
0.0043074918
 40
0.0061898506
 40
0.0084074346
 40
0.0109565905
 40
0.013831809
 40
0.0170274692
 40
0.0205379599
 40
0.0243576812
 40
0.0284810443
 40
0.0329024393
 40
0.0426135034
 40
0.0534360971
 40
0.0653151023
 40
0.0781959842
 40
0.0920257882
 40
0.106752911
 40
0.1223266348
 40
0.1386980049
 40
0.1558224652
 40
0.1921615073
 40
0.2310235258
 40
0.2721130533
 40
0.3151439882
 40
0.3372927555
 40
0.3598140183
 40
0.3826614517
 40
0.4057841639
 40
0.4291340468
 40
0.4526605477
 40
0.4999999632
 40
0.547339333
 40
0.5708658086
 40
0.5942156997
 40
0.6173384652
 40
0.6401859748
 40
0.6627073134
 40
0.6848561315
 40
0.7278871203
 40
0.7689766652
 40
0.8078386574
 40
0.8441777066
 40
0.861302173
 40
0.8776735404
 40
0.8932472558
 40
0.9079743711
 40
0.9218041661
 40
0.9346850358
 40
0.9465640293
 40
0.9573866147
 40
0.9670976753
 40
0.9715190696
 40
0.9756424249
 40
0.979462133
 40
0.9829726088
 40
0.9861682555
 40
0.9890434657
 40
0.991592622
 40
0.9938102134
 40
0.9956925688
 40
0.9965073465
 40
0.9972374997
 40
0.9978827597
 40
0.9984428581
 40
0.9989175261
 40
0.9993064949
 40
0.9994687581
 40
0.9996094956
 40
0.999728674
 40
0.9998262595
 40
0.9999022184
 40
0.9999320775
 40
0.9999565173
 40
0.9999755336
 40
0.9999891223
 40
0.9999972792
 40
1.0
 40
1.0
 40
1.0
 40
1.0
 10
2.9645124224
 20
4.915433535
 30
0.0
 10
2.9645126193
 20
4.915433535
 30
0.0
 10
2.9645127868
 20
4.9154324458
 30
0.0
 10
2.9645139166
 20
4.9154313203
 30
0.0
 10
2.9645152925
 20
4.9154285553
 30
0.0
 10
2.9645174548
 20
4.9154251029
 30
0.0
 10
2.964520138
 20
4.9154204978
 30
0.0
 10
2.9645249536
 20
4.9154124026
 30
0.0
 10
2.964532447
 20
4.9153997189
 30
0.0
 10
2.9645432389
 20
4.9153814851
 30
0.0
 10
2.9645564079
 20
4.9153592042
 30
0.0
 10
2.9645719535
 20
4.9153328908
 30
0.0
 10
2.9645974206
 20
4.9152897536
 30
0.0
 10
2.9646351493
 20
4.9152257831
 30
0.0
 10
2.9646874588
 20
4.915136976
 30
0.0
 10
2.9647491256
 20
4.915032148
 30
0.0
 10
2.9648201017
 20
4.9149113388
 30
0.0
 10
2.9649003392
 20
4.914774588
 30
0.0
 10
2.9650257752
 20
4.9145605254
 30
0.0
 10
2.9652053715
 20
4.9142533983
 30
0.0
 10
2.9654478882
 20
4.9138376208
 30
0.0
 10
2.9657259638
 20
4.9133593771
 30
0.0
 10
2.9660386152
 20
4.9128193355
 30
0.0
 10
2.9663848278
 20
4.9122183118
 30
0.0
 10
2.966763567
 20
4.9115571207
 30
0.0
 10
2.9671738039
 20
4.9108365798
 30
0.0
 10
2.9676144991
 20
4.9100575037
 30
0.0
 10
2.9682618413
 20
4.9089053405
 30
0.0
 10
2.9691390149
 20
4.9073260468
 30
0.0
 10
2.9702628163
 20
4.9052662514
 30
0.0
 10
2.9714772675
 20
4.9029946115
 30
0.0
 10
2.9727714185
 20
4.9005188513
 30
0.0
 10
2.974133393
 20
4.8978460613
 30
0.0
 10
2.9755510087
 20
4.8949830538
 30
0.0
 10
2.9770122201
 20
4.8919366051
 30
0.0
 10
2.9785050648
 20
4.8887131755
 30
0.0
 10
2.9805616802
 20
4.8840948053
 30
0.0
 10
2.9831312694
 20
4.8779234354
 30
0.0
 10
2.9860813544
 20
4.8700365375
 30
0.0
 10
2.9888485493
 20
4.8615716363
 30
0.0
 10
2.9908918085
 20
4.8541513112
 30
0.0
 10
2.9923374439
 20
4.8479686243
 30
0.0
 10
2.9933177635
 20
4.8431795763
 30
0.0
 10
2.9941722512
 20
4.8382948707
 30
0.0
 10
2.9948901904
 20
4.8333275644
 30
0.0
 10
2.9954599658
 20
4.8282914842
 30
0.0
 10
2.9960103762
 20
4.821492386
 30
0.0
 10
2.9962923753
 20
4.8129335464
 30
0.0
 10
2.9960103829
 20
4.8043747082
 30
0.0
 10
2.9954599714
 20
4.7975756145
 30
0.0
 10
2.9948901892
 20
4.7925395325
 30
0.0
 10
2.9941722486
 20
4.7875722163
 30
0.0
 10
2.9933177608
 20
4.7826874958
 30
0.0
 10
2.9923374422
 20
4.7778984325
 30
0.0
 10
2.9908918043
 20
4.7717157327
 30
0.0
 10
2.9888485377
 20
4.7642954005
 30
0.0
 10
2.9860813424
 20
4.755830496
 30
0.0
 10
2.9831312553
 20
4.747943599
 30
0.0
 10
2.9805616651
 20
4.7417722307
 30
0.0
 10
2.9785050498
 20
4.7371538595
 30
0.0
 10
2.9770122041
 20
4.7339304308
 30
0.0
 10
2.9755509922
 20
4.7308839838
 30
0.0
 10
2.9741333776
 20
4.7280209778
 30
0.0
 10
2.9727714045
 20
4.7253481895
 30
0.0
 10
2.9714772528
 20
4.7228724323
 30
0.0
 10
2.9702628028
 20
4.7206007943
 30
0.0
 10
2.969139003
 20
4.718541
 30
0.0
 10
2.9682618299
 20
4.7169617071
 30
0.0
 10
2.9676144865
 20
4.7158095456
 30
0.0
 10
2.9671737919
 20
4.715030471
 30
0.0
 10
2.9667635567
 20
4.7143099321
 30
0.0
 10
2.9663848195
 20
4.7136487432
 30
0.0
 10
2.9660386088
 20
4.7130477216
 30
0.0
 10
2.9657259584
 20
4.7125076811
 30
0.0
 10
2.9654478824
 20
4.7120294378
 30
0.0
 10
2.965205364
 20
4.7116136608
 30
0.0
 10
2.9650257676
 20
4.711306534
 30
0.0
 10
2.9649003322
 20
4.7110924722
 30
0.0
 10
2.9648200958
 20
4.7109557226
 30
0.0
 10
2.9647491208
 20
4.7108349147
 30
0.0
 10
2.9646874553
 20
4.7107300881
 30
0.0
 10
2.9646351469
 20
4.7106412824
 30
0.0
 10
2.9645974192
 20
4.7105773131
 30
0.0
 10
2.9645719528
 20
4.7105341767
 30
0.0
 10
2.9645564076
 20
4.7105078639
 30
0.0
 10
2.9645432389
 20
4.7104855835
 30
0.0
 10
2.9645324473
 20
4.7104673502
 30
0.0
 10
2.964524954
 20
4.7104546668
 30
0.0
 10
2.9645201384
 20
4.7104465718
 30
0.0
 10
2.9645174552
 20
4.7104419668
 30
0.0
 10
2.9645152929
 20
4.7104385145
 30
0.0
 10
2.9645139168
 20
4.7104357496
 30
0.0
 10
2.9645127871
 20
4.710434624
 30
0.0
 10
2.9645126193
 20
4.710433535
 30
0.0
 10
2.9645124224
 20
4.710433535
 30
0.0
  0
SPLINE
  5
3E7
100
AcDbEntity
  8
ALL_ASSEMBLY_MEMBERS
100
AcDbSpline
 62
7
  6
CONTINUOUS
 70
0
 71
3
 72
68
 73
64
 74
0
 42
0.0000001
 43
0.0000001
 44
0.0000000001
 40
0.0
 40
0.0
 40
0.0
 40
0.0
 40
0.0109566179
 40
0.0426131657
 40
0.0920231983
 40
0.1223237401
 40
0.1558189903
 40
0.1921583924
 40
0.2310207696
 40
0.2721107167
 40
0.3151421207
 40
0.3372911543
 40
0.3598127143
 40
0.405778375
 40
0.4291285003
 40
0.4526552126
 40
0.4999950588
 40
0.547334951
 40
0.5708616887
 40
0.5942118058
 40
0.6173347482
 40
0.6401824075
 40
0.6627038916
 40
0.6848528744
 40
0.7278842244
 40
0.7689741547
 40
0.8078365589
 40
0.8441759542
 40
0.8613005806
 40
0.8776721122
 40
0.893245992
 40
0.9079732636
 40
0.9218032091
 40
0.934684225
 40
0.9465633552
 40
0.9573860626
 40
0.9670972271
 40
0.9715186667
 40
0.9756420711
 40
0.9794618307
 40
0.9829723568
 40
0.9861680497
 40
0.9890432986
 40
0.9915924829
 40
0.993810093
 40
0.9956924746
 40
0.9965072675
 40
0.9972374363
 40
0.9978827119
 40
0.9984428249
 40
0.9989175061
 40
0.9993064859
 40
0.9994687535
 40
0.9996094948
 40
0.999728676
 40
0.9998262633
 40
0.9999022231
 40
0.9999320821
 40
0.9999565216
 40
0.9999755374
 40
0.9999891252
 40
0.9999972808
 40
1.0
 40
1.0
 40
1.0
 40
1.0
 10
3.5220124224
 20
4.710433535
 30
0.0
 10
3.5216093922
 20
4.7111166621
 30
0.0
 10
3.5200516177
 20
4.7137792641
 30
0.0
 10
3.5167713103
 20
4.7195778022
 30
0.0
 10
3.5130082
 20
4.7267100431
 30
0.0
 10
3.5094175107
 20
4.7340773893
 30
0.0
 10
3.5064187399
 20
4.7406780479
 30
0.0
 10
3.5033936045
 20
4.7479435826
 30
0.0
 10
3.5004434972
 20
4.7558305042
 30
0.0
 10
3.4976763043
 20
4.7642954071
 30
0.0
 10
3.4956330508
 20
4.771715713
 30
0.0
 10
3.4941873835
 20
4.7778984676
 30
0.0
 10
3.4928715364
 20
4.7843270412
 30
0.0
 10
3.4918206334
 20
4.7908963425
 30
0.0
 10
3.4910648654
 20
4.7975755732
 30
0.0
 10
3.4905144669
 20
4.8043747299
 30
0.0
 10
3.4902324675
 20
4.8129335381
 30
0.0
 10
3.490514469
 20
4.8214923876
 30
0.0
 10
3.4910648792
 20
4.8282914854
 30
0.0
 10
3.4916346543
 20
4.8333275662
 30
0.0
 10
3.4923525938
 20
4.8382948725
 30
0.0
 10
3.4932070816
 20
4.8431795777
 30
0.0
 10
3.494187401
 20
4.847968625
 30
0.0
 10
3.4956330359
 20
4.8541513105
 30
0.0
 10
3.4976762945
 20
4.861571634
 30
0.0
 10
3.5004434892
 20
4.8700365337
 30
0.0
 10
3.5033935734
 20
4.8779234306
 30
0.0
 10
3.5059631621
 20
4.8840947996
 30
0.0
 10
3.5080197772
 20
4.8887131689
 30
0.0
 10
3.5095126214
 20
4.8919365983
 30
0.0
 10
3.5109738325
 20
4.8949830473
 30
0.0
 10
3.5123914485
 20
4.8978460552
 30
0.0
 10
3.5137534235
 20
4.9005188459
 30
0.0
 10
3.5150475749
 20
4.9029946072
 30
0.0
 10
3.5162620269
 20
4.9052662483
 30
0.0
 10
3.5173858291
 20
4.9073260446
 30
0.0
 10
3.5182630029
 20
4.908905339
 30
0.0
 10
3.5189103449
 20
4.9100575027
 30
0.0
 10
3.5193510397
 20
4.9108365791
 30
0.0
 10
3.5197612762
 20
4.9115571203
 30
0.0
 10
3.5201400153
 20
4.9122183116
 30
0.0
 10
3.5204862279
 20
4.9128193356
 30
0.0
 10
3.5207988797
 20
4.9133593775
 30
0.0
 10
3.5210769562
 20
4.9138376213
 30
0.0
 10
3.5213194743
 20
4.9142533989
 30
0.0
 10
3.5214990721
 20
4.914560526
 30
0.0
 10
3.5216245092
 20
4.9147745886
 30
0.0
 10
3.5217047473
 20
4.9149113393
 30
0.0
 10
3.521775724
 20
4.9150321484
 30
0.0
 10
3.5218373911
 20
4.9151369763
 30
0.0
 10
3.5218897009
 20
4.9152257833
 30
0.0
 10
3.521927429
 20
4.9152897538
 30
0.0
 10
3.5219528964
 20
4.915332891
 30
0.0
 10
3.5219684402
 20
4.9153592043
 30
0.0
 10
3.5219816132
 20
4.9153814852
 30
0.0
 10
3.5219923922
 20
4.9153997189
 30
0.0
 10
3.5219999133
 20
4.9154124026
 30
0.0
 10
3.5220046853
 20
4.9154204978
 30
0.0
 10
3.5220074583
 20
4.9154251029
 30
0.0
 10
3.5220093872
 20
4.9154285552
 30
0.0
 10
3.5220112899
 20
4.9154313203
 30
0.0
 10
3.5220114941
 20
4.9154324457
 30
0.0
 10
3.5220126192
 20
4.9154335348
 30
0.0
 10
3.5220124224
 20
4.915433535
 30
0.0
  0
SPLINE
  5
3E8
100
AcDbEntity
  8
ALL_ASSEMBLY_MEMBERS
100
AcDbSpline
 62
7
  6
CONTINUOUS
 70
0
 71
3
 72
27
 73
23
 74
0
 42
0.0000001
 43
0.0000001
 44
0.0000000001
 40
0.0
 40
0.0
 40
0.0
 40
0.0
 40
0.063526287
 40
0.126755342
 40
0.1896625936
 40
0.2522456035
 40
0.2834220586
 40
0.3145250828
 40
0.3765202951
 40
0.4383092689
 40
0.4691615986
 40
0.5000001397
 40
0.5308386817
 40
0.5616910098
 40
0.6234799716
 40
0.6854751625
 40
0.7165781812
 40
0.7477546301
 40
0.8103376155
 40
0.8732448541
 40
0.9364738239
 40
1.0
 40
1.0
 40
1.0
 40
1.0
 10
3.2432624224
 20
5.6749622264
 30
0.0
 10
3.2496398123
 20
5.671290845
 30
0.0
 10
3.2625048711
 20
5.664204494
 30
0.0
 10
3.2822027291
 20
5.6544566524
 30
0.0
 10
3.3022707309
 20
5.6457607929
 30
0.0
 10
3.3193277292
 20
5.6395259458
 30
0.0
 10
3.3331450887
 20
5.6352417301
 30
0.0
 10
3.3470389521
 20
5.6314646509
 30
0.0
 10
3.3646048063
 20
5.6277206603
 30
0.0
 10
3.3823909776
 20
5.6254142006
 30
0.0
 10
3.3966680476
 20
5.6244848667
 30
0.0
 10
3.4073873025
 20
5.6242531203
 30
0.0
 10
3.4181065572
 20
5.6244848599
 30
0.0
 10
3.4323836273
 20
5.6254141702
 30
0.0
 10
3.4501697965
 20
5.627720619
 30
0.0
 10
3.4677356476
 20
5.6314646
 30
0.0
 10
3.4816295127
 20
5.6352416579
 30
0.0
 10
3.4954468786
 20
5.6395258382
 30
0.0
 10
3.5125038731
 20
5.6457606927
 30
0.0
 10
3.532571797
 20
5.6544566841
 30
0.0
 10
3.5522698305
 20
5.6642040954
 30
0.0
 10
3.5651350411
 20
5.6712901364
 30
0.0
 10
3.5715124224
 20
5.674961507
 30
0.0
  0
SPLINE
  5
3E9
100
AcDbEntity
  8
ALL_ASSEMBLY_MEMBERS
100
AcDbSpline
 62
7
  6
CONTINUOUS
 70
0
 71
3
 72
27
 73
23
 74
0
 42
0.0000001
 43
0.0000001
 44
0.0000000001
 40
0.0
 40
0.0
 40
0.0
 40
0.0
 40
0.0635261749
 40
0.1267551514
 40
0.1896624055
 40
0.2522454058
 40
0.2834218628
 40
0.314524886
 40
0.3765200948
 40
0.4383090657
 40
0.4691613956
 40
0.4999999363
 40
0.5308384787
 40
0.5616908066
 40
0.6234797712
 40
0.6854749657
 40
0.7165779854
 40
0.7477544324
 40
0.8103374273
 40
0.8732446636
 40
0.9364737119
 40
1.0
 40
1.0
 40
1.0
 40
1.0
 10
2.9150124224
 20
5.6749615069
 30
0.0
 10
2.9213898036
 20
5.6712901364
 30
0.0
 10
2.9342550145
 20
5.6642040948
 30
0.0
 10
2.9539530504
 20
5.654456683
 30
0.0
 10
2.9740209781
 20
5.6457606894
 30
0.0
 10
2.9910779775
 20
5.6395258354
 30
0.0
 10
3.0048953462
 20
5.6352416534
 30
0.0
 10
3.0187892149
 20
5.6314645954
 30
0.0
 10
3.0363550697
 20
5.6277206119
 30
0.0
 10
3.0541412434
 20
5.6254141753
 30
0.0
 10
3.0684183139
 20
5.6244848539
 30
0.0
 10
3.0791375691
 20
5.6242531202
 30
0.0
 10
3.0898568235
 20
5.6244848727
 30
0.0
 10
3.1041338931
 20
5.6254141955
 30
0.0
 10
3.1219200598
 20
5.6277206675
 30
0.0
 10
3.1394859104
 20
5.6314646554
 30
0.0
 10
3.1533797703
 20
5.6352417345
 30
0.0
 10
3.167197127
 20
5.6395259486
 30
0.0
 10
3.1842541203
 20
5.6457607964
 30
0.0
 10
3.2043221184
 20
5.6544566535
 30
0.0
 10
3.2240199739
 20
5.6642044946
 30
0.0
 10
3.2368850323
 20
5.671290845
 30
0.0
 10
3.2432624224
 20
5.6749622265
 30
0.0
  0
SPLINE
  5
3EA
100
AcDbEntity
  8
ALL_ASSEMBLY_MEMBERS
100
AcDbSpline
 62
7
  6
CONTINUOUS
 70
0
 71
3
 72
15
 73
11
 74
0
 42
0.0000001
 43
0.0000001
 44
0.0000000001
 40
0.0
 40
0.0
 40
0.0
 40
0.0
 40
0.1051294916
 40
0.2164320375
 40
0.3337292267
 40
0.4567752406
 40
0.5852623372
 40
0.7188458656
 40
0.8572044983
 40
1.0
 40
1.0
 40
1.0
 40
1.0
 10
7.5200918306
 20
5.6358757456
 30
0.0
 10
7.5212648446
 20
5.6370454026
 30
0.0
 10
7.5235937847
 20
5.6395404819
 30
0.0
 10
7.5269537545
 20
5.64358853
 30
0.0
 10
7.5302808062
 20
5.6480217269
 30
0.0
 10
7.5335745608
 20
5.6528115527
 30
0.0
 10
7.5368355324
 20
5.6579304196
 30
0.0
 10
7.5400646337
 20
5.6633520057
 30
0.0
 10
7.5432616676
 20
5.6690522947
 30
0.0
 10
7.5453410319
 20
5.6729645428
 30
0.0
 10
7.5463777246
 20
5.674961507
 30
0.0
  0
SPLINE
  5
3EB
100
AcDbEntity
  8
ALL_ASSEMBLY_MEMBERS
100
AcDbSpline
 62
7
  6
CONTINUOUS
 70
0
 71
3
 72
15
 73
11
 74
0
 42
0.0000001
 43
0.0000001
 44
0.0000000001
 40
0.0
 40
0.0
 40
0.0
 40
0.0
 40
0.1051294916
 40
0.2164320375
 40
0.3337292267
 40
0.4567752406
 40
0.5852623372
 40
0.7188458656
 40
0.8572044983
 40
1.0
 40
1.0
 40
1.0
 40
1.0
 10
6.8404330141
 20
5.6358757456
 30
0.0
 10
6.8392600001
 20
5.6370454026
 30
0.0
 10
6.83693106
 20
5.6395404819
 30
0.0
 10
6.8335710903
 20
5.64358853
 30
0.0
 10
6.8302440385
 20
5.6480217269
 30
0.0
 10
6.8269502839
 20
5.6528115527
 30
0.0
 10
6.8236893123
 20
5.6579304196
 30
0.0
 10
6.820460211
 20
5.6633520057
 30
0.0
 10
6.8172631771
 20
5.6690522947
 30
0.0
 10
6.8151838128
 20
5.6729645428
 30
0.0
 10
6.8141471201
 20
5.674961507
 30
0.0
  0
SPLINE
  5
3EC
100
AcDbEntity
  8
ALL_ASSEMBLY_MEMBERS
100
AcDbSpline
 62
7
  6
CONTINUOUS
 70
0
 71
3
 72
23
 73
19
 74
0
 42
0.0000001
 43
0.0000001
 44
0.0000000001
 40
0.0
 40
0.0
 40
0.0
 40
0.0
 40
0.1254626834
 40
0.1881249311
 40
0.2507257385
 40
0.3132716851
 40
0.3757632293
 40
0.4382071331
 40
0.5006092747
 40
0.5629837934
 40
0.6253432052
 40
0.6877040878
 40
0.7188939821
 40
0.7500888446
 40
0.8124967603
 40
0.874946858
 40
0.93744666
 40
1.0
 40
1.0
 40
1.0
 40
1.0
 10
7.0821621228
 20
5.6749612638
 30
0.0
 10
7.0936426199
 20
5.6690356399
 30
0.0
 10
7.1111213977
 20
5.6606406075
 30
0.0
 10
7.1349685221
 20
5.6507324734
 30
0.0
 10
7.153117122
 20
5.6440328592
 30
0.0
 10
7.1715310072
 20
5.6381555964
 30
0.0
 10
7.1901963656
 20
5.6331905471
 30
0.0
 10
7.209087388
 20
5.6292336786
 30
0.0
 10
7.2281626457
 20
5.6263617205
 30
0.0
 10
7.2473690533
 20
5.6246495167
 30
0.0
 10
7.2666405872
 20
5.6241301762
 30
0.0
 10
7.2826963371
 20
5.6247117284
 30
0.0
 10
7.2955001044
 20
5.6257697579
 30
0.0
 10
7.3082703742
 20
5.6272197936
 30
0.0
 10
7.3241495629
 20
5.6297502762
 30
0.0
 10
7.3430093707
 20
5.633861392
 30
0.0
 10
7.3616387136
 20
5.6389666498
 30
0.0
 10
7.3738842734
 20
5.6429678865
 30
0.0
 10
7.3799616425
 20
5.6451027908
 30
0.0
  0
SPLINE
  5
3ED
100
AcDbEntity
  8
ALL_ASSEMBLY_MEMBERS
100
AcDbSpline
 62
7
  6
CONTINUOUS
 70
0
 71
3
 72
10
 73
6
 74
0
 42
0.0000001
 43
0.0000001
 44
0.0000000001
 40
0.0
 40
0.0
 40
0.0
 40
0.0
 40
0.2496926991
 40
0.4996187848
 40
1.0
 40
1.0
 40
1.0
 40
1.0
 10
7.3799616425
 20
5.6451027908
 30
0.0
 10
7.3858202928
 20
5.6471608619
 30
0.0
 10
7.3974570706
 20
5.6515280017
 30
0.0
 10
7.4203935054
 20
5.6611503952
 30
0.0
 10
7.4372194974
 20
5.669253748
 30
0.0
 10
7.448277425
 20
5.674961264
 30
0.0
  0
SPLINE
  5
3EE
100
AcDbEntity
  8
ALL_ASSEMBLY_MEMBERS
100
AcDbSpline
 62
7
  6
CONTINUOUS
 70
0
 71
3
 72
25
 73
21
 74
0
 42
0.0000001
 43
0.0000001
 44
0.0000000001
 40
0.0
 40
0.0
 40
0.0
 40
0.0
 40
0.065408796
 40
0.1299838975
 40
0.1936638685
 40
0.2564216565
 40
0.3182868556
 40
0.3793615988
 40
0.4096665531
 40
0.4398532974
 40
0.5000000471
 40
0.5601467887
 40
0.5903335333
 40
0.6206384796
 40
0.6817132064
 40
0.7435783847
 40
0.8063361589
 40
0.8700161082
 40
0.9345912062
 40
1.0
 40
1.0
 40
1.0
 40
1.0
 10
6.8141471201
 20
5.6749612638
 30
0.0
 10
6.819334288
 20
5.6713039421
 30
0.0
 10
6.8297930362
 20
5.6642455292
 30
0.0
 10
6.845869225
 20
5.6544983963
 30
0.0
 10
6.8622489394
 20
5.6457992024
 30
0.0
 10
6.878937795
 20
5.6383211416
 30
0.0
 10
6.8959204418
 20
5.6322390431
 30
0.0
 10
6.9103306631
 20
5.6284752717
 30
0.0
 10
6.9219356154
 20
5.6263357245
 30
0.0
 10
6.9335449326
 20
5.6248007702
 30
0.0
 10
6.9481546345
 20
5.6240160882
 30
0.0
 10
6.9627643357
 20
5.6248007767
 30
0.0
 10
6.9743736516
 20
5.6263357283
 30
0.0
 10
6.9859786024
 20
5.6284752715
 30
0.0
 10
7.0003888171
 20
5.6322390511
 30
0.0
 10
7.0173714598
 20
5.6383211456
 30
0.0
 10
7.0340603099
 20
5.6457992056
 30
0.0
 10
7.0504400218
 20
5.6544983962
 30
0.0
 10
7.0665162042
 20
5.6642455347
 30
0.0
 10
7.0769749523
 20
5.6713039463
 30
0.0
 10
7.0821621228
 20
5.674961264
 30
0.0
  0
SPLINE
  5
3EF
100
AcDbEntity
  8
ALL_ASSEMBLY_MEMBERS
100
AcDbSpline
 62
7
  6
CONTINUOUS
 70
0
 71
3
 72
29
 73
25
 74
0
 42
0.0000001
 43
0.0000001
 44
0.0000000001
 40
0.0
 40
0.0
 40
0.0
 40
0.0
 40
0.0887035141
 40
0.1736748881
 40
0.2545557876
 40
0.3309823366
 40
0.4026312593
 40
0.4692652463
 40
0.5307929479
 40
0.5596949619
 40
0.5874112029
 40
0.6395863066
 40
0.6643396417
 40
0.688409625
 40
0.7119969613
 40
0.7353280668
 40
0.7586400423
 40
0.782170571
 40
0.8061488872
 40
0.8307803175
 40
0.8826383151
 40
0.9101708551
 40
0.9388786325
 40
1.0
 40
1.0
 40
1.0
 40
1.0
 10
7.448277425
 20
5.6749622264
 30
0.0
 10
7.4496348902
 20
5.6723473593
 30
0.0
 10
7.4523576277
 20
5.6672608649
 30
0.0
 10
7.4565777648
 20
5.6599326951
 30
0.0
 10
7.460852322
 20
5.6531120661
 30
0.0
 10
7.4651826719
 20
5.6468568994
 30
0.0
 10
7.4695705894
 20
5.6412290746
 30
0.0
 10
7.4740154154
 20
5.6362921666
 30
0.0
 10
7.4778456017
 20
5.6327356477
 30
0.0
 10
7.480944041
 20
5.630323434
 30
0.0
 10
7.4839321372
 20
5.6282890132
 30
0.0
 10
7.4870103689
 20
5.6266375465
 30
0.0
 10
7.4901538883
 20
5.6254548501
 30
0.0
 10
7.4924781696
 20
5.6248217111
 30
0.0
 10
7.4948079274
 20
5.6244329861
 30
0.0
 10
7.4971405152
 20
5.6242902919
 30
0.0
 10
7.4994732965
 20
5.6243935604
 30
0.0
 10
7.5018037072
 20
5.6247427943
 30
0.0
 10
7.5041290201
 20
5.6253371233
 30
0.0
 10
7.5072729495
 20
5.626467878
 30
0.0
 10
7.5103541868
 20
5.6280702487
 30
0.0
 10
7.5133451971
 20
5.6300591977
 30
0.0
 10
7.5164461707
 20
5.6324251764
 30
0.0
 10
7.5186542752
 20
5.6344423044
 30
0.0
 10
7.5200918306
 20
5.6358757456
 30
0.0
  0
SPLINE
  5
3F0
100
AcDbEntity
  8
ALL_ASSEMBLY_MEMBERS
100
AcDbSpline
 62
7
  6
CONTINUOUS
 70
0
 71
3
 72
15
 73
11
 74
0
 42
0.0000001
 43
0.0000001
 44
0.0000000001
 40
0.0
 40
0.0
 40
0.0
 40
0.0
 40
0.1246082417
 40
0.2503936291
 40
0.3768527553
 40
0.5033663471
 40
0.6293140225
 40
0.7541887495
 40
0.8777185728
 40
1.0
 40
1.0
 40
1.0
 40
1.0
 10
5.8055124224
 20
5.393433535
 30
0.0
 10
5.8006959235
 20
5.3777090829
 30
0.0
 10
5.7901622279
 20
5.3463720282
 30
0.0
 10
5.7726689094
 20
5.2998093299
 30
0.0
 10
5.7542789836
 20
5.2533265559
 30
0.0
 10
5.7358738804
 20
5.2068271722
 30
0.0
 10
5.7183343776
 20
5.1602127675
 30
0.0
 10
5.702544018
 20
5.1133805359
 30
0.0
 10
5.6893938181
 20
5.0662291773
 30
0.0
 10
5.6829663956
 20
5.0343843613
 30
0.0
 10
5.6805124224
 20
5.018433535
 30
0.0
  0
SPLINE
  5
3F1
100
AcDbEntity
  8
ALL_ASSEMBLY_MEMBERS
100
AcDbSpline
 62
7
  6
CONTINUOUS
 70
0
 71
3
 72
15
 73
11
 74
0
 42
0.0000001
 43
0.0000001
 44
0.0000000001
 40
0.0
 40
0.0
 40
0.0
 40
0.0
 40
0.1246082417
 40
0.2503936291
 40
0.3768527553
 40
0.5033663471
 40
0.6293140225
 40
0.7541887495
 40
0.8777185728
 40
1.0
 40
1.0
 40
1.0
 40
1.0
 10
4.6180124224
 20
5.393433535
 30
0.0
 10
4.6228289212
 20
5.3777090829
 30
0.0
 10
4.6333626168
 20
5.3463720282
 30
0.0
 10
4.6508559353
 20
5.2998093299
 30
0.0
 10
4.6692458611
 20
5.2533265559
 30
0.0
 10
4.6876509643
 20
5.2068271722
 30
0.0
 10
4.7051904671
 20
5.1602127675
 30
0.0
 10
4.7209808267
 20
5.1133805359
 30
0.0
 10
4.7341310266
 20
5.0662291773
 30
0.0
 10
4.7405584491
 20
5.0343843613
 30
0.0
 10
4.7430124224
 20
5.018433535
 30
0.0
  0
SPLINE
  5
3F2
100
AcDbEntity
  8
ALL_ASSEMBLY_MEMBERS
100
AcDbSpline
 62
7
  6
CONTINUOUS
 70
0
 71
3
 72
11
 73
7
 74
0
 42
0.0000001
 43
0.0000001
 44
0.0000000001
 40
0.0
 40
0.0
 40
0.0
 40
0.0
 40
0.2533945098
 40
0.5031580534
 40
0.7513745212
 40
1.0
 40
1.0
 40
1.0
 40
1.0
 10
5.6805124224
 20
5.018433535
 30
0.0
 10
5.6724427565
 20
4.9659807069
 30
0.0
 10
5.658265478
 20
4.8615362476
 30
0.0
 10
5.6417059353
 20
4.7050291784
 30
0.0
 10
5.628688429
 20
4.5491972542
 30
0.0
 10
5.6214761427
 20
4.4453893401
 30
0.0
 10
5.6180124224
 20
4.393433535
 30
0.0
  0
SPLINE
  5
3F3
100
AcDbEntity
  8
ALL_ASSEMBLY_MEMBERS
100
AcDbSpline
 62
7
  6
CONTINUOUS
 70
0
 71
3
 72
11
 73
7
 74
0
 42
0.0000001
 43
0.0000001
 44
0.0000000001
 40
0.0
 40
0.0
 40
0.0
 40
0.0
 40
0.2533945098
 40
0.5031580534
 40
0.7513745212
 40
1.0
 40
1.0
 40
1.0
 40
1.0
 10
4.7430124224
 20
5.018433535
 30
0.0
 10
4.7510820882
 20
4.9659807069
 30
0.0
 10
4.7652593667
 20
4.8615362476
 30
0.0
 10
4.7818189094
 20
4.7050291784
 30
0.0
 10
4.7948364157
 20
4.5491972542
 30
0.0
 10
4.802048702
 20
4.4453893401
 30
0.0
 10
4.8055124224
 20
4.393433535
 30
0.0
  0
SPLINE
  5
3F4
100
AcDbEntity
  8
ALL_ASSEMBLY_MEMBERS
100
AcDbSpline
 62
7
  6
CONTINUOUS
 70
0
 71
3
 72
11
 73
7
 74
0
 42
0.0000001
 43
0.0000001
 44
0.0000000001
 40
0.0
 40
0.0
 40
0.0
 40
0.0
 40
0.2503260878
 40
0.5004235954
 40
0.7502703597
 40
1.0
 40
1.0
 40
1.0
 40
1.0
 10
5.6180124224
 20
4.393433535
 30
0.0
 10
5.6145383694
 20
4.34132274
 30
0.0
 10
5.6071606217
 20
4.2371786189
 30
0.0
 10
5.5967449149
 20
4.0809912275
 30
0.0
 10
5.5889320099
 20
3.9247684566
 30
0.0
 10
5.5867624224
 20
3.8205355643
 30
0.0
 10
5.5867624224
 20
3.768433535
 30
0.0
  0
SPLINE
  5
3F5
100
AcDbEntity
  8
ALL_ASSEMBLY_MEMBERS
100
AcDbSpline
 62
7
  6
CONTINUOUS
 70
0
 71
3
 72
11
 73
7
 74
0
 42
0.0000001
 43
0.0000001
 44
0.0000000001
 40
0.0
 40
0.0
 40
0.0
 40
0.0
 40
0.2503260878
 40
0.5004235954
 40
0.7502703597
 40
1.0
 40
1.0
 40
1.0
 40
1.0
 10
4.8055124224
 20
4.393433535
 30
0.0
 10
4.8089864754
 20
4.34132274
 30
0.0
 10
4.816364223
 20
4.2371786189
 30
0.0
 10
4.8267799298
 20
4.0809912275
 30
0.0
 10
4.8345928348
 20
3.9247684566
 30
0.0
 10
4.8367624224
 20
3.8205355643
 30
0.0
 10
4.8367624224
 20
3.768433535
 30
0.0
  0
SPLINE
  5
3F6
100
AcDbEntity
  8
ALL_ASSEMBLY_MEMBERS
100
AcDbSpline
 62
7
  6
CONTINUOUS
 70
0
 71
3
 72
15
 73
11
 74
0
 42
0.0000001
 43
0.0000001
 44
0.0000000001
 40
0.0
 40
0.0
 40
0.0
 40
0.0
 40
0.170661003
 40
0.3366004574
 40
0.4932071603
 40
0.6361542659
 40
0.7614787828
 40
0.8657110063
 40
0.9459607323
 40
1.0
 40
1.0
 40
1.0
 40
1.0
 10
5.5867624224
 20
3.104933535
 30
0.0
 10
5.5867624224
 20
3.0772852195
 30
0.0
 10
5.5865987507
 20
3.0227534273
 30
0.0
 10
5.5859633518
 20
2.9428525791
 30
0.0
 10
5.5850435772
 20
2.8674447109
 30
0.0
 10
5.5839449016
 20
2.7986199734
 30
0.0
 10
5.582772751
 20
2.7382829299
 30
0.0
 10
5.581633134
 20
2.688104892
 30
0.0
 10
5.5806315027
 20
2.6494756546
 30
0.0
 10
5.5799986299
 20
2.6277290259
 30
0.0
 10
5.5797251961
 20
2.6189785451
 30
0.0
  0
SPLINE
  5
3F7
100
AcDbEntity
  8
ALL_ASSEMBLY_MEMBERS
100
AcDbSpline
 62
7
  6
CONTINUOUS
 70
0
 71
3
 72
15
 73
11
 74
0
 42
0.0000001
 43
0.0000001
 44
0.0000000001
 40
0.0
 40
0.0
 40
0.0
 40
0.0
 40
0.1706630148
 40
0.3366042559
 40
0.4932123148
 40
0.6361601514
 40
0.7614846165
 40
0.8657158838
 40
0.9459636735
 40
1.0
 40
1.0
 40
1.0
 40
1.0
 10
4.8367624224
 20
3.104933535
 30
0.0
 10
4.8367624224
 20
3.077284736
 30
0.0
 10
4.8369260996
 20
3.0227520176
 30
0.0
 10
4.8375615185
 20
2.9428498792
 30
0.0
 10
4.8384813192
 20
2.8674409539
 30
0.0
 10
4.8395800214
 20
2.7986154948
 30
0.0
 10
4.8407521937
 20
2.7382781526
 30
0.0
 10
4.8418918217
 20
2.688100306
 30
0.0
 10
4.8428934481
 20
2.6494717935
 30
0.0
 10
4.8435263104
 20
2.627725831
 30
0.0
 10
4.8437997351
 20
2.6189757768
 30
0.0
  0
SPLINE
  5
3F8
100
AcDbEntity
  8
ALL_ASSEMBLY_MEMBERS
100
AcDbSpline
 62
7
  6
CONTINUOUS
 70
0
 71
3
 72
9
 73
5
 74
0
 42
0.0000001
 43
0.0000001
 44
0.0000000001
 40
0.0
 40
0.0
 40
0.0
 40
0.0
 40
0.4999922199
 40
1.0
 40
1.0
 40
1.0
 40
1.0
 10
4.6180124224
 20
5.393433535
 30
0.0
 10
4.6054615536
 20
5.434003477
 30
0.0
 10
4.5748815963
 20
5.513544015
 30
0.0
 10
4.5342796962
 20
5.5884352587
 30
0.0
 10
4.5117627576
 20
5.6244428166
 30
0.0
  0
SPLINE
  5
3F9
100
AcDbEntity
  8
ALL_ASSEMBLY_MEMBERS
100
AcDbSpline
 62
7
  6
CONTINUOUS
 70
0
 71
3
 72
9
 73
5
 74
0
 42
0.0000001
 43
0.0000001
 44
0.0000000001
 40
0.0
 40
0.0
 40
0.0
 40
0.0
 40
0.4999922197
 40
1.0
 40
1.0
 40
1.0
 40
1.0
 10
5.8055124224
 20
5.393433535
 30
0.0
 10
5.8180632911
 20
5.434003477
 30
0.0
 10
5.8486432484
 20
5.513544015
 30
0.0
 10
5.8892451485
 20
5.5884352587
 30
0.0
 10
5.9117620872
 20
5.6244428166
 30
0.0
  0
SPLINE
  5
3FA
100
AcDbEntity
  8
ALL_ASSEMBLY_MEMBERS
100
AcDbSpline
 62
7
  6
CONTINUOUS
 70
0
 71
3
 72
11
 73
7
 74
0
 42
0.0000001
 43
0.0000001
 44
0.0000000001
 40
0.0
 40
0.0
 40
0.0
 40
0.0
 40
0.2526417621
 40
0.5023277779
 40
0.7508580524
 40
1.0
 40
1.0
 40
1.0
 40
1.0
 10
5.4461374224
 20
5.018433535
 30
0.0
 10
5.442095247
 20
4.9658852552
 30
0.0
 10
5.4350019331
 20
4.8613293111
 30
0.0
 10
5.426728676
 20
4.704907709
 30
0.0
 10
5.4202231678
 20
4.54913516
 30
0.0
 10
5.4166189081
 20
4.4453781085
 30
0.0
 10
5.4148874224
 20
4.393433535
 30
0.0
  0
SPLINE
  5
3FB
100
AcDbEntity
  8
ALL_ASSEMBLY_MEMBERS
100
AcDbSpline
 62
7
  6
CONTINUOUS
 70
0
 71
3
 72
11
 73
7
 74
0
 42
0.0000001
 43
0.0000001
 44
0.0000000001
 40
0.0
 40
0.0
 40
0.0
 40
0.0
 40
0.2526417621
 40
0.5023277779
 40
0.7508580524
 40
1.0
 40
1.0
 40
1.0
 40
1.0
 10
4.9773874224
 20
5.018433535
 30
0.0
 10
4.9814295977
 20
4.9658852552
 30
0.0
 10
4.9885229116
 20
4.8613293111
 30
0.0
 10
4.9967961688
 20
4.704907709
 30
0.0
 10
5.0033016769
 20
4.54913516
 30
0.0
 10
5.0069059366
 20
4.4453781085
 30
0.0
 10
5.0086374224
 20
4.393433535
 30
0.0
  0
SPLINE
  5
3FC
100
AcDbEntity
  8
ALL_ASSEMBLY_MEMBERS
100
AcDbSpline
 62
7
  6
CONTINUOUS
 70
0
 71
3
 72
9
 73
5
 74
0
 42
0.0000001
 43
0.0000001
 44
0.0000000001
 40
0.0
 40
0.0
 40
0.0
 40
0.0
 40
0.5001379753
 40
1.0
 40
1.0
 40
1.0
 40
1.0
 10
5.4148874224
 20
4.393433535
 30
0.0
 10
5.4114149647
 20
4.2892598063
 30
0.0
 10
5.4036015102
 20
4.0810060721
 30
0.0
 10
5.3992624224
 20
3.8726076123
 30
0.0
 10
5.3992624224
 20
3.768433535
 30
0.0
  0
SPLINE
  5
3FD
100
AcDbEntity
  8
ALL_ASSEMBLY_MEMBERS
100
AcDbSpline
 62
7
  6
CONTINUOUS
 70
0
 71
3
 72
9
 73
5
 74
0
 42
0.0000001
 43
0.0000001
 44
0.0000000001
 40
0.0
 40
0.0
 40
0.0
 40
0.0
 40
0.5001379753
 40
1.0
 40
1.0
 40
1.0
 40
1.0
 10
5.0086374224
 20
4.393433535
 30
0.0
 10
5.01210988
 20
4.2892598063
 30
0.0
 10
5.0199233345
 20
4.0810060721
 30
0.0
 10
5.0242624224
 20
3.8726076123
 30
0.0
 10
5.0242624224
 20
3.768433535
 30
0.0
  0
SPLINE
  5
3FE
100
AcDbEntity
  8
ALL_ASSEMBLY_MEMBERS
100
AcDbSpline
 62
7
  6
CONTINUOUS
 70
0
 71
3
 72
17
 73
13
 74
0
 42
0.0000001
 43
0.0000001
 44
0.0000000001
 40
0.0
 40
0.0
 40
0.0
 40
0.0
 40
0.1249996347
 40
0.2499996566
 40
0.312499721
 40
0.3749998036
 40
0.4999999912
 40
0.6250001777
 40
0.6875002648
 40
0.7500003324
 40
0.8750003639
 40
1.0
 40
1.0
 40
1.0
 40
1.0
 10
5.5057670184
 20
5.3934335349
 30
0.0
 10
5.4812683377
 20
5.3931201472
 30
0.0
 10
5.4322685731
 20
5.392673466
 30
0.0
 10
5.3710172999
 20
5.392391975
 30
0.0
 10
5.3220159209
 20
5.3922613334
 30
0.0
 10
5.2730144166
 20
5.3921728576
 30
0.0
 10
5.2117624272
 20
5.3921332178
 30
0.0
 10
5.1505104376
 20
5.392173162
 30
0.0
 10
5.101508931
 20
5.392260973
 30
0.0
 10
5.0525075476
 20
5.3923913743
 30
0.0
 10
4.9912562758
 20
5.3926738885
 30
0.0
 10
4.9422565106
 20
5.3931204528
 30
0.0
 10
4.9177578257
 20
5.3934335349
 30
0.0
  0
SPLINE
  5
3FF
100
AcDbEntity
  8
ALL_ASSEMBLY_MEMBERS
100
AcDbSpline
 62
7
  6
CONTINUOUS
 70
0
 71
3
 72
15
 73
11
 74
0
 42
0.0000001
 43
0.0000001
 44
0.0000000001
 40
0.0
 40
0.0
 40
0.0
 40
0.0
 40
0.1249997138
 40
0.2499998158
 40
0.3749998716
 40
0.4999999928
 40
0.62500011
 40
0.7500001682
 40
0.8750002868
 40
1.0
 40
1.0
 40
1.0
 40
1.0
 10
5.505767004
 20
5.3934335351
 30
0.0
 10
5.4812683208
 20
5.3937480243
 30
0.0
 10
5.4322684571
 20
5.3941881189
 30
0.0
 10
5.3587669548
 20
5.3945341205
 30
0.0
 10
5.2852647619
 20
5.3947008757
 30
0.0
 10
5.2117624268
 20
5.3947512564
 30
0.0
 10
5.1382600916
 20
5.3947007973
 30
0.0
 10
5.0647578944
 20
5.3945343974
 30
0.0
 10
4.9912563913
 20
5.3941880394
 30
0.0
 10
4.9422565198
 20
5.3937483151
 30
0.0
 10
4.9177578404
 20
5.3934335351
 30
0.0
  0
SPLINE
  5
400
100
AcDbEntity
  8
ALL_ASSEMBLY_MEMBERS
100
AcDbSpline
 62
7
  6
CONTINUOUS
 70
0
 71
3
 72
9
 73
5
 74
0
 42
0.0000001
 43
0.0000001
 44
0.0000000001
 40
0.0
 40
0.0
 40
0.0
 40
0.0
 40
0.5005059225
 40
1.0
 40
1.0
 40
1.0
 40
1.0
 10
5.8040772204
 20
5.3934335349
 30
0.0
 10
5.7913655677
 20
5.3931102383
 30
0.0
 10
5.7659630639
 20
5.3926552342
 30
0.0
 10
5.7405580888
 20
5.3924315497
 30
0.0
 10
5.727868283
 20
5.3923517925
 30
0.0
  0
SPLINE
  5
401
100
AcDbEntity
  8
ALL_ASSEMBLY_MEMBERS
100
AcDbSpline
 62
7
  6
CONTINUOUS
 70
0
 71
3
 72
13
 73
9
 74
0
 42
0.0000001
 43
0.0000001
 44
0.0000000001
 40
0.0
 40
0.0
 40
0.0
 40
0.0
 40
0.1254112253
 40
0.2507083334
 40
0.5009939877
 40
0.625975445
 40
0.7508182922
 40
1.0
 40
1.0
 40
1.0
 40
1.0
 10
5.725970068
 20
5.392340102
 30
0.0
 10
5.7169445331
 20
5.3922856443
 30
0.0
 10
5.6989014942
 20
5.3922062402
 30
0.0
 10
5.6628456063
 20
5.3921292711
 30
0.0
 10
5.6268205018
 20
5.3921600398
 30
0.0
 10
5.5908283811
 20
5.3923054665
 30
0.0
 10
5.5549165878
 20
5.39256875
 30
0.0
 10
5.5280000154
 20
5.3929725938
 30
0.0
 10
5.510072624
 20
5.3934335349
 30
0.0
  0
SPLINE
  5
402
100
AcDbEntity
  8
ALL_ASSEMBLY_MEMBERS
100
AcDbSpline
 62
7
  6
CONTINUOUS
 70
0
 71
3
 72
9
 73
5
 74
0
 42
0.0000001
 43
0.0000001
 44
0.0000000001
 40
0.0
 40
0.0
 40
0.0
 40
0.0
 40
0.4994883933
 40
1.0
 40
1.0
 40
1.0
 40
1.0
 10
5.8040772132
 20
5.3934335351
 30
0.0
 10
5.7914885758
 20
5.3937586724
 30
0.0
 10
5.7662803004
 20
5.3942066935
 30
0.0
 10
5.7410697871
 20
5.3944365556
 30
0.0
 10
5.7284514336
 20
5.3945204157
 30
0.0
  0
SPLINE
  5
403
100
AcDbEntity
  8
ALL_ASSEMBLY_MEMBERS
100
AcDbSpline
 62
7
  6
CONTINUOUS
 70
0
 71
3
 72
12
 73
8
 74
0
 42
0.0000001
 43
0.0000001
 44
0.0000000001
 40
0.0
 40
0.0
 40
0.0
 40
0.0
 40
0.2494912617
 40
0.4992429288
 40
0.7493037276
 40
0.8745342877
 40
1.0
 40
1.0
 40
1.0
 40
1.0
 10
5.7259717044
 20
5.3945364833
 30
0.0
 10
5.7080163064
 20
5.3946498803
 30
0.0
 10
5.6720860273
 20
5.3947622832
 30
0.0
 10
5.6181590018
 20
5.3947147917
 30
0.0
 10
5.5731752302
 20
5.3944704315
 30
0.0
 10
5.5371386059
 20
5.3940239768
 30
0.0
 10
5.5190993885
 20
5.393664127
 30
0.0
 10
5.5100726314
 20
5.3934335351
 30
0.0
  0
SPLINE
  5
404
100
AcDbEntity
  8
ALL_ASSEMBLY_MEMBERS
100
AcDbSpline
 62
7
  6
CONTINUOUS
 70
0
 71
3
 72
13
 73
9
 74
0
 42
0.0000001
 43
0.0000001
 44
0.0000000001
 40
0.0
 40
0.0
 40
0.0
 40
0.0
 40
0.2491819847
 40
0.3740253321
 40
0.4990063101
 40
0.7492920159
 40
0.8745892365
 40
1.0
 40
1.0
 40
1.0
 40
1.0
 10
4.9134522204
 20
5.3934335349
 30
0.0
 10
4.895524992
 20
5.3929721453
 30
0.0
 10
4.8686086078
 20
5.3925685463
 30
0.0
 10
4.8326971321
 20
5.3923062349
 30
0.0
 10
4.7967053558
 20
5.3921595332
 30
0.0
 10
4.7606806151
 20
5.3921291596
 30
0.0
 10
4.7246250955
 20
5.3922064927
 30
0.0
 10
4.7065822505
 20
5.3922851228
 30
0.0
 10
4.6975568352
 20
5.392339608
 30
0.0
  0
SPLINE
  5
405
100
AcDbEntity
  8
ALL_ASSEMBLY_MEMBERS
100
AcDbSpline
 62
7
  6
CONTINUOUS
 70
0
 71
3
 72
9
 73
5
 74
0
 42
0.0000001
 43
0.0000001
 44
0.0000000001
 40
0.0
 40
0.0
 40
0.0
 40
0.0
 40
0.4994829261
 40
1.0
 40
1.0
 40
1.0
 40
1.0
 10
4.6975568352
 20
5.392339608
 30
0.0
 10
4.6845509107
 20
5.3924181231
 30
0.0
 10
4.6585124737
 20
5.3926410197
 30
0.0
 10
4.632476509
 20
5.3931024914
 30
0.0
 10
4.6194476241
 20
5.3934335349
 30
0.0
  0
SPLINE
  5
406
100
AcDbEntity
  8
ALL_ASSEMBLY_MEMBERS
100
AcDbSpline
 62
7
  6
CONTINUOUS
 70
0
 71
3
 72
12
 73
8
 74
0
 42
0.0000001
 43
0.0000001
 44
0.0000000001
 40
0.0
 40
0.0
 40
0.0
 40
0.0
 40
0.1254655181
 40
0.2506962183
 40
0.5007569688
 40
0.7505087244
 40
1.0
 40
1.0
 40
1.0
 40
1.0
 10
4.9134522132
 20
5.3934335351
 30
0.0
 10
4.9044254789
 20
5.3936639147
 30
0.0
 10
4.8863862964
 20
5.3940237911
 30
0.0
 10
4.8503497392
 20
5.3944705512
 30
0.0
 10
4.8053660241
 20
5.3947147412
 30
0.0
 10
4.7514390808
 20
5.3947624132
 30
0.0
 10
4.7155088499
 20
5.3946501413
 30
0.0
 10
4.6975534797
 20
5.3945366733
 30
0.0
  0
SPLINE
  5
407
100
AcDbEntity
  8
ALL_ASSEMBLY_MEMBERS
100
AcDbSpline
 62
7
  6
CONTINUOUS
 70
0
 71
3
 72
9
 73
5
 74
0
 42
0.0000001
 43
0.0000001
 44
0.0000000001
 40
0.0
 40
0.0
 40
0.0
 40
0.0
 40
0.5005175995
 40
1.0
 40
1.0
 40
1.0
 40
1.0
 10
4.6969663377
 20
5.3945329401
 30
0.0
 10
4.6840320006
 20
5.3944501987
 30
0.0
 10
4.6581904795
 20
5.3942208761
 30
0.0
 10
4.6323511699
 20
5.3937671156
 30
0.0
 10
4.6194476313
 20
5.3934335351
 30
0.0
  0
SPLINE
  5
408
100
AcDbEntity
  8
ALL_ASSEMBLY_MEMBERS
100
AcDbSpline
 62
7
  6
CONTINUOUS
 70
0
 71
3
 72
12
 73
8
 74
0
 42
0.0000001
 43
0.0000001
 44
0.0000000001
 40
0.0
 40
0.0
 40
0.0
 40
0.0
 40
0.2495869832
 40
0.4994048298
 40
0.7493735101
 40
0.8745247246
 40
1.0
 40
1.0
 40
1.0
 40
1.0
 10
5.5086374224
 20
5.393433535
 30
0.0
 10
5.5038470554
 20
5.3621552564
 30
0.0
 10
5.4924578448
 20
5.2998514429
 30
0.0
 10
5.4735733114
 20
5.2067503198
 30
0.0
 10
5.4592937166
 20
5.1287919962
 30
0.0
 10
5.4505409215
 20
5.065921195
 30
0.0
 10
5.4473575048
 20
5.0342946066
 30
0.0
 10
5.4461374224
 20
5.018433535
 30
0.0
  0
SPLINE
  5
409
100
AcDbEntity
  8
ALL_ASSEMBLY_MEMBERS
100
AcDbSpline
 62
7
  6
CONTINUOUS
 70
0
 71
3
 72
15
 73
11
 74
0
 42
0.0000001
 43
0.0000001
 44
0.0000000001
 40
0.0
 40
0.0
 40
0.0
 40
0.0
 40
0.2067378982
 40
0.3993070031
 40
0.5722291762
 40
0.7206515784
 40
0.8404502992
 40
0.9283456573
 40
0.9819847703
 40
1.0
 40
1.0
 40
1.0
 40
1.0
 10
5.3990583013
 20
2.9231366011
 30
0.0
 10
5.3989632838
 20
2.879275281
 30
0.0
 10
5.3987201007
 20
2.7945587982
 30
0.0
 10
5.3982195168
 20
2.6731559096
 30
0.0
 10
5.3976460271
 20
2.564125691
 30
0.0
 10
5.3970534967
 20
2.4705347798
 30
0.0
 10
5.396497569
 20
2.3949832909
 30
0.0
 10
5.3960309829
 20
2.3395409109
 30
0.0
 10
5.3957142045
 20
2.3056923871
 30
0.0
 10
5.395554046
 20
2.2904910763
 30
0.0
 10
5.3955124224
 20
2.2866691991
 30
0.0
  0
SPLINE
  5
40A
100
AcDbEntity
  8
ALL_ASSEMBLY_MEMBERS
100
AcDbSpline
 62
7
  6
CONTINUOUS
 70
0
 71
3
 72
15
 73
11
 74
0
 42
0.0000001
 43
0.0000001
 44
0.0000000001
 40
0.0
 40
0.0
 40
0.0
 40
0.0
 40
0.2067378982
 40
0.3993070031
 40
0.5722291762
 40
0.7206515784
 40
0.8404502992
 40
0.9283456573
 40
0.9819847703
 40
1.0
 40
1.0
 40
1.0
 40
1.0
 10
5.0244665434
 20
2.9231366011
 30
0.0
 10
5.0245615609
 20
2.879275281
 30
0.0
 10
5.024804744
 20
2.7945587982
 30
0.0
 10
5.025305328
 20
2.6731559096
 30
0.0
 10
5.0258788176
 20
2.564125691
 30
0.0
 10
5.026471348
 20
2.4705347798
 30
0.0
 10
5.0270272757
 20
2.3949832909
 30
0.0
 10
5.0274938618
 20
2.3395409109
 30
0.0
 10
5.0278106402
 20
2.3056923871
 30
0.0
 10
5.0279707988
 20
2.2904910763
 30
0.0
 10
5.0280124224
 20
2.2866691991
 30
0.0
  0
SPLINE
  5
40B
100
AcDbEntity
  8
ALL_ASSEMBLY_MEMBERS
100
AcDbSpline
 62
7
  6
CONTINUOUS
 70
0
 71
3
 72
11
 73
7
 74
0
 42
0.0000001
 43
0.0000001
 44
0.0000000001
 40
0.0
 40
0.0
 40
0.0
 40
0.0
 40
0.2575626437
 40
0.5105934824
 40
0.7582902576
 40
1.0
 40
1.0
 40
1.0
 40
1.0
 10
5.5086374224
 20
5.393433535
 30
0.0
 10
5.5117510333
 20
5.4135626619
 30
0.0
 10
5.5186348129
 20
5.4533606592
 30
0.0
 10
5.5310004354
 20
5.5120522611
 30
0.0
 10
5.5452436481
 20
5.5690254609
 30
0.0
 10
5.5560579577
 20
5.6061989682
 30
0.0
 10
5.5617622548
 20
5.6244428166
 30
0.0
  0
SPLINE
  5
40C
100
AcDbEntity
  8
ALL_ASSEMBLY_MEMBERS
100
AcDbSpline
 62
7
  6
CONTINUOUS
 70
0
 71
3
 72
11
 73
7
 74
0
 42
0.0000001
 43
0.0000001
 44
0.0000000001
 40
0.0
 40
0.0
 40
0.0
 40
0.0
 40
0.2417097421
 40
0.4894065172
 40
0.7424373561
 40
1.0
 40
1.0
 40
1.0
 40
1.0
 10
4.86176259
 20
5.6244428166
 30
0.0
 10
4.867466887
 20
5.6061989682
 30
0.0
 10
4.8782811967
 20
5.5690254609
 30
0.0
 10
4.8925244093
 20
5.5120522612
 30
0.0
 10
4.9048900318
 20
5.4533606593
 30
0.0
 10
4.9117738114
 20
5.4135626619
 30
0.0
 10
4.9148874224
 20
5.393433535
 30
0.0
  0
SPLINE
  5
40D
100
AcDbEntity
  8
ALL_ASSEMBLY_MEMBERS
100
AcDbSpline
 62
7
  6
CONTINUOUS
 70
0
 71
3
 72
12
 73
8
 74
0
 42
0.0000001
 43
0.0000001
 44
0.0000000001
 40
0.0
 40
0.0
 40
0.0
 40
0.0
 40
0.2495869832
 40
0.4994048298
 40
0.7493735101
 40
0.8745247246
 40
1.0
 40
1.0
 40
1.0
 40
1.0
 10
4.9148874224
 20
5.393433535
 30
0.0
 10
4.9196777894
 20
5.3621552564
 30
0.0
 10
4.9310669999
 20
5.2998514429
 30
0.0
 10
4.9499515334
 20
5.2067503198
 30
0.0
 10
4.9642311281
 20
5.1287919962
 30
0.0
 10
4.9729839232
 20
5.065921195
 30
0.0
 10
4.9761673399
 20
5.0342946066
 30
0.0
 10
4.9773874224
 20
5.018433535
 30
0.0
  0
SPLINE
  5
40E
100
AcDbEntity
  8
ALL_ASSEMBLY_MEMBERS
100
AcDbSpline
 62
7
  6
CONTINUOUS
 70
0
 71
3
 72
23
 73
19
 74
0
 42
0.0000001
 43
0.0000001
 44
0.0000000001
 40
0.0
 40
0.0
 40
0.0
 40
0.0
 40
0.0622073012
 40
0.1208766345
 40
0.1765322075
 40
0.2298974282
 40
0.2818830221
 40
0.3334848398
 40
0.3857438771
 40
0.439641505
 40
0.4960409954
 40
0.5556455161
 40
0.6189863535
 40
0.6864333188
 40
0.7582139266
 40
0.8344379586
 40
0.9150733331
 40
1.0
 40
1.0
 40
1.0
 40
1.0
 10
5.8179799092
 20
5.768433535
 30
0.0
 10
5.8220489442
 20
5.7684335351
 30
0.0
 10
5.8299625417
 20
5.7680766858
 30
0.0
 10
5.8414026341
 20
5.7663466409
 30
0.0
 10
5.8520066081
 20
5.7634313333
 30
0.0
 10
5.8617396692
 20
5.7593245994
 30
0.0
 10
5.8705778595
 20
5.7540319544
 30
0.0
 10
5.8784999691
 20
5.7475596962
 30
0.0
 10
5.885501515
 20
5.7399337293
 30
0.0
 10
5.8915893705
 20
5.7311799683
 30
0.0
 10
5.8967830153
 20
5.7213273095
 30
0.0
 10
5.9011243039
 20
5.7104085043
 30
0.0
 10
5.904649584
 20
5.6984488066
 30
0.0
 10
5.9074079163
 20
5.6854778576
 30
0.0
 10
5.9094530408
 20
5.6715261499
 30
0.0
 10
5.9108342602
 20
5.6566287581
 30
0.0
 10
5.9116113411
 20
5.6408285454
 30
0.0
 10
5.9117620872
 20
5.6299979454
 30
0.0
 10
5.9117620872
 20
5.6244428166
 30
0.0
  0
SPLINE
  5
40F
100
AcDbEntity
  8
ALL_ASSEMBLY_MEMBERS
100
AcDbSpline
 62
7
  6
CONTINUOUS
 70
0
 71
3
 72
15
 73
11
 74
0
 42
0.0000001
 43
0.0000001
 44
0.0000000001
 40
0.0
 40
0.0
 40
0.0
 40
0.0
 40
0.1293344228
 40
0.2580291702
 40
0.3855100424
 40
0.5114088397
 40
0.6355793551
 40
0.7581362359
 40
0.8794477088
 40
1.0
 40
1.0
 40
1.0
 40
1.0
 10
5.2117624281
 20
5.768433535
 30
0.0
 10
5.2285401101
 20
5.7684335348
 30
0.0
 10
5.2620336439
 20
5.7668779266
 30
0.0
 10
5.3116237763
 20
5.7598830173
 30
0.0
 10
5.3598874982
 20
5.7482574279
 30
0.0
 10
5.4062019475
 20
5.7320701761
 30
0.0
 10
5.4500139538
 20
5.7114350657
 30
0.0
 10
5.4908601286
 20
5.6865338553
 30
0.0
 10
5.5283766835
 20
5.6576233388
 30
0.0
 10
5.5510633971
 20
5.6358487405
 30
0.0
 10
5.5617622548
 20
5.6244428166
 30
0.0
  0
SPLINE
  5
410
100
AcDbEntity
  8
ALL_ASSEMBLY_MEMBERS
100
AcDbSpline
 62
7
  6
CONTINUOUS
 70
0
 71
3
 72
20
 73
16
 74
0
 42
0.0000001
 43
0.0000001
 44
0.0000000001
 40
0.0
 40
0.0
 40
0.0
 40
0.0
 40
0.1534126034
 40
0.3013802289
 40
0.3728487345
 40
0.4423981419
 40
0.5750224991
 40
0.6377928616
 40
0.6979755678
 40
0.755443546
 40
0.8101103686
 40
0.8619071431
 40
0.9107996134
 40
0.9568089061
 40
1.0
 40
1.0
 40
1.0
 40
1.0
 10
5.5617622548
 20
5.6244428166
 30
0.0
 10
5.5722846994
 20
5.6356606688
 30
0.0
 10
5.5937709571
 20
5.6569502094
 30
0.0
 10
5.62225532
 20
5.6812156895
 30
0.0
 10
5.6453944548
 20
5.6986633595
 30
0.0
 10
5.6679459707
 20
5.7142950477
 30
0.0
 10
5.6906878152
 20
5.728094883
 30
0.0
 10
5.7134487951
 20
5.739878925
 30
0.0
 10
5.7298915434
 20
5.7474347722
 30
0.0
 10
5.7459383468
 20
5.7538552723
 30
0.0
 10
5.761513109
 20
5.7591305173
 30
0.0
 10
5.7765436589
 20
5.7632515651
 30
0.0
 10
5.7909624719
 20
5.7662105133
 30
0.0
 10
5.8047031864
 20
5.7680040014
 30
0.0
 10
5.8136494633
 20
5.7684335262
 30
0.0
 10
5.8179796408
 20
5.768433535
 30
0.0
  0
SPLINE
  5
411
100
AcDbEntity
  8
ALL_ASSEMBLY_MEMBERS
100
AcDbSpline
 62
7
  6
CONTINUOUS
 70
0
 71
3
 72
23
 73
19
 74
0
 42
0.0000001
 43
0.0000001
 44
0.0000000001
 40
0.0
 40
0.0
 40
0.0
 40
0.0
 40
0.084900419
 40
0.1655284185
 40
0.241766455
 40
0.3135667412
 40
0.3810186824
 40
0.4443593111
 40
0.5039608051
 40
0.5603590415
 40
0.614255389
 40
0.6665109236
 40
0.71811608
 40
0.7700990563
 40
0.8234719033
 40
0.8791476285
 40
0.9378133706
 40
1.0
 40
1.0
 40
1.0
 40
1.0
 10
4.5117627576
 20
5.6244428166
 30
0.0
 10
4.5117627576
 20
5.6299961989
 30
0.0
 10
4.5119137022
 20
5.6408245437
 30
0.0
 10
4.5126912328
 20
5.6566233573
 30
0.0
 10
4.5140716152
 20
5.6715224393
 30
0.0
 10
4.5161158991
 20
5.6854768168
 30
0.0
 10
4.5188772009
 20
5.6984487185
 30
0.0
 10
4.5224011491
 20
5.7104086598
 30
0.0
 10
4.5267397093
 20
5.7213284448
 30
0.0
 10
4.5319390514
 20
5.7311776556
 30
0.0
 10
4.5380245462
 20
5.7399319887
 30
0.0
 10
4.5450228187
 20
5.7475611447
 30
0.0
 10
4.5529469838
 20
5.7540306236
 30
0.0
 10
4.5617845195
 20
5.7593249825
 30
0.0
 10
4.5715194677
 20
5.7634318414
 30
0.0
 10
4.5821254153
 20
5.7663454737
 30
0.0
 10
4.5935649528
 20
5.7680764554
 30
0.0
 10
4.6014769457
 20
5.7684335253
 30
0.0
 10
4.6055446068
 20
5.768433535
 30
0.0
  0
SPLINE
  5
412
100
AcDbEntity
  8
ALL_ASSEMBLY_MEMBERS
100
AcDbSpline
 62
7
  6
CONTINUOUS
 70
0
 71
3
 72
20
 73
16
 74
0
 42
0.0000001
 43
0.0000001
 44
0.0000000001
 40
0.0
 40
0.0
 40
0.0
 40
0.0
 40
0.0431889091
 40
0.0891921363
 40
0.1380760145
 40
0.1898615158
 40
0.2445158408
 40
0.3019762744
 40
0.3621582478
 40
0.4249264955
 40
0.5575529567
 40
0.6271096422
 40
0.6985883467
 40
0.8465783225
 40
1.0
 40
1.0
 40
1.0
 40
1.0
 10
4.605544925
 20
5.768433535
 30
0.0
 10
4.6098748871
 20
5.7684335351
 30
0.0
 10
4.6188203462
 20
5.7680041936
 30
0.0
 10
4.6325594343
 20
5.7662111968
 30
0.0
 10
4.6469757496
 20
5.7632529615
 30
0.0
 10
4.6620032775
 20
5.7591331422
 30
0.0
 10
4.6775752672
 20
5.753859459
 30
0.0
 10
4.6936202888
 20
5.7474400638
 30
0.0
 10
4.7100623166
 20
5.7398851449
 30
0.0
 10
4.7328242007
 20
5.7281029474
 30
0.0
 10
4.7555666057
 20
5.7143025138
 30
0.0
 10
4.7781203104
 20
5.6986705368
 30
0.0
 10
4.8012633033
 20
5.6812212731
 30
0.0
 10
4.8297502284
 20
5.6569523107
 30
0.0
 10
4.8512395142
 20
5.6356613416
 30
0.0
 10
4.86176259
 20
5.6244428166
 30
0.0
  0
SPLINE
  5
413
100
AcDbEntity
  8
ALL_ASSEMBLY_MEMBERS
100
AcDbSpline
 62
7
  6
CONTINUOUS
 70
0
 71
3
 72
17
 73
13
 74
0
 42
0.0000001
 43
0.0000001
 44
0.0000000001
 40
0.0
 40
0.0
 40
0.0
 40
0.0
 40
0.1205309259
 40
0.1810869786
 40
0.2418913206
 40
0.3030031613
 40
0.3644822992
 40
0.4886456298
 40
0.6145354785
 40
0.7419966404
 40
0.8706879
 40
1.0
 40
1.0
 40
1.0
 40
1.0
 10
4.86176259
 20
5.6244428166
 30
0.0
 10
4.872460441
 20
5.6358476673
 30
0.0
 10
4.8894543976
 20
5.6521538718
 30
0.0
 10
4.9137864731
 20
5.6719887372
 30
0.0
 10
4.9329338894
 20
5.6859306053
 30
0.0
 10
4.9529098244
 20
5.6988773146
 30
0.0
 10
4.9806881142
 20
5.7148147214
 30
0.0
 10
5.0173261886
 20
5.7320723734
 30
0.0
 10
5.0636384427
 20
5.748256872
 30
0.0
 10
5.1119024488
 20
5.7598837126
 30
0.0
 10
5.1614908734
 20
5.7668771642
 30
0.0
 10
5.1949838071
 20
5.7684334595
 30
0.0
 10
5.2117599881
 20
5.768433535
 30
0.0
  0
ENDSEC
  0
SECTION
  2
OBJECTS
  0
DICTIONARY
  5
C
100
AcDbDictionary
280
0
281
1
  3
ACAD_GROUP
350
D
  3
ACAD_MLINESTYLE
350
17
  3
ACAD_LAYOUT
350
1A
  3
ACAD_PLOTSETTINGS
350
19
  3
ACAD_PLOTSTYLENAME
350
E
  0
DICTIONARY
  5
D
102
{ACAD_REACTORS
330
C
102
}
100
AcDbDictionary
280
0
281
1
  0
ACDBDICTIONARYWDFLT
  5
E
102
{ACAD_REACTORS
330
C
102
}
100
AcDbDictionary
281
1
  3
Normal
350
F
100
AcDbDictionaryWithDefault
340
F
  0
DICTIONARY
  5
17
102
{ACAD_REACTORS
330
C
102
}
100
AcDbDictionary
280
0
281
1
  3
Standard
350
18
  0
DICTIONARY
  5
19
102
{ACAD_REACTORS
330
C
102
}
100
AcDbDictionary
281
1
  0
DICTIONARY
  5
1A
102
{ACAD_REACTORS
330
C
102
}
100
AcDbDictionary
281
1
  3
Model
350
414
  3
Layout1
350
415
  0
ACDBPLACEHOLDER
  5
F
102
{ACAD_REACTORS
330
E
102
}
  0
MLINESTYLE
  5
18
102
{ACAD_REACTORS
330
17
102
}
100
AcDbMlineStyle
  2
STANDARD
 70
0
  3

 62
256
 51
90.0
 52
90.0
 71
2
 49
0.5
 62
256
  6
BYLAYER
 49
-0.5
 62
256
  6
BYLAYER
  0
LAYOUT
  5
414
102
{ACAD_REACTORS
330
1A
102
}
100
AcDbPlotSettings
  1

  2
none_device
  4
ANSI_A_(11.00_x_8.50_Inches)
  6

 40
0.0
 41
0.0
 42
0.0
 43
0.0
 44
279.4
 45
215.9
 46
0.0
 47
0.0
 48
0.0
 49
0.0
140
0.0
141
0.0
142
1.0
143
1.0
 70
1024
 72
0
 73
0
 74
0
  7

 75
0
147
1.0
148
0.0
149
0.0
100
AcDbLayout
  1
Model
 70
0
 71
0
 10
0.0
 20
0.0
 11
11.0
 21
8.5
 12
0.0
 22
0.0
 32
0.0
 14
0.0
 24
0.0
 34
0.0
 15
0.0
 25
0.0
 35
0.0
146
0.0
 13
0.0
 23
0.0
 33
0.0
 16
1.0
 26
0.0
 36
0.0
 17
0.0
 27
1.0
 37
0.0
 76
0
330
224
345
0
346
0
  0
LAYOUT
  5
415
102
{ACAD_REACTORS
330
1A
102
}
100
AcDbPlotSettings
  1

  2
none_device
  4
ANSI_A_(11.00_x_8.50_Inches)
  6

 40
0.0
 41
0.0
 42
0.0
 43
0.0
 44
279.4
 45
215.9
 46
0.0
 47
0.0
 48
0.0
 49
0.0
140
0.0
141
0.0
142
1.0
143
1.0
 70
0
 72
0
 73
0
 74
0
  7

 75
0
147
1.0
148
0.0
149
0.0
100
AcDbLayout
  1
Layout1
 70
0
 71
1
 10
0.0
 20
0.0
 11
11.0
 21
8.5
 12
0.0
 22
0.0
 32
0.0
 14
0.0
 24
0.0
 34
0.0
 15
0.0
 25
0.0
 35
0.0
146
0.0
 13
0.0
 23
0.0
 33
0.0
 16
1.0
 26
0.0
 36
0.0
 17
0.0
 27
1.0
 37
0.0
 76
0
330
225
345
0
346
0
  0
ENDSEC
  0
EOF
