999
DXF file: E:\BT Custom\CADOUTPUT\_TOP.dxf
999
Pro/ENGINEER 2018400 by Parametric Technology Corporation
  0
SECTION
  2
HEADER
  9
$ACADVER
  1
AC1018
  9
$DWGCODEPAGE
  3
ANSI_1252
  9
$EXTMAX
 10
22.0
 20
17.0
 30
0.0
  9
$EXTMIN
 10
0.0
 20
0.0
 30
0.0
  9
$LIMMIN
 10
0.0
 20
0.0
  9
$LIMMAX
 10
22.0
 20
17.0
  9
$VIEWCTR
 10
11.0
 20
8.5
  9
$VIEWSIZE
 40
17.0
  9
$CLAYER
  8
0
  9
$LTSCALE
 40
1.21
  9
$CELTYPE
  6
BYLAYER
  9
$DIMSCALE
 40
1.0
  9
$DIMASZ
 40
0.1
  9
$DIMEXO
 40
0.0625
  9
$DIMDLI
 40
0.836
  9
$DIMEXE
 40
0.125
  9
$DIMCEN
 40
0.198
  9
$DIMLFAC
 40
1.0
  9
$DIMBLK
  1
_FILLED
  9
$DIMALT
 70
1
  9
$DIMALTD
 70
2
  9
$DIMALTTD
 70
2
  9
$DIMALTF
 40
25.4
  9
$DIMTXT
 40
0.08
  9
$DIMTOL
 70
1
  9
$DIMLIM
 70
0
  9
$DIMTFAC
 40
1.0
  9
$DIMTP
 40
0.001
  9
$DIMTM
 40
0.001
  9
$DIMGAP
 40
0.09
  9
$DIMDSEP
 70
46
  9
$AUNITS
 70
0
  9
$PDMODE
 70
3
  9
$PDSIZE
 40
0.06
  9
$HANDSEED
  5
3B4
  9
$TILEMODE
 70
1
  9
$MEASUREMENT
 70
0
  9
$INSUNITS
 70
1
  0
ENDSEC
  0
SECTION
  2
CLASSES
  0
CLASS
  1
ACDBDICTIONARYWDFLT
  2
AcDbDictionaryWithDefault
  3
AutoCAD 2000
 90
0
 91
1
280
0
281
0
  0
CLASS
  1
ACDBPLACEHOLDER
  2
AcDbPlaceHolder
  3
AutoCAD 2000
 90
0
 91
1
280
0
281
0
  0
CLASS
  1
LAYOUT
  2
AcDbLayout
  3
AutoCAD 2000
 90
0
 91
0
280
0
281
0
  0
ENDSEC
  0
SECTION
  2
TABLES
  0
TABLE
  2
VPORT
  5
8
100
AcDbSymbolTable
 70
2
  0
VPORT
  5
1F4
100
AcDbSymbolTableRecord
100
AcDbViewportTableRecord
  2
*ACTIVE
 70
0
 10
0.0
 20
0.0
 11
1.0
 21
1.0
 12
11.0
 22
8.5
 13
0.0
 23
0.0
 14
1.0
 24
1.0
 15
0.0
 25
0.0
 16
0.0
 26
0.0
 36
1.0
 17
0.0
 27
0.0
 37
0.0
 40
17.0
 41
1.2941176471
 42
50.0
 43
0.0
 44
0.0
 50
0.0
 51
0.0
 71
0
 72
100
 73
1
 74
1
 75
0
 76
0
 77
0
 78
0
  0
ENDTAB
  0
TABLE
  2
LTYPE
  5
5
100
AcDbSymbolTable
 70
6
  0
LTYPE
  5
14
100
AcDbSymbolTableRecord
100
AcDbLinetypeTableRecord
  2
BYBLOCK
 70
0
  3

 72
65
 73
0
 40
0.0
  0
LTYPE
  5
15
100
AcDbSymbolTableRecord
100
AcDbLinetypeTableRecord
  2
BYLAYER
 70
0
  3

 72
65
 73
0
 40
0.0
  0
LTYPE
  5
16
100
AcDbSymbolTableRecord
100
AcDbLinetypeTableRecord
  2
CONTINUOUS
 70
64
  3
Solid line
 72
65
 73
0
 40
0.0
  0
LTYPE
  5
1F5
100
AcDbSymbolTableRecord
100
AcDbLinetypeTableRecord
  2
CENTER
 70
64
  3
____ _ ____ _ ____ _ ____ _ ____ _ ____ _ ____
 72
65
 73
4
 40
0.6
 49
0.375
 74
0
 49
-0.075
 74
0
 49
0.075
 74
0
 49
-0.075
 74
0
  0
LTYPE
  5
1F6
100
AcDbSymbolTableRecord
100
AcDbLinetypeTableRecord
  2
HIDDEN
 70
64
  3
- - - - - - - - - - - - - - - - - - - -
 72
65
 73
2
 40
0.2
 49
0.1
 74
0
 49
-0.1
 74
0
  0
LTYPE
  5
1F7
100
AcDbSymbolTableRecord
100
AcDbLinetypeTableRecord
  2
PHANTOM
 70
64
  3
_____ _ _ _____ _ _ _____ _ _ _____
 72
65
 73
6
 40
0.8
 49
0.45
 74
0
 49
-0.05
 74
0
 49
0.1
 74
0
 49
-0.05
 74
0
 49
0.1
 74
0
 49
-0.05
 74
0
  0
LTYPE
  5
1F8
100
AcDbSymbolTableRecord
100
AcDbLinetypeTableRecord
  2
DOT
 70
64
  3
. . . . . . . . . . . . . . . . . . . .
 72
65
 73
2
 40
0.2
 49
0.1
 74
0
 49
-0.1
 74
0
  0
LTYPE
  5
1F9
100
AcDbSymbolTableRecord
100
AcDbLinetypeTableRecord
  2
DASHED
 70
64
  3
- - - - - - - - - - - - - - - - - - - -
 72
65
 73
2
 40
0.2
 49
0.1
 74
0
 49
-0.1
 74
0
  0
ENDTAB
  0
TABLE
  2
LAYER
  5
2
100
AcDbSymbolTable
 70
36
  0
LAYER
  5
10
100
AcDbSymbolTableRecord
100
AcDbLayerTableRecord
  2
0
 70
0
 62
7
  6
CONTINUOUS
370
-3
390
F
  0
LAYER
  5
1FA
100
AcDbSymbolTableRecord
100
AcDbLayerTableRecord
  2
DEFAULT_1
 70
0
 62
7
  6
CENTER
370
-3
390
F
  0
LAYER
  5
1FB
100
AcDbSymbolTableRecord
100
AcDbLayerTableRecord
  2
DEFAULT_2
 70
0
 62
8
  6
HIDDEN
370
-3
390
F
  0
LAYER
  5
1FC
100
AcDbSymbolTableRecord
100
AcDbLayerTableRecord
  2
DEFAULT_3
 70
0
 62
7
  6
PHANTOM
370
-3
390
F
  0
LAYER
  5
1FD
100
AcDbSymbolTableRecord
100
AcDbLayerTableRecord
  2
ALL_FEATURES
 70
0
 62
7
  6
CONTINUOUS
370
-3
390
F
  0
LAYER
  5
1FE
100
AcDbSymbolTableRecord
100
AcDbLayerTableRecord
  2
AXES_FEATURES
 70
0
 62
7
  6
CONTINUOUS
370
-3
390
F
  0
LAYER
  5
1FF
100
AcDbSymbolTableRecord
100
AcDbLayerTableRecord
  2
DIMENSIONS
 70
0
 62
7
  6
CONTINUOUS
370
-3
390
F
  0
ENDTAB
  0
TABLE
  2
STYLE
  5
3
100
AcDbSymbolTable
 70
1
  0
STYLE
  5
11
100
AcDbSymbolTableRecord
100
AcDbTextStyleTableRecord
  2
STANDARD
 70
0
 40
0.0
 41
0.8
 50
0.0
 71
0
 42
0.2
  3
txt
  4

  0
STYLE
  5
200
100
AcDbSymbolTableRecord
100
AcDbTextStyleTableRecord
  2
TEXTSTYLE_1
 70
0
 40
0.0
 41
0.8
 50
0.0
 71
0
 42
0.2
  3
gdt
  4

  0
ENDTAB
  0
TABLE
  2
VIEW
  5
6
100
AcDbSymbolTable
 70
0
  0
ENDTAB
  0
TABLE
  2
UCS
  5
7
100
AcDbSymbolTable
 70
0
  0
ENDTAB
  0
TABLE
  2
APPID
  5
9
100
AcDbSymbolTable
 70
1
  0
APPID
  5
201
100
AcDbSymbolTableRecord
100
AcDbRegAppTableRecord
  2
ACAD
 70
0
  0
ENDTAB
  0
TABLE
  2
BLOCK_RECORD
  5
1
100
AcDbSymbolTable
 70
0
  0
BLOCK_RECORD
  5
202
100
AcDbSymbolTableRecord
100
AcDbBlockTableRecord
  2
*Model_Space
  0
BLOCK_RECORD
  5
203
100
AcDbSymbolTableRecord
100
AcDbBlockTableRecord
  2
*Paper_Space
  0
BLOCK_RECORD
  5
204
100
AcDbSymbolTableRecord
100
AcDbBlockTableRecord
  2
_FILLED
  0
ENDTAB
  0
TABLE
  2
DIMSTYLE
  5
A
100
AcDbSymbolTable
 70
1
100
AcDbDimStyleTable
 71
0
  0
DIMSTYLE
105
205
100
AcDbSymbolTableRecord
100
AcDbDimStyleTableRecord
  2
STANDARD
 70
0
  3

  4

 40
1.0
 41
0.1
 42
0.0625
 43
0.38
 44
0.125
 45
0.0
 46
0.0
 47
0.001
 48
0.001
140
0.08
141
0.09
142
0.0
143
25.4
144
1.0
145
0.0
146
1.0
147
0.09
 71
1.0
 72
0.0
 73
1
 74
1
 75
0
 76
0
 77
0
 78
4
 79
1
170
1
171
2
172
0
173
0
174
0
175
0
176
0
177
0
178
0
270
2
179
3
271
3
272
3
273
2
274
2
275
0
280
0
281
0
282
0
283
1
284
4
285
0
286
0
287
3
288
0
340
11
278
46
341
204
342
204
343
204
344
204
  0
ENDTAB
  0
ENDSEC
  0
SECTION
  2
BLOCKS
  0
BLOCK
  5
20
100
AcDbEntity
  8
0
100
AcDbBlockBegin
  2
*Model_Space
 70
0
 10
0.0
 20
0.0
 30
0.0
  3
*Model_Space
  1

  0
ENDBLK
  5
21
100
AcDbEntity
  8
0
100
AcDbBlockEnd
  0
BLOCK
  5
1C
100
AcDbEntity
  8
0
100
AcDbBlockBegin
  2
*Paper_Space
 70
0
 10
0.0
 20
0.0
 30
0.0
  3
*Paper_Space
  1

  0
ENDBLK
  5
1D
100
AcDbEntity
  8
0
100
AcDbBlockEnd
  0
BLOCK
  5
206
100
AcDbEntity
  8
0
100
AcDbBlockBegin
  2
_FILLED
 70
64
 10
0.0
 20
0.0
  3
_FILLED
  1

  0
SOLID
  5
207
100
AcDbEntity
  8
0
  6
BYBLOCK
 62
0
100
AcDbTrace
 10
0.0
 20
0.0
 11
-1.0
 21
0.2
 12
-1.0
 22
-0.2
 13
-1.0
 23
-0.2
  0
ENDBLK
  5
208
100
AcDbEntity
  8
0
  6
BYBLOCK
 62
0
100
AcDbBlockEnd
  0
ENDSEC
  0
SECTION
  2
ENTITIES
  0
LINE
  5
209
100
AcDbEntity
  8
0
100
AcDbLine
 62
9
  6
CONTINUOUS
 10
6.4819867016
 20
12.6132247176
 11
6.1634113207
 21
12.2946493366
  0
LINE
  5
20A
100
AcDbEntity
  8
0
100
AcDbLine
 62
9
  6
CONTINUOUS
 10
6.2621013469
 20
12.2772476223
 11
6.499388416
 21
12.5145346913
  0
LINE
  5
20B
100
AcDbEntity
  8
0
100
AcDbLine
 62
7
  6
CONTINUOUS
 10
6.5322549115
 20
12.5117952167
 11
6.2648408216
 21
12.2443811267
  0
LINE
  5
20C
100
AcDbEntity
  8
0
100
AcDbLine
 62
9
  6
CONTINUOUS
 10
6.2811298619
 20
12.225508351
 11
6.5511276873
 21
12.4955061763
  0
LINE
  5
20D
100
AcDbEntity
  8
0
100
AcDbLine
 62
7
  6
CONTINUOUS
 10
6.2892580864
 20
11.7293188286
 11
6.5043089646
 21
12.1017978757
  0
LINE
  5
20E
100
AcDbEntity
  8
0
100
AcDbLine
 62
7
  6
CONTINUOUS
 10
6.624600428
 20
12.3101488021
 11
6.6682871351
 21
12.3858163983
  0
LINE
  5
20F
100
AcDbEntity
  8
0
100
AcDbLine
 62
9
  6
CONTINUOUS
 10
6.5397260164
 20
11.972907553
 11
6.5567127115
 21
11.9898942481
  0
LINE
  5
210
100
AcDbEntity
  8
0
100
AcDbLine
 62
9
  6
CONTINUOUS
 10
6.790658502
 20
12.2238400386
 11
6.8037284852
 21
12.2369100218
  0
LINE
  5
211
100
AcDbEntity
  8
0
100
AcDbLine
 62
7
  6
CONTINUOUS
 10
7.164698064
 20
11.9654913649
 11
7.05792494
 21
11.8587182409
  0
LINE
  5
212
100
AcDbEntity
  8
0
100
AcDbLine
 62
7
  6
CONTINUOUS
 10
6.915796477
 20
11.7165897779
 11
6.864177682
 21
11.6649709829
  0
LINE
  5
213
100
AcDbEntity
  8
0
100
AcDbLine
 62
7
  6
CONTINUOUS
 10
6.8521568667
 20
11.6529501676
 11
6.8005380716
 21
11.6013313725
  0
LINE
  5
214
100
AcDbEntity
  8
0
100
AcDbLine
 62
7
  6
CONTINUOUS
 10
7.0908741824
 20
11.8663530605
 11
7.109119471
 21
11.8845983491
  0
LINE
  5
215
100
AcDbEntity
  8
0
100
AcDbLine
 62
7
  6
CONTINUOUS
 10
7.1388179558
 20
11.9142968339
 11
7.1570632443
 21
11.9325421225
  0
LINE
  5
216
100
AcDbEntity
  8
0
100
AcDbLine
 62
7
  6
CONTINUOUS
 10
6.9207068921
 20
11.6218768015
 11
6.895251048
 21
11.5964209574
  0
LINE
  5
217
100
AcDbEntity
  8
0
100
AcDbLine
 62
7
  6
CONTINUOUS
 10
6.9069576422
 20
11.5833001496
 11
6.9338276999
 21
11.6101702073
  0
LINE
  5
218
100
AcDbEntity
  8
0
100
AcDbLine
 62
7
  6
CONTINUOUS
 10
6.9200391177
 20
11.4818303265
 11
6.9716579127
 21
11.5334491216
  0
LINE
  5
219
100
AcDbEntity
  8
0
100
AcDbLine
 62
7
  6
CONTINUOUS
 10
6.983678728
 20
11.5454699368
 11
7.035297523
 21
11.5970887319
  0
LINE
  5
21A
100
AcDbEntity
  8
0
100
AcDbLine
 62
7
  6
CONTINUOUS
 10
7.2050031505
 20
11.7667943593
 11
7.2566219455
 21
11.8184131544
  0
LINE
  5
21B
100
AcDbEntity
  8
0
100
AcDbLine
 62
9
  6
CONTINUOUS
 10
7.5549106602
 20
11.4857278469
 11
7.5379239514
 21
11.4687411381
  0
LINE
  5
21C
100
AcDbEntity
  8
0
100
AcDbLine
 62
9
  6
CONTINUOUS
 10
7.3039781062
 20
11.2347952929
 11
7.2909081914
 21
11.221725378
  0
LINE
  5
21D
100
AcDbEntity
  8
0
100
AcDbLine
 62
7
  6
CONTINUOUS
 10
6.499388416
 20
10.9441007086
 11
6.4819867016
 21
10.8454106823
  0
LINE
  5
21E
100
AcDbEntity
  8
0
100
AcDbLine
 62
7
  6
CONTINUOUS
 10
7.8053784061
 20
11.7293162526
 11
7.590327712
 21
11.3568375242
  0
LINE
  5
21F
100
AcDbEntity
  8
0
100
AcDbLine
 62
7
  6
CONTINUOUS
 10
7.4700362486
 20
11.1484865978
 11
7.4263495415
 21
11.0728190016
  0
LINE
  5
220
100
AcDbEntity
  8
0
100
AcDbLine
 62
9
  6
CONTINUOUS
 10
7.5435089893
 20
10.9631292235
 11
7.8135068147
 21
11.2331270489
  0
LINE
  5
221
100
AcDbEntity
  8
0
100
AcDbLine
 62
7
  6
CONTINUOUS
 10
7.562381765
 20
10.9468401832
 11
7.829795855
 21
11.2142542732
  0
LINE
  5
222
100
AcDbEntity
  8
0
100
AcDbLine
 62
9
  6
CONTINUOUS
 10
7.8325353296
 20
11.1813877776
 11
7.5952482606
 21
10.9441007086
  0
LINE
  5
223
100
AcDbEntity
  8
0
100
AcDbLine
 62
9
  6
CONTINUOUS
 10
7.612649975
 20
10.8454106823
 11
7.9312253559
 21
11.1639860633
  0
LINE
  5
224
100
AcDbEntity
  8
0
100
AcDbLine
 62
7
  6
CONTINUOUS
 10
7.5952482606
 20
12.5145346913
 11
7.612649975
 21
12.6132247176
  0
LINE
  5
225
100
AcDbEntity
  8
0
100
AcDbLine
 62
7
  6
CONTINUOUS
 10
7.1862752284
 20
11.9446421225
 11
7.1862752284
 21
11.9566421225
  0
LINE
  5
226
100
AcDbEntity
  8
0
100
AcDbLine
 62
7
  6
CONTINUOUS
 10
6.499388416
 20
12.5145346913
 11
6.4819867016
 21
12.6132247176
  0
LINE
  5
227
100
AcDbEntity
  8
0
100
AcDbLine
 62
9
  6
CONTINUOUS
 10
11.4223183291
 20
4.4195850906
 11
10.6723183383
 21
4.4196010475
  0
LINE
  5
228
100
AcDbEntity
  8
0
100
AcDbLine
 62
7
  6
CONTINUOUS
 10
10.2390279614
 20
11.7293176999
 11
10.6431731499
 21
12.4293176999
  0
LINE
  5
229
100
AcDbEntity
  8
0
100
AcDbLine
 62
7
  6
CONTINUOUS
 10
7.5952482606
 20
10.9441007086
 11
7.612649975
 21
10.8454106823
  0
LINE
  5
22A
100
AcDbEntity
  8
0
100
AcDbLine
 62
9
  6
CONTINUOUS
 10
11.7148298083
 20
4.1810613312
 11
11.422318256
 21
4.4196010283
  0
LINE
  5
22B
100
AcDbEntity
  8
0
100
AcDbLine
 62
7
  6
CONTINUOUS
 10
6.6682871352
 20
11.0728190014
 11
6.6244877344
 21
11.1486817888
  0
LINE
  5
22C
100
AcDbEntity
  8
0
100
AcDbLine
 62
7
  6
CONTINUOUS
 10
6.5043748174
 20
11.3567234637
 11
6.2892580864
 21
11.7293165713
  0
LINE
  5
22D
100
AcDbEntity
  8
0
100
AcDbLine
 62
7
  6
CONTINUOUS
 10
7.05792494
 20
11.8587182409
 11
7.0667741824
 21
11.8371410764
  0
LINE
  5
22E
100
AcDbEntity
  8
0
100
AcDbLine
 62
7
  6
CONTINUOUS
 10
11.8556087151
 20
11.7293176999
 11
11.5629919145
 21
11.2224907595
  0
LINE
  5
22F
100
AcDbEntity
  8
0
100
AcDbLine
 62
9
  6
CONTINUOUS
 10
14.4819867016
 20
12.6132247176
 11
14.1634113207
 21
12.2946493366
  0
LINE
  5
230
100
AcDbEntity
  8
0
100
AcDbLine
 62
9
  6
CONTINUOUS
 10
14.2621013469
 20
12.2772476223
 11
14.499388416
 21
12.5145346913
  0
LINE
  5
231
100
AcDbEntity
  8
0
100
AcDbLine
 62
7
  6
CONTINUOUS
 10
14.5322553169
 20
12.511795622
 11
14.2648404162
 21
12.2443807213
  0
LINE
  5
232
100
AcDbEntity
  8
0
100
AcDbLine
 62
9
  6
CONTINUOUS
 10
14.5511276873
 20
12.4955061763
 11
14.2811298619
 21
12.225508351
  0
LINE
  5
233
100
AcDbEntity
  8
0
100
AcDbLine
 62
7
  6
CONTINUOUS
 10
14.9946541969
 20
11.9021899942
 11
14.9497376025
 21
11.8707390562
  0
LINE
  5
234
100
AcDbEntity
  8
0
100
AcDbLine
 62
7
  6
CONTINUOUS
 10
10.3771943906
 20
4.0963322587
 11
10.3798183383
 21
4.1810578782
  0
LINE
  5
235
100
AcDbEntity
  8
0
100
AcDbLine
 62
7
  6
CONTINUOUS
 10
12.2547546849
 20
11.3396613594
 11
12.3435501683
 21
11.4996215023
  0
LINE
  5
236
100
AcDbEntity
  8
0
100
AcDbLine
 62
7
  6
CONTINUOUS
 10
12.5423183383
 20
11.7293176999
 11
12.1246412218
 21
11.005879713
  0
LINE
  5
237
100
AcDbEntity
  8
0
100
AcDbLine
 62
9
  6
CONTINUOUS
 10
14.5397260164
 20
11.972907553
 11
14.553925907
 21
11.9871074436
  0
LINE
  5
238
100
AcDbEntity
  8
0
100
AcDbLine
 62
9
  6
CONTINUOUS
 10
14.7887006422
 20
12.2218821788
 11
14.8037284852
 21
12.2369100218
  0
LINE
  5
239
100
AcDbEntity
  8
0
100
AcDbLine
 62
9
  6
CONTINUOUS
 10
6.1634113207
 20
11.1639860633
 11
6.4819867016
 21
10.8454106823
  0
LINE
  5
23A
100
AcDbEntity
  8
0
100
AcDbLine
 62
9
  6
CONTINUOUS
 10
6.499388416
 20
10.9441007086
 11
6.2621013469
 21
11.1813877776
  0
LINE
  5
23B
100
AcDbEntity
  8
0
100
AcDbLine
 62
7
  6
CONTINUOUS
 10
6.2648404162
 20
11.2142546786
 11
6.5322553169
 21
10.9468397778
  0
LINE
  5
23C
100
AcDbEntity
  8
0
100
AcDbLine
 62
9
  6
CONTINUOUS
 10
6.2811298619
 20
11.2331270489
 11
6.5511276873
 21
10.9631292235
  0
LINE
  5
23D
100
AcDbEntity
  8
0
100
AcDbLine
 62
7
  6
CONTINUOUS
 10
7.4263494697
 20
12.3858165226
 11
7.4701489421
 21
12.3099536111
  0
LINE
  5
23E
100
AcDbEntity
  8
0
100
AcDbLine
 62
7
  6
CONTINUOUS
 10
7.5902618592
 20
12.1019119361
 11
7.8053784061
 21
11.7293191473
  0
LINE
  5
23F
100
AcDbEntity
  8
0
100
AcDbLine
 62
9
  6
CONTINUOUS
 10
11.0473183379
 20
1.7403460209
 11
11.047318344
 21
4.419610987
  0
LINE
  5
240
100
AcDbEntity
  8
0
100
AcDbLine
 62
7
  6
CONTINUOUS
 10
10.6723026717
 20
4.2928889212
 11
10.672311255
 21
10.6976189194
  0
LINE
  5
241
100
AcDbEntity
  8
0
100
AcDbLine
 62
9
  6
CONTINUOUS
 10
10.6617409969
 20
1.8483742735
 11
10.6635749116
 21
1.9107295328
  0
LINE
  5
242
100
AcDbEntity
  8
0
100
AcDbLine
 62
7
  6
CONTINUOUS
 10
10.3221966687
 20
2.5133975536
 11
10.3233226786
 21
2.522567865
  0
LINE
  5
243
100
AcDbEntity
  8
0
100
AcDbLine
 62
7
  6
CONTINUOUS
 10
14.8378154116
 20
11.8539678129
 11
14.9191326914
 21
11.9352850928
  0
LINE
  5
244
100
AcDbEntity
  8
0
100
AcDbLine
 62
7
  6
CONTINUOUS
 10
14.8706296887
 20
11.8354717629
 11
14.9376287414
 21
11.9024708156
  0
LINE
  5
245
100
AcDbEntity
  8
0
100
AcDbLine
 62
7
  6
CONTINUOUS
 10
14.8535710802
 20
11.8042710187
 11
14.8662990023
 21
11.8169989408
  0
LINE
  5
246
100
AcDbEntity
  8
0
100
AcDbLine
 62
7
  6
CONTINUOUS
 10
14.9561015635
 20
11.906801502
 11
14.9730721263
 21
11.9237720648
  0
LINE
  5
247
100
AcDbEntity
  8
0
100
AcDbLine
 62
7
  6
CONTINUOUS
 10
14.9377167872
 20
11.7455811559
 11
14.9249888651
 21
11.7328532338
  0
LINE
  5
248
100
AcDbEntity
  8
0
100
AcDbLine
 62
7
  6
CONTINUOUS
 10
15.0223782262
 20
11.7998370033
 11
14.973263501
 21
11.7507222781
  0
LINE
  5
249
100
AcDbEntity
  8
0
100
AcDbLine
 62
7
  6
CONTINUOUS
 10
14.9987193451
 20
11.725266434
 11
15.0478340703
 21
11.7743811592
  0
LINE
  5
24A
100
AcDbEntity
  8
0
100
AcDbLine
 62
7
  6
CONTINUOUS
 10
14.9808503009
 20
11.6769917981
 11
14.9935782229
 21
11.6897197202
  0
LINE
  5
24B
100
AcDbEntity
  8
0
100
AcDbLine
 62
7
  6
CONTINUOUS
 10
15.0833807841
 20
11.7795222814
 11
15.1003513469
 21
11.7964928442
  0
LINE
  5
24C
100
AcDbEntity
  8
0
100
AcDbLine
 62
9
  6
CONTINUOUS
 10
6.8037284852
 20
11.221725378
 11
6.7895285374
 21
11.2359253258
  0
LINE
  5
24D
100
AcDbEntity
  8
0
100
AcDbLine
 62
9
  6
CONTINUOUS
 10
6.5547539151
 20
11.4706999481
 11
6.5397260164
 21
11.4857278469
  0
LINE
  5
24E
100
AcDbEntity
  8
0
100
AcDbLine
 62
7
  6
CONTINUOUS
 10
6.8005380716
 20
11.6013313725
 11
6.8132659937
 21
11.5886034505
  0
LINE
  5
24F
100
AcDbEntity
  8
0
100
AcDbLine
 62
7
  6
CONTINUOUS
 10
6.9030685549
 20
11.4988008893
 11
6.9200391177
 21
11.4818303265
  0
LINE
  5
250
100
AcDbEntity
  8
0
100
AcDbLine
 62
7
  6
CONTINUOUS
 10
6.8410538945
 20
11.5841500734
 11
6.8986151779
 21
11.5265887901
  0
LINE
  5
251
100
AcDbEntity
  8
0
100
AcDbLine
 62
7
  6
CONTINUOUS
 10
6.9268994491
 20
11.5548730614
 11
6.9069576422
 21
11.5748148683
  0
LINE
  5
252
100
AcDbEntity
  8
0
100
AcDbLine
 62
7
  6
CONTINUOUS
 10
6.8867657666
 20
11.5964209574
 11
6.8697952039
 21
11.6133915202
  0
LINE
  5
253
100
AcDbEntity
  8
0
100
AcDbLine
 62
7
  6
CONTINUOUS
 10
6.9716579127
 20
11.5334491216
 11
6.9546873499
 21
11.5504196843
  0
LINE
  5
254
100
AcDbEntity
  8
0
100
AcDbLine
 62
7
  6
CONTINUOUS
 10
6.8648847887
 20
11.6402222455
 11
6.8521568667
 21
11.6529501676
  0
LINE
  5
255
100
AcDbEntity
  8
0
100
AcDbLine
 62
7
  6
CONTINUOUS
 10
6.864177682
 20
11.6649709829
 11
6.876905604
 21
11.6522430608
  0
LINE
  5
256
100
AcDbEntity
  8
0
100
AcDbLine
 62
7
  6
CONTINUOUS
 10
6.9667081652
 20
11.5624404996
 11
6.983678728
 21
11.5454699368
  0
LINE
  5
257
100
AcDbEntity
  8
0
100
AcDbLine
 62
7
  6
CONTINUOUS
 10
6.9037363294
 20
11.6473326457
 11
6.9207068921
 21
11.6303620829
  0
LINE
  5
258
100
AcDbEntity
  8
0
100
AcDbLine
 62
7
  6
CONTINUOUS
 10
6.9423129813
 20
11.6101702073
 11
6.9622547882
 21
11.5902284004
  0
LINE
  5
259
100
AcDbEntity
  8
0
100
AcDbLine
 62
7
  6
CONTINUOUS
 10
6.9905390594
 20
11.6185126717
 11
6.9329777761
 21
11.676073955
  0
LINE
  5
25A
100
AcDbEntity
  8
0
100
AcDbLine
 62
7
  6
CONTINUOUS
 10
11.7174349455
 20
4.0963274095
 11
11.7148110224
 21
4.1810517587
  0
LINE
  5
25B
100
AcDbEntity
  8
0
100
AcDbLine
 62
9
  6
CONTINUOUS
 10
11.4328961777
 20
1.8483745771
 11
11.431061391
 21
1.9107293012
  0
LINE
  5
25C
100
AcDbEntity
  8
0
100
AcDbLine
 62
7
  6
CONTINUOUS
 10
11.4223374988
 20
4.2929048039
 11
11.4223254216
 21
10.6976189196
  0
LINE
  5
25D
100
AcDbEntity
  8
0
100
AcDbLine
 62
9
  6
CONTINUOUS
 10
15.5549106602
 20
11.4857278469
 11
15.5407107124
 21
11.4715278991
  0
LINE
  5
25E
100
AcDbEntity
  8
0
100
AcDbLine
 62
9
  6
CONTINUOUS
 10
15.3059360901
 20
11.2367532768
 11
15.2909081914
 21
11.221725378
  0
LINE
  5
25F
100
AcDbEntity
  8
0
100
AcDbLine
 62
7
  6
CONTINUOUS
 10
7.035297523
 20
11.5970887319
 11
7.0183269603
 21
11.6140592946
  0
LINE
  5
260
100
AcDbEntity
  8
0
100
AcDbLine
 62
7
  6
CONTINUOUS
 10
6.928524399
 20
11.7038618558
 11
6.915796477
 21
11.7165897779
  0
LINE
  5
261
100
AcDbEntity
  8
0
100
AcDbLine
 62
7
  6
CONTINUOUS
 10
7.1880325877
 20
11.7837649221
 11
7.2050031505
 21
11.7667943593
  0
LINE
  5
262
100
AcDbEntity
  8
0
100
AcDbLine
 62
7
  6
CONTINUOUS
 10
7.1133621116
 20
11.8845983491
 11
7.1788682771
 21
11.8190921837
  0
LINE
  5
263
100
AcDbEntity
  8
0
100
AcDbLine
 62
7
  6
CONTINUOUS
 10
7.2043241212
 20
11.8445480278
 11
7.1388179558
 21
11.9100541932
  0
LINE
  5
264
100
AcDbEntity
  8
0
100
AcDbLine
 62
7
  6
CONTINUOUS
 10
7.2566219455
 20
11.8184131544
 11
7.2396513828
 21
11.8353837171
  0
LINE
  5
265
100
AcDbEntity
  8
0
100
AcDbLine
 62
7
  6
CONTINUOUS
 10
11.7724400079
 20
2.5133975536
 11
11.7713153736
 21
2.5225555684
  0
LINE
  5
266
100
AcDbEntity
  8
0
100
AcDbLine
 62
7
  6
CONTINUOUS
 10
14.2892580864
 20
11.7293188286
 11
14.5043748174
 21
12.1019119361
  0
LINE
  5
267
100
AcDbEntity
  8
0
100
AcDbLine
 62
7
  6
CONTINUOUS
 10
14.6244877344
 20
12.3099536111
 11
14.6682871351
 21
12.3858163983
  0
LINE
  5
268
100
AcDbEntity
  8
0
100
AcDbLine
 62
9
  6
CONTINUOUS
 10
15.5435089893
 20
10.9631292235
 11
15.8135068147
 21
11.2331270489
  0
LINE
  5
269
100
AcDbEntity
  8
0
100
AcDbLine
 62
7
  6
CONTINUOUS
 10
15.5623813597
 20
10.9468397778
 11
15.8297962604
 21
11.2142546786
  0
LINE
  5
26A
100
AcDbEntity
  8
0
100
AcDbLine
 62
9
  6
CONTINUOUS
 10
15.8325353296
 20
11.1813877776
 11
15.5952482606
 21
10.9441007086
  0
LINE
  5
26B
100
AcDbEntity
  8
0
100
AcDbLine
 62
9
  6
CONTINUOUS
 10
15.612649975
 20
10.8454106823
 11
15.9312253559
 21
11.1639860633
  0
LINE
  5
26C
100
AcDbEntity
  8
0
100
AcDbLine
 62
9
  6
CONTINUOUS
 10
7.2909081914
 20
12.2369100218
 11
7.305108082
 21
12.2227101312
  0
LINE
  5
26D
100
AcDbEntity
  8
0
100
AcDbLine
 62
9
  6
CONTINUOUS
 10
7.5398828172
 20
11.987935396
 11
7.5549106602
 21
11.972907553
  0
LINE
  5
26E
100
AcDbEntity
  8
0
100
AcDbLine
 62
9
  6
CONTINUOUS
 10
7.8135068147
 20
12.225508351
 11
7.5435089893
 21
12.4955061763
  0
LINE
  5
26F
100
AcDbEntity
  8
0
100
AcDbLine
 62
7
  6
CONTINUOUS
 10
7.8297962604
 20
12.2443807213
 11
7.5623813597
 21
12.511795622
  0
LINE
  5
270
100
AcDbEntity
  8
0
100
AcDbLine
 62
7
  6
CONTINUOUS
 10
9.9699974206
 20
11.0058763081
 11
9.5523183383
 21
11.7293176999
  0
LINE
  5
271
100
AcDbEntity
  8
0
100
AcDbLine
 62
7
  6
CONTINUOUS
 10
9.7510865083
 20
11.4996215023
 11
9.8398819917
 21
11.3396613594
  0
LINE
  5
272
100
AcDbEntity
  8
0
100
AcDbLine
 62
7
  6
CONTINUOUS
 10
15.1555480355
 20
11.5815747424
 11
15.1272214046
 21
11.5306206944
  0
LINE
  5
273
100
AcDbEntity
  8
0
100
AcDbLine
 62
9
  6
CONTINUOUS
 10
7.5952482606
 20
12.5145346913
 11
7.8325353296
 21
12.2772476223
  0
LINE
  5
274
100
AcDbEntity
  8
0
100
AcDbLine
 62
9
  6
CONTINUOUS
 10
7.9312253559
 20
12.2946493366
 11
7.612649975
 21
12.6132247176
  0
LINE
  5
275
100
AcDbEntity
  8
0
100
AcDbLine
 62
7
  6
CONTINUOUS
 10
10.531644762
 20
11.2224907595
 11
10.2390279614
 21
11.7293176999
  0
LINE
  5
276
100
AcDbEntity
  8
0
100
AcDbLine
 62
7
  6
CONTINUOUS
 10
15.8053784061
 20
11.7293162526
 11
15.5902618592
 21
11.3567234637
  0
LINE
  5
277
100
AcDbEntity
  8
0
100
AcDbLine
 62
7
  6
CONTINUOUS
 10
15.4701489421
 20
11.1486817888
 11
15.4263495415
 21
11.0728190016
  0
LINE
  5
278
100
AcDbEntity
  8
0
100
AcDbLine
 62
9
  6
CONTINUOUS
 10
10.6723181407
 20
4.4196008001
 11
10.3798058741
 21
4.1810604487
  0
LINE
  5
279
100
AcDbEntity
  8
0
100
AcDbLine
 62
9
  6
CONTINUOUS
 10
10.6723182523
 20
10.0670215857
 11
11.4223184243
 21
10.0670215857
  0
LINE
  5
27A
100
AcDbEntity
  8
0
100
AcDbLine
 62
7
  6
CONTINUOUS
 10
14.499388416
 20
10.9441007086
 11
14.4819867016
 21
10.8454106823
  0
LINE
  5
27B
100
AcDbEntity
  8
0
100
AcDbLine
 62
7
  6
CONTINUOUS
 10
14.2621013469
 20
11.1813877776
 11
14.1634113207
 21
11.1639860633
  0
LINE
  5
27C
100
AcDbEntity
  8
0
100
AcDbLine
 62
7
  6
CONTINUOUS
 10
7.8325353296
 20
11.1813877776
 11
7.9312253559
 21
11.1639860633
  0
LINE
  5
27D
100
AcDbEntity
  8
0
100
AcDbLine
 62
7
  6
CONTINUOUS
 10
7.1862752284
 20
11.9566421225
 11
7.164698064
 21
11.9654913649
  0
LINE
  5
27E
100
AcDbEntity
  8
0
100
AcDbLine
 62
7
  6
CONTINUOUS
 10
11.4514635267
 20
12.4293176999
 11
11.8556087151
 21
11.7293176999
  0
LINE
  5
27F
100
AcDbEntity
  8
0
100
AcDbLine
 62
7
  6
CONTINUOUS
 10
15.5952482606
 20
12.5145346913
 11
15.612649975
 21
12.6132247176
  0
LINE
  5
280
100
AcDbEntity
  8
0
100
AcDbLine
 62
7
  6
CONTINUOUS
 10
14.9521256009
 20
11.8610283681
 11
14.9770304646
 21
11.8671528338
  0
LINE
  5
281
100
AcDbEntity
  8
0
100
AcDbLine
 62
7
  6
CONTINUOUS
 10
10.6185062871
 20
11.0293177435
 11
11.4761303895
 21
11.0293177435
  0
LINE
  5
282
100
AcDbEntity
  8
0
100
AcDbLine
 62
7
  6
CONTINUOUS
 10
15.4263476902
 20
11.0728176999
 11
14.6682889866
 21
11.0728176999
  0
LINE
  5
283
100
AcDbEntity
  8
0
100
AcDbLine
 62
7
  6
CONTINUOUS
 10
7.4263476902
 20
11.0728176999
 11
6.6682889866
 21
11.0728176999
  0
LINE
  5
284
100
AcDbEntity
  8
0
100
AcDbLine
 62
7
  6
CONTINUOUS
 10
15.8325353296
 20
12.2772476223
 11
15.9312253559
 21
12.2946493366
  0
LINE
  5
285
100
AcDbEntity
  8
0
100
AcDbLine
 62
7
  6
CONTINUOUS
 10
6.2621013469
 20
12.2772476223
 11
6.1634113207
 21
12.2946493366
  0
LINE
  5
286
100
AcDbEntity
  8
0
100
AcDbLine
 62
7
  6
CONTINUOUS
 10
6.2621013469
 20
11.1813877776
 11
6.1634113207
 21
11.1639860633
  0
LINE
  5
287
100
AcDbEntity
  8
0
100
AcDbLine
 62
7
  6
CONTINUOUS
 10
10.2390978418
 20
11.7294387363
 11
9.5886678937
 21
11.729164949
  0
LINE
  5
288
100
AcDbEntity
  8
0
100
AcDbLine
 62
7
  6
CONTINUOUS
 10
7.0667741824
 20
11.8371410764
 11
7.0787741824
 21
11.8371410764
  0
LINE
  5
289
100
AcDbEntity
  8
0
100
AcDbLine
 62
7
  6
CONTINUOUS
 10
12.5423183383
 20
11.7293176999
 11
11.8556087151
 21
11.7293176999
  0
LINE
  5
28A
100
AcDbEntity
  8
0
100
AcDbLine
 62
7
  6
CONTINUOUS
 10
9.5887213479
 20
11.7292691771
 11
9.5523183383
 21
11.7293176999
  0
LINE
  5
28B
100
AcDbEntity
  8
0
100
AcDbLine
 62
7
  6
CONTINUOUS
 10
15.8325353296
 20
11.1813877776
 11
15.9312253559
 21
11.1639860633
  0
LINE
  5
28C
100
AcDbEntity
  8
0
100
AcDbLine
 62
7
  6
CONTINUOUS
 10
14.499388416
 20
12.5145346913
 11
14.4819867016
 21
12.6132247176
  0
LINE
  5
28D
100
AcDbEntity
  8
0
100
AcDbLine
 62
7
  6
CONTINUOUS
 10
6.6682889864
 20
12.3858176999
 11
7.4263474303
 21
12.3858176999
  0
LINE
  5
28E
100
AcDbEntity
  8
0
100
AcDbLine
 62
7
  6
CONTINUOUS
 10
14.6682889864
 20
12.3858176999
 11
15.4263474303
 21
12.3858176999
  0
LINE
  5
28F
100
AcDbEntity
  8
0
100
AcDbLine
 62
7
  6
CONTINUOUS
 10
11.4514635267
 20
12.4293176999
 11
10.6431731499
 21
12.4293176999
  0
LINE
  5
290
100
AcDbEntity
  8
0
100
AcDbLine
 62
9
  6
CONTINUOUS
 10
14.1634113207
 20
11.1639860633
 11
14.4819867016
 21
10.8454106823
  0
LINE
  5
291
100
AcDbEntity
  8
0
100
AcDbLine
 62
9
  6
CONTINUOUS
 10
14.499388416
 20
10.9441007086
 11
14.2621013469
 21
11.1813877776
  0
LINE
  5
292
100
AcDbEntity
  8
0
100
AcDbLine
 62
7
  6
CONTINUOUS
 10
14.2648408216
 20
11.2142542732
 11
14.5322549115
 21
10.9468401832
  0
LINE
  5
293
100
AcDbEntity
  8
0
100
AcDbLine
 62
9
  6
CONTINUOUS
 10
14.2811298619
 20
11.2331270489
 11
14.5511276873
 21
10.9631292235
  0
LINE
  5
294
100
AcDbEntity
  8
0
100
AcDbLine
 62
7
  6
CONTINUOUS
 10
14.6682871352
 20
11.0728190014
 11
14.624600428
 21
11.1484865978
  0
LINE
  5
295
100
AcDbEntity
  8
0
100
AcDbLine
 62
7
  6
CONTINUOUS
 10
14.5043089646
 20
11.3568375242
 11
14.2892580864
 21
11.7293165713
  0
LINE
  5
296
100
AcDbEntity
  8
0
100
AcDbLine
 62
7
  6
CONTINUOUS
 10
14.9497376025
 20
11.8707390562
 11
14.9521256009
 21
11.8610283681
  0
LINE
  5
297
100
AcDbEntity
  8
0
100
AcDbLine
 62
7
  6
CONTINUOUS
 10
15.5952482606
 20
10.9441007086
 11
15.612649975
 21
10.8454106823
  0
LINE
  5
298
100
AcDbEntity
  8
0
100
AcDbLine
 62
7
  6
CONTINUOUS
 10
7.8325353296
 20
12.2772476223
 11
7.9312253559
 21
12.2946493366
  0
LINE
  5
299
100
AcDbEntity
  8
0
100
AcDbLine
 62
7
  6
CONTINUOUS
 10
14.2621013469
 20
12.2772476223
 11
14.1634113207
 21
12.2946493366
  0
LINE
  5
29A
100
AcDbEntity
  8
0
100
AcDbLine
 62
7
  6
CONTINUOUS
 10
15.1712803982
 20
11.5728287281
 11
15.1555480355
 21
11.5815747424
  0
LINE
  5
29B
100
AcDbEntity
  8
0
100
AcDbLine
 62
9
  6
CONTINUOUS
 10
14.8037284852
 20
11.221725378
 11
14.7867417901
 21
11.2387120731
  0
LINE
  5
29C
100
AcDbEntity
  8
0
100
AcDbLine
 62
9
  6
CONTINUOUS
 10
14.5527959996
 20
11.4726578637
 11
14.5397260164
 21
11.4857278469
  0
LINE
  5
29D
100
AcDbEntity
  8
0
100
AcDbLine
 62
7
  6
CONTINUOUS
 10
15.1972799166
 20
11.6233066234
 11
15.2039779246
 21
11.6065992392
  0
LINE
  5
29E
100
AcDbEntity
  8
0
100
AcDbLine
 62
7
  6
CONTINUOUS
 10
14.7938205572
 20
11.8640215418
 11
14.8535710802
 21
11.8042710187
  0
LINE
  5
29F
100
AcDbEntity
  8
0
100
AcDbLine
 62
7
  6
CONTINUOUS
 10
14.9249888651
 20
11.7328532338
 11
14.9808503009
 21
11.6769917981
  0
LINE
  5
2A0
100
AcDbEntity
  8
0
100
AcDbLine
 62
7
  6
CONTINUOUS
 10
15.1272214046
 20
11.5306206944
 11
15.1399493266
 21
11.5178927724
  0
LINE
  5
2A1
100
AcDbEntity
  8
0
100
AcDbLine
 62
7
  6
CONTINUOUS
 10
14.8293301302
 20
11.8539678129
 11
14.8096280791
 21
11.873669864
  0
LINE
  5
2A2
100
AcDbEntity
  8
0
100
AcDbLine
 62
7
  6
CONTINUOUS
 10
14.8994306403
 20
11.9634724252
 11
14.9191326914
 21
11.9437703741
  0
LINE
  5
2A3
100
AcDbEntity
  8
0
100
AcDbLine
 62
7
  6
CONTINUOUS
 10
15.0054076634
 20
11.8592339729
 11
15.0223782262
 21
11.8422634102
  0
LINE
  5
2A4
100
AcDbEntity
  8
0
100
AcDbLine
 62
7
  6
CONTINUOUS
 10
15.1003513469
 20
11.7964928442
 11
14.9946541969
 21
11.9021899942
  0
LINE
  5
2A5
100
AcDbEntity
  8
0
100
AcDbLine
 62
7
  6
CONTINUOUS
 10
14.9730721263
 20
11.9237720648
 11
14.9133216032
 21
11.9835225878
  0
LINE
  5
2A6
100
AcDbEntity
  8
0
100
AcDbLine
 62
7
  6
CONTINUOUS
 10
15.4263494697
 20
12.3858165226
 11
15.4700362486
 21
12.3101488021
  0
LINE
  5
2A7
100
AcDbEntity
  8
0
100
AcDbLine
 62
7
  6
CONTINUOUS
 10
15.590327712
 20
12.1017978757
 11
15.8053784061
 21
11.7293191473
  0
LINE
  5
2A8
100
AcDbEntity
  8
0
100
AcDbLine
 62
9
  6
CONTINUOUS
 10
15.2909081914
 20
12.2369100218
 11
15.3078949001
 21
12.2199233131
  0
LINE
  5
2A9
100
AcDbEntity
  8
0
100
AcDbLine
 62
9
  6
CONTINUOUS
 10
15.5418407454
 20
11.9859774678
 11
15.5549106602
 21
11.972907553
  0
LINE
  5
2AA
100
AcDbEntity
  8
0
100
AcDbLine
 62
9
  6
CONTINUOUS
 10
15.5435089893
 20
12.4955061763
 11
15.8135068147
 21
12.225508351
  0
LINE
  5
2AB
100
AcDbEntity
  8
0
100
AcDbLine
 62
7
  6
CONTINUOUS
 10
15.829795855
 20
12.2443811267
 11
15.562381765
 21
12.5117952167
  0
LINE
  5
2AC
100
AcDbEntity
  8
0
100
AcDbLine
 62
9
  6
CONTINUOUS
 10
15.5952482606
 20
12.5145346913
 11
15.8325353296
 21
12.2772476223
  0
LINE
  5
2AD
100
AcDbEntity
  8
0
100
AcDbLine
 62
9
  6
CONTINUOUS
 10
15.9312253559
 20
12.2946493366
 11
15.612649975
 21
12.6132247176
  0
ARC
  5
2AE
100
AcDbEntity
  8
0
100
AcDbCircle
 62
7
  6
CONTINUOUS
 10
-33.4191610765
 20
5.5431402099
 40
43.8201384277
100
AcDbArc
 50
358.2187614728
 51
5.5071683567
  0
ARC
  5
2AF
100
AcDbEntity
  8
0
100
AcDbCircle
 62
7
  6
CONTINUOUS
 10
8.8825773483
 20
2.7091562992
 40
1.4528679478
100
AcDbArc
 50
351.7612632872
 51
352.2564415345
  0
ARC
  5
2B0
100
AcDbEntity
  8
0
100
AcDbCircle
 62
7
  6
CONTINUOUS
 10
7.883472107
 20
10.8931639312
 40
0.275
100
AcDbArc
 50
190.0
 51
80.0
  0
ARC
  5
2B1
100
AcDbEntity
  8
0
100
AcDbCircle
 62
7
  6
CONTINUOUS
 10
6.2111645695
 20
10.8931639312
 40
0.275
100
AcDbArc
 50
100.0
 51
350.0
  0
ARC
  5
2B2
100
AcDbEntity
  8
0
100
AcDbCircle
 62
7
  6
CONTINUOUS
 10
7.8048955441
 20
11.4829786969
 40
0.25
100
AcDbArc
 50
179.3699285546
 51
271.9739483153
  0
ARC
  5
2B3
100
AcDbEntity
  8
0
100
AcDbCircle
 62
7
  6
CONTINUOUS
 10
7.2936573413
 20
10.9717404942
 40
0.25
100
AcDbArc
 50
358.0260516848
 51
90.6300714453
  0
ARC
  5
2B4
100
AcDbEntity
  8
0
100
AcDbCircle
 62
7
  6
CONTINUOUS
 10
6.8009793353
 20
10.9717404942
 40
0.25
100
AcDbArc
 50
89.3699285546
 51
181.9739483152
  0
ARC
  5
2B5
100
AcDbEntity
  8
0
100
AcDbCircle
 62
7
  6
CONTINUOUS
 10
6.2897411325
 20
11.4829786969
 40
0.25
100
AcDbArc
 50
268.0260516848
 51
0.6300714454
  0
ARC
  5
2B6
100
AcDbEntity
  8
0
100
AcDbCircle
 62
7
  6
CONTINUOUS
 10
7.2905672968
 20
11.2527235036
 40
0.031
100
AcDbArc
 50
249.3420337524
 51
270.6300714452
  0
ARC
  5
2B7
100
AcDbEntity
  8
0
100
AcDbCircle
 62
7
  6
CONTINUOUS
 10
7.5239125346
 20
11.4860687414
 40
0.031
100
AcDbArc
 50
359.3699285546
 51
18.0698747268
  0
ARC
  5
2B8
100
AcDbEntity
  8
0
100
AcDbCircle
 62
7
  6
CONTINUOUS
 10
6.8040693798
 20
11.2527235036
 40
0.031
100
AcDbArc
 50
269.3699285548
 51
290.1444935604
  0
ARC
  5
2B9
100
AcDbEntity
  8
0
100
AcDbCircle
 62
7
  6
CONTINUOUS
 10
6.570724142
 20
11.4860687414
 40
0.031
100
AcDbArc
 50
160.3001936054
 51
180.6300714452
  0
ARC
  5
2BA
100
AcDbEntity
  8
0
100
AcDbCircle
 62
7
  6
CONTINUOUS
 10
6.8816446151
 20
11.5096182274
 40
0.024
100
AcDbArc
 50
333.2099568644
 51
45.0
  0
ARC
  5
2BB
100
AcDbEntity
  8
0
100
AcDbCircle
 62
7
  6
CONTINUOUS
 10
6.9438700119
 20
11.5718436241
 40
0.024
100
AcDbArc
 50
225.0000000008
 51
296.7900431373
  0
ARC
  5
2BC
100
AcDbEntity
  8
0
100
AcDbCircle
 62
7
  6
CONTINUOUS
 10
6.9452842254
 20
11.5732578377
 40
0.024
100
AcDbArc
 50
333.2099568644
 51
45.0
  0
ARC
  5
2BD
100
AcDbEntity
  8
0
100
AcDbCircle
 62
7
  6
CONTINUOUS
 10
6.8867657666
 20
11.6303620829
 40
0.024
100
AcDbArc
 50
45.0
 51
114.2576200455
  0
ARC
  5
2BE
100
AcDbEntity
  8
0
100
AcDbCircle
 62
7
  6
CONTINUOUS
 10
6.8867657666
 20
11.6303620829
 40
0.024
100
AcDbArc
 50
155.7423799543
 51
225.0000000008
  0
ARC
  5
2BF
100
AcDbEntity
  8
0
100
AcDbCircle
 62
7
  6
CONTINUOUS
 10
6.8240833318
 20
11.5671795107
 40
0.024
100
AcDbArc
 50
45.0
 51
116.7900431372
  0
ARC
  5
2C0
100
AcDbEntity
  8
0
100
AcDbCircle
 62
7
  6
CONTINUOUS
 10
7.8353137005
 20
11.1971447017
 40
0.016
100
AcDbArc
 50
135.0000000002
 51
259.9999999976
  0
ARC
  5
2C1
100
AcDbEntity
  8
0
100
AcDbCircle
 62
7
  6
CONTINUOUS
 10
7.5794913366
 20
10.9413223377
 40
0.016
100
AcDbArc
 50
10.0000000009
 51
135.0
  0
ARC
  5
2C2
100
AcDbEntity
  8
0
100
AcDbCircle
 62
7
  6
CONTINUOUS
 10
7.5594994948
 20
10.9625781022
 40
0.016
100
AcDbArc
 50
178.0260516849
 51
280.3765489001
  0
ARC
  5
2C3
100
AcDbEntity
  8
0
100
AcDbCircle
 62
7
  6
CONTINUOUS
 10
7.814057936
 20
11.2171365435
 40
0.016
100
AcDbArc
 50
349.6234510996
 51
91.9739483151
  0
ARC
  5
2C4
100
AcDbEntity
  8
0
100
AcDbCircle
 62
7
  6
CONTINUOUS
 10
6.2805787406
 20
11.2171365435
 40
0.016
100
AcDbArc
 50
88.0260516849
 51
190.3765489003
  0
ARC
  5
2C5
100
AcDbEntity
  8
0
100
AcDbCircle
 62
7
  6
CONTINUOUS
 10
6.5351371818
 20
10.9625781022
 40
0.016
100
AcDbArc
 50
259.6234510997
 51
1.9739483151
  0
ARC
  5
2C6
100
AcDbEntity
  8
0
100
AcDbCircle
 62
7
  6
CONTINUOUS
 10
6.51514534
 20
10.9413223377
 40
0.016
100
AcDbArc
 50
45.0
 51
169.9999999983
  0
ARC
  5
2C7
100
AcDbEntity
  8
0
100
AcDbCircle
 62
7
  6
CONTINUOUS
 10
6.2593229761
 20
11.1971447017
 40
0.016
100
AcDbArc
 50
280.0000000017
 51
45.0
  0
ARC
  5
2C8
100
AcDbEntity
  8
0
100
AcDbCircle
 62
7
  6
CONTINUOUS
 10
6.9112002829
 20
11.5790575089
 40
0.006
100
AcDbArc
 50
135.000000006
 51
224.9999999946
  0
ARC
  5
2C9
100
AcDbEntity
  8
0
100
AcDbCircle
 62
7
  6
CONTINUOUS
 10
6.9380703406
 20
11.6059275666
 40
0.006
100
AcDbArc
 50
45.0
 51
134.9999999986
  0
ARC
  5
2CA
100
AcDbEntity
  8
0
100
AcDbCircle
 62
7
  6
CONTINUOUS
 10
6.9164642514
 20
11.6261194422
 40
0.006
100
AcDbArc
 50
314.9999999987
 51
45.0
  0
ARC
  5
2CB
100
AcDbEntity
  8
0
100
AcDbCircle
 62
7
  6
CONTINUOUS
 10
6.8910084073
 20
11.6006635981
 40
0.006
100
AcDbArc
 50
225.0000000007
 51
314.9999999994
  0
ARC
  5
2CC
100
AcDbEntity
  8
0
100
AcDbCircle
 62
7
  6
CONTINUOUS
 10
6.2897411325
 20
11.9756567029
 40
0.25
100
AcDbArc
 50
359.3699285546
 51
91.9739483153
  0
ARC
  5
2CD
100
AcDbEntity
  8
0
100
AcDbCircle
 62
7
  6
CONTINUOUS
 10
6.570724142
 20
11.9725666584
 40
0.031
100
AcDbArc
 50
179.3699285546
 51
198.0698510321
  0
ARC
  5
2CE
100
AcDbEntity
  8
0
100
AcDbCircle
 62
7
  6
CONTINUOUS
 10
7.0075096222
 20
11.6354832344
 40
0.024
100
AcDbArc
 50
225.0000000008
 51
296.7900431352
  0
ARC
  5
2CF
100
AcDbEntity
  8
0
100
AcDbCircle
 62
7
  6
CONTINUOUS
 10
6.9499483388
 20
11.6930445177
 40
0.024
100
AcDbArc
 50
153.2099568642
 51
224.9999999991
  0
ARC
  5
2D0
100
AcDbEntity
  8
0
100
AcDbCircle
 62
7
  6
CONTINUOUS
 10
6.2111645695
 20
12.5654714687
 40
0.275
100
AcDbArc
 50
10.0
 51
260.0
  0
ARC
  5
2D1
100
AcDbEntity
  8
0
100
AcDbCircle
 62
7
  6
CONTINUOUS
 10
6.8009793353
 20
12.4868949057
 40
0.25
100
AcDbArc
 50
178.0260516848
 51
270.6300714453
  0
ARC
  5
2D2
100
AcDbEntity
  8
0
100
AcDbCircle
 62
7
  6
CONTINUOUS
 10
6.8040693798
 20
12.2059118962
 40
0.031
100
AcDbArc
 50
69.3420676549
 51
90.6300714452
  0
ARC
  5
2D3
100
AcDbEntity
  8
0
100
AcDbCircle
 62
7
  6
CONTINUOUS
 10
6.51514534
 20
12.5173130621
 40
0.016
100
AcDbArc
 50
190.0000000009
 51
315.0
  0
ARC
  5
2D4
100
AcDbEntity
  8
0
100
AcDbCircle
 62
7
  6
CONTINUOUS
 10
6.2593229761
 20
12.2614906982
 40
0.016
100
AcDbArc
 50
315.0000000002
 51
79.9999999976
  0
ARC
  5
2D5
100
AcDbEntity
  8
0
100
AcDbCircle
 62
7
  6
CONTINUOUS
 10
6.2805787406
 20
12.2414988564
 40
0.016
100
AcDbArc
 50
169.6234510996
 51
271.9739483151
  0
ARC
  5
2D6
100
AcDbEntity
  8
0
100
AcDbCircle
 62
7
  6
CONTINUOUS
 10
6.5351371818
 20
12.4960572977
 40
0.016
100
AcDbArc
 50
358.0260516849
 51
100.3765489001
  0
ARC
  5
2D7
100
AcDbEntity
  8
0
100
AcDbCircle
 62
7
  6
CONTINUOUS
 10
7.0473183383
 20
11.7293176999
 40
1.18
100
AcDbArc
 50
58.3110717716
 51
121.6895165282
  0
ARC
  5
2D8
100
AcDbEntity
  8
0
100
AcDbCircle
 62
7
  6
CONTINUOUS
 10
7.0473183383
 20
11.7293176999
 40
1.18
100
AcDbArc
 50
148.3112381073
 51
211.6884023181
  0
ARC
  5
2D9
100
AcDbEntity
  8
0
100
AcDbCircle
 62
7
  6
CONTINUOUS
 10
7.0473183383
 20
11.7293176999
 40
1.18
100
AcDbArc
 50
238.3110717716
 51
301.6895165282
  0
ARC
  5
2DA
100
AcDbEntity
  8
0
100
AcDbCircle
 62
7
  6
CONTINUOUS
 10
7.0473183383
 20
11.7293176999
 40
1.18
100
AcDbArc
 50
328.3112381073
 51
31.6884023181
  0
ARC
  5
2DB
100
AcDbEntity
  8
0
100
AcDbCircle
 62
7
  6
CONTINUOUS
 10
7.0473183383
 20
11.7293176999
 40
1.0000026738
100
AcDbArc
 50
236.1474067645
 51
303.8525932355
  0
ARC
  5
2DC
100
AcDbEntity
  8
0
100
AcDbCircle
 62
7
  6
CONTINUOUS
 10
7.0473183383
 20
11.7293176999
 40
1.0000026738
100
AcDbArc
 50
146.2046018122
 51
213.7953981878
  0
ARC
  5
2DD
100
AcDbEntity
  8
0
100
AcDbCircle
 62
7
  6
CONTINUOUS
 10
7.0473183383
 20
11.7293176999
 40
1.0000026738
100
AcDbArc
 50
56.1474067645
 51
123.8525932355
  0
ARC
  5
2DE
100
AcDbEntity
  8
0
100
AcDbCircle
 62
7
  6
CONTINUOUS
 10
7.0473183383
 20
11.7293176999
 40
1.0000026738
100
AcDbArc
 50
326.2046018122
 51
33.7953981878
  0
ARC
  5
2DF
100
AcDbEntity
  8
0
100
AcDbCircle
 62
9
  6
CONTINUOUS
 10
7.0473183383
 20
11.7293176999
 40
0.8130026738
100
AcDbArc
 50
234.1986799003
 51
305.7941262367
  0
ARC
  5
2E0
100
AcDbEntity
  8
0
100
AcDbCircle
 62
9
  6
CONTINUOUS
 10
7.0473183383
 20
11.7293176999
 40
0.8130026738
100
AcDbArc
 50
144.2064966169
 51
215.8001709717
  0
ARC
  5
2E1
100
AcDbEntity
  8
0
100
AcDbCircle
 62
9
  6
CONTINUOUS
 10
7.0473183383
 20
11.7293176999
 40
0.8130026738
100
AcDbArc
 50
54.1986799003
 51
125.7941262367
  0
ARC
  5
2E2
100
AcDbEntity
  8
0
100
AcDbCircle
 62
9
  6
CONTINUOUS
 10
7.0473183383
 20
11.7293176999
 40
0.8130026738
100
AcDbArc
 50
324.2064966169
 51
35.8001709717
  0
ARC
  5
2E3
100
AcDbEntity
  8
0
100
AcDbCircle
 62
7
  6
CONTINUOUS
 10
7.0473183383
 20
11.7293176999
 40
0.741
100
AcDbArc
 50
62.3704986062
 51
117.6295013938
  0
ARC
  5
2E4
100
AcDbEntity
  8
0
100
AcDbCircle
 62
7
  6
CONTINUOUS
 10
7.0473183383
 20
11.7293176999
 40
0.741
100
AcDbArc
 50
143.8343894235
 51
177.6295013938
  0
ARC
  5
2E5
100
AcDbEntity
  8
0
100
AcDbCircle
 62
7
  6
CONTINUOUS
 10
7.0473183383
 20
11.7293176999
 40
0.741
100
AcDbArc
 50
122.3704986062
 51
126.1817907343
  0
ARC
  5
2E6
100
AcDbEntity
  8
0
100
AcDbCircle
 62
7
  6
CONTINUOUS
 10
7.0473183383
 20
11.7293176999
 40
0.741
100
AcDbArc
 50
53.8264322949
 51
57.6295013938
  0
ARC
  5
2E7
100
AcDbEntity
  8
0
100
AcDbCircle
 62
7
  6
CONTINUOUS
 10
7.0473183383
 20
11.7293176999
 40
0.741
100
AcDbArc
 50
2.3704986062
 51
36.1575166935
  0
ARC
  5
2E8
100
AcDbEntity
  8
0
100
AcDbCircle
 62
7
  6
CONTINUOUS
 10
7.0473183383
 20
11.7293176999
 40
0.741
100
AcDbArc
 50
242.3704986062
 51
297.6295013938
  0
ARC
  5
2E9
100
AcDbEntity
  8
0
100
AcDbCircle
 62
7
  6
CONTINUOUS
 10
7.0473183383
 20
11.7293176999
 40
0.741
100
AcDbArc
 50
323.8343894235
 51
357.6295013938
  0
ARC
  5
2EA
100
AcDbEntity
  8
0
100
AcDbCircle
 62
7
  6
CONTINUOUS
 10
7.0473183383
 20
11.7293176999
 40
0.741
100
AcDbArc
 50
302.3704986062
 51
306.1817907343
  0
ARC
  5
2EB
100
AcDbEntity
  8
0
100
AcDbCircle
 62
7
  6
CONTINUOUS
 10
7.0473183383
 20
11.7293176999
 40
0.741
100
AcDbArc
 50
233.8264322949
 51
237.6295013938
  0
ARC
  5
2EC
100
AcDbEntity
  8
0
100
AcDbCircle
 62
7
  6
CONTINUOUS
 10
7.0473183383
 20
11.7293176999
 40
0.741
100
AcDbArc
 50
182.3704986062
 51
216.1575166935
  0
ARC
  5
2ED
100
AcDbEntity
  8
0
100
AcDbCircle
 62
7
  6
CONTINUOUS
 10
7.0473183383
 20
11.7293176999
 40
0.6515
100
AcDbArc
 50
55.8971654284
 51
124.0982655532
  0
ARC
  5
2EE
100
AcDbEntity
  8
0
100
AcDbCircle
 62
7
  6
CONTINUOUS
 10
7.0473183383
 20
11.7293176999
 40
0.6515
100
AcDbArc
 50
325.9692466807
 51
34.0343878822
  0
ARC
  5
2EF
100
AcDbEntity
  8
0
100
AcDbCircle
 62
7
  6
CONTINUOUS
 10
7.0473183383
 20
11.7293176999
 40
0.6515
100
AcDbArc
 50
235.8971654284
 51
304.0982655532
  0
ARC
  5
2F0
100
AcDbEntity
  8
0
100
AcDbCircle
 62
7
  6
CONTINUOUS
 10
7.0473183383
 20
11.7293176999
 40
0.6515
100
AcDbArc
 50
145.9692466807
 51
214.0343878822
  0
ARC
  5
2F1
100
AcDbEntity
  8
0
100
AcDbCircle
 62
9
  6
CONTINUOUS
 10
7.0473183383
 20
11.7293176999
 40
0.6146339942
100
AcDbArc
 50
238.1330735029
 51
301.858131027
  0
ARC
  5
2F2
100
AcDbEntity
  8
0
100
AcDbCircle
 62
9
  6
CONTINUOUS
 10
7.0473183383
 20
11.7293176999
 40
0.6146339942
100
AcDbArc
 50
328.2120475217
 51
31.7954321345
  0
ARC
  5
2F3
100
AcDbEntity
  8
0
100
AcDbCircle
 62
9
  6
CONTINUOUS
 10
7.0473183383
 20
11.7293176999
 40
0.6146339942
100
AcDbArc
 50
58.1330735029
 51
121.858131027
  0
ARC
  5
2F4
100
AcDbEntity
  8
0
100
AcDbCircle
 62
9
  6
CONTINUOUS
 10
7.0473183383
 20
11.7293176999
 40
0.6146339942
100
AcDbArc
 50
148.2120475217
 51
211.7954321345
  0
CIRCLE
  5
2F5
100
AcDbEntity
  8
0
100
AcDbCircle
 62
7
  6
CONTINUOUS
 10
7.0473183383
 20
11.7293176999
 40
0.5575
  0
CIRCLE
  5
2F6
100
AcDbEntity
  8
0
100
AcDbCircle
 62
7
  6
CONTINUOUS
 10
7.0473183383
 20
11.7293176999
 40
0.5275
  0
CIRCLE
  5
2F7
100
AcDbEntity
  8
0
100
AcDbCircle
 62
7
  6
CONTINUOUS
 10
7.0473183383
 20
11.7293176999
 40
0.5132341523
  0
CIRCLE
  5
2F8
100
AcDbEntity
  8
0
100
AcDbCircle
 62
7
  6
CONTINUOUS
 10
7.0473183383
 20
11.7293176999
 40
0.4545099561
  0
CIRCLE
  5
2F9
100
AcDbEntity
  8
0
100
AcDbCircle
 62
7
  6
CONTINUOUS
 10
7.0473183383
 20
11.7293176999
 40
0.4275
  0
CIRCLE
  5
2FA
100
AcDbEntity
  8
0
100
AcDbCircle
 62
7
  6
CONTINUOUS
 10
7.0473183383
 20
11.7293176999
 40
0.4175
  0
CIRCLE
  5
2FB
100
AcDbEntity
  8
0
100
AcDbCircle
 62
9
  6
CONTINUOUS
 10
7.0473183383
 20
11.7293176999
 40
0.3951446396
  0
ARC
  5
2FC
100
AcDbEntity
  8
0
100
AcDbCircle
 62
7
  6
CONTINUOUS
 10
7.1200861665
 20
11.8371410764
 40
0.0413119841
100
AcDbArc
 50
134.9999999993
 51
180.0
  0
ARC
  5
2FD
100
AcDbEntity
  8
0
100
AcDbCircle
 62
7
  6
CONTINUOUS
 10
7.153412433
 20
11.7936363395
 40
0.036
100
AcDbArc
 50
344.0852950605
 51
45.0
  0
ARC
  5
2FE
100
AcDbEntity
  8
0
100
AcDbCircle
 62
7
  6
CONTINUOUS
 10
7.1862752284
 20
11.9033301383
 40
0.0413119841
100
AcDbArc
 50
90.0
 51
134.9999999993
  0
ARC
  5
2FF
100
AcDbEntity
  8
0
100
AcDbCircle
 62
7
  6
CONTINUOUS
 10
7.2297799653
 20
11.8700038719
 40
0.036
100
AcDbArc
 50
224.9999999997
 51
285.9147049392
  0
ARC
  5
300
100
AcDbEntity
  8
0
100
AcDbCircle
 62
7
  6
CONTINUOUS
 10
7.1409392761
 20
11.9121755136
 40
0.003
100
AcDbArc
 50
134.9999999918
 51
225.0000000067
  0
ARC
  5
301
100
AcDbEntity
  8
0
100
AcDbCircle
 62
7
  6
CONTINUOUS
 10
7.1112407913
 20
11.8824770287
 40
0.003
100
AcDbArc
 50
45.0
 51
134.9999999918
  0
ARC
  5
302
100
AcDbEntity
  8
0
100
AcDbCircle
 62
7
  6
CONTINUOUS
 10
7.8048955441
 20
11.9756567029
 40
0.25
100
AcDbArc
 50
88.0260516848
 51
180.6300714454
  0
ARC
  5
303
100
AcDbEntity
  8
0
100
AcDbCircle
 62
7
  6
CONTINUOUS
 10
7.5239125346
 20
11.9725666584
 40
0.031
100
AcDbArc
 50
340.3001235792
 51
0.6300714452
  0
ARC
  5
304
100
AcDbEntity
  8
0
100
AcDbCircle
 62
7
  6
CONTINUOUS
 10
7.883472107
 20
12.5654714687
 40
0.275
100
AcDbArc
 50
280.0
 51
170.0
  0
ARC
  5
305
100
AcDbEntity
  8
0
100
AcDbCircle
 62
7
  6
CONTINUOUS
 10
7.2936573413
 20
12.4868949057
 40
0.25
100
AcDbArc
 50
269.3699285546
 51
1.9739483152
  0
ARC
  5
306
100
AcDbEntity
  8
0
100
AcDbCircle
 62
7
  6
CONTINUOUS
 10
7.2905672968
 20
12.2059118962
 40
0.031
100
AcDbArc
 50
89.3699285548
 51
110.1445392778
  0
ARC
  5
307
100
AcDbEntity
  8
0
100
AcDbCircle
 62
7
  6
CONTINUOUS
 10
7.8353137005
 20
12.2614906982
 40
0.016
100
AcDbArc
 50
100.0000000017
 51
225.0
  0
ARC
  5
308
100
AcDbEntity
  8
0
100
AcDbCircle
 62
7
  6
CONTINUOUS
 10
7.5794913366
 20
12.5173130621
 40
0.016
100
AcDbArc
 50
225.0
 51
349.9999999983
  0
ARC
  5
309
100
AcDbEntity
  8
0
100
AcDbCircle
 62
7
  6
CONTINUOUS
 10
7.5594994948
 20
12.4960572977
 40
0.016
100
AcDbArc
 50
79.6234510997
 51
181.9739483151
  0
ARC
  5
30A
100
AcDbEntity
  8
0
100
AcDbCircle
 62
7
  6
CONTINUOUS
 10
7.814057936
 20
12.2414988564
 40
0.016
100
AcDbArc
 50
268.0260516849
 51
10.3765489003
  0
ARC
  5
30B
100
AcDbEntity
  8
0
100
AcDbCircle
 62
7
  6
CONTINUOUS
 10
9.6193698258
 20
10.6970186006
 40
1.0529376856
100
AcDbArc
 50
0.0325072113
 51
18.3964483139
  0
ARC
  5
30C
100
AcDbEntity
  8
0
100
AcDbCircle
 62
7
  6
CONTINUOUS
 10
9.621502913
 20
10.6971240737
 40
1.0508892937
100
AcDbArc
 50
18.4276667802
 51
29.9950915419
  0
ARC
  5
30D
100
AcDbEntity
  8
0
100
AcDbCircle
 62
9
  6
CONTINUOUS
 10
-99.4303060788
 20
173.3045742153
 40
196.8986647548
100
AcDbArc
 50
303.8333291588
 51
303.9993991475
  0
ARC
  5
30E
100
AcDbEntity
  8
0
100
AcDbCircle
 62
9
  6
CONTINUOUS
 10
11.0459729864
 20
6.0485986234
 40
2.2338006591
100
AcDbArc
 50
260.3624208693
 51
270.0345074982
  0
ARC
  5
30F
100
AcDbEntity
  8
0
100
AcDbCircle
 62
7
  6
CONTINUOUS
 10
13.2120592914
 20
2.7091562974
 40
1.4528679112
100
AcDbArc
 50
187.7435585901
 51
188.23873685
  0
ARC
  5
310
100
AcDbEntity
  8
0
100
AcDbCircle
 62
9
  6
CONTINUOUS
 10
11.0736599401
 20
2.4445979735
 40
0.75531491
100
AcDbArc
 50
174.0668175263
 51
175.7203411397
  0
ARC
  5
311
100
AcDbEntity
  8
0
100
AcDbCircle
 62
9
  6
CONTINUOUS
 10
11.020979262
 20
2.4445981874
 40
0.7553123756
100
AcDbArc
 50
4.2796569765
 51
5.9320967633
  0
ARC
  5
312
100
AcDbEntity
  8
0
100
AcDbCircle
 62
7
  6
CONTINUOUS
 10
11.0272168702
 20
2.4607758405
 40
0.7124345451
100
AcDbArc
 50
169.0311875079
 51
174.981199992
  0
ARC
  5
313
100
AcDbEntity
  8
0
100
AcDbCircle
 62
7
  6
CONTINUOUS
 10
11.0674208299
 20
2.4607759922
 40
0.7124335114
100
AcDbArc
 50
5.0177951092
 51
10.9688162026
  0
ARC
  5
314
100
AcDbEntity
  8
0
100
AcDbCircle
 62
7
  6
CONTINUOUS
 10
11.0180436407
 20
2.4615861708
 40
0.7032255954
100
AcDbArc
 50
174.9815850016
 51
179.9894413253
  0
ARC
  5
315
100
AcDbEntity
  8
0
100
AcDbCircle
 62
7
  6
CONTINUOUS
 10
11.0785710985
 20
2.4616730102
 40
0.7012475222
100
AcDbArc
 50
0.0034932066
 51
5.0244687722
  0
ARC
  5
316
100
AcDbEntity
  8
0
100
AcDbCircle
 62
7
  6
CONTINUOUS
 10
11.0473183383
 20
11.7293176999
 40
1.495
100
AcDbArc
 50
310.6670806294
 51
229.3293118508
  0
ARC
  5
317
100
AcDbEntity
  8
0
100
AcDbCircle
 62
7
  6
CONTINUOUS
 10
12.4752668507
 20
10.6970186006
 40
1.0529376857
100
AcDbArc
 50
161.6035516861
 51
179.9674927764
  0
ARC
  5
318
100
AcDbEntity
  8
0
100
AcDbCircle
 62
7
  6
CONTINUOUS
 10
12.4731337636
 20
10.6971240737
 40
1.0508892937
100
AcDbArc
 50
150.0049084561
 51
161.5723332199
  0
CIRCLE
  5
319
100
AcDbEntity
  8
0
100
AcDbCircle
 62
7
  6
CONTINUOUS
 10
11.0473183383
 20
11.7293176999
 40
0.58
  0
ARC
  5
31A
100
AcDbEntity
  8
0
100
AcDbCircle
 62
9
  6
CONTINUOUS
 10
11.0450994186
 20
13.8420239802
 40
9.5564094491
100
AcDbArc
 50
267.7643170651
 51
270.0133036086
  0
ARC
  5
31B
100
AcDbEntity
  8
0
100
AcDbCircle
 62
7
  6
CONTINUOUS
 10
14.2111645695
 20
10.8931639312
 40
0.275
100
AcDbArc
 50
100.0
 51
350.0
  0
ARC
  5
31C
100
AcDbEntity
  8
0
100
AcDbCircle
 62
7
  6
CONTINUOUS
 10
14.2897411325
 20
11.4829786969
 40
0.25
100
AcDbArc
 50
268.0260516847
 51
0.6300714454
  0
ARC
  5
31D
100
AcDbEntity
  8
0
100
AcDbCircle
 62
7
  6
CONTINUOUS
 10
14.8009793353
 20
10.9717404942
 40
0.25
100
AcDbArc
 50
89.3699285547
 51
181.9739483152
  0
ARC
  5
31E
100
AcDbEntity
  8
0
100
AcDbCircle
 62
7
  6
CONTINUOUS
 10
14.8040693798
 20
11.2527235036
 40
0.031
100
AcDbArc
 50
269.3699285548
 51
288.069851032
  0
ARC
  5
31F
100
AcDbEntity
  8
0
100
AcDbCircle
 62
7
  6
CONTINUOUS
 10
14.570724142
 20
11.4860687414
 40
0.031
100
AcDbArc
 50
159.3420676548
 51
180.6300714454
  0
ARC
  5
320
100
AcDbEntity
  8
0
100
AcDbCircle
 62
7
  6
CONTINUOUS
 10
14.2593229761
 20
11.1971447017
 40
0.016
100
AcDbArc
 50
280.0000000024
 51
44.9999999998
  0
ARC
  5
321
100
AcDbEntity
  8
0
100
AcDbCircle
 62
7
  6
CONTINUOUS
 10
14.51514534
 20
10.9413223377
 40
0.016
100
AcDbArc
 50
45.0
 51
169.9999999991
  0
ARC
  5
322
100
AcDbEntity
  8
0
100
AcDbCircle
 62
7
  6
CONTINUOUS
 10
14.5351371818
 20
10.9625781022
 40
0.016
100
AcDbArc
 50
259.6234510999
 51
1.9739483151
  0
ARC
  5
323
100
AcDbEntity
  8
0
100
AcDbCircle
 62
7
  6
CONTINUOUS
 10
14.2805787406
 20
11.2171365435
 40
0.016
100
AcDbArc
 50
88.0260516849
 51
190.3765489004
  0
ARC
  5
324
100
AcDbEntity
  8
0
100
AcDbCircle
 62
7
  6
CONTINUOUS
 10
14.2897411325
 20
11.9756567029
 40
0.25
100
AcDbArc
 50
359.3699285546
 51
91.9739483152
  0
ARC
  5
325
100
AcDbEntity
  8
0
100
AcDbCircle
 62
7
  6
CONTINUOUS
 10
14.8873984181
 20
11.8857020862
 40
0.097
100
AcDbArc
 50
116.55908618
 51
153.4409138194
  0
ARC
  5
326
100
AcDbEntity
  8
0
100
AcDbCircle
 62
7
  6
CONTINUOUS
 10
14.8535710802
 20
11.9237720648
 40
0.0845
100
AcDbArc
 50
45.0000000001
 51
225.0000000001
  0
ARC
  5
327
100
AcDbEntity
  8
0
100
AcDbCircle
 62
7
  6
CONTINUOUS
 10
14.8435692046
 20
11.9076109895
 40
0.048
100
AcDbArc
 50
153.4409138197
 51
225.0
  0
ARC
  5
328
100
AcDbEntity
  8
0
100
AcDbCircle
 62
7
  6
CONTINUOUS
 10
14.8654895148
 20
11.9295312997
 40
0.048
100
AcDbArc
 50
44.9999999999
 51
116.5590861796
  0
ARC
  5
329
100
AcDbEntity
  8
0
100
AcDbCircle
 62
7
  6
CONTINUOUS
 10
14.8040693798
 20
12.2059118962
 40
0.031
100
AcDbArc
 50
70.3001235793
 51
90.6300714452
  0
ARC
  5
32A
100
AcDbEntity
  8
0
100
AcDbCircle
 62
7
  6
CONTINUOUS
 10
14.570724142
 20
11.9725666584
 40
0.031
100
AcDbArc
 50
179.3699285548
 51
200.144539278
  0
ARC
  5
32B
100
AcDbEntity
  8
0
100
AcDbCircle
 62
7
  6
CONTINUOUS
 10
14.9520502976
 20
11.7719354816
 40
0.03
100
AcDbArc
 50
241.4592496282
 51
315.0000000006
  0
ARC
  5
32C
100
AcDbEntity
  8
0
100
AcDbCircle
 62
7
  6
CONTINUOUS
 10
15.0199325486
 20
11.7040532306
 40
0.03
100
AcDbArc
 50
135.0
 51
208.5407503719
  0
ARC
  5
32D
100
AcDbEntity
  8
0
100
AcDbCircle
 62
7
  6
CONTINUOUS
 10
14.98419446
 20
11.8380207695
 40
0.03
100
AcDbArc
 50
44.9999999995
 51
103.8157171744
  0
ARC
  5
32E
100
AcDbEntity
  8
0
100
AcDbCircle
 62
7
  6
CONTINUOUS
 10
15.0011650228
 20
11.8210502067
 40
0.03
100
AcDbArc
 50
314.9999999992
 51
45.0000000008
  0
ARC
  5
32F
100
AcDbEntity
  8
0
100
AcDbCircle
 62
7
  6
CONTINUOUS
 10
14.8833576108
 20
11.8227438408
 40
0.018
100
AcDbArc
 50
135.0
 51
198.6122000382
  0
ARC
  5
330
100
AcDbEntity
  8
0
100
AcDbCircle
 62
7
  6
CONTINUOUS
 10
14.9503566635
 20
11.8897428935
 40
0.018
100
AcDbArc
 50
71.3877999597
 51
135.0
  0
ARC
  5
331
100
AcDbEntity
  8
0
100
AcDbCircle
 62
7
  6
CONTINUOUS
 10
14.2593229761
 20
12.2614906982
 40
0.016
100
AcDbArc
 50
315.0
 51
79.9999999983
  0
ARC
  5
332
100
AcDbEntity
  8
0
100
AcDbCircle
 62
7
  6
CONTINUOUS
 10
14.2805787406
 20
12.2414988564
 40
0.016
100
AcDbArc
 50
169.6234510997
 51
271.9739483151
  0
ARC
  5
333
100
AcDbEntity
  8
0
100
AcDbCircle
 62
7
  6
CONTINUOUS
 10
14.8335727709
 20
11.8582104536
 40
0.006
100
AcDbArc
 50
225.0000000007
 51
314.9999999994
  0
ARC
  5
334
100
AcDbEntity
  8
0
100
AcDbCircle
 62
7
  6
CONTINUOUS
 10
14.9148900507
 20
11.9395277334
 40
0.006
100
AcDbArc
 50
314.9999999994
 51
45.0000000013
  0
ARC
  5
335
100
AcDbEntity
  8
0
100
AcDbCircle
 62
7
  6
CONTINUOUS
 10
15.883472107
 20
10.8931639312
 40
0.275
100
AcDbArc
 50
190.0
 51
80.0
  0
ARC
  5
336
100
AcDbEntity
  8
0
100
AcDbCircle
 62
7
  6
CONTINUOUS
 10
15.8048955441
 20
11.4829786969
 40
0.25
100
AcDbArc
 50
179.3699285546
 51
271.9739483152
  0
ARC
  5
337
100
AcDbEntity
  8
0
100
AcDbCircle
 62
7
  6
CONTINUOUS
 10
15.2936573413
 20
10.9717404942
 40
0.25
100
AcDbArc
 50
358.0260516848
 51
90.6300714454
  0
ARC
  5
338
100
AcDbEntity
  8
0
100
AcDbCircle
 62
7
  6
CONTINUOUS
 10
15.2570282512
 20
11.5719336888
 40
0.121
100
AcDbArc
 50
207.3178031513
 51
235.863388708
  0
ARC
  5
339
100
AcDbEntity
  8
0
100
AcDbCircle
 62
7
  6
CONTINUOUS
 10
15.2303473052
 20
11.5408239555
 40
0.0888641812
100
AcDbArc
 50
359.2338173193
 51
111.845901431
  0
ARC
  5
33A
100
AcDbEntity
  8
0
100
AcDbCircle
 62
7
  6
CONTINUOUS
 10
15.2045642994
 20
11.5711940367
 40
0.085
100
AcDbArc
 50
293.3999655657
 51
336.6000344342
  0
ARC
  5
33B
100
AcDbEntity
  8
0
100
AcDbCircle
 62
7
  6
CONTINUOUS
 10
15.2358861549
 20
11.5407498833
 40
0.0833248363
100
AcDbArc
 50
235.8633887081
 51
359.2338173193
  0
ARC
  5
33C
100
AcDbEntity
  8
0
100
AcDbCircle
 62
7
  6
CONTINUOUS
 10
15.2322208624
 20
11.5389503983
 40
0.0697243244
100
AcDbArc
 50
150.929221599
 51
166.2636680056
  0
ARC
  5
33D
100
AcDbEntity
  8
0
100
AcDbCircle
 62
7
  6
CONTINUOUS
 10
15.226902833
 20
11.5494157819
 40
0.061607623
100
AcDbArc
 50
31.3709027892
 51
111.8459014314
  0
ARC
  5
33E
100
AcDbEntity
  8
0
100
AcDbCircle
 62
7
  6
CONTINUOUS
 10
15.2168962987
 20
11.5426964209
 40
0.0539485538
100
AcDbArc
 50
166.2636680055
 51
293.3999655657
  0
ARC
  5
33F
100
AcDbEntity
  8
0
100
AcDbCircle
 62
7
  6
CONTINUOUS
 10
15.2385212294
 20
11.5564995851
 40
0.048
100
AcDbArc
 50
336.600034434
 51
31.3709027893
  0
ARC
  5
340
100
AcDbEntity
  8
0
100
AcDbCircle
 62
7
  6
CONTINUOUS
 10
15.5239125346
 20
11.4860687414
 40
0.031
100
AcDbArc
 50
359.3699285548
 51
20.1444935606
  0
ARC
  5
341
100
AcDbEntity
  8
0
100
AcDbCircle
 62
7
  6
CONTINUOUS
 10
15.2905672968
 20
11.2527235036
 40
0.031
100
AcDbArc
 50
250.3001936056
 51
270.6300714452
  0
ARC
  5
342
100
AcDbEntity
  8
0
100
AcDbCircle
 62
7
  6
CONTINUOUS
 10
15.5594994948
 20
10.9625781022
 40
0.016
100
AcDbArc
 50
178.0260516849
 51
280.3765489003
  0
ARC
  5
343
100
AcDbEntity
  8
0
100
AcDbCircle
 62
7
  6
CONTINUOUS
 10
15.814057936
 20
11.2171365435
 40
0.016
100
AcDbArc
 50
349.6234510997
 51
91.9739483151
  0
ARC
  5
344
100
AcDbEntity
  8
0
100
AcDbCircle
 62
7
  6
CONTINUOUS
 10
15.8353137005
 20
11.1971447017
 40
0.016
100
AcDbArc
 50
135.0
 51
259.9999999983
  0
ARC
  5
345
100
AcDbEntity
  8
0
100
AcDbCircle
 62
7
  6
CONTINUOUS
 10
15.5794913366
 20
10.9413223377
 40
0.016
100
AcDbArc
 50
10.0000000017
 51
135.0
  0
ARC
  5
346
100
AcDbEntity
  8
0
100
AcDbCircle
 62
7
  6
CONTINUOUS
 10
15.1441919673
 20
11.5136501317
 40
0.006
100
AcDbArc
 50
27.3178031513
 51
135.0
  0
ARC
  5
347
100
AcDbEntity
  8
0
100
AcDbCircle
 62
7
  6
CONTINUOUS
 10
15.0473183383
 20
11.7293176999
 40
1.18
100
AcDbArc
 50
58.3110717716
 51
121.6895165282
  0
ARC
  5
348
100
AcDbEntity
  8
0
100
AcDbCircle
 62
7
  6
CONTINUOUS
 10
15.0473183383
 20
11.7293176999
 40
1.18
100
AcDbArc
 50
148.3112381073
 51
211.6884023181
  0
ARC
  5
349
100
AcDbEntity
  8
0
100
AcDbCircle
 62
7
  6
CONTINUOUS
 10
15.0473183383
 20
11.7293176999
 40
1.18
100
AcDbArc
 50
238.3110717716
 51
301.6895165282
  0
ARC
  5
34A
100
AcDbEntity
  8
0
100
AcDbCircle
 62
7
  6
CONTINUOUS
 10
15.0473183383
 20
11.7293176999
 40
1.18
100
AcDbArc
 50
328.3112381073
 51
31.6884023181
  0
ARC
  5
34B
100
AcDbEntity
  8
0
100
AcDbCircle
 62
7
  6
CONTINUOUS
 10
15.0473183383
 20
11.7293176999
 40
1.0000026738
100
AcDbArc
 50
236.1474067645
 51
303.8525932355
  0
ARC
  5
34C
100
AcDbEntity
  8
0
100
AcDbCircle
 62
7
  6
CONTINUOUS
 10
15.0473183383
 20
11.7293176999
 40
1.0000026738
100
AcDbArc
 50
146.2046018122
 51
213.7953981878
  0
ARC
  5
34D
100
AcDbEntity
  8
0
100
AcDbCircle
 62
7
  6
CONTINUOUS
 10
15.0473183383
 20
11.7293176999
 40
1.0000026738
100
AcDbArc
 50
56.1474067645
 51
123.8525932355
  0
ARC
  5
34E
100
AcDbEntity
  8
0
100
AcDbCircle
 62
7
  6
CONTINUOUS
 10
15.0473183383
 20
11.7293176999
 40
1.0000026738
100
AcDbArc
 50
326.2046018122
 51
33.7953981878
  0
ARC
  5
34F
100
AcDbEntity
  8
0
100
AcDbCircle
 62
9
  6
CONTINUOUS
 10
15.0473183383
 20
11.7293176999
 40
0.8130026738
100
AcDbArc
 50
234.2048976096
 51
305.8003914474
  0
ARC
  5
350
100
AcDbEntity
  8
0
100
AcDbCircle
 62
9
  6
CONTINUOUS
 10
15.0473183383
 20
11.7293176999
 40
0.8130026738
100
AcDbArc
 50
144.2002057446
 51
215.7939032146
  0
ARC
  5
351
100
AcDbEntity
  8
0
100
AcDbCircle
 62
9
  6
CONTINUOUS
 10
15.0473183383
 20
11.7293176999
 40
0.8130026738
100
AcDbArc
 50
54.2048976096
 51
125.8003914474
  0
ARC
  5
352
100
AcDbEntity
  8
0
100
AcDbCircle
 62
9
  6
CONTINUOUS
 10
15.0473183383
 20
11.7293176999
 40
0.8130026738
100
AcDbArc
 50
324.2002057446
 51
35.7939032146
  0
ARC
  5
353
100
AcDbEntity
  8
0
100
AcDbCircle
 62
7
  6
CONTINUOUS
 10
15.0473183383
 20
11.7293176999
 40
0.741
100
AcDbArc
 50
62.3704986062
 51
117.6295013938
  0
ARC
  5
354
100
AcDbEntity
  8
0
100
AcDbCircle
 62
7
  6
CONTINUOUS
 10
15.0473183383
 20
11.7293176999
 40
0.741
100
AcDbArc
 50
233.8182092657
 51
237.6295013938
  0
ARC
  5
355
100
AcDbEntity
  8
0
100
AcDbCircle
 62
7
  6
CONTINUOUS
 10
15.0473183383
 20
11.7293176999
 40
0.741
100
AcDbArc
 50
182.3704986062
 51
216.1656105765
  0
ARC
  5
356
100
AcDbEntity
  8
0
100
AcDbCircle
 62
7
  6
CONTINUOUS
 10
15.0473183383
 20
11.7293176999
 40
0.741
100
AcDbArc
 50
143.8424833065
 51
177.6295013938
  0
ARC
  5
357
100
AcDbEntity
  8
0
100
AcDbCircle
 62
7
  6
CONTINUOUS
 10
15.0473183383
 20
11.7293176999
 40
0.741
100
AcDbArc
 50
122.3704986062
 51
126.1735677051
  0
ARC
  5
358
100
AcDbEntity
  8
0
100
AcDbCircle
 62
7
  6
CONTINUOUS
 10
15.0473183383
 20
11.7293176999
 40
0.741
100
AcDbArc
 50
53.8182092657
 51
57.6295013938
  0
ARC
  5
359
100
AcDbEntity
  8
0
100
AcDbCircle
 62
7
  6
CONTINUOUS
 10
15.0473183383
 20
11.7293176999
 40
0.741
100
AcDbArc
 50
2.3704986062
 51
36.1656105765
  0
ARC
  5
35A
100
AcDbEntity
  8
0
100
AcDbCircle
 62
7
  6
CONTINUOUS
 10
15.0473183383
 20
11.7293176999
 40
0.741
100
AcDbArc
 50
242.3704986062
 51
297.6295013938
  0
ARC
  5
35B
100
AcDbEntity
  8
0
100
AcDbCircle
 62
7
  6
CONTINUOUS
 10
15.0473183383
 20
11.7293176999
 40
0.741
100
AcDbArc
 50
323.8424833065
 51
357.6295013938
  0
ARC
  5
35C
100
AcDbEntity
  8
0
100
AcDbCircle
 62
7
  6
CONTINUOUS
 10
15.0473183383
 20
11.7293176999
 40
0.741
100
AcDbArc
 50
302.3704986062
 51
306.1735677051
  0
ARC
  5
35D
100
AcDbEntity
  8
0
100
AcDbCircle
 62
7
  6
CONTINUOUS
 10
15.0473183383
 20
11.7293176999
 40
0.6515
100
AcDbArc
 50
55.9017344468
 51
124.1028345716
  0
ARC
  5
35E
100
AcDbEntity
  8
0
100
AcDbCircle
 62
7
  6
CONTINUOUS
 10
15.0473183383
 20
11.7293176999
 40
0.6515
100
AcDbArc
 50
325.9656121178
 51
34.0307533193
  0
ARC
  5
35F
100
AcDbEntity
  8
0
100
AcDbCircle
 62
7
  6
CONTINUOUS
 10
15.0473183383
 20
11.7293176999
 40
0.6515
100
AcDbArc
 50
235.9017344468
 51
304.1028345716
  0
ARC
  5
360
100
AcDbEntity
  8
0
100
AcDbCircle
 62
7
  6
CONTINUOUS
 10
15.0473183383
 20
11.7293176999
 40
0.6515
100
AcDbArc
 50
145.9656121178
 51
214.0307533193
  0
ARC
  5
361
100
AcDbEntity
  8
0
100
AcDbCircle
 62
9
  6
CONTINUOUS
 10
15.0473183383
 20
11.7293176999
 40
0.6146339942
100
AcDbArc
 50
238.141868973
 51
301.8669264971
  0
ARC
  5
362
100
AcDbEntity
  8
0
100
AcDbCircle
 62
9
  6
CONTINUOUS
 10
15.0473183383
 20
11.7293176999
 40
0.6146339942
100
AcDbArc
 50
328.2045678655
 51
31.7879524783
  0
ARC
  5
363
100
AcDbEntity
  8
0
100
AcDbCircle
 62
9
  6
CONTINUOUS
 10
15.0473183383
 20
11.7293176999
 40
0.6146339942
100
AcDbArc
 50
58.141868973
 51
121.8669264971
  0
ARC
  5
364
100
AcDbEntity
  8
0
100
AcDbCircle
 62
9
  6
CONTINUOUS
 10
15.0473183383
 20
11.7293176999
 40
0.6146339942
100
AcDbArc
 50
148.2045678655
 51
211.7879524783
  0
CIRCLE
  5
365
100
AcDbEntity
  8
0
100
AcDbCircle
 62
7
  6
CONTINUOUS
 10
15.0473183383
 20
11.7293176999
 40
0.5575
  0
CIRCLE
  5
366
100
AcDbEntity
  8
0
100
AcDbCircle
 62
7
  6
CONTINUOUS
 10
15.0473183383
 20
11.7293176999
 40
0.5275
  0
CIRCLE
  5
367
100
AcDbEntity
  8
0
100
AcDbCircle
 62
7
  6
CONTINUOUS
 10
15.0473183383
 20
11.7293176999
 40
0.5132341523
  0
CIRCLE
  5
368
100
AcDbEntity
  8
0
100
AcDbCircle
 62
7
  6
CONTINUOUS
 10
15.0473183383
 20
11.7293176999
 40
0.4545099561
  0
CIRCLE
  5
369
100
AcDbEntity
  8
0
100
AcDbCircle
 62
7
  6
CONTINUOUS
 10
15.0473183383
 20
11.7293176999
 40
0.4275
  0
CIRCLE
  5
36A
100
AcDbEntity
  8
0
100
AcDbCircle
 62
7
  6
CONTINUOUS
 10
15.0473183383
 20
11.7293176999
 40
0.4175
  0
CIRCLE
  5
36B
100
AcDbEntity
  8
0
100
AcDbCircle
 62
9
  6
CONTINUOUS
 10
15.0473183383
 20
11.7293176999
 40
0.3951446566
  0
ARC
  5
36C
100
AcDbEntity
  8
0
100
AcDbCircle
 62
7
  6
CONTINUOUS
 10
15.0690472738
 20
11.7531679558
 40
0.03
100
AcDbArc
 50
61.4592496282
 51
135.0
  0
ARC
  5
36D
100
AcDbEntity
  8
0
100
AcDbCircle
 62
7
  6
CONTINUOUS
 10
15.2905672968
 20
12.2059118962
 40
0.031
100
AcDbArc
 50
89.3699285548
 51
108.0698747268
  0
ARC
  5
36E
100
AcDbEntity
  8
0
100
AcDbCircle
 62
7
  6
CONTINUOUS
 10
15.8048955441
 20
11.9756567029
 40
0.25
100
AcDbArc
 50
88.0260516847
 51
180.6300714454
  0
ARC
  5
36F
100
AcDbEntity
  8
0
100
AcDbCircle
 62
7
  6
CONTINUOUS
 10
15.5239125346
 20
11.9725666584
 40
0.031
100
AcDbArc
 50
339.3420337522
 51
0.6300714454
  0
ARC
  5
370
100
AcDbEntity
  8
0
100
AcDbCircle
 62
7
  6
CONTINUOUS
 10
15.8353137005
 20
12.2614906982
 40
0.016
100
AcDbArc
 50
100.0000000024
 51
224.9999999998
  0
ARC
  5
371
100
AcDbEntity
  8
0
100
AcDbCircle
 62
7
  6
CONTINUOUS
 10
15.814057936
 20
12.2414988564
 40
0.016
100
AcDbArc
 50
268.0260516849
 51
10.3765489004
  0
ARC
  5
372
100
AcDbEntity
  8
0
100
AcDbCircle
 62
7
  6
CONTINUOUS
 10
15.883472107
 20
12.5654714687
 40
0.275
100
AcDbArc
 50
280.0
 51
170.0
  0
ARC
  5
373
100
AcDbEntity
  8
0
100
AcDbCircle
 62
7
  6
CONTINUOUS
 10
14.2111645695
 20
12.5654714687
 40
0.275
100
AcDbArc
 50
10.0
 51
260.0
  0
ARC
  5
374
100
AcDbEntity
  8
0
100
AcDbCircle
 62
7
  6
CONTINUOUS
 10
15.2936573413
 20
12.4868949057
 40
0.25
100
AcDbArc
 50
269.3699285547
 51
1.9739483152
  0
ARC
  5
375
100
AcDbEntity
  8
0
100
AcDbCircle
 62
7
  6
CONTINUOUS
 10
14.8009793353
 20
12.4868949057
 40
0.25
100
AcDbArc
 50
178.0260516848
 51
270.6300714454
  0
ARC
  5
376
100
AcDbEntity
  8
0
100
AcDbCircle
 62
7
  6
CONTINUOUS
 10
15.5794913366
 20
12.5173130621
 40
0.016
100
AcDbArc
 50
225.0
 51
349.9999999991
  0
ARC
  5
377
100
AcDbEntity
  8
0
100
AcDbCircle
 62
7
  6
CONTINUOUS
 10
15.5594994948
 20
12.4960572977
 40
0.016
100
AcDbArc
 50
79.6234510999
 51
181.9739483151
  0
ARC
  5
378
100
AcDbEntity
  8
0
100
AcDbCircle
 62
7
  6
CONTINUOUS
 10
14.51514534
 20
12.5173130621
 40
0.016
100
AcDbArc
 50
190.0000000017
 51
315.0
  0
ARC
  5
379
100
AcDbEntity
  8
0
100
AcDbCircle
 62
7
  6
CONTINUOUS
 10
14.5351371818
 20
12.4960572977
 40
0.016
100
AcDbArc
 50
358.0260516849
 51
100.3765489003
  0
ARC
  5
37A
100
AcDbEntity
  8
0
100
AcDbCircle
 62
7
  6
CONTINUOUS
 10
55.5137977534
 20
5.5431402112
 40
43.8201384279
100
AcDbArc
 50
174.492831645
 51
181.7812383983
  0
ARC
  5
37B
100
AcDbEntity
  8
0
100
AcDbCircle
 62
9
  6
CONTINUOUS
 10
121.4494765919
 20
173.1923379738
 40
196.7634165486
100
AcDbArc
 50
236.0005437771
 51
236.1667279165
  0
SPLINE
  5
37C
100
AcDbEntity
  8
0
100
AcDbSpline
 62
7
  6
CONTINUOUS
 70
0
 71
3
 72
11
 73
7
 74
0
 42
0.0000001
 43
0.0000001
 44
0.0000000001
 40
0.0
 40
0.0
 40
0.0
 40
0.0
 40
0.2736079326
 40
0.5003103346
 40
0.7269614556
 40
1.0
 40
1.0
 40
1.0
 40
1.0
 10
15.0494396586
 20
11.7271963796
 30
0.0
 10
15.0326205187
 20
11.7103761053
 30
0.0
 10
15.0114826031
 20
11.6700019793
 30
0.0
 10
15.039795924
 20
11.6063155187
 30
0.0
 10
15.1035885291
 20
11.5778280379
 30
0.0
 10
15.1436333455
 20
11.5993574943
 30
0.0
 10
15.1604554233
 20
11.6161806149
 30
0.0
  0
SPLINE
  5
37D
100
AcDbEntity
  8
0
100
AcDbSpline
 62
7
  6
CONTINUOUS
 70
0
 71
3
 72
11
 73
7
 74
0
 42
0.0000001
 43
0.0000001
 44
0.0000000001
 40
0.0
 40
0.0
 40
0.0
 40
0.0
 40
0.273039475
 40
0.4997206271
 40
0.7263911349
 40
1.0
 40
1.0
 40
1.0
 40
1.0
 10
15.1604554233
 20
11.6161806149
 30
0.0
 10
15.1772775011
 20
11.6330037356
 30
0.0
 10
15.1988063015
 20
11.6730528727
 30
0.0
 10
15.1703279433
 20
11.7368327861
 30
0.0
 10
15.1066280828
 20
11.7651551323
 30
0.0
 10
15.0662587985
 20
11.7440166539
 30
0.0
 10
15.0494396586
 20
11.7271963796
 30
0.0
  0
SPLINE
  5
37E
100
AcDbEntity
  8
0
100
AcDbSpline
 62
7
  6
CONTINUOUS
 70
0
 71
3
 72
11
 73
7
 74
0
 42
0.0000001
 43
0.0000001
 44
0.0000000001
 40
0.0
 40
0.0
 40
0.0
 40
0.0
 40
0.2895273334
 40
0.4992134133
 40
0.7088994931
 40
1.0
 40
1.0
 40
1.0
 40
1.0
 10
15.1347874471
 20
11.6418485911
 30
0.0
 10
15.1229619612
 20
11.6300231052
 30
0.0
 10
15.100723309
 20
11.6114819035
 30
0.0
 10
15.0578115645
 20
11.6243745823
 30
0.0
 10
15.0452816403
 20
11.667062034
 30
0.0
 10
15.0628663201
 20
11.6901356169
 30
0.0
 10
15.0746833707
 20
11.7019526675
 30
0.0
  0
SPLINE
  5
37F
100
AcDbEntity
  8
0
100
AcDbSpline
 62
7
  6
CONTINUOUS
 70
0
 71
3
 72
11
 73
7
 74
0
 42
0.0000001
 43
0.0000001
 44
0.0000000001
 40
0.0
 40
0.0
 40
0.0
 40
0.0
 40
0.2911005069
 40
0.5007865867
 40
0.7104726666
 40
1.0
 40
1.0
 40
1.0
 40
1.0
 10
15.0746833707
 20
11.7019526675
 30
0.0
 10
15.0865004213
 20
11.7137697181
 30
0.0
 10
15.1095740042
 20
11.731354398
 30
0.0
 10
15.1522614559
 20
11.7188244738
 30
0.0
 10
15.1651541347
 20
11.6759127293
 30
0.0
 10
15.146612933
 20
11.653674077
 30
0.0
 10
15.1347874471
 20
11.6418485911
 30
0.0
  0
SPLINE
  5
380
100
AcDbEntity
  8
0
100
AcDbSpline
 62
7
  6
CONTINUOUS
 70
0
 71
3
 72
11
 73
7
 74
0
 42
0.0000001
 43
0.0000001
 44
0.0000000001
 40
0.0
 40
0.0
 40
0.0
 40
0.0
 40
0.273039475
 40
0.4997206271
 40
0.7263911349
 40
1.0
 40
1.0
 40
1.0
 40
1.0
 10
6.9907497958
 20
11.6727491574
 30
0.0
 10
7.0075729164
 20
11.6559270797
 30
0.0
 10
7.0476220535
 20
11.6343982792
 30
0.0
 10
7.1114019669
 20
11.6628766374
 30
0.0
 10
7.1397243131
 20
11.726576498
 30
0.0
 10
7.1185858348
 20
11.7669457822
 30
0.0
 10
7.1017655604
 20
11.7837649221
 30
0.0
  0
SPLINE
  5
381
100
AcDbEntity
  8
0
100
AcDbSpline
 62
7
  6
CONTINUOUS
 70
0
 71
3
 72
11
 73
7
 74
0
 42
0.0000001
 43
0.0000001
 44
0.0000000001
 40
0.0
 40
0.0
 40
0.0
 40
0.0
 40
0.2736079326
 40
0.5003103346
 40
0.7269614556
 40
1.0
 40
1.0
 40
1.0
 40
1.0
 10
7.1017655604
 20
11.7837649221
 30
0.0
 10
7.0849452861
 20
11.800584062
 30
0.0
 10
7.0445711601
 20
11.8217219776
 30
0.0
 10
6.9808846995
 20
11.7934086568
 30
0.0
 10
6.9523972187
 20
11.7296160516
 30
0.0
 10
6.9739266752
 20
11.6895712352
 30
0.0
 10
6.9907497958
 20
11.6727491574
 30
0.0
  0
SPLINE
  5
382
100
AcDbEntity
  8
0
100
AcDbSpline
 62
7
  6
CONTINUOUS
 70
0
 71
3
 72
11
 73
7
 74
0
 42
0.0000001
 43
0.0000001
 44
0.0000000001
 40
0.0
 40
0.0
 40
0.0
 40
0.0
 40
0.2895273334
 40
0.4992134133
 40
0.7088994931
 40
1.0
 40
1.0
 40
1.0
 40
1.0
 10
7.0164177719
 20
11.6984171336
 30
0.0
 10
7.004592286
 20
11.7102426195
 30
0.0
 10
6.9860510843
 20
11.7324812718
 30
0.0
 10
6.9989437631
 20
11.7753930163
 30
0.0
 10
7.0416312149
 20
11.7879229405
 30
0.0
 10
7.0647047977
 20
11.7703382606
 30
0.0
 10
7.0765218483
 20
11.75852121
 30
0.0
  0
SPLINE
  5
383
100
AcDbEntity
  8
0
100
AcDbSpline
 62
7
  6
CONTINUOUS
 70
0
 71
3
 72
11
 73
7
 74
0
 42
0.0000001
 43
0.0000001
 44
0.0000000001
 40
0.0
 40
0.0
 40
0.0
 40
0.0
 40
0.2911005069
 40
0.5007865867
 40
0.7104726666
 40
1.0
 40
1.0
 40
1.0
 40
1.0
 10
7.0765218483
 20
11.75852121
 30
0.0
 10
7.088338899
 20
11.7467041594
 30
0.0
 10
7.1059235788
 20
11.7236305765
 30
0.0
 10
7.0933936546
 20
11.6809431248
 30
0.0
 10
7.0504819101
 20
11.668050446
 30
0.0
 10
7.0282432579
 20
11.6865916477
 30
0.0
 10
7.0164177719
 20
11.6984171336
 30
0.0
  0
SPLINE
  5
384
100
AcDbEntity
  8
0
100
AcDbSpline
 62
7
  6
CONTINUOUS
 70
0
 71
3
 72
9
 73
5
 74
0
 42
0.0000001
 43
0.0000001
 44
0.0000000001
 40
0.0
 40
0.0
 40
0.0
 40
0.0
 40
0.4847213729
 40
1.0
 40
1.0
 40
1.0
 40
1.0
 10
9.8398819917
 20
11.3396613594
 30
0.0
 10
9.855508762
 20
11.3074363304
 30
0.0
 10
9.8858389699
 20
11.2400192737
 30
0.0
 10
9.9128057182
 20
11.1711997441
 30
0.0
 10
9.9259418439
 20
11.135465914
 30
0.0
  0
SPLINE
  5
385
100
AcDbEntity
  8
0
100
AcDbSpline
 62
7
  6
CONTINUOUS
 70
0
 71
3
 72
11
 73
7
 74
0
 42
0.0000001
 43
0.0000001
 44
0.0000000001
 40
0.0
 40
0.0
 40
0.0
 40
0.0
 40
0.2331563393
 40
0.4773961783
 40
0.7329450922
 40
1.0
 40
1.0
 40
1.0
 40
1.0
 10
9.9259418439
 20
11.135465914
 30
0.0
 10
9.9369848479
 20
11.1054259434
 30
0.0
 10
9.9584997398
 20
11.0435107662
 30
0.0
 10
9.988497376
 20
10.9474600622
 30
0.0
 10
10.0169604071
 20
10.8461026687
 30
0.0
 10
10.03452254
 20
10.7765384039
 30
0.0
 10
10.0430730721
 20
10.7408908427
 30
0.0
  0
SPLINE
  5
386
100
AcDbEntity
  8
0
100
AcDbSpline
 62
7
  6
CONTINUOUS
 70
0
 71
3
 72
11
 73
7
 74
0
 42
0.0000001
 43
0.0000001
 44
0.0000000001
 40
0.0
 40
0.0
 40
0.0
 40
0.0
 40
0.2227837011
 40
0.4635041
 40
0.7224886082
 40
1.0
 40
1.0
 40
1.0
 40
1.0
 10
10.0430730721
 20
10.7408908427
 30
0.0
 10
10.0604845645
 20
10.6683015306
 30
0.0
 10
10.0930773853
 20
10.5163947286
 30
0.0
 10
10.1345020291
 20
10.277830459
 30
0.0
 10
10.1703287782
 20
10.0198406907
 30
0.0
 10
10.1898016821
 20
9.8411081658
 30
0.0
 10
10.1987203391
 20
9.7485509216
 30
0.0
  0
SPLINE
  5
387
100
AcDbEntity
  8
0
100
AcDbSpline
 62
7
  6
CONTINUOUS
 70
0
 71
3
 72
20
 73
16
 74
0
 42
0.0000001
 43
0.0000001
 44
0.0000000001
 40
0.0
 40
0.0
 40
0.0
 40
0.0
 40
0.0105273014
 40
0.0230295723
 40
0.0537995859
 40
0.0919853886
 40
0.1372547446
 40
0.189165725
 40
0.2470992754
 40
0.3104194029
 40
0.3784894601
 40
0.5259982652
 40
0.6832127827
 40
0.8434876872
 40
1.0
 40
1.0
 40
1.0
 40
1.0
 10
11.7713153736
 20
2.5225555684
 30
0.0
 10
11.7708186046
 20
2.5269955855
 30
0.0
 10
11.7698514579
 20
2.5367219463
 30
0.0
 10
11.7679354579
 20
2.5594740879
 30
0.0
 10
11.7656149319
 20
2.5939684375
 30
0.0
 10
11.7629410106
 20
2.642371508
 30
0.0
 10
11.7602443389
 20
2.6997572802
 30
0.0
 10
11.7575272658
 20
2.7655307505
 30
0.0
 10
11.754789823
 20
2.8389699043
 30
0.0
 10
11.7520344913
 20
2.9192705416
 30
0.0
 10
11.7482392218
 20
3.0375727449
 30
0.0
 10
11.7435605592
 20
3.1957149149
 30
0.0
 10
11.7380161398
 20
3.3929793566
 30
0.0
 10
11.732422553
 20
3.594064943
 30
0.0
 10
11.7285670388
 20
3.7284522384
 30
0.0
 10
11.7265850309
 20
3.7948455104
 30
0.0
  0
SPLINE
  5
388
100
AcDbEntity
  8
0
100
AcDbSpline
 62
7
  6
CONTINUOUS
 70
0
 71
3
 72
20
 73
16
 74
0
 42
0.0000001
 43
0.0000001
 44
0.0000000001
 40
0.0
 40
0.0
 40
0.0
 40
0.0
 40
0.0105290705
 40
0.0230329654
 40
0.0538058012
 40
0.0919938787
 40
0.1372649835
 40
0.1891771394
 40
0.247111317
 40
0.3104315779
 40
0.3785013283
 40
0.5260083331
 40
0.6832198956
 40
0.8434912513
 40
1.0
 40
1.0
 40
1.0
 40
1.0
 10
10.3233226786
 20
2.522567865
 30
0.0
 10
10.3238194204
 20
2.5270085969
 30
0.0
 10
10.3247865266
 20
2.5367363129
 30
0.0
 10
10.326702452
 20
2.5594908849
 30
0.0
 10
10.329022912
 20
2.59398776
 30
0.0
 10
10.3316967648
 20
2.642393272
 30
0.0
 10
10.3343933614
 20
2.6997806975
 30
0.0
 10
10.3371103578
 20
2.7655550392
 30
0.0
 10
10.3398477214
 20
2.8389943036
 30
0.0
 10
10.3426029718
 20
2.9192943551
 30
0.0
 10
10.3463981167
 20
3.0375945735
 30
0.0
 10
10.3510766342
 20
3.1957330602
 30
0.0
 10
10.356620889
 20
3.3929920625
 30
0.0
 10
10.3622143072
 20
3.5940714235
 30
0.0
 10
10.3660697022
 20
3.7284543955
 30
0.0
 10
10.3680516456
 20
3.7948455104
 30
0.0
  0
LINE
  5
389
100
AcDbEntity
  8
0
100
AcDbLine
 62
7
  6
CONTINUOUS
 10
11.7265848598
 20
3.7948454988
 11
11.7174421122
 21
4.096332144
  0
LINE
  5
38A
100
AcDbEntity
  8
0
100
AcDbLine
 62
7
  6
CONTINUOUS
 10
10.368051479
 20
3.7948455008
 11
10.3771942177
 21
4.0963321469
  0
SPLINE
  5
38B
100
AcDbEntity
  8
0
100
AcDbSpline
 62
7
  6
CONTINUOUS
 70
0
 71
3
 72
9
 73
5
 74
0
 42
0.0000001
 43
0.0000001
 44
0.0000000001
 40
0.0
 40
0.0
 40
0.0
 40
0.0
 40
0.5152786271
 40
1.0
 40
1.0
 40
1.0
 40
1.0
 10
12.1686948327
 20
11.135465914
 30
0.0
 10
12.1818309583
 20
11.1711997441
 30
0.0
 10
12.2087977066
 20
11.2400192737
 30
0.0
 10
12.2391279146
 20
11.3074363304
 30
0.0
 10
12.2547546849
 20
11.3396613594
 30
0.0
  0
SPLINE
  5
38C
100
AcDbEntity
  8
0
100
AcDbSpline
 62
7
  6
CONTINUOUS
 70
0
 71
3
 72
11
 73
7
 74
0
 42
0.0000001
 43
0.0000001
 44
0.0000000001
 40
0.0
 40
0.0
 40
0.0
 40
0.0
 40
0.2670549078
 40
0.5226038217
 40
0.7668436607
 40
1.0
 40
1.0
 40
1.0
 40
1.0
 10
12.0515636045
 20
10.7408908427
 30
0.0
 10
12.0601141365
 20
10.7765384039
 30
0.0
 10
12.0776762694
 20
10.8461026687
 30
0.0
 10
12.1061393006
 20
10.9474600622
 30
0.0
 10
12.1361369368
 20
11.0435107662
 30
0.0
 10
12.1576518287
 20
11.1054259434
 30
0.0
 10
12.1686948327
 20
11.135465914
 30
0.0
  0
SPLINE
  5
38D
100
AcDbEntity
  8
0
100
AcDbSpline
 62
7
  6
CONTINUOUS
 70
0
 71
3
 72
11
 73
7
 74
0
 42
0.0000001
 43
0.0000001
 44
0.0000000001
 40
0.0
 40
0.0
 40
0.0
 40
0.0
 40
0.2775113918
 40
0.5364959
 40
0.7772162989
 40
1.0
 40
1.0
 40
1.0
 40
1.0
 10
11.8959163375
 20
9.7485509216
 30
0.0
 10
11.9048349945
 20
9.8411081658
 30
0.0
 10
11.9243078983
 20
10.0198406907
 30
0.0
 10
11.9601346474
 20
10.277830459
 30
0.0
 10
12.0015592912
 20
10.5163947286
 30
0.0
 10
12.0341521121
 20
10.6683015306
 30
0.0
 10
12.0515636045
 20
10.7408908427
 30
0.0
  0
SPLINE
  5
38E
100
AcDbEntity
  8
0
100
AcDbSpline
 62
7
  6
CONTINUOUS
 70
0
 71
3
 72
11
 73
7
 74
0
 42
0.0000001
 43
0.0000001
 44
0.0000000001
 40
0.0
 40
0.0
 40
0.0
 40
0.0
 40
0.2503407101
 40
0.5005717613
 40
0.7505136691
 40
1.0
 40
1.0
 40
1.0
 40
1.0
 10
11.0473183379
 20
1.7403460209
 30
0.0
 10
11.0811224906
 20
1.7403460208
 30
0.0
 10
11.1488033877
 20
1.745078918
 30
0.0
 10
11.2482978363
 20
1.7658515233
 30
0.0
 10
11.3439949698
 20
1.7997541655
 30
0.0
 10
11.4041315089
 20
1.8308369801
 30
0.0
 10
11.4328956793
 20
1.8483742732
 30
0.0
  0
SPLINE
  5
38F
100
AcDbEntity
  8
0
100
AcDbSpline
 62
7
  6
CONTINUOUS
 70
0
 71
3
 72
17
 73
13
 74
0
 42
0.0000001
 43
0.0000001
 44
0.0000000001
 40
0.0
 40
0.0
 40
0.0
 40
0.0
 40
0.1258056697
 40
0.2514396035
 40
0.3768262486
 40
0.4394353864
 40
0.5019657609
 40
0.6267714885
 40
0.7513803757
 40
0.8136386856
 40
0.8758390936
 40
1.0
 40
1.0
 40
1.0
 40
1.0
 10
11.4328957202
 20
1.8483732626
 30
0.0
 10
11.4592459746
 20
1.8644388041
 30
0.0
 10
11.5098961071
 20
1.8999885532
 30
0.0
 10
11.5784361382
 20
1.9623498164
 30
0.0
 10
11.6285595099
 20
2.0210158923
 30
0.0
 10
11.6638656776
 20
2.0713632765
 30
0.0
 10
11.6957842078
 20
2.1237597772
 30
0.0
 10
11.7290961941
 20
2.192906087
 30
0.0
 10
11.7532827038
 20
2.2656661257
 30
0.0
 10
11.7669611164
 20
2.3252534441
 30
0.0
 10
11.7768013959
 20
2.3854726496
 30
0.0
 10
11.7798184644
 20
2.4312589662
 30
0.0
 10
11.7798184293
 20
2.4617170734
 30
0.0
  0
SPLINE
  5
390
100
AcDbEntity
  8
0
100
AcDbSpline
 62
7
  6
CONTINUOUS
 70
0
 71
3
 72
17
 73
13
 74
0
 42
0.0000001
 43
0.0000001
 44
0.0000000001
 40
0.0
 40
0.0
 40
0.0
 40
0.0
 40
0.1241609068
 40
0.1863613153
 40
0.2486196258
 40
0.3732285131
 40
0.4980342381
 40
0.5605646096
 40
0.6231737438
 40
0.7485603828
 40
0.8741943171
 40
1.0
 40
1.0
 40
1.0
 40
1.0
 10
10.3148182471
 20
2.4617170717
 30
0.0
 10
10.3148182118
 20
2.4312589644
 30
0.0
 10
10.3178352806
 20
2.3854726475
 30
0.0
 10
10.3276755608
 20
2.3252534416
 30
0.0
 10
10.3413539739
 20
2.265666123
 30
0.0
 10
10.3655404836
 20
2.1929060847
 30
0.0
 10
10.3988524682
 20
2.1237597756
 30
0.0
 10
10.430770996
 20
2.0713632759
 30
0.0
 10
10.4660771607
 20
2.0210158933
 30
0.0
 10
10.51620053
 20
1.9623498181
 30
0.0
 10
10.5847405628
 20
1.8999885538
 30
0.0
 10
10.6353906986
 20
1.8644388034
 30
0.0
 10
10.6617409558
 20
1.8483732602
 30
0.0
  0
SPLINE
  5
391
100
AcDbEntity
  8
0
100
AcDbSpline
 62
7
  6
CONTINUOUS
 70
0
 71
3
 72
11
 73
7
 74
0
 42
0.0000001
 43
0.0000001
 44
0.0000000001
 40
0.0
 40
0.0
 40
0.0
 40
0.0
 40
0.2494863309
 40
0.4994282387
 40
0.7496592899
 40
1.0
 40
1.0
 40
1.0
 40
1.0
 10
10.6617409969
 20
1.8483742735
 30
0.0
 10
10.6905051672
 20
1.8308369804
 30
0.0
 10
10.7506417062
 20
1.7997541657
 30
0.0
 10
10.8463388396
 20
1.7658515235
 30
0.0
 10
10.9458332881
 20
1.7450789181
 30
0.0
 10
11.0135141851
 20
1.7403460209
 30
0.0
 10
11.0473183379
 20
1.7403460209
 30
0.0
  0
SPLINE
  5
392
100
AcDbEntity
  8
0
100
AcDbSpline
 62
9
  6
CONTINUOUS
 70
0
 71
3
 72
16
 73
12
 74
0
 42
0.0000001
 43
0.0000001
 44
0.0000000001
 40
0.0
 40
0.0
 40
0.0
 40
0.0
 40
0.1652228619
 40
0.3193478194
 40
0.4621439434
 40
0.5933947312
 40
0.7129139593
 40
0.8205750147
 40
0.9162857142
 40
0.9596439269
 40
1.0
 40
1.0
 40
1.0
 40
1.0
 10
9.8398819917
 20
11.3396613594
 30
0.0
 10
9.878327857
 20
11.3353277346
 30
0.0
 10
9.9526089818
 20
11.3266965562
 30
0.0
 10
10.0599817288
 20
11.3131827902
 30
0.0
 10
10.1592978779
 20
11.2994138149
 30
0.0
 10
10.2503692689
 20
11.2852603844
 30
0.0
 10
10.3330168105
 20
11.2705867156
 30
0.0
 10
10.4071003323
 20
11.2554253098
 30
0.0
 10
10.4633137103
 20
11.2420155021
 30
0.0
 10
10.5038486286
 20
11.2309503643
 30
0.0
 10
10.5226316631
 20
11.2253308755
 30
0.0
 10
10.5316447403
 20
11.2224907665
 30
0.0
  0
LINE
  5
393
100
AcDbEntity
  8
0
100
AcDbLine
 62
7
  6
CONTINUOUS
 10
11.4226375817
 20
3.8463175246
 11
11.4223340133
 21
4.2928887186
  0
SPLINE
  5
394
100
AcDbEntity
  8
0
100
AcDbSpline
 62
9
  6
CONTINUOUS
 70
0
 71
3
 72
11
 73
7
 74
0
 42
0.0000001
 43
0.0000001
 44
0.0000000001
 40
0.0
 40
0.0
 40
0.0
 40
0.0
 40
0.2333759855
 40
0.4784432205
 40
0.7344105778
 40
1.0
 40
1.0
 40
1.0
 40
1.0
 10
11.7265851975
 20
3.7948455008
 30
0.0
 10
11.7025671166
 20
3.7962275842
 30
0.0
 10
11.6533432869
 20
3.7994223497
 30
0.0
 10
11.5780592271
 20
3.8078848924
 30
0.0
 10
11.5003319881
 20
3.8226351078
 30
0.0
 10
11.4485341027
 20
3.8374317907
 30
0.0
 10
11.4226375817
 20
3.8463175246
 30
0.0
  0
SPLINE
  5
395
100
AcDbEntity
  8
0
100
AcDbSpline
 62
9
  6
CONTINUOUS
 70
0
 71
3
 72
9
 73
5
 74
0
 42
0.0000001
 43
0.0000001
 44
0.0000000001
 40
0.0
 40
0.0
 40
0.0
 40
0.0
 40
0.4982234434
 40
1.0
 40
1.0
 40
1.0
 40
1.0
 10
11.4226375732
 20
3.8463175273
 30
0.0
 10
11.3608424905
 20
3.8363048727
 30
0.0
 10
11.2360656729
 20
3.8204991499
 30
0.0
 10
11.1103657838
 20
3.8147950168
 30
0.0
 10
11.0473183383
 20
3.8147950168
 30
0.0
  0
LINE
  5
396
100
AcDbEntity
  8
0
100
AcDbLine
 62
7
  6
CONTINUOUS
 10
10.6719991028
 20
3.8463175274
 11
10.6723026707
 21
4.2928887239
  0
SPLINE
  5
397
100
AcDbEntity
  8
0
100
AcDbSpline
 62
9
  6
CONTINUOUS
 70
0
 71
3
 72
12
 73
8
 74
0
 42
0.0000001
 43
0.0000001
 44
0.0000000001
 40
0.0
 40
0.0
 40
0.0
 40
0.0
 40
0.2634386323
 40
0.5216581571
 40
0.6461350872
 40
0.7671825342
 40
1.0
 40
1.0
 40
1.0
 40
1.0
 10
10.6719990952
 20
3.8463175245
 30
0.0
 10
10.6465734236
 20
3.8367593426
 30
0.0
 10
10.594700017
 20
3.8218184772
 30
0.0
 10
10.5290321238
 20
3.8102385879
 30
0.0
 10
10.4775065432
 20
3.8036470564
 30
0.0
 10
10.4284283061
 20
3.798703064
 30
0.0
 10
10.3920174226
 20
3.7962245837
 30
0.0
 10
10.368051479
 20
3.7948455008
 30
0.0
  0
SPLINE
  5
398
100
AcDbEntity
  8
0
100
AcDbSpline
 62
9
  6
CONTINUOUS
 70
0
 71
3
 72
9
 73
5
 74
0
 42
0.0000001
 43
0.0000001
 44
0.0000000001
 40
0.0
 40
0.0
 40
0.0
 40
0.0
 40
0.2495124434
 40
1.0
 40
1.0
 40
1.0
 40
1.0
 10
11.4223374479
 20
4.2928892521
 30
0.0
 10
11.3911612421
 20
4.291737928
 30
0.0
 10
11.2661959485
 20
4.2876104288
 30
0.0
 10
11.141154549
 20
4.2856152126
 30
0.0
 10
11.0473183326
 20
4.2856152127
 30
0.0
  0
SPLINE
  5
399
100
AcDbEntity
  8
0
100
AcDbSpline
 62
9
  6
CONTINUOUS
 70
0
 71
3
 72
9
 73
5
 74
0
 42
0.0000001
 43
0.0000001
 44
0.0000000001
 40
0.0
 40
0.0
 40
0.0
 40
0.0
 40
0.4940777472
 40
1.0
 40
1.0
 40
1.0
 40
1.0
 10
11.7174492956
 20
4.096327726
 30
0.0
 10
11.668408621
 20
4.1280394784
 30
0.0
 10
11.5690607123
 20
4.1920817777
 30
0.0
 10
11.4711682597
 20
4.2583731593
 30
0.0
 10
11.4223340058
 20
4.2928887239
 30
0.0
  0
SPLINE
  5
39A
100
AcDbEntity
  8
0
100
AcDbSpline
 62
7
  6
CONTINUOUS
 70
0
 71
3
 72
19
 73
15
 74
0
 42
0.0000001
 43
0.0000001
 44
0.0000000001
 40
0.0
 40
0.0
 40
0.0
 40
0.0
 40
0.0090025607
 40
0.020138386
 40
0.0486255034
 40
0.0850921648
 40
0.129168691
 40
0.1804280855
 40
0.2382146308
 40
0.3705174673
 40
0.5200939335
 40
0.6798417598
 40
0.8423384904
 40
1.0
 40
1.0
 40
1.0
 40
1.0
 10
11.4305310744
 20
1.9298905238
 30
0.0
 10
11.4303749455
 20
1.9356394089
 30
0.0
 10
11.430081038
 20
1.9485009346
 30
0.0
 10
11.4295160783
 20
1.9795587288
 30
0.0
 10
11.4288723318
 20
2.0281621703
 30
0.0
 10
11.4281729502
 20
2.097809291
 30
0.0
 10
11.4275097852
 20
2.182004704
 30
0.0
 10
11.4268838263
 20
2.2798202254
 30
0.0
 10
11.426063011
 20
2.4339961928
 30
0.0
 10
11.4251764285
 20
2.6509793709
 30
0.0
 10
11.4243040143
 20
2.9330977463
 30
0.0
 10
11.4235862192
 20
3.2345050389
 30
0.0
 10
11.423025813
 20
3.541077542
 30
0.0
 10
11.4227494218
 20
3.7456004577
 30
0.0
 10
11.4226375737
 20
3.8463175274
 30
0.0
  0
SPLINE
  5
39B
100
AcDbEntity
  8
0
100
AcDbSpline
 62
9
  6
CONTINUOUS
 70
0
 71
3
 72
15
 73
11
 74
0
 42
0.0000001
 43
0.0000001
 44
0.0000000001
 40
0.0
 40
0.0
 40
0.0
 40
0.0
 40
0.1268017712
 40
0.2540945011
 40
0.38126592
 40
0.5077594982
 40
0.6331681917
 40
0.757187403
 40
0.8795282604
 40
1.0
 40
1.0
 40
1.0
 40
1.0
 10
11.7724400079
 20
2.5133975536
 30
0.0
 10
11.7698043227
 20
2.4839339264
 30
0.0
 10
11.761249772
 20
2.4251376258
 30
0.0
 10
11.7390456539
 20
2.3388428118
 30
0.0
 10
11.707743573
 20
2.2554773787
 30
0.0
 10
11.6676523593
 20
2.1764412735
 30
0.0
 10
11.6190972008
 20
2.1031748442
 30
0.0
 10
11.5630151541
 20
2.0367561998
 30
0.0
 10
11.5003243612
 20
1.9782164687
 30
0.0
 10
11.4543224204
 20
1.9448517505
 30
0.0
 10
11.4305310744
 20
1.9298905238
 30
0.0
  0
SPLINE
  5
39C
100
AcDbEntity
  8
0
100
AcDbSpline
 62
9
  6
CONTINUOUS
 70
0
 71
3
 72
13
 73
9
 74
0
 42
0.0000001
 43
0.0000001
 44
0.0000000001
 40
0.0
 40
0.0
 40
0.0
 40
0.0
 40
0.2526763444
 40
0.5029294066
 40
0.627455314
 40
0.7516969012
 40
0.8758135967
 40
1.0
 40
1.0
 40
1.0
 40
1.0
 10
11.4305310744
 20
1.9298905238
 30
0.0
 10
11.4016461554
 20
1.9118167291
 30
0.0
 10
11.3417076498
 20
1.8795923261
 30
0.0
 10
11.2622036231
 20
1.8498361583
 30
0.0
 10
11.1970195835
 20
1.8329307881
 30
0.0
 10
11.1475319978
 20
1.823770184
 30
0.0
 10
11.0975617089
 20
1.8182032578
 30
0.0
 10
11.0640649013
 20
1.8169490636
 30
0.0
 10
11.0473183383
 20
1.8169490636
 30
0.0
  0
SPLINE
  5
39D
100
AcDbEntity
  8
0
100
AcDbSpline
 62
7
  6
CONTINUOUS
 70
0
 71
3
 72
19
 73
15
 74
0
 42
0.0000001
 43
0.0000001
 44
0.0000000001
 40
0.0
 40
0.0
 40
0.0
 40
0.0
 40
0.0090025607
 40
0.020138386
 40
0.0486255034
 40
0.0850921648
 40
0.129168691
 40
0.1804280855
 40
0.2382146308
 40
0.3705174673
 40
0.5200939335
 40
0.6798417598
 40
0.8423384904
 40
1.0
 40
1.0
 40
1.0
 40
1.0
 10
10.6641056021
 20
1.9298905238
 30
0.0
 10
10.6642617311
 20
1.9356394089
 30
0.0
 10
10.6645556386
 20
1.9485009346
 30
0.0
 10
10.6651205983
 20
1.9795587288
 30
0.0
 10
10.6657643447
 20
2.0281621703
 30
0.0
 10
10.6664637263
 20
2.097809291
 30
0.0
 10
10.6671268914
 20
2.182004704
 30
0.0
 10
10.6677528502
 20
2.2798202254
 30
0.0
 10
10.6685736656
 20
2.4339961928
 30
0.0
 10
10.6694602481
 20
2.6509793709
 30
0.0
 10
10.6703326622
 20
2.9330977463
 30
0.0
 10
10.6710504573
 20
3.2345050389
 30
0.0
 10
10.6716108636
 20
3.541077542
 30
0.0
 10
10.6718872547
 20
3.7456004577
 30
0.0
 10
10.6719991029
 20
3.8463175274
 30
0.0
  0
SPLINE
  5
39E
100
AcDbEntity
  8
0
100
AcDbSpline
 62
9
  6
CONTINUOUS
 70
0
 71
3
 72
11
 73
7
 74
0
 42
0.0000001
 43
0.0000001
 44
0.0000000001
 40
0.0
 40
0.0
 40
0.0
 40
0.0
 40
0.2476825442
 40
0.4954517518
 40
0.7455712226
 40
1.0
 40
1.0
 40
1.0
 40
1.0
 10
11.0473183383
 20
1.8169490636
 30
0.0
 10
11.0139252488
 20
1.8169490636
 30
0.0
 10
10.9470271186
 20
1.8218531822
 30
0.0
 10
10.8485624992
 20
1.8436436844
 30
0.0
 10
10.753278963
 20
1.8793180024
 30
0.0
 10
10.69318703
 20
1.9116987385
 30
0.0
 10
10.6641056021
 20
1.9298905238
 30
0.0
  0
SPLINE
  5
39F
100
AcDbEntity
  8
0
100
AcDbSpline
 62
9
  6
CONTINUOUS
 70
0
 71
3
 72
14
 73
10
 74
0
 42
0.0000001
 43
0.0000001
 44
0.0000000001
 40
0.0
 40
0.0
 40
0.0
 40
0.0
 40
0.1195485267
 40
0.2419176811
 40
0.3664429184
 40
0.4923833209
 40
0.7459336981
 40
0.8731914634
 40
1.0
 40
1.0
 40
1.0
 40
1.0
 10
10.6641056021
 20
1.9298905238
 30
0.0
 10
10.6405093367
 20
1.9447347562
 30
0.0
 10
10.5947364861
 20
1.9780191508
 30
0.0
 10
10.5321590888
 20
2.0364811257
 30
0.0
 10
10.4758532548
 20
2.1029951167
 30
0.0
 10
10.4105958594
 20
2.2009987659
 30
0.0
 10
10.3627760583
 20
2.310365083
 30
0.0
 10
10.3333475848
 20
2.4251658407
 30
0.0
 10
10.3248313558
 20
2.4839450831
 30
0.0
 10
10.3221966687
 20
2.5133975536
 30
0.0
  0
SPLINE
  5
3A0
100
AcDbEntity
  8
0
100
AcDbSpline
 62
9
  6
CONTINUOUS
 70
0
 71
3
 72
15
 73
11
 74
0
 42
0.0000001
 43
0.0000001
 44
0.0000000001
 40
0.0
 40
0.0
 40
0.0
 40
0.0
 40
0.2437278286
 40
0.3059759204
 40
0.3685498714
 40
0.4943268517
 40
0.6206448402
 40
0.747259901
 40
0.8738439969
 40
1.0
 40
1.0
 40
1.0
 40
1.0
 10
10.6635684022
 20
1.9107335983
 30
0.0
 10
10.6148035005
 20
1.9411766605
 30
0.0
 10
10.5583895136
 20
1.9878356922
 30
0.0
 10
10.500193052
 20
2.0524005628
 30
0.0
 10
10.4632562463
 20
2.0985944196
 30
0.0
 10
10.4221186717
 20
2.1605977299
 30
0.0
 10
10.381926475
 20
2.2405988693
 30
0.0
 10
10.3511364247
 20
2.3248597949
 30
0.0
 10
10.3299997316
 20
2.4119870559
 30
0.0
 10
10.3224932532
 20
2.4712772452
 30
0.0
 10
10.3204510824
 20
2.5009631232
 30
0.0
  0
LINE
  5
3A1
100
AcDbEntity
  8
0
100
AcDbLine
 62
7
  6
CONTINUOUS
 10
10.6431731499
 20
12.4293176999
 11
10.2998183383
 21
13.0240256786
  0
SPLINE
  5
3A2
100
AcDbEntity
  8
0
100
AcDbSpline
 62
7
  6
CONTINUOUS
 70
0
 71
3
 72
16
 73
12
 74
0
 42
0.0000001
 43
0.0000001
 44
0.0000000001
 40
0.0
 40
0.0
 40
0.0
 40
0.0
 40
0.2065838086
 40
0.3906799314
 40
0.5516713508
 40
0.6892103429
 40
0.8030322737
 40
0.8929300555
 40
0.9586892493
 40
0.9824216239
 40
1.0
 40
1.0
 40
1.0
 40
1.0
 10
11.7949172649
 20
13.0239734016
 30
0.0
 10
11.771270453
 20
12.9830159193
 30
0.0
 10
11.7264889458
 20
12.9055951672
 30
0.0
 10
11.6632034359
 20
12.7963000681
 30
0.0
 10
11.6079759589
 20
12.7006043635
 30
0.0
 10
11.5608747088
 20
12.6187939141
 30
0.0
 10
11.5218983714
 20
12.5510860292
 30
0.0
 10
11.4910739936
 20
12.4976462395
 30
0.0
 10
11.4704200749
 20
12.4621497869
 30
0.0
 10
11.4580690825
 20
12.4409772411
 30
0.0
 10
11.4533129725
 20
12.4328028037
 30
0.0
 10
11.4513008469
 20
12.4293176999
 30
0.0
  0
LINE
  5
3A3
100
AcDbEntity
  8
0
100
AcDbLine
 62
7
  6
CONTINUOUS
 10
11.4310682556
 20
1.9107335857
 11
11.4305382287
 21
1.9298950229
  0
SPLINE
  5
3A4
100
AcDbEntity
  8
0
100
AcDbSpline
 62
9
  6
CONTINUOUS
 70
0
 71
3
 72
14
 73
10
 74
0
 42
0.0000001
 43
0.0000001
 44
0.0000000001
 40
0.0
 40
0.0
 40
0.0
 40
0.0
 40
0.2524343738
 40
0.3790595152
 40
0.5052227644
 40
0.6306224359
 40
0.7550315978
 40
0.878212196
 40
1.0
 40
1.0
 40
1.0
 40
1.0
 10
11.7741855942
 20
2.5009631232
 30
0.0
 10
11.7700991019
 20
2.4415601048
 30
0.0
 10
11.753595385
 20
2.3526655123
 30
0.0
 10
11.7126093959
 20
2.24059055
 30
0.0
 10
11.6725282932
 20
2.160647665
 30
0.0
 10
11.6235069406
 20
2.086498047
 30
0.0
 10
11.5665107404
 20
2.0191997713
 30
0.0
 10
11.5024922892
 20
1.9597998935
 30
0.0
 10
11.455437972
 20
1.9259438693
 30
0.0
 10
11.4310682556
 20
1.9107335857
 30
0.0
  0
SPLINE
  5
3A5
100
AcDbEntity
  8
0
100
AcDbSpline
 62
9
  6
CONTINUOUS
 70
0
 71
3
 72
11
 73
7
 74
0
 42
0.0000001
 43
0.0000001
 44
0.0000000001
 40
0.0
 40
0.0
 40
0.0
 40
0.0
 40
0.2520006495
 40
0.5022360573
 40
0.7512811599
 40
1.0
 40
1.0
 40
1.0
 40
1.0
 10
11.4310680466
 20
1.9107334409
 30
0.0
 10
11.4022127675
 20
1.8927817227
 30
0.0
 10
11.3422281453
 20
1.8608149778
 30
0.0
 10
11.2469148099
 20
1.8255758202
 30
0.0
 10
11.1480814023
 20
1.8038740752
 30
0.0
 10
11.0808594599
 20
1.7989133298
 30
0.0
 10
11.0473183383
 20
1.7989133298
 30
0.0
  0
LINE
  5
3A6
100
AcDbEntity
  8
0
100
AcDbLine
 62
7
  6
CONTINUOUS
 10
10.6635684093
 20
1.9107338496
 11
10.6640984612
 21
1.929895348
  0
SPLINE
  5
3A7
100
AcDbEntity
  8
0
100
AcDbSpline
 62
9
  6
CONTINUOUS
 70
0
 71
3
 72
11
 73
7
 74
0
 42
0.0000001
 43
0.0000001
 44
0.0000000001
 40
0.0
 40
0.0
 40
0.0
 40
0.0
 40
0.2482983247
 40
0.4966159389
 40
0.7466821276
 40
1.0
 40
1.0
 40
1.0
 40
1.0
 10
11.0473183383
 20
1.7989133298
 30
0.0
 10
11.0138308646
 20
1.7989133298
 30
0.0
 10
10.9467560407
 20
1.8037757586
 30
0.0
 10
10.8480582643
 20
1.8253288606
 30
0.0
 10
10.752679673
 20
1.8605983724
 30
0.0
 10
10.6925787308
 20
1.8926883606
 30
0.0
 10
10.6635686452
 20
1.9107334306
 30
0.0
  0
SPLINE
  5
3A8
100
AcDbEntity
  8
0
100
AcDbSpline
 62
7
  6
CONTINUOUS
 70
0
 71
3
 72
10
 73
6
 74
0
 42
0.0000001
 43
0.0000001
 44
0.0000000001
 40
0.0
 40
0.0
 40
0.0
 40
0.0
 40
0.2315023889
 40
0.6002788588
 40
1.0
 40
1.0
 40
1.0
 40
1.0
 10
9.5523183383
 20
11.7293176999
 30
0.0
 10
9.5706163113
 20
11.7145249012
 30
0.0
 10
9.6161771825
 20
11.6737954371
 30
0.0
 10
9.6840524269
 20
11.5977867634
 30
0.0
 10
9.7292034974
 20
11.5338516022
 30
0.0
 10
9.7510865083
 20
11.4996215023
 30
0.0
  0
SPLINE
  5
3A9
100
AcDbEntity
  8
0
100
AcDbSpline
 62
7
  6
CONTINUOUS
 70
0
 71
3
 72
11
 73
7
 74
0
 42
0.0000001
 43
0.0000001
 44
0.0000000001
 40
0.0
 40
0.0
 40
0.0
 40
0.0
 40
0.2701937153
 40
0.4632806036
 40
0.6488360305
 40
1.0
 40
1.0
 40
1.0
 40
1.0
 10
12.3435501683
 20
11.4996215023
 30
0.0
 10
12.3583439492
 20
11.5227624038
 30
0.0
 10
12.3849625064
 20
11.561664705
 30
0.0
 10
12.4256107402
 20
11.6136519659
 30
0.0
 10
12.4746671104
 20
11.6693339255
 30
0.0
 10
12.5145588512
 20
11.7068758423
 30
0.0
 10
12.5423183383
 20
11.7293176999
 30
0.0
  0
LINE
  5
3AA
100
AcDbEntity
  8
0
100
AcDbLine
 62
7
  6
CONTINUOUS
 10
11.7798183379
 20
2.4616971322
 11
11.7741870887
 21
2.50094314
  0
SPLINE
  5
3AB
100
AcDbEntity
  8
0
100
AcDbSpline
 62
9
  6
CONTINUOUS
 70
0
 71
3
 72
16
 73
12
 74
0
 42
0.0000001
 43
0.0000001
 44
0.0000000001
 40
0.0
 40
0.0
 40
0.0
 40
0.0
 40
0.1652228638
 40
0.3193478219
 40
0.462143946
 40
0.5933947337
 40
0.7129139619
 40
0.8205750174
 40
0.9162857162
 40
0.9596439281
 40
1.0
 40
1.0
 40
1.0
 40
1.0
 10
12.2547546848
 20
11.3396613594
 30
0.0
 10
12.2163088181
 20
11.3353277344
 30
0.0
 10
12.1420276908
 20
11.3266965557
 30
0.0
 10
12.0346549404
 20
11.3131827892
 30
0.0
 10
11.9353387886
 20
11.2994138132
 30
0.0
 10
11.8442673953
 20
11.2852603821
 30
0.0
 10
11.7616198517
 20
11.2705867126
 30
0.0
 10
11.6875363281
 20
11.2554253061
 30
0.0
 10
11.631322949
 20
11.2420154977
 30
0.0
 10
11.5907880304
 20
11.2309503593
 30
0.0
 10
11.572004996
 20
11.2253308702
 30
0.0
 10
11.5629919189
 20
11.222490761
 30
0.0
  0
SPLINE
  5
3AC
100
AcDbEntity
  8
0
100
AcDbSpline
 62
9
  6
CONTINUOUS
 70
0
 71
3
 72
15
 73
11
 74
0
 42
0.0000001
 43
0.0000001
 44
0.0000000001
 40
0.0
 40
0.0
 40
0.0
 40
0.0
 40
0.1544989475
 40
0.3009066406
 40
0.4390360425
 40
0.5687102589
 40
0.6897700475
 40
0.802082673
 40
0.9055283027
 40
1.0
 40
1.0
 40
1.0
 40
1.0
 10
12.1686948288
 20
11.1354659036
 30
0.0
 10
12.1327938726
 20
11.1315961254
 30
0.0
 10
12.0628913566
 20
11.1238780947
 30
0.0
 10
11.960987479
 20
11.1118512216
 30
0.0
 10
11.8649645508
 20
11.0995314317
 30
0.0
 10
11.7749775131
 20
11.0867710575
 30
0.0
 10
11.6911802317
 20
11.0734170563
 30
0.0
 10
11.6136935457
 20
11.0595040542
 30
0.0
 10
11.5426320641
 20
11.0450712397
 30
0.0
 10
11.4975556977
 20
11.0346530858
 30
0.0
 10
11.4761304307
 20
11.0293177852
 30
0.0
  0
SPLINE
  5
3AD
100
AcDbEntity
  8
0
100
AcDbSpline
 62
9
  6
CONTINUOUS
 70
0
 71
3
 72
12
 73
8
 74
0
 42
0.0000001
 43
0.0000001
 44
0.0000000001
 40
0.0
 40
0.0
 40
0.0
 40
0.0
 40
0.280280334
 40
0.413198823
 40
0.5411091002
 40
0.7813601525
 40
1.0
 40
1.0
 40
1.0
 40
1.0
 10
12.0515636032
 20
10.7408908372
 30
0.0
 10
11.9926859402
 20
10.7382074947
 30
0.0
 10
11.9058905261
 20
10.7341445755
 30
0.0
 10
11.7922714797
 20
10.7279469701
 30
0.0
 10
11.6871021835
 20
10.7214359263
 30
0.0
 10
11.5640564139
 20
10.7120372384
 30
0.0
 10
11.4680112001
 20
10.7025933982
 30
0.0
 10
11.422318522
 20
10.6974908221
 30
0.0
  0
LINE
  5
3AE
100
AcDbEntity
  8
0
100
AcDbLine
 62
7
  6
CONTINUOUS
 10
10.3148183386
 20
2.4616965392
 11
10.3204524986
 21
2.5009425408
  0
SPLINE
  5
3AF
100
AcDbEntity
  8
0
100
AcDbSpline
 62
9
  6
CONTINUOUS
 70
0
 71
3
 72
9
 73
5
 74
0
 42
0.0000001
 43
0.0000001
 44
0.0000000001
 40
0.0
 40
0.0
 40
0.0
 40
0.0
 40
0.5059221349
 40
1.0
 40
1.0
 40
1.0
 40
1.0
 10
10.6723026708
 20
4.2928887239
 30
0.0
 10
10.6237493086
 20
4.2579815677
 30
0.0
 10
10.5254428723
 20
4.192275723
 30
0.0
 10
10.4262339274
 20
4.1280432649
 30
0.0
 10
10.3771943906
 20
4.0963322587
 30
0.0
  0
SPLINE
  5
3B0
100
AcDbEntity
  8
0
100
AcDbSpline
 62
9
  6
CONTINUOUS
 70
0
 71
3
 72
12
 73
8
 74
0
 42
0.0000001
 43
0.0000001
 44
0.0000000001
 40
0.0
 40
0.0
 40
0.0
 40
0.0
 40
0.2802798173
 40
0.413198168
 40
0.5411083917
 40
0.7813596058
 40
1.0
 40
1.0
 40
1.0
 40
1.0
 10
10.0430730734
 20
10.7408908372
 30
0.0
 10
10.101949964
 20
10.7382075299
 30
0.0
 10
10.1887442621
 20
10.7341446641
 30
0.0
 10
10.30236188
 20
10.7279471589
 30
0.0
 10
10.407529987
 20
10.7214362321
 30
0.0
 10
10.5305745131
 20
10.7120377254
 30
0.0
 10
10.626618802
 20
10.7025940798
 30
0.0
 10
10.6723110863
 20
10.6974916114
 30
0.0
  0
SPLINE
  5
3B1
100
AcDbEntity
  8
0
100
AcDbSpline
 62
9
  6
CONTINUOUS
 70
0
 71
3
 72
15
 73
11
 74
0
 42
0.0000001
 43
0.0000001
 44
0.0000000001
 40
0.0
 40
0.0
 40
0.0
 40
0.0
 40
0.1544989504
 40
0.3009066462
 40
0.4390360502
 40
0.5687102674
 40
0.6897700552
 40
0.8020826787
 40
0.9055283057
 40
1.0
 40
1.0
 40
1.0
 40
1.0
 10
9.9259418477
 20
11.1354659036
 30
0.0
 10
9.9618428063
 20
11.1315961251
 30
0.0
 10
10.0317453266
 20
11.123878094
 30
0.0
 10
10.1336492106
 20
11.1118512201
 30
0.0
 10
10.2296721444
 20
11.0995314294
 30
0.0
 10
10.3196591866
 20
11.0867710542
 30
0.0
 10
10.4034564712
 20
11.0734170521
 30
0.0
 10
10.4809431593
 20
11.059504049
 30
0.0
 10
10.5520046421
 20
11.0450712334
 30
0.0
 10
10.5970810091
 20
11.0346530786
 30
0.0
 10
10.6185062763
 20
11.0293177777
 30
0.0
  0
ENDSEC
  0
SECTION
  2
OBJECTS
  0
DICTIONARY
  5
C
100
AcDbDictionary
280
0
281
1
  3
ACAD_GROUP
350
D
  3
ACAD_MLINESTYLE
350
17
  3
ACAD_LAYOUT
350
1A
  3
ACAD_PLOTSETTINGS
350
19
  3
ACAD_PLOTSTYLENAME
350
E
  0
DICTIONARY
  5
D
102
{ACAD_REACTORS
330
C
102
}
100
AcDbDictionary
280
0
281
1
  0
ACDBDICTIONARYWDFLT
  5
E
102
{ACAD_REACTORS
330
C
102
}
100
AcDbDictionary
281
1
  3
Normal
350
F
100
AcDbDictionaryWithDefault
340
F
  0
DICTIONARY
  5
17
102
{ACAD_REACTORS
330
C
102
}
100
AcDbDictionary
280
0
281
1
  3
Standard
350
18
  0
DICTIONARY
  5
19
102
{ACAD_REACTORS
330
C
102
}
100
AcDbDictionary
281
1
  0
DICTIONARY
  5
1A
102
{ACAD_REACTORS
330
C
102
}
100
AcDbDictionary
281
1
  3
Model
350
3B2
  3
Layout1
350
3B3
  0
ACDBPLACEHOLDER
  5
F
102
{ACAD_REACTORS
330
E
102
}
  0
MLINESTYLE
  5
18
102
{ACAD_REACTORS
330
17
102
}
100
AcDbMlineStyle
  2
STANDARD
 70
0
  3

 62
256
 51
90.0
 52
90.0
 71
2
 49
0.5
 62
256
  6
BYLAYER
 49
-0.5
 62
256
  6
BYLAYER
  0
LAYOUT
  5
3B2
102
{ACAD_REACTORS
330
1A
102
}
100
AcDbPlotSettings
  1

  2
none_device
  4
ANSI_C_(22.00_x_17.00_Inches)
  6

 40
0.0
 41
0.0
 42
0.0
 43
0.0
 44
558.8
 45
431.8
 46
0.0
 47
0.0
 48
0.0
 49
0.0
140
0.0
141
0.0
142
1.0
143
1.0
 70
1024
 72
0
 73
0
 74
0
  7

 75
0
147
1.0
148
0.0
149
0.0
100
AcDbLayout
  1
Model
 70
0
 71
0
 10
0.0
 20
0.0
 11
22.0
 21
17.0
 12
0.0
 22
0.0
 32
0.0
 14
0.0
 24
0.0
 34
0.0
 15
0.0
 25
0.0
 35
0.0
146
0.0
 13
0.0
 23
0.0
 33
0.0
 16
1.0
 26
0.0
 36
0.0
 17
0.0
 27
1.0
 37
0.0
 76
0
330
202
345
0
346
0
  0
LAYOUT
  5
3B3
102
{ACAD_REACTORS
330
1A
102
}
100
AcDbPlotSettings
  1

  2
none_device
  4
ANSI_C_(22.00_x_17.00_Inches)
  6

 40
0.0
 41
0.0
 42
0.0
 43
0.0
 44
558.8
 45
431.8
 46
0.0
 47
0.0
 48
0.0
 49
0.0
140
0.0
141
0.0
142
1.0
143
1.0
 70
0
 72
0
 73
0
 74
0
  7

 75
0
147
1.0
148
0.0
149
0.0
100
AcDbLayout
  1
Layout1
 70
0
 71
1
 10
0.0
 20
0.0
 11
22.0
 21
17.0
 12
0.0
 22
0.0
 32
0.0
 14
0.0
 24
0.0
 34
0.0
 15
0.0
 25
0.0
 35
0.0
146
0.0
 13
0.0
 23
0.0
 33
0.0
 16
1.0
 26
0.0
 36
0.0
 17
0.0
 27
1.0
 37
0.0
 76
0
330
203
345
0
346
0
  0
ENDSEC
  0
EOF
