999
DXF file: E:\BT Custom\CADOUTPUT\_RIGHT.dxf
999
Pro/ENGINEER 2018400 by Parametric Technology Corporation
  0
SECTION
  2
HEADER
  9
$ACADVER
  1
AC1018
  9
$DWGCODEPAGE
  3
ANSI_1252
  9
$EXTMAX
 10
22.0
 20
17.0
 30
0.0
  9
$EXTMIN
 10
0.0
 20
0.0
 30
0.0
  9
$LIMMIN
 10
0.0
 20
0.0
  9
$LIMMAX
 10
22.0
 20
17.0
  9
$VIEWCTR
 10
11.0
 20
8.5
  9
$VIEWSIZE
 40
17.0
  9
$CLAYER
  8
0
  9
$LTSCALE
 40
1.21
  9
$CELTYPE
  6
BYLAYER
  9
$DIMSCALE
 40
1.0
  9
$DIMASZ
 40
0.1
  9
$DIMEXO
 40
0.0625
  9
$DIMDLI
 40
0.836
  9
$DIMEXE
 40
0.125
  9
$DIMCEN
 40
0.198
  9
$DIMLFAC
 40
1.0
  9
$DIMBLK
  1
_FILLED
  9
$DIMALT
 70
1
  9
$DIMALTD
 70
2
  9
$DIMALTTD
 70
2
  9
$DIMALTF
 40
25.4
  9
$DIMTXT
 40
0.08
  9
$DIMTOL
 70
1
  9
$DIMLIM
 70
0
  9
$DIMTFAC
 40
1.0
  9
$DIMTP
 40
0.001
  9
$DIMTM
 40
0.001
  9
$DIMGAP
 40
0.09
  9
$DIMDSEP
 70
46
  9
$AUNITS
 70
0
  9
$PDMODE
 70
3
  9
$PDSIZE
 40
0.06
  9
$HANDSEED
  5
4EA
  9
$TILEMODE
 70
1
  9
$MEASUREMENT
 70
0
  9
$INSUNITS
 70
1
  0
ENDSEC
  0
SECTION
  2
CLASSES
  0
CLASS
  1
ACDBDICTIONARYWDFLT
  2
AcDbDictionaryWithDefault
  3
AutoCAD 2000
 90
0
 91
1
280
0
281
0
  0
CLASS
  1
ACDBPLACEHOLDER
  2
AcDbPlaceHolder
  3
AutoCAD 2000
 90
0
 91
1
280
0
281
0
  0
CLASS
  1
LAYOUT
  2
AcDbLayout
  3
AutoCAD 2000
 90
0
 91
0
280
0
281
0
  0
ENDSEC
  0
SECTION
  2
TABLES
  0
TABLE
  2
VPORT
  5
8
100
AcDbSymbolTable
 70
2
  0
VPORT
  5
1F4
100
AcDbSymbolTableRecord
100
AcDbViewportTableRecord
  2
*ACTIVE
 70
0
 10
0.0
 20
0.0
 11
1.0
 21
1.0
 12
11.0
 22
8.5
 13
0.0
 23
0.0
 14
1.0
 24
1.0
 15
0.0
 25
0.0
 16
0.0
 26
0.0
 36
1.0
 17
0.0
 27
0.0
 37
0.0
 40
17.0
 41
1.2941176471
 42
50.0
 43
0.0
 44
0.0
 50
0.0
 51
0.0
 71
0
 72
100
 73
1
 74
1
 75
0
 76
0
 77
0
 78
0
  0
ENDTAB
  0
TABLE
  2
LTYPE
  5
5
100
AcDbSymbolTable
 70
6
  0
LTYPE
  5
14
100
AcDbSymbolTableRecord
100
AcDbLinetypeTableRecord
  2
BYBLOCK
 70
0
  3

 72
65
 73
0
 40
0.0
  0
LTYPE
  5
15
100
AcDbSymbolTableRecord
100
AcDbLinetypeTableRecord
  2
BYLAYER
 70
0
  3

 72
65
 73
0
 40
0.0
  0
LTYPE
  5
16
100
AcDbSymbolTableRecord
100
AcDbLinetypeTableRecord
  2
CONTINUOUS
 70
64
  3
Solid line
 72
65
 73
0
 40
0.0
  0
LTYPE
  5
1F5
100
AcDbSymbolTableRecord
100
AcDbLinetypeTableRecord
  2
CENTER
 70
64
  3
____ _ ____ _ ____ _ ____ _ ____ _ ____ _ ____
 72
65
 73
4
 40
0.6
 49
0.375
 74
0
 49
-0.075
 74
0
 49
0.075
 74
0
 49
-0.075
 74
0
  0
LTYPE
  5
1F6
100
AcDbSymbolTableRecord
100
AcDbLinetypeTableRecord
  2
HIDDEN
 70
64
  3
- - - - - - - - - - - - - - - - - - - -
 72
65
 73
2
 40
0.2
 49
0.1
 74
0
 49
-0.1
 74
0
  0
LTYPE
  5
1F7
100
AcDbSymbolTableRecord
100
AcDbLinetypeTableRecord
  2
PHANTOM
 70
64
  3
_____ _ _ _____ _ _ _____ _ _ _____
 72
65
 73
6
 40
0.8
 49
0.45
 74
0
 49
-0.05
 74
0
 49
0.1
 74
0
 49
-0.05
 74
0
 49
0.1
 74
0
 49
-0.05
 74
0
  0
LTYPE
  5
1F8
100
AcDbSymbolTableRecord
100
AcDbLinetypeTableRecord
  2
DOT
 70
64
  3
. . . . . . . . . . . . . . . . . . . .
 72
65
 73
2
 40
0.2
 49
0.1
 74
0
 49
-0.1
 74
0
  0
LTYPE
  5
1F9
100
AcDbSymbolTableRecord
100
AcDbLinetypeTableRecord
  2
DASHED
 70
64
  3
- - - - - - - - - - - - - - - - - - - -
 72
65
 73
2
 40
0.2
 49
0.1
 74
0
 49
-0.1
 74
0
  0
ENDTAB
  0
TABLE
  2
LAYER
  5
2
100
AcDbSymbolTable
 70
36
  0
LAYER
  5
10
100
AcDbSymbolTableRecord
100
AcDbLayerTableRecord
  2
0
 70
0
 62
7
  6
CONTINUOUS
370
-3
390
F
  0
LAYER
  5
1FA
100
AcDbSymbolTableRecord
100
AcDbLayerTableRecord
  2
DEFAULT_1
 70
0
 62
7
  6
CENTER
370
-3
390
F
  0
LAYER
  5
1FB
100
AcDbSymbolTableRecord
100
AcDbLayerTableRecord
  2
DEFAULT_2
 70
0
 62
8
  6
HIDDEN
370
-3
390
F
  0
LAYER
  5
1FC
100
AcDbSymbolTableRecord
100
AcDbLayerTableRecord
  2
DEFAULT_3
 70
0
 62
7
  6
PHANTOM
370
-3
390
F
  0
LAYER
  5
1FD
100
AcDbSymbolTableRecord
100
AcDbLayerTableRecord
  2
ALL_FEATURES
 70
0
 62
7
  6
CONTINUOUS
370
-3
390
F
  0
LAYER
  5
1FE
100
AcDbSymbolTableRecord
100
AcDbLayerTableRecord
  2
AXES_FEATURES
 70
0
 62
7
  6
CONTINUOUS
370
-3
390
F
  0
LAYER
  5
1FF
100
AcDbSymbolTableRecord
100
AcDbLayerTableRecord
  2
DIMENSIONS
 70
0
 62
7
  6
CONTINUOUS
370
-3
390
F
  0
ENDTAB
  0
TABLE
  2
STYLE
  5
3
100
AcDbSymbolTable
 70
1
  0
STYLE
  5
11
100
AcDbSymbolTableRecord
100
AcDbTextStyleTableRecord
  2
STANDARD
 70
0
 40
0.0
 41
0.8
 50
0.0
 71
0
 42
0.2
  3
txt
  4

  0
STYLE
  5
200
100
AcDbSymbolTableRecord
100
AcDbTextStyleTableRecord
  2
TEXTSTYLE_1
 70
0
 40
0.0
 41
0.8
 50
0.0
 71
0
 42
0.2
  3
gdt
  4

  0
ENDTAB
  0
TABLE
  2
VIEW
  5
6
100
AcDbSymbolTable
 70
0
  0
ENDTAB
  0
TABLE
  2
UCS
  5
7
100
AcDbSymbolTable
 70
0
  0
ENDTAB
  0
TABLE
  2
APPID
  5
9
100
AcDbSymbolTable
 70
1
  0
APPID
  5
201
100
AcDbSymbolTableRecord
100
AcDbRegAppTableRecord
  2
ACAD
 70
0
  0
ENDTAB
  0
TABLE
  2
BLOCK_RECORD
  5
1
100
AcDbSymbolTable
 70
0
  0
BLOCK_RECORD
  5
202
100
AcDbSymbolTableRecord
100
AcDbBlockTableRecord
  2
*Model_Space
  0
BLOCK_RECORD
  5
203
100
AcDbSymbolTableRecord
100
AcDbBlockTableRecord
  2
*Paper_Space
  0
BLOCK_RECORD
  5
204
100
AcDbSymbolTableRecord
100
AcDbBlockTableRecord
  2
_FILLED
  0
ENDTAB
  0
TABLE
  2
DIMSTYLE
  5
A
100
AcDbSymbolTable
 70
1
100
AcDbDimStyleTable
 71
0
  0
DIMSTYLE
105
205
100
AcDbSymbolTableRecord
100
AcDbDimStyleTableRecord
  2
STANDARD
 70
0
  3

  4

 40
1.0
 41
0.1
 42
0.0625
 43
0.38
 44
0.125
 45
0.0
 46
0.0
 47
0.001
 48
0.001
140
0.08
141
0.09
142
0.0
143
25.4
144
1.0
145
0.0
146
1.0
147
0.09
 71
1.0
 72
0.0
 73
1
 74
1
 75
0
 76
0
 77
0
 78
4
 79
1
170
1
171
2
172
0
173
0
174
0
175
0
176
0
177
0
178
0
270
2
179
3
271
3
272
3
273
2
274
2
275
0
280
0
281
0
282
0
283
1
284
4
285
0
286
0
287
3
288
0
340
11
278
46
341
204
342
204
343
204
344
204
  0
ENDTAB
  0
ENDSEC
  0
SECTION
  2
BLOCKS
  0
BLOCK
  5
20
100
AcDbEntity
  8
0
100
AcDbBlockBegin
  2
*Model_Space
 70
0
 10
0.0
 20
0.0
 30
0.0
  3
*Model_Space
  1

  0
ENDBLK
  5
21
100
AcDbEntity
  8
0
100
AcDbBlockEnd
  0
BLOCK
  5
1C
100
AcDbEntity
  8
0
100
AcDbBlockBegin
  2
*Paper_Space
 70
0
 10
0.0
 20
0.0
 30
0.0
  3
*Paper_Space
  1

  0
ENDBLK
  5
1D
100
AcDbEntity
  8
0
100
AcDbBlockEnd
  0
BLOCK
  5
206
100
AcDbEntity
  8
0
100
AcDbBlockBegin
  2
_FILLED
 70
64
 10
0.0
 20
0.0
  3
_FILLED
  1

  0
SOLID
  5
207
100
AcDbEntity
  8
0
  6
BYBLOCK
 62
0
100
AcDbTrace
 10
0.0
 20
0.0
 11
-1.0
 21
0.2
 12
-1.0
 22
-0.2
 13
-1.0
 23
-0.2
  0
ENDBLK
  5
208
100
AcDbEntity
  8
0
  6
BYBLOCK
 62
0
100
AcDbBlockEnd
  0
ENDSEC
  0
SECTION
  2
ENTITIES
  0
LINE
  5
209
100
AcDbEntity
  8
0
100
AcDbLine
 62
7
  6
CONTINUOUS
 10
4.9679976496
 20
10.5395459155
 11
5.0446006923
 21
10.9739833591
  0
LINE
  5
20A
100
AcDbEntity
  8
0
100
AcDbLine
 62
9
  6
CONTINUOUS
 10
5.0760262059
 20
10.5204975663
 11
5.1383809299
 21
10.8493391983
  0
LINE
  5
20B
100
AcDbEntity
  8
0
100
AcDbLine
 62
7
  6
CONTINUOUS
 10
6.4107410078
 20
10.2851513353
 11
6.4272729588
 21
10.3789086888
  0
LINE
  5
20C
100
AcDbEntity
  8
0
100
AcDbLine
 62
9
  6
CONTINUOUS
 10
7.1640421525
 20
10.7301625616
 11
7.647252657
 21
11.8964216699
  0
LINE
  5
20D
100
AcDbEntity
  8
0
100
AcDbLine
 62
7
  6
CONTINUOUS
 10
13.4619693287
 20
5.6405486253
 11
16.4519693287
 21
5.6405486253
  0
LINE
  5
20E
100
AcDbEntity
  8
0
100
AcDbLine
 62
9
  6
CONTINUOUS
 10
15.9337871831
 20
5.6638602776
 11
13.9801514742
 21
5.6638602776
  0
LINE
  5
20F
100
AcDbEntity
  8
0
100
AcDbLine
 62
7
  6
CONTINUOUS
 10
15.9569693287
 20
5.8275486253
 11
15.9327571363
 21
5.8275486253
  0
LINE
  5
210
100
AcDbEntity
  8
0
100
AcDbLine
 62
7
  6
CONTINUOUS
 10
13.9569693287
 20
5.8275486253
 11
13.9811815211
 21
5.8275486253
  0
LINE
  5
211
100
AcDbEntity
  8
0
100
AcDbLine
 62
7
  6
CONTINUOUS
 10
8.9473315561
 20
11.7929863989
 11
8.9493742519
 21
11.7975501029
  0
LINE
  5
212
100
AcDbEntity
  8
0
100
AcDbLine
 62
7
  6
CONTINUOUS
 10
9.0200061341
 20
11.7436228367
 11
9.0221982436
 21
11.7485203544
  0
LINE
  5
213
100
AcDbEntity
  8
0
100
AcDbLine
 62
7
  6
CONTINUOUS
 10
14.1133769512
 20
6.2804921121
 11
13.66226135
 21
6.2804921121
  0
LINE
  5
214
100
AcDbEntity
  8
0
100
AcDbLine
 62
7
  6
CONTINUOUS
 10
9.1739872804
 20
11.6103305298
 11
9.177087376
 21
11.6172566315
  0
LINE
  5
215
100
AcDbEntity
  8
0
100
AcDbLine
 62
7
  6
CONTINUOUS
 10
9.3111543402
 20
11.4884278224
 11
9.3142544358
 21
11.4953539241
  0
LINE
  5
216
100
AcDbEntity
  8
0
100
AcDbLine
 62
9
  6
CONTINUOUS
 10
14.1947636166
 20
6.4110173958
 11
15.7191750408
 21
6.4110173958
  0
LINE
  5
217
100
AcDbEntity
  8
0
100
AcDbLine
 62
7
  6
CONTINUOUS
 10
15.6867822639
 20
6.4275486253
 11
14.2271563935
 21
6.4275486253
  0
LINE
  5
218
100
AcDbEntity
  8
0
100
AcDbLine
 62
9
  6
CONTINUOUS
 10
14.7235012805
 20
6.4398379472
 11
15.1904373768
 21
6.4398375968
  0
LINE
  5
219
100
AcDbEntity
  8
0
100
AcDbLine
 62
9
  6
CONTINUOUS
 10
15.5981327683
 20
6.4440486253
 11
15.5044693287
 21
6.4440486253
  0
LINE
  5
21A
100
AcDbEntity
  8
0
100
AcDbLine
 62
9
  6
CONTINUOUS
 10
14.4094693287
 20
6.4440486253
 11
14.315805889
 21
6.4440486253
  0
LINE
  5
21B
100
AcDbEntity
  8
0
100
AcDbLine
 62
9
  6
CONTINUOUS
 10
14.8235976828
 20
6.4751932862
 11
15.0903409746
 21
6.4751932862
  0
LINE
  5
21C
100
AcDbEntity
  8
0
100
AcDbLine
 62
9
  6
CONTINUOUS
 10
15.5044693287
 20
6.5627200567
 11
14.4094693287
 21
6.5627200567
  0
LINE
  5
21D
100
AcDbEntity
  8
0
100
AcDbLine
 62
9
  6
CONTINUOUS
 10
14.4394693287
 20
6.634134341
 11
15.4744693287
 21
6.634134341
  0
LINE
  5
21E
100
AcDbEntity
  8
0
100
AcDbLine
 62
9
  6
CONTINUOUS
 10
15.5754693287
 20
6.6590486253
 11
15.4564897772
 21
6.6590486253
  0
LINE
  5
21F
100
AcDbEntity
  8
0
100
AcDbLine
 62
9
  6
CONTINUOUS
 10
14.3384693287
 20
6.6590486253
 11
14.4574488802
 21
6.6590486253
  0
LINE
  5
220
100
AcDbEntity
  8
0
100
AcDbLine
 62
9
  6
CONTINUOUS
 10
14.4694693287
 20
6.7055486253
 11
15.4444693287
 21
6.7055486253
  0
LINE
  5
221
100
AcDbEntity
  8
0
100
AcDbLine
 62
7
  6
CONTINUOUS
 10
9.4609319649
 20
11.3579829153
 11
9.4640320605
 21
11.364909017
  0
LINE
  5
222
100
AcDbEntity
  8
0
100
AcDbLine
 62
7
  6
CONTINUOUS
 10
9.6724026293
 20
11.242982683
 11
9.6694275487
 21
11.2363358843
  0
LINE
  5
223
100
AcDbEntity
  8
0
100
AcDbLine
 62
7
  6
CONTINUOUS
 10
9.7180396692
 20
11.2225557255
 11
9.7150645885
 21
11.2159089268
  0
LINE
  5
224
100
AcDbEntity
  8
0
100
AcDbLine
 62
9
  6
CONTINUOUS
 10
10.0899088364
 20
12.1144781303
 11
9.7813405531
 21
11.4251732391
  0
LINE
  5
225
100
AcDbEntity
  8
0
100
AcDbLine
 62
9
  6
CONTINUOUS
 10
14.3423353345
 20
6.8872474368
 11
14.3666346074
 21
6.8872474368
  0
LINE
  5
226
100
AcDbEntity
  8
0
100
AcDbLine
 62
9
  6
CONTINUOUS
 10
15.4284276845
 20
6.8872474368
 11
15.5716033229
 21
6.8872474368
  0
LINE
  5
227
100
AcDbEntity
  8
0
100
AcDbLine
 62
9
  6
CONTINUOUS
 10
15.4974693287
 20
6.9931650641
 11
15.4059141978
 21
6.9931650641
  0
LINE
  5
228
100
AcDbEntity
  8
0
100
AcDbLine
 62
7
  6
CONTINUOUS
 10
9.9446845874
 20
11.1414571658
 11
9.947784683
 21
11.1483832676
  0
LINE
  5
229
100
AcDbEntity
  8
0
100
AcDbLine
 62
7
  6
CONTINUOUS
 10
10.1417484657
 20
11.1166571959
 11
10.1448485613
 21
11.1235832977
  0
LINE
  5
22A
100
AcDbEntity
  8
0
100
AcDbLine
 62
9
  6
CONTINUOUS
 10
15.3867090562
 20
7.299147868
 11
15.2765072151
 21
7.299147868
  0
LINE
  5
22B
100
AcDbEntity
  8
0
100
AcDbLine
 62
7
  6
CONTINUOUS
 10
15.3558081033
 20
7.3275486253
 11
15.2576621888
 21
7.3275486253
  0
LINE
  5
22C
100
AcDbEntity
  8
0
100
AcDbLine
 62
7
  6
CONTINUOUS
 10
14.9761723985
 20
7.6815486253
 11
15.3274691774
 21
7.6815486253
  0
LINE
  5
22D
100
AcDbEntity
  8
0
100
AcDbLine
 62
7
  6
CONTINUOUS
 10
15.4844693287
 20
7.7325486253
 11
14.9333783173
 21
7.7325486253
  0
LINE
  5
22E
100
AcDbEntity
  8
0
100
AcDbLine
 62
7
  6
CONTINUOUS
 10
14.4493697275
 20
7.7325486253
 11
14.4294693287
 21
7.7325486253
  0
LINE
  5
22F
100
AcDbEntity
  8
0
100
AcDbLine
 62
7
  6
CONTINUOUS
 10
10.3240406849
 20
11.0955712008
 11
10.3271407805
 21
11.1024973026
  0
LINE
  5
230
100
AcDbEntity
  8
0
100
AcDbLine
 62
7
  6
CONTINUOUS
 10
10.5260284496
 20
11.0695332393
 11
10.528220559
 21
11.074430757
  0
LINE
  5
231
100
AcDbEntity
  8
0
100
AcDbLine
 62
7
  6
CONTINUOUS
 10
10.6112580295
 20
11.0482195285
 11
10.6133007252
 21
11.0527832325
  0
LINE
  5
232
100
AcDbEntity
  8
0
100
AcDbLine
 62
9
  6
CONTINUOUS
 10
11.6087368605
 20
11.405150551
 11
11.3080152482
 21
11.1528167782
  0
LINE
  5
233
100
AcDbEntity
  8
0
100
AcDbLine
 62
7
  6
CONTINUOUS
 10
11.3080146094
 20
11.1528174063
 11
11.0072959661
 21
10.900480304
  0
LINE
  5
234
100
AcDbEntity
  8
0
100
AcDbLine
 62
7
  6
CONTINUOUS
 10
14.4165152317
 20
7.8115486253
 11
14.5435182613
 21
7.8115486253
  0
LINE
  5
235
100
AcDbEntity
  8
0
100
AcDbLine
 62
7
  6
CONTINUOUS
 10
14.8670894464
 20
7.8115486253
 11
15.5144693287
 21
7.8115486253
  0
LINE
  5
236
100
AcDbEntity
  8
0
100
AcDbLine
 62
7
  6
CONTINUOUS
 10
15.3076223845
 20
7.8205486253
 11
15.3168909061
 21
7.8205486253
  0
LINE
  5
237
100
AcDbEntity
  8
0
100
AcDbLine
 62
7
  6
CONTINUOUS
 10
13.9493435286
 20
7.4675441127
 11
13.9947889244
 21
7.4584842485
  0
LINE
  5
238
100
AcDbEntity
  8
0
100
AcDbLine
 62
7
  6
CONTINUOUS
 10
14.6063283632
 20
8.2125486253
 11
14.5970477513
 21
8.2125486253
  0
LINE
  5
239
100
AcDbEntity
  8
0
100
AcDbLine
 62
7
  6
CONTINUOUS
 10
15.3074333797
 20
8.2125486253
 11
15.3168909061
 21
8.2125486253
  0
LINE
  5
23A
100
AcDbEntity
  8
0
100
AcDbLine
 62
7
  6
CONTINUOUS
 10
15.5144693287
 20
8.2215486253
 11
14.5219708271
 21
8.2215486253
  0
LINE
  5
23B
100
AcDbEntity
  8
0
100
AcDbLine
 62
7
  6
CONTINUOUS
 10
14.4548428566
 20
8.3015486253
 11
15.4844693287
 21
8.3015486253
  0
LINE
  5
23C
100
AcDbEntity
  8
0
100
AcDbLine
 62
7
  6
CONTINUOUS
 10
14.4563161162
 20
8.3170486253
 11
15.4576225412
 21
8.3170486253
  0
LINE
  5
23D
100
AcDbEntity
  8
0
100
AcDbLine
 62
7
  6
CONTINUOUS
 10
14.4294693287
 20
8.3325486253
 11
15.4844693287
 21
8.3325486253
  0
LINE
  5
23E
100
AcDbEntity
  8
0
100
AcDbLine
 62
7
  6
CONTINUOUS
 10
15.4844693287
 20
8.4038327224
 11
14.4294693287
 21
8.4038327224
  0
LINE
  5
23F
100
AcDbEntity
  8
0
100
AcDbLine
 62
7
  6
CONTINUOUS
 10
14.4437351764
 20
8.4234679773
 11
15.4702034809
 21
8.4234679773
  0
LINE
  5
240
100
AcDbEntity
  8
0
100
AcDbLine
 62
7
  6
CONTINUOUS
 10
15.4114595015
 20
8.4425486253
 11
14.5024791558
 21
8.4425486253
  0
LINE
  5
241
100
AcDbEntity
  8
0
100
AcDbLine
 62
9
  6
CONTINUOUS
 10
15.3521139852
 20
8.4663579185
 11
14.5618246721
 21
8.4663579185
  0
LINE
  5
242
100
AcDbEntity
  8
0
100
AcDbLine
 62
7
  6
CONTINUOUS
 10
13.9622831123
 20
7.478402083
 11
14.0066873852
 21
7.4684682425
  0
LINE
  5
243
100
AcDbEntity
  8
0
100
AcDbLine
 62
7
  6
CONTINUOUS
 10
13.9917162654
 20
7.5030977743
 11
14.0337389918
 21
7.4911672356
  0
LINE
  5
244
100
AcDbEntity
  8
0
100
AcDbLine
 62
9
  6
CONTINUOUS
 10
6.9918842169
 20
10.786843222
 11
6.9604652146
 21
10.8057006901
  0
LINE
  5
245
100
AcDbEntity
  8
0
100
AcDbLine
 62
7
  6
CONTINUOUS
 10
11.575298456
 20
10.1705045612
 11
12.364861312
 21
10.8330264625
  0
LINE
  5
246
100
AcDbEntity
  8
0
100
AcDbLine
 62
9
  6
CONTINUOUS
 10
12.4347935926
 20
10.7089495929
 11
11.6853466983
 21
10.0800889803
  0
LINE
  5
247
100
AcDbEntity
  8
0
100
AcDbLine
 62
7
  6
CONTINUOUS
 10
15.0015200022
 20
8.5169175961
 11
15.0020327879
 21
8.5168936148
  0
LINE
  5
248
100
AcDbEntity
  8
0
100
AcDbLine
 62
7
  6
CONTINUOUS
 10
14.4438157826
 20
7.7278883122
 11
14.4294693287
 21
7.7325486253
  0
LINE
  5
249
100
AcDbEntity
  8
0
100
AcDbLine
 62
7
  6
CONTINUOUS
 10
14.0037954034
 20
7.5548289598
 11
14.0358195796
 21
7.5401003801
  0
LINE
  5
24A
100
AcDbEntity
  8
0
100
AcDbLine
 62
9
  6
CONTINUOUS
 10
6.4272729588
 20
10.3789086888
 11
6.3181402416
 21
10.4021599845
  0
LINE
  5
24B
100
AcDbEntity
  8
0
100
AcDbLine
 62
9
  6
CONTINUOUS
 10
6.4332072737
 20
10.4076153994
 11
6.3228237487
 21
10.4325906996
  0
LINE
  5
24C
100
AcDbEntity
  8
0
100
AcDbLine
 62
7
  6
CONTINUOUS
 10
15.6569693287
 20
9.6855486253
 11
14.2569693723
 21
9.6855486253
  0
LINE
  5
24D
100
AcDbEntity
  8
0
100
AcDbLine
 62
7
  6
CONTINUOUS
 10
15.4819693287
 20
9.7555486253
 11
14.4319693287
 21
9.7555486253
  0
LINE
  5
24E
100
AcDbEntity
  8
0
100
AcDbLine
 62
7
  6
CONTINUOUS
 10
15.2504693287
 20
9.7655486253
 11
14.6634693287
 21
9.7655486253
  0
LINE
  5
24F
100
AcDbEntity
  8
0
100
AcDbLine
 62
9
  6
CONTINUOUS
 10
14.6178017485
 20
9.8014368244
 11
15.2961369089
 21
9.8014368244
  0
LINE
  5
250
100
AcDbEntity
  8
0
100
AcDbLine
 62
7
  6
CONTINUOUS
 10
4.9679976541
 20
10.5395459146
 11
6.4107410039
 21
10.2851513358
  0
LINE
  5
251
100
AcDbEntity
  8
0
100
AcDbLine
 62
9
  6
CONTINUOUS
 10
5.1383850696
 20
10.8493384515
 11
5.0265649585
 21
10.8716976296
  0
LINE
  5
252
100
AcDbEntity
  8
0
100
AcDbLine
 62
9
  6
CONTINUOUS
 10
5.1575421526
 20
10.9502826865
 11
5.0446006923
 21
10.9739833591
  0
LINE
  5
253
100
AcDbEntity
  8
0
100
AcDbLine
 62
7
  6
CONTINUOUS
 10
15.4114792848
 20
8.4425486253
 11
15.4702034809
 21
8.4234679773
  0
LINE
  5
254
100
AcDbEntity
  8
0
100
AcDbLine
 62
7
  6
CONTINUOUS
 10
7.3239790382
 20
11.3556803026
 11
7.4087033874
 21
11.3206679337
  0
LINE
  5
255
100
AcDbEntity
  8
0
100
AcDbLine
 62
7
  6
CONTINUOUS
 10
12.3687811728
 20
9.26560349
 11
7.4087129599
 21
11.3206898933
  0
LINE
  5
256
100
AcDbEntity
  8
0
100
AcDbLine
 62
7
  6
CONTINUOUS
 10
14.3769693287
 20
10.2355486253
 11
15.5369693287
 21
10.2355486253
  0
LINE
  5
257
100
AcDbEntity
  8
0
100
AcDbLine
 62
9
  6
CONTINUOUS
 10
7.073969156
 20
12.1036670985
 11
7.0424466455
 21
12.1202590804
  0
LINE
  5
258
100
AcDbEntity
  8
0
100
AcDbLine
 62
7
  6
CONTINUOUS
 10
14.4563161162
 20
8.3170486253
 11
14.4294693287
 21
8.3325486253
  0
LINE
  5
259
100
AcDbEntity
  8
0
100
AcDbLine
 62
7
  6
CONTINUOUS
 10
9.5053182214
 20
11.3179354458
 11
9.4644510899
 21
11.3456182024
  0
LINE
  5
25A
100
AcDbEntity
  8
0
100
AcDbLine
 62
7
  6
CONTINUOUS
 10
9.4605129355
 20
11.3772737299
 11
9.4343126221
 21
11.395021413
  0
LINE
  5
25B
100
AcDbEntity
  8
0
100
AcDbLine
 62
7
  6
CONTINUOUS
 10
9.395667696
 20
11.4211988825
 11
9.3146734652
 21
11.4760631095
  0
LINE
  5
25C
100
AcDbEntity
  8
0
100
AcDbLine
 62
7
  6
CONTINUOUS
 10
9.3107353108
 20
11.507718637
 11
9.2944250398
 21
11.5187669599
  0
LINE
  5
25D
100
AcDbEntity
  8
0
100
AcDbLine
 62
7
  6
CONTINUOUS
 10
9.2557693968
 20
11.5449516887
 11
9.1775064054
 21
11.5979658169
  0
LINE
  5
25E
100
AcDbEntity
  8
0
100
AcDbLine
 62
7
  6
CONTINUOUS
 10
9.173568251
 20
11.6296213444
 11
9.1338563366
 21
11.656521575
  0
LINE
  5
25F
100
AcDbEntity
  8
0
100
AcDbLine
 62
7
  6
CONTINUOUS
 10
9.0951839378
 20
11.682717654
 11
9.0235252591
 21
11.7312581239
  0
LINE
  5
260
100
AcDbEntity
  8
0
100
AcDbLine
 62
7
  6
CONTINUOUS
 10
10.0393168728
 20
11.1344323277
 11
10.039129055
 21
11.1345606028
  0
LINE
  5
261
100
AcDbEntity
  8
0
100
AcDbLine
 62
7
  6
CONTINUOUS
 10
9.9942379061
 20
11.1457672353
 11
9.9940557624
 21
11.1459081873
  0
LINE
  5
262
100
AcDbEntity
  8
0
100
AcDbLine
 62
7
  6
CONTINUOUS
 10
10.2264632541
 20
11.1117007978
 11
10.2264859242
 21
11.1116827864
  0
LINE
  5
263
100
AcDbEntity
  8
0
100
AcDbLine
 62
7
  6
CONTINUOUS
 10
10.1812147049
 20
11.1230674012
 11
10.1811932371
 21
11.1230880989
  0
LWPOLYLINE
  5
264
100
AcDbEntity
  8
0
100
AcDbPolyline
 62
7
  6
CONTINUOUS
 90
4
 70
0
 10
13.806554902
 20
7.5521499469
 10
13.8442068209
 20
7.5157901886
 10
13.9001966191
 20
7.482643621
 10
13.9493458434
 20
7.4675436514
  0
LWPOLYLINE
  5
265
100
AcDbEntity
  8
0
100
AcDbPolyline
 62
7
  6
CONTINUOUS
 90
4
 70
0
 10
13.821467117
 20
7.564662781
 10
13.8589344657
 20
7.5281294193
 10
13.9141528561
 20
7.4943359777
 10
13.9622829177
 20
7.4784021324
  0
LWPOLYLINE
  5
266
100
AcDbEntity
  8
0
100
AcDbPolyline
 62
7
  6
CONTINUOUS
 90
4
 70
0
 10
13.8554155632
 20
7.5931489097
 10
13.8924141415
 20
7.5562540925
 10
13.9458549367
 20
7.5209672981
 10
13.9917145222
 20
7.5030982867
  0
LWPOLYLINE
  5
267
100
AcDbEntity
  8
0
100
AcDbPolyline
 62
7
  6
CONTINUOUS
 90
4
 70
0
 10
13.9061962714
 20
7.6357589832
 10
13.9385810469
 20
7.6018644322
 10
13.9833576214
 20
7.5670052747
 10
14.0037954034
 20
7.5548289598
  0
LINE
  5
268
100
AcDbEntity
  8
0
100
AcDbLine
 62
7
  6
CONTINUOUS
 10
11.7174660284
 20
10.2897973188
 11
11.7221498243
 21
10.2741086855
  0
LWPOLYLINE
  5
269
100
AcDbEntity
  8
0
100
AcDbPolyline
 62
7
  6
CONTINUOUS
 90
4
 70
0
 10
11.671912774
 20
10.2515735999
 10
11.6831017522
 20
10.2096899694
 10
11.7078019368
 20
10.1580200204
 10
11.7342164508
 20
10.1210955716
  0
LWPOLYLINE
  5
26A
100
AcDbEntity
  8
0
100
AcDbPolyline
 62
7
  6
CONTINUOUS
 90
4
 70
0
 10
11.6414738977
 20
10.22603235
 10
11.6508749013
 20
10.1826774677
 10
11.674181418
 20
10.1298391391
 10
11.7002680049
 20
10.0926094431
  0
LWPOLYLINE
  5
26B
100
AcDbEntity
  8
0
100
AcDbPolyline
 62
7
  6
CONTINUOUS
 90
4
 70
0
 10
11.628093689
 20
10.2148050218
 10
11.6367206872
 20
10.1707864031
 10
11.6594232022
 20
10.1174406596
 10
11.68535579
 20
10.0800966092
  0
LINE
  5
26C
100
AcDbEntity
  8
0
100
AcDbLine
 62
7
  6
CONTINUOUS
 10
14.5024593726
 20
8.4425486253
 11
14.4437351764
 21
8.4234679773
  0
LINE
  5
26D
100
AcDbEntity
  8
0
100
AcDbLine
 62
7
  6
CONTINUOUS
 10
15.5369693287
 20
10.4455486253
 11
14.3769693287
 21
10.4455486253
  0
LINE
  5
26E
100
AcDbEntity
  8
0
100
AcDbLine
 62
7
  6
CONTINUOUS
 10
14.964564487
 20
10.6255774689
 11
14.9494895578
 21
10.6255774689
  0
LINE
  5
26F
100
AcDbEntity
  8
0
100
AcDbLine
 62
7
  6
CONTINUOUS
 10
7.5205564327
 20
11.9432048155
 11
7.6472367193
 21
11.8963785531
  0
LINE
  5
270
100
AcDbEntity
  8
0
100
AcDbLine
 62
7
  6
CONTINUOUS
 10
7.0424466455
 20
12.1202590804
 11
7.5132664175
 21
11.9460097225
  0
LINE
  5
271
100
AcDbEntity
  8
0
100
AcDbLine
 62
7
  6
CONTINUOUS
 10
9.5068411129
 20
11.3170873592
 11
9.8836011857
 21
11.1484510493
  0
LINE
  5
272
100
AcDbEntity
  8
0
100
AcDbLine
 62
9
  6
CONTINUOUS
 10
9.5053737209
 20
11.3179106044
 11
9.8852482097
 21
11.1478802944
  0
LINE
  5
273
100
AcDbEntity
  8
0
100
AcDbLine
 62
9
  6
CONTINUOUS
 10
9.933118812
 20
11.1358443944
 11
9.4644824565
 21
11.3456041629
  0
LINE
  5
274
100
AcDbEntity
  8
0
100
AcDbLine
 62
9
  6
CONTINUOUS
 10
9.4609319649
 20
11.3579829153
 11
9.9446845874
 21
11.1414571658
  0
LINE
  5
275
100
AcDbEntity
  8
0
100
AcDbLine
 62
9
  6
CONTINUOUS
 10
9.947784683
 20
11.1483832676
 11
9.4640320605
 21
11.364909017
  0
LINE
  5
276
100
AcDbEntity
  8
0
100
AcDbLine
 62
9
  6
CONTINUOUS
 10
9.4605129355
 20
11.3772737299
 11
9.9593352158
 21
11.1540028616
  0
LINE
  5
277
100
AcDbEntity
  8
0
100
AcDbLine
 62
9
  6
CONTINUOUS
 10
10.1301826903
 20
11.1110444245
 11
9.3146734652
 21
11.4760631095
  0
LINE
  5
278
100
AcDbEntity
  8
0
100
AcDbLine
 62
9
  6
CONTINUOUS
 10
9.3111543402
 20
11.4884278224
 11
10.1417484657
 21
11.1166571959
  0
LINE
  5
279
100
AcDbEntity
  8
0
100
AcDbLine
 62
9
  6
CONTINUOUS
 10
10.1448485613
 20
11.1235832977
 11
9.3142544358
 21
11.4953539241
  0
LINE
  5
27A
100
AcDbEntity
  8
0
100
AcDbLine
 62
9
  6
CONTINUOUS
 10
9.3107353108
 20
11.507718637
 11
10.1564029575
 21
11.1292011624
  0
LINE
  5
27B
100
AcDbEntity
  8
0
100
AcDbLine
 62
9
  6
CONTINUOUS
 10
10.3124749095
 20
11.0899584294
 11
9.1775205248
 21
11.5979594971
  0
LINE
  5
27C
100
AcDbEntity
  8
0
100
AcDbLine
 62
9
  6
CONTINUOUS
 10
9.1739872804
 20
11.6103305298
 11
10.3240406849
 21
11.0955712008
  0
LINE
  5
27D
100
AcDbEntity
  8
0
100
AcDbLine
 62
9
  6
CONTINUOUS
 10
10.3271407805
 20
11.1024973026
 11
9.177087376
 21
11.6172566315
  0
LINE
  5
27E
100
AcDbEntity
  8
0
100
AcDbLine
 62
9
  6
CONTINUOUS
 10
9.173568251
 20
11.6296213444
 11
10.3386978379
 21
11.1081139762
  0
LINE
  5
27F
100
AcDbEntity
  8
0
100
AcDbLine
 62
9
  6
CONTINUOUS
 10
10.5144626741
 20
11.0639204679
 11
9.0235355731
 21
11.7312535074
  0
LINE
  5
280
100
AcDbEntity
  8
0
100
AcDbLine
 62
9
  6
CONTINUOUS
 10
9.0200061341
 20
11.7436228367
 11
10.5260284496
 21
11.0695332393
  0
LINE
  5
281
100
AcDbEntity
  8
0
100
AcDbLine
 62
9
  6
CONTINUOUS
 10
10.528220559
 20
11.074430757
 11
9.0221982436
 21
11.7485203544
  0
LINE
  5
282
100
AcDbEntity
  8
0
100
AcDbLine
 62
7
  6
CONTINUOUS
 10
8.9473315561
 20
11.7929863989
 11
10.6112580295
 21
11.0482195285
  0
LINE
  5
283
100
AcDbEntity
  8
0
100
AcDbLine
 62
7
  6
CONTINUOUS
 10
8.8959788008
 20
11.8214496943
 11
10.6666963664
 21
11.0288835559
  0
LINE
  5
284
100
AcDbEntity
  8
0
100
AcDbLine
 62
7
  6
CONTINUOUS
 10
15.4576225412
 20
8.3170486253
 11
15.4844693287
 21
8.3015486253
  0
LINE
  5
285
100
AcDbEntity
  8
0
100
AcDbLine
 62
7
  6
CONTINUOUS
 10
10.1870834213
 20
11.1289643671
 11
10.1854289705
 21
11.1300675798
  0
LINE
  5
286
100
AcDbEntity
  8
0
100
AcDbLine
 62
7
  6
CONTINUOUS
 10
10.4084326541
 20
11.0947623317
 11
10.4077734242
 21
11.0952078214
  0
LINE
  5
287
100
AcDbEntity
  8
0
100
AcDbLine
 62
7
  6
CONTINUOUS
 10
10.1437086027
 20
11.1398549834
 11
10.1420675075
 21
11.1409880345
  0
LINE
  5
288
100
AcDbEntity
  8
0
100
AcDbLine
 62
7
  6
CONTINUOUS
 10
10.3639043106
 20
11.105956995
 11
10.3632512375
 21
11.10641624
  0
LINE
  5
289
100
AcDbEntity
  8
0
100
AcDbLine
 62
7
  6
CONTINUOUS
 10
10.9655758668
 20
10.9446334252
 11
10.9658409889
 21
10.9444012758
  0
LINE
  5
28A
100
AcDbEntity
  8
0
100
AcDbLine
 62
7
  6
CONTINUOUS
 10
15.5981327683
 20
6.4440486253
 11
15.6134693287
 21
6.4287562436
  0
LINE
  5
28B
100
AcDbEntity
  8
0
100
AcDbLine
 62
7
  6
CONTINUOUS
 10
14.2847842495
 20
6.9809035854
 11
13.9955298251
 21
7.3256235848
  0
LINE
  5
28C
100
AcDbEntity
  8
0
100
AcDbLine
 62
7
  6
CONTINUOUS
 10
13.8065458103
 20
7.552142318
 11
11.6853466983
 21
10.0800889803
  0
LINE
  5
28D
100
AcDbEntity
  8
0
100
AcDbLine
 62
7
  6
CONTINUOUS
 10
14.4314515507
 20
6.8100016119
 11
14.2995551128
 21
6.9671896656
  0
LINE
  5
28E
100
AcDbEntity
  8
0
100
AcDbLine
 62
7
  6
CONTINUOUS
 10
13.8214780373
 20
7.5646719442
 11
11.7002789253
 21
10.0926186065
  0
LINE
  5
28F
100
AcDbEntity
  8
0
100
AcDbLine
 62
7
  6
CONTINUOUS
 10
13.8554079575
 20
7.5931425277
 11
11.7342088456
 21
10.12108919
  0
LINE
  5
290
100
AcDbEntity
  8
0
100
AcDbLine
 62
7
  6
CONTINUOUS
 10
13.9062036292
 20
7.6357651571
 11
11.7850045173
 21
10.1637118194
  0
LINE
  5
291
100
AcDbEntity
  8
0
100
AcDbLine
 62
7
  6
CONTINUOUS
 10
11.8503505605
 20
10.2185436602
 11
13.9715496725
 21
7.6905969979
  0
LINE
  5
292
100
AcDbEntity
  8
0
100
AcDbLine
 62
7
  6
CONTINUOUS
 10
11.9287214479
 20
10.2843046429
 11
14.0499205599
 21
7.7563579806
  0
LINE
  5
293
100
AcDbEntity
  8
0
100
AcDbLine
 62
7
  6
CONTINUOUS
 10
14.2647453705
 20
7.5515222497
 11
14.4704374056
 21
7.3063880279
  0
LINE
  5
294
100
AcDbEntity
  8
0
100
AcDbLine
 62
7
  6
CONTINUOUS
 10
11.5752985437
 20
10.1705046197
 11
11.007296181
 21
10.9004800279
  0
LWPOLYLINE
  5
295
100
AcDbEntity
  8
0
100
AcDbPolyline
 62
7
  6
CONTINUOUS
 90
4
 70
0
 10
11.7221498243
 20
10.2741086855
 10
11.7368266407
 20
10.2380535298
 10
11.7615593546
 20
10.1948995358
 10
11.7849971594
 20
10.1637056454
  0
LINE
  5
296
100
AcDbEntity
  8
0
100
AcDbLine
 62
9
  6
CONTINUOUS
 10
12.8519762685
 20
8.6897539987
 11
12.6625374904
 21
8.1953518132
  0
LINE
  5
297
100
AcDbEntity
  8
0
100
AcDbLine
 62
9
  6
CONTINUOUS
 10
13.294673136
 20
9.8449215049
 11
13.2523907058
 21
9.7345752959
  0
LWPOLYLINE
  5
298
100
AcDbEntity
  8
0
100
AcDbPolyline
 62
7
  6
CONTINUOUS
 90
3
 70
0
 10
10.69156054
 20
11.0247516591
 10
10.7705866228
 20
11.0200149185
 10
10.7935788257
 20
11.0185779274
  0
LWPOLYLINE
  5
299
100
AcDbEntity
  8
0
100
AcDbPolyline
 62
7
  6
CONTINUOUS
 90
6
 70
0
 10
10.7936353242
 20
11.0185743749
 10
10.8189576944
 20
11.0156274684
 10
10.8600895379
 20
11.0053837869
 10
10.9025417185
 20
10.9875667795
 10
10.9444517632
 20
10.9615868904
 10
10.9655758668
 20
10.9446334252
  0
LINE
  5
29A
100
AcDbEntity
  8
0
100
AcDbLine
 62
7
  6
CONTINUOUS
 10
10.6915610222
 20
11.0247516241
 11
10.6666976154
 21
11.0288832423
  0
LINE
  5
29B
100
AcDbEntity
  8
0
100
AcDbLine
 62
7
  6
CONTINUOUS
 10
9.2948027099
 20
11.519821884
 11
9.2950957823
 21
11.5197571548
  0
LINE
  5
29C
100
AcDbEntity
  8
0
100
AcDbLine
 62
7
  6
CONTINUOUS
 10
9.434580407
 20
11.3962677056
 11
9.4350808473
 21
11.3961555182
  0
LINE
  5
29D
100
AcDbEntity
  8
0
100
AcDbLine
 62
7
  6
CONTINUOUS
 10
9.2563757693
 20
11.5458468561
 11
9.2566668997
 21
11.5457777881
  0
LINE
  5
29E
100
AcDbEntity
  8
0
100
AcDbLine
 62
7
  6
CONTINUOUS
 10
9.1551759957
 20
11.6469789804
 11
9.1559516013
 21
11.6467934925
  0
LINE
  5
29F
100
AcDbEntity
  8
0
100
AcDbLine
 62
7
  6
CONTINUOUS
 10
9.1171615506
 20
11.6727267187
 11
9.1179342377
 21
11.6725347103
  0
LINE
  5
2A0
100
AcDbEntity
  8
0
100
AcDbLine
 62
7
  6
CONTINUOUS
 10
9.396330381
 20
11.4221771823
 11
9.3968255047
 21
11.4220531168
  0
LINE
  5
2A1
100
AcDbEntity
  8
0
100
AcDbLine
 62
7
  6
CONTINUOUS
 10
9.8852482097
 20
11.1478802944
 11
9.933118812
 21
11.1358443944
  0
LINE
  5
2A2
100
AcDbEntity
  8
0
100
AcDbLine
 62
7
  6
CONTINUOUS
 10
9.9593504585
 20
11.153996039
 11
9.993904901
 21
11.1453081639
  0
LINE
  5
2A3
100
AcDbEntity
  8
0
100
AcDbLine
 62
7
  6
CONTINUOUS
 10
10.0389817408
 20
11.1339746876
 11
10.1301826903
 21
11.1110444245
  0
LINE
  5
2A4
100
AcDbEntity
  8
0
100
AcDbLine
 62
7
  6
CONTINUOUS
 10
10.1564143368
 20
11.1291960691
 11
10.1811643675
 21
11.1229732751
  0
LINE
  5
2A5
100
AcDbEntity
  8
0
100
AcDbLine
 62
7
  6
CONTINUOUS
 10
10.2264356272
 20
11.1115909167
 11
10.3124749095
 21
11.0899584294
  0
LINE
  5
2A6
100
AcDbEntity
  8
0
100
AcDbLine
 62
7
  6
CONTINUOUS
 10
10.338706556
 20
11.108110074
 11
10.3852239696
 21
11.0964144004
  0
LINE
  5
2A7
100
AcDbEntity
  8
0
100
AcDbLine
 62
7
  6
CONTINUOUS
 10
10.4305237241
 20
11.0850248777
 11
10.5144626741
 21
11.0639204679
  0
LINE
  5
2A8
100
AcDbEntity
  8
0
100
AcDbLine
 62
7
  6
CONTINUOUS
 10
12.2226937318
 20
10.7137336984
 11
12.2374226745
 21
10.7063471178
  0
LINE
  5
2A9
100
AcDbEntity
  8
0
100
AcDbLine
 62
7
  6
CONTINUOUS
 10
12.015345457
 20
10.356990817
 11
14.136544569
 21
7.8290441547
  0
LINE
  5
2AA
100
AcDbEntity
  8
0
100
AcDbLine
 62
7
  6
CONTINUOUS
 10
12.1047796828
 20
10.4320350429
 11
14.2259787947
 21
7.9040883806
  0
LINE
  5
2AB
100
AcDbEntity
  8
0
100
AcDbLine
 62
7
  6
CONTINUOUS
 10
14.6827298691
 20
7.4845225556
 11
14.477037834
 21
7.7296567774
  0
LINE
  5
2AC
100
AcDbEntity
  8
0
100
AcDbLine
 62
7
  6
CONTINUOUS
 10
12.1914046439
 20
10.5047220158
 11
14.3126037559
 21
7.9767753535
  0
LINE
  5
2AD
100
AcDbEntity
  8
0
100
AcDbLine
 62
7
  6
CONTINUOUS
 10
12.2697773755
 20
10.5704845459
 11
14.3909764874
 21
8.0425378837
  0
LINE
  5
2AE
100
AcDbEntity
  8
0
100
AcDbLine
 62
7
  6
CONTINUOUS
 10
14.4563161162
 20
8.3170486253
 11
14.4465621595
 21
8.3114171758
  0
LINE
  5
2AF
100
AcDbEntity
  8
0
100
AcDbLine
 62
7
  6
CONTINUOUS
 10
15.3274693287
 20
7.6815486253
 11
15.4844693287
 21
7.7325486253
  0
LINE
  5
2B0
100
AcDbEntity
  8
0
100
AcDbLine
 62
7
  6
CONTINUOUS
 10
12.3648612653
 20
10.8330263568
 11
11.516111441
 21
11.4752577071
  0
LINE
  5
2B1
100
AcDbEntity
  8
0
100
AcDbLine
 62
7
  6
CONTINUOUS
 10
11.516111441
 20
11.4752577071
 11
11.1099212827
 21
11.7825812547
  0
LINE
  5
2B2
100
AcDbEntity
  8
0
100
AcDbLine
 62
7
  6
CONTINUOUS
 10
11.1099212827
 20
11.7825812547
 11
11.1099255005
 21
11.7825779236
  0
LWPOLYLINE
  5
2B3
100
AcDbEntity
  8
0
100
AcDbPolyline
 62
7
  6
CONTINUOUS
 90
4
 70
0
 10
12.4347845008
 20
10.708941964
 10
12.4025109371
 20
10.7409653039
 10
12.3539178856
 20
10.7725863078
 10
12.3120660712
 20
10.7887259954
  0
LWPOLYLINE
  5
2B4
100
AcDbEntity
  8
0
100
AcDbPolyline
 62
7
  6
CONTINUOUS
 90
4
 70
0
 10
12.419872286
 20
10.69642913
 10
12.3877380811
 20
10.7285842719
 10
12.3397496195
 20
10.7607119896
 10
12.2986858625
 20
10.7774986672
  0
LWPOLYLINE
  5
2B5
100
AcDbEntity
  8
0
100
AcDbPolyline
 62
7
  6
CONTINUOUS
 90
4
 70
0
 10
12.38592384
 20
10.6679430015
 10
12.3541471889
 20
10.7003680829
 10
12.3075513645
 20
10.7336654088
 10
12.2682469862
 20
10.7519574174
  0
LWPOLYLINE
  5
2B6
100
AcDbEntity
  8
0
100
AcDbPolyline
 62
7
  6
CONTINUOUS
 90
4
 70
0
 10
12.3351431315
 20
10.6253329277
 10
12.3069756717
 20
10.6552784283
 10
12.2667839272
 20
10.6881725601
 10
12.2374226745
 20
10.7063471178
  0
LINE
  5
2B7
100
AcDbEntity
  8
0
100
AcDbLine
 62
7
  6
CONTINUOUS
 10
14.4563348856
 20
8.0973800914
 11
12.3351357736
 21
10.6253267537
  0
LINE
  5
2B8
100
AcDbEntity
  8
0
100
AcDbLine
 62
7
  6
CONTINUOUS
 10
14.5071305573
 20
8.1400027208
 11
12.3859314453
 21
10.6679493831
  0
LINE
  5
2B9
100
AcDbEntity
  8
0
100
AcDbLine
 62
7
  6
CONTINUOUS
 10
14.5410604775
 20
8.1684733044
 11
12.4198613655
 21
10.6964199667
  0
LINE
  5
2BA
100
AcDbEntity
  8
0
100
AcDbLine
 62
7
  6
CONTINUOUS
 10
15.1783448827
 20
7.4367195313
 11
15.0464484448
 21
7.593907585
  0
LINE
  5
2BB
100
AcDbEntity
  8
0
100
AcDbLine
 62
7
  6
CONTINUOUS
 10
14.5559927045
 20
8.1810029306
 11
12.4347935926
 21
10.7089495929
  0
LINE
  5
2BC
100
AcDbEntity
  8
0
100
AcDbLine
 62
7
  6
CONTINUOUS
 10
15.0355078037
 20
7.6108354429
 11
14.7462533794
 21
7.9555554423
  0
LINE
  5
2BD
100
AcDbEntity
  8
0
100
AcDbLine
 62
7
  6
CONTINUOUS
 10
13.4619693287
 20
5.6405486253
 11
13.4619693287
 21
5.6957879181
  0
LINE
  5
2BE
100
AcDbEntity
  8
0
100
AcDbLine
 62
7
  6
CONTINUOUS
 10
14.4319693287
 20
9.7555486253
 11
14.3944693287
 21
9.6855486253
  0
LINE
  5
2BF
100
AcDbEntity
  8
0
100
AcDbLine
 62
9
  6
CONTINUOUS
 10
14.5559927045
 20
8.1810029306
 11
13.8065458103
 21
7.552142318
  0
LINE
  5
2C0
100
AcDbEntity
  8
0
100
AcDbLine
 62
7
  6
CONTINUOUS
 10
15.4576225412
 20
8.3170486253
 11
15.4844693287
 21
8.3325486253
  0
LINE
  5
2C1
100
AcDbEntity
  8
0
100
AcDbLine
 62
7
  6
CONTINUOUS
 10
15.4974693287
 20
6.9931650641
 11
15.5716033229
 21
6.8872474368
  0
LINE
  5
2C2
100
AcDbEntity
  8
0
100
AcDbLine
 62
7
  6
CONTINUOUS
 10
14.3004693287
 20
6.4275486253
 11
14.3004693287
 21
6.4287560184
  0
LINE
  5
2C3
100
AcDbEntity
  8
0
100
AcDbLine
 62
7
  6
CONTINUOUS
 10
14.4437351764
 20
8.4234679773
 11
14.4294693287
 21
8.4038327224
  0
LINE
  5
2C4
100
AcDbEntity
  8
0
100
AcDbLine
 62
9
  6
CONTINUOUS
 10
14.6145091619
 20
8.0256819465
 11
14.6015701495
 21
8.0148255935
  0
LINE
  5
2C5
100
AcDbEntity
  8
0
100
AcDbLine
 62
7
  6
CONTINUOUS
 10
13.9947860491
 20
7.4584818358
 11
14.0333314063
 21
7.4908252308
  0
LINE
  5
2C6
100
AcDbEntity
  8
0
100
AcDbLine
 62
7
  6
CONTINUOUS
 10
14.0337456737
 20
7.4911728425
 11
14.5765831179
 21
7.9466675416
  0
LINE
  5
2C7
100
AcDbEntity
  8
0
100
AcDbLine
 62
7
  6
CONTINUOUS
 10
14.5769973419
 20
7.9470151169
 11
14.6155426867
 21
7.9793585015
  0
LINE
  5
2C8
100
AcDbEntity
  8
0
100
AcDbLine
 62
7
  6
CONTINUOUS
 10
14.3580358501
 20
7.6559104024
 11
13.9979949312
 21
7.3538002002
  0
LINE
  5
2C9
100
AcDbEntity
  8
0
100
AcDbLine
 62
7
  6
CONTINUOUS
 10
14.3594543117
 20
7.657100633
 11
14.7180763359
 21
7.9580202413
  0
LINE
  5
2CA
100
AcDbEntity
  8
0
100
AcDbLine
 62
9
  6
CONTINUOUS
 10
14.7462533794
 20
7.9555554423
 11
14.477037834
 21
7.7296567774
  0
LINE
  5
2CB
100
AcDbEntity
  8
0
100
AcDbLine
 62
9
  6
CONTINUOUS
 10
14.2647453705
 20
7.5515222497
 11
13.9955298251
 21
7.3256235848
  0
LINE
  5
2CC
100
AcDbEntity
  8
0
100
AcDbLine
 62
9
  6
CONTINUOUS
 10
14.6015691519
 20
8.0148269677
 11
13.9917144944
 21
7.5030982772
  0
LINE
  5
2CD
100
AcDbEntity
  8
0
100
AcDbLine
 62
9
  6
CONTINUOUS
 10
13.9917173704
 20
7.5030948902
 11
13.9493458434
 21
7.4675436512
  0
LINE
  5
2CE
100
AcDbEntity
  8
0
100
AcDbLine
 62
7
  6
CONTINUOUS
 10
15.4702034809
 20
8.4234679773
 11
15.4844693287
 21
8.4038327224
  0
LINE
  5
2CF
100
AcDbEntity
  8
0
100
AcDbLine
 62
7
  6
CONTINUOUS
 10
15.5404676883
 20
7.8967586716
 11
15.5700542142
 21
7.8557217826
  0
LWPOLYLINE
  5
2D0
100
AcDbEntity
  8
0
100
AcDbPolyline
 62
7
  6
CONTINUOUS
 90
4
 70
0
 10
14.519101916
 20
7.9871953191
 10
14.5100993937
 20
8.0107485291
 10
14.4837433435
 20
8.0601628725
 10
14.4563422434
 20
8.0973862654
  0
LINE
  5
2D1
100
AcDbEntity
  8
0
100
AcDbLine
 62
7
  6
CONTINUOUS
 10
14.519101916
 20
7.9871953191
 11
14.5280387261
 21
7.9531212844
  0
LWPOLYLINE
  5
2D2
100
AcDbEntity
  8
0
100
AcDbPolyline
 62
7
  6
CONTINUOUS
 90
4
 70
0
 10
14.5721374374
 20
7.9901309407
 10
14.5625033299
 20
8.0383967374
 10
14.5370325179
 20
8.0971531344
 10
14.5071229516
 20
8.1399963389
  0
LINE
  5
2D3
100
AcDbEntity
  8
0
100
AcDbLine
 62
7
  6
CONTINUOUS
 10
14.5765897564
 20
7.946673112
 11
14.5721376393
 21
7.9901291351
  0
LINE
  5
2D4
100
AcDbEntity
  8
0
100
AcDbLine
 62
7
  6
CONTINUOUS
 10
14.603641363
 20
7.9693721052
 11
14.6015691609
 21
8.0148267707
  0
LINE
  5
2D5
100
AcDbEntity
  8
0
100
AcDbLine
 62
7
  6
CONTINUOUS
 10
14.6155398238
 20
7.9793560992
 11
14.6145091094
 21
8.0256843063
  0
LINE
  5
2D6
100
AcDbEntity
  8
0
100
AcDbLine
 62
7
  6
CONTINUOUS
 10
14.3769693287
 20
10.4455486253
 11
14.3769693287
 21
10.2355486253
  0
LINE
  5
2D7
100
AcDbEntity
  8
0
100
AcDbLine
 62
7
  6
CONTINUOUS
 10
14.4094693287
 20
6.5627200567
 11
14.4094693287
 21
6.4275486253
  0
LINE
  5
2D8
100
AcDbEntity
  8
0
100
AcDbLine
 62
7
  6
CONTINUOUS
 10
14.4294693287
 20
8.4038327224
 11
14.4294693287
 21
8.3325486253
  0
LINE
  5
2D9
100
AcDbEntity
  8
0
100
AcDbLine
 62
9
  6
CONTINUOUS
 10
14.7235012805
 20
6.4275486253
 11
14.7235012805
 21
6.4398379472
  0
LINE
  5
2DA
100
AcDbEntity
  8
0
100
AcDbLine
 62
9
  6
CONTINUOUS
 10
14.7448225634
 20
6.4398379472
 11
14.7448225634
 21
6.4275486253
  0
LINE
  5
2DB
100
AcDbEntity
  8
0
100
AcDbLine
 62
7
  6
CONTINUOUS
 10
14.6827298691
 20
7.4845225556
 11
14.4704374056
 21
7.3063880279
  0
LINE
  5
2DC
100
AcDbEntity
  8
0
100
AcDbLine
 62
9
  6
CONTINUOUS
 10
14.2847842495
 20
6.9809035854
 11
15.0355078037
 21
7.6108354429
  0
LINE
  5
2DD
100
AcDbEntity
  8
0
100
AcDbLine
 62
7
  6
CONTINUOUS
 10
15.0464484448
 20
7.593907585
 11
14.2995551128
 21
6.9671896656
  0
LWPOLYLINE
  5
2DE
100
AcDbEntity
  8
0
100
AcDbPolyline
 62
7
  6
CONTINUOUS
 90
4
 70
0
 10
14.6145091617
 20
8.0256819466
 10
14.6081732678
 20
8.0767065659
 10
14.5852527976
 20
8.1376015942
 10
14.5559836128
 20
8.1809953017
  0
LWPOLYLINE
  5
2DF
100
AcDbEntity
  8
0
100
AcDbPolyline
 62
7
  6
CONTINUOUS
 90
5
 70
0
 10
14.6015691499
 20
8.0148269707
 10
14.5978824749
 20
8.0480945154
 10
14.5850333119
 20
8.0938330011
 10
14.5638719371
 20
8.136806394
 10
14.5410713979
 20
8.1684824677
  0
LINE
  5
2E0
100
AcDbEntity
  8
0
100
AcDbLine
 62
7
  6
CONTINUOUS
 10
14.9569693287
 20
8.4896461255
 11
14.9569693287
 21
8.4906637807
  0
LINE
  5
2E1
100
AcDbEntity
  8
0
100
AcDbLine
 62
9
  6
CONTINUOUS
 10
14.9569693316
 20
6.5287593034
 11
14.956969326
 21
6.4934039098
  0
LINE
  5
2E2
100
AcDbEntity
  8
0
100
AcDbLine
 62
9
  6
CONTINUOUS
 10
15.1691160939
 20
6.4275486253
 11
15.1691160939
 21
6.4398379472
  0
LINE
  5
2E3
100
AcDbEntity
  8
0
100
AcDbLine
 62
9
  6
CONTINUOUS
 10
15.1904373768
 20
6.4398375968
 11
15.1904373768
 21
6.4275486253
  0
LINE
  5
2E4
100
AcDbEntity
  8
0
100
AcDbLine
 62
7
  6
CONTINUOUS
 10
14.9568720724
 20
8.5175486109
 11
14.9569693287
 21
9.6855486253
  0
LINE
  5
2E5
100
AcDbEntity
  8
0
100
AcDbLine
 62
7
  6
CONTINUOUS
 10
14.3533862417
 20
6.9030362243
 11
14.3423353345
 21
6.8872474368
  0
LINE
  5
2E6
100
AcDbEntity
  8
0
100
AcDbLine
 62
7
  6
CONTINUOUS
 10
15.5404676883
 20
8.136338579
 11
15.5700542142
 21
8.177375468
  0
LINE
  5
2E7
100
AcDbEntity
  8
0
100
AcDbLine
 62
7
  6
CONTINUOUS
 10
14.315805889
 20
6.4440486253
 11
14.3004693287
 21
6.4287562436
  0
LINE
  5
2E8
100
AcDbEntity
  8
0
100
AcDbLine
 62
9
  6
CONTINUOUS
 10
14.4314515507
 20
6.8100016119
 11
15.1783448827
 21
7.4367195313
  0
LINE
  5
2E9
100
AcDbEntity
  8
0
100
AcDbLine
 62
7
  6
CONTINUOUS
 10
15.4844693287
 20
8.3015486253
 11
15.5144693287
 21
8.2215486253
  0
LINE
  5
2EA
100
AcDbEntity
  8
0
100
AcDbLine
 62
7
  6
CONTINUOUS
 10
15.3004693287
 20
7.6815486253
 11
15.3004693287
 21
7.3275486253
  0
LINE
  5
2EB
100
AcDbEntity
  8
0
100
AcDbLine
 62
7
  6
CONTINUOUS
 10
15.4844693287
 20
8.4038327224
 11
15.4844693287
 21
8.3325486253
  0
LINE
  5
2EC
100
AcDbEntity
  8
0
100
AcDbLine
 62
7
  6
CONTINUOUS
 10
15.5044693287
 20
6.5627200567
 11
15.5044693287
 21
6.4275486253
  0
LINE
  5
2ED
100
AcDbEntity
  8
0
100
AcDbLine
 62
7
  6
CONTINUOUS
 10
15.5369693287
 20
10.4455486253
 11
15.5369693287
 21
10.2355486253
  0
LINE
  5
2EE
100
AcDbEntity
  8
0
100
AcDbLine
 62
7
  6
CONTINUOUS
 10
15.6134693287
 20
6.4287560184
 11
15.6134693287
 21
6.4275486253
  0
LINE
  5
2EF
100
AcDbEntity
  8
0
100
AcDbLine
 62
7
  6
CONTINUOUS
 10
15.5144693287
 20
7.8115486253
 11
15.4844693287
 21
7.7325486253
  0
LINE
  5
2F0
100
AcDbEntity
  8
0
100
AcDbLine
 62
7
  6
CONTINUOUS
 10
15.4819693287
 20
9.7555486253
 11
15.5194693287
 21
9.6855486253
  0
LINE
  5
2F1
100
AcDbEntity
  8
0
100
AcDbLine
 62
7
  6
CONTINUOUS
 10
16.4519693287
 20
5.6405486253
 11
16.4519693287
 21
5.6957879181
  0
ARC
  5
2F2
100
AcDbEntity
  8
0
100
AcDbCircle
 62
7
  6
CONTINUOUS
 10
-339.8450104569
 20
-749.2308255853
 40
835.4376013123
100
AcDbArc
 50
65.0426440585
 51
65.4578831116
  0
ARC
  5
2F3
100
AcDbEntity
  8
0
100
AcDbCircle
 62
9
  6
CONTINUOUS
 10
-148.6562261494
 20
-0.0257557114
 40
163.3952171918
100
AcDbArc
 50
2.9704372978
 51
3.407351019
  0
ARC
  5
2F4
100
AcDbEntity
  8
0
100
AcDbCircle
 62
9
  6
CONTINUOUS
 10
-82.6078636851
 20
3.2217562556
 40
97.0802553412
100
AcDbArc
 50
3.086078452
 51
3.8176886403
  0
ARC
  5
2F5
100
AcDbEntity
  8
0
100
AcDbCircle
 62
9
  6
CONTINUOUS
 10
-40.5560353815
 20
7.3214158895
 40
54.5331168719
100
AcDbArc
 50
1.6564151871
 51
2.5008379982
  0
ARC
  5
2F6
100
AcDbEntity
  8
0
100
AcDbCircle
 62
7
  6
CONTINUOUS
 10
-3.7751221758
 20
-18.7830570144
 40
32.7367149873
100
AcDbArc
 50
69.8154149127
 51
70.6459610759
  0
ARC
  5
2F7
100
AcDbEntity
  8
0
100
AcDbCircle
 62
7
  6
CONTINUOUS
 10
3.6758851155
 20
2.816005634
 40
11.8443958513
100
AcDbArc
 50
25.0094271438
 51
25.1260860847
  0
ARC
  5
2F8
100
AcDbEntity
  8
0
100
AcDbCircle
 62
7
  6
CONTINUOUS
 10
6.3093759787
 20
5.4061575369
 40
8.5340734198
100
AcDbArc
 50
16.8501007552
 51
17.0201359097
  0
ARC
  5
2F9
100
AcDbEntity
  8
0
100
AcDbCircle
 62
7
  6
CONTINUOUS
 10
7.0513832624
 20
6.5091840946
 40
7.6148100129
100
AcDbArc
 50
10.7299450259
 51
10.9307382961
  0
ARC
  5
2FA
100
AcDbEntity
  8
0
100
AcDbCircle
 62
7
  6
CONTINUOUS
 10
5.5259430122
 20
6.9923746705
 40
4.7192705905
100
AcDbArc
 50
67.6043788037
 51
71.5114247032
  0
ARC
  5
2FB
100
AcDbEntity
  8
0
100
AcDbCircle
 62
7
  6
CONTINUOUS
 10
1.2671452566
 20
10.1998156547
 40
13.0
100
AcDbArc
 50
339.7288277414
 51
342.4530967739
  0
ARC
  5
2FC
100
AcDbEntity
  8
0
100
AcDbCircle
 62
7
  6
CONTINUOUS
 10
6.6528017058
 20
8.0345694918
 40
4.3902409934
100
AcDbArc
 50
55.887610195
 51
56.1982658809
  0
ARC
  5
2FD
100
AcDbEntity
  8
0
100
AcDbCircle
 62
7
  6
CONTINUOUS
 10
6.7790533647
 20
8.2212077124
 40
4.1649117106
100
AcDbArc
 50
55.7638578539
 51
55.8856649962
  0
ARC
  5
2FE
100
AcDbEntity
  8
0
100
AcDbCircle
 62
7
  6
CONTINUOUS
 10
6.7647703175
 20
9.9832757147
 40
0.8453870906
100
AcDbArc
 50
65.1463447049
 51
76.6154518304
  0
ARC
  5
2FF
100
AcDbEntity
  8
0
100
AcDbCircle
 62
7
  6
CONTINUOUS
 10
6.8993155594
 20
10.3282886594
 40
0.5858512803
100
AcDbArc
 50
169.744674286
 51
172.7561619263
  0
ARC
  5
300
100
AcDbEntity
  8
0
100
AcDbCircle
 62
7
  6
CONTINUOUS
 10
6.9194239213
 20
10.291205626
 40
0.5009062997
100
AcDbArc
 50
66.3917409343
 51
81.6825025609
  0
ARC
  5
301
100
AcDbEntity
  8
0
100
AcDbCircle
 62
7
  6
CONTINUOUS
 10
6.9197820682
 20
10.292062846
 40
0.5001074117
100
AcDbArc
 50
166.6407803317
 51
169.9996391166
  0
ARC
  5
302
100
AcDbEntity
  8
0
100
AcDbCircle
 62
7
  6
CONTINUOUS
 10
6.9196959785
 20
10.2920563984
 40
0.5000190727
100
AcDbArc
 50
81.6992463142
 51
166.6377822362
  0
ARC
  5
303
100
AcDbEntity
  8
0
100
AcDbCircle
 62
7
  6
CONTINUOUS
 10
9.4020737881
 20
7.091781984
 40
4.1235507909
100
AcDbArc
 50
75.812447394
 51
76.0613039913
  0
ARC
  5
304
100
AcDbEntity
  8
0
100
AcDbCircle
 62
7
  6
CONTINUOUS
 10
11.4934349246
 20
6.008719871
 40
3.4123554089
100
AcDbArc
 50
31.1022403911
 51
31.6189865277
  0
ARC
  5
305
100
AcDbEntity
  8
0
100
AcDbCircle
 62
7
  6
CONTINUOUS
 10
14.7943943924
 20
5.7409839993
 40
1.142
100
AcDbArc
 50
356.1276448242
 51
35.924541025
  0
ARC
  5
306
100
AcDbEntity
  8
0
100
AcDbCircle
 62
7
  6
CONTINUOUS
 10
14.3069693287
 20
6.7055486253
 40
1.1375
100
AcDbArc
 50
0.0
 51
40.0
  0
ARC
  5
307
100
AcDbEntity
  8
0
100
AcDbCircle
 62
9
  6
CONTINUOUS
 10
14.9567902311
 20
5.9295998717
 40
0.5991594585
100
AcDbArc
 50
89.9828734518
 51
104.1623709824
  0
ARC
  5
308
100
AcDbEntity
  8
0
100
AcDbCircle
 62
7
  6
CONTINUOUS
 10
14.5094444497
 20
6.7702842221
 40
0.2039751211
100
AcDbArc
 50
145.0110095298
 51
213.0478355063
  0
ARC
  5
309
100
AcDbEntity
  8
0
100
AcDbCircle
 62
7
  6
CONTINUOUS
 10
13.9641054398
 20
5.6405486253
 40
0.1871361111
100
AcDbArc
 50
92.1854050713
 51
180.0
  0
ARC
  5
30A
100
AcDbEntity
  8
0
100
AcDbCircle
 62
7
  6
CONTINUOUS
 10
13.9639692827
 20
5.6406796856
 40
0.187
100
AcDbArc
 50
92.1452489224
 51
180.0401561489
  0
ARC
  5
30B
100
AcDbEntity
  8
0
100
AcDbCircle
 62
7
  6
CONTINUOUS
 10
14.1439666549
 20
5.8285486253
 40
0.187
100
AcDbArc
 50
141.412864851
 51
180.3063960032
  0
ARC
  5
30C
100
AcDbEntity
  8
0
100
AcDbCircle
 62
7
  6
CONTINUOUS
 10
14.194694795
 20
6.5655096007
 40
0.1715245336
100
AcDbArc
 50
314.9173576842
 51
33.0478355063
  0
ARC
  5
30D
100
AcDbEntity
  8
0
100
AcDbCircle
 62
7
  6
CONTINUOUS
 10
14.3069693287
 20
6.7055486253
 40
0.1625
100
AcDbArc
 50
0.0
 51
40.0
  0
ARC
  5
30E
100
AcDbEntity
  8
0
100
AcDbCircle
 62
7
  6
CONTINUOUS
 10
14.3694693287
 20
6.7055486253
 40
0.1
100
AcDbArc
 50
314.4270040008
 51
360.0
  0
ARC
  5
30F
100
AcDbEntity
  8
0
100
AcDbCircle
 62
7
  6
CONTINUOUS
 10
14.5094693287
 20
6.5627200567
 40
0.1
100
AcDbArc
 50
134.4270040008
 51
180.0
  0
ARC
  5
310
100
AcDbEntity
  8
0
100
AcDbCircle
 62
7
  6
CONTINUOUS
 10
14.227155233
 20
6.3875486253
 40
0.04
100
AcDbArc
 50
90.0
 51
144.075458975
  0
ARC
  5
311
100
AcDbEntity
  8
0
100
AcDbCircle
 62
7
  6
CONTINUOUS
 10
14.0050943987
 20
5.6655486253
 40
0.025
100
AcDbArc
 50
183.8723551758
 51
270.0
  0
ARC
  5
312
100
AcDbEntity
  8
0
100
AcDbCircle
 62
7
  6
CONTINUOUS
 10
14.010850714
 20
7.338479337
 40
0.02
100
AcDbArc
 50
130.0
 51
220.0
  0
ARC
  5
313
100
AcDbEntity
  8
0
100
AcDbCircle
 62
7
  6
CONTINUOUS
 10
14.3001051383
 20
6.9937593376
 40
0.02
100
AcDbArc
 50
220.0
 51
310.0000000004
  0
ARC
  5
314
100
AcDbEntity
  8
0
100
AcDbCircle
 62
7
  6
CONTINUOUS
 10
11.1883820178
 20
9.6520157221
 40
5.5467962324
100
AcDbArc
 50
169.1332598324
 51
169.8370938194
  0
ARC
  5
315
100
AcDbEntity
  8
0
100
AcDbCircle
 62
7
  6
CONTINUOUS
 10
9.3205225074
 20
9.417275115
 40
2.9659149131
100
AcDbArc
 50
80.1955390652
 51
86.7593399661
  0
ARC
  5
316
100
AcDbEntity
  8
0
100
AcDbCircle
 62
7
  6
CONTINUOUS
 10
9.320797647
 20
9.4172275824
 40
2.9659149122
100
AcDbArc
 50
73.6371313642
 51
80.2009329682
  0
ARC
  5
317
100
AcDbEntity
  8
0
100
AcDbCircle
 62
7
  6
CONTINUOUS
 10
9.3204969883
 20
9.4176283099
 40
2.9656435036
100
AcDbArc
 50
53.125217471
 51
56.0166432507
  0
ARC
  5
318
100
AcDbEntity
  8
0
100
AcDbCircle
 62
7
  6
CONTINUOUS
 10
9.320648494
 20
9.417809435
 40
2.9654086303
100
AcDbArc
 50
56.017114467
 51
60.5095636073
  0
ARC
  5
319
100
AcDbEntity
  8
0
100
AcDbCircle
 62
7
  6
CONTINUOUS
 10
9.3207448129
 20
9.4179542954
 40
2.9652351227
100
AcDbArc
 50
60.5098056782
 51
61.9130693318
  0
ARC
  5
31A
100
AcDbEntity
  8
0
100
AcDbCircle
 62
7
  6
CONTINUOUS
 10
9.3207983526
 20
9.4180517301
 40
2.9651239554
100
AcDbArc
 50
61.9131003936
 51
73.6326579123
  0
ARC
  5
31B
100
AcDbEntity
  8
0
100
AcDbCircle
 62
7
  6
CONTINUOUS
 10
9.3211449434
 20
9.4185095979
 40
2.9645497011
100
AcDbArc
 50
52.8869015885
 51
53.1250145003
  0
ARC
  5
31C
100
AcDbEntity
  8
0
100
AcDbCircle
 62
7
  6
CONTINUOUS
 10
9.5786805061
 20
11.1843939092
 40
0.1426264183
100
AcDbArc
 50
62.1517353998
 51
65.8382443023
  0
ARC
  5
31D
100
AcDbEntity
  8
0
100
AcDbCircle
 62
7
  6
CONTINUOUS
 10
9.7791149202
 20
11.633223662
 40
0.9029695368
100
AcDbArc
 50
142.3731117395
 51
167.9678955892
  0
ARC
  5
31E
100
AcDbEntity
  8
0
100
AcDbCircle
 62
7
  6
CONTINUOUS
 10
9.427084963
 20
12.0920748246
 40
0.5218445911
100
AcDbArc
 50
236.0451383214
 51
237.1401436205
  0
ARC
  5
31F
100
AcDbEntity
  8
0
100
AcDbCircle
 62
7
  6
CONTINUOUS
 10
9.4599597097
 20
11.8792445777
 40
0.4999999998
100
AcDbArc
 50
86.7638097436
 51
142.3730464456
  0
ARC
  5
320
100
AcDbEntity
  8
0
100
AcDbCircle
 62
7
  6
CONTINUOUS
 10
8.8819968342
 20
11.2783114123
 40
0.459680678
100
AcDbArc
 50
55.4859192209
 51
56.630038483
  0
ARC
  5
321
100
AcDbEntity
  8
0
100
AcDbCircle
 62
7
  6
CONTINUOUS
 10
9.0616422968
 20
11.4137049588
 40
0.2601472806
100
AcDbArc
 50
56.580166402
 51
58.6167413162
  0
ARC
  5
322
100
AcDbEntity
  8
0
100
AcDbCircle
 62
7
  6
CONTINUOUS
 10
9.195857224
 20
11.2930471027
 40
0.2563677173
100
AcDbArc
 50
56.5955016316
 51
58.6702479921
  0
ARC
  5
323
100
AcDbEntity
  8
0
100
AcDbCircle
 62
7
  6
CONTINUOUS
 10
9.359549034
 20
11.3129331012
 40
0.1705968748
100
AcDbArc
 50
58.8492055491
 51
61.9337350721
  0
ARC
  5
324
100
AcDbEntity
  8
0
100
AcDbCircle
 62
7
  6
CONTINUOUS
 10
9.5332414094
 20
11.334681597
 40
0.1387031672
100
AcDbArc
 50
62.0837418859
 51
65.8230430974
  0
ARC
  5
325
100
AcDbEntity
  8
0
100
AcDbCircle
 62
7
  6
CONTINUOUS
 10
9.7108940969
 20
11.1953540873
 40
0.1342764151
100
AcDbArc
 50
65.8894890128
 51
67.1209327175
  0
ARC
  5
326
100
AcDbEntity
  8
0
100
AcDbCircle
 62
7
  6
CONTINUOUS
 10
9.6954138352
 20
11.4172541747
 40
0.1257159821
100
AcDbArc
 50
240.2488034149
 51
245.8116051896
  0
ARC
  5
327
100
AcDbEntity
  8
0
100
AcDbCircle
 62
7
  6
CONTINUOUS
 10
9.8105904351
 20
11.424353929
 40
0.1235819817
100
AcDbArc
 50
245.8909240149
 51
247.2161456087
  0
ARC
  5
328
100
AcDbEntity
  8
0
100
AcDbCircle
 62
7
  6
CONTINUOUS
 10
9.4645616258
 20
11.3097929121
 40
0.0729698784
100
AcDbArc
 50
51.573863052
 51
53.2768753392
  0
ARC
  5
329
100
AcDbEntity
  8
0
100
AcDbCircle
 62
7
  6
CONTINUOUS
 10
9.3202817482
 20
11.4843424309
 40
0.01
100
AcDbArc
 50
155.8869005304
 51
235.8869005302
  0
ARC
  5
32A
100
AcDbEntity
  8
0
100
AcDbCircle
 62
7
  6
CONTINUOUS
 10
9.4700593729
 20
11.3538975238
 40
0.01
100
AcDbArc
 50
155.8869005304
 51
235.8869005301
  0
ARC
  5
32B
100
AcDbEntity
  8
0
100
AcDbCircle
 62
7
  6
CONTINUOUS
 10
9.4549046525
 20
11.3689944085
 40
0.01
100
AcDbArc
 50
335.8869005304
 51
55.8869005311
  0
ARC
  5
32C
100
AcDbEntity
  8
0
100
AcDbCircle
 62
7
  6
CONTINUOUS
 10
9.3051270279
 20
11.4994393156
 40
0.01
100
AcDbArc
 50
335.8869005304
 51
55.8869005301
  0
ARC
  5
32D
100
AcDbEntity
  8
0
100
AcDbCircle
 62
7
  6
CONTINUOUS
 10
9.1831146884
 20
11.6062451383
 40
0.01
100
AcDbArc
 50
155.8869005304
 51
235.8869005302
  0
ARC
  5
32E
100
AcDbEntity
  8
0
100
AcDbCircle
 62
7
  6
CONTINUOUS
 10
9.167959968
 20
11.621342023
 40
0.01
100
AcDbArc
 50
335.8869005304
 51
55.886900531
  0
ARC
  5
32F
100
AcDbEntity
  8
0
100
AcDbCircle
 62
7
  6
CONTINUOUS
 10
9.0291335421
 20
11.7395374452
 40
0.01
100
AcDbArc
 50
155.8869005304
 51
235.8869005311
  0
ARC
  5
330
100
AcDbEntity
  8
0
100
AcDbCircle
 62
7
  6
CONTINUOUS
 10
9.0130708356
 20
11.7526057459
 40
0.01
100
AcDbArc
 50
335.8869005304
 51
65.8869005304
  0
ARC
  5
331
100
AcDbEntity
  8
0
100
AcDbCircle
 62
7
  6
CONTINUOUS
 10
10.4644705347
 20
10.2917763425
 40
1.2058536204
100
AcDbArc
 50
65.6867030172
 51
71.1883902386
  0
ARC
  5
332
100
AcDbEntity
  8
0
100
AcDbCircle
 62
9
  6
CONTINUOUS
 10
10.4662430028
 20
10.2966521082
 40
1.200644959
100
AcDbArc
 50
54.4852808593
 51
57.8293721095
  0
ARC
  5
333
100
AcDbEntity
  8
0
100
AcDbCircle
 62
7
  6
CONTINUOUS
 10
10.4665794745
 20
10.2971253461
 40
1.200087011
100
AcDbArc
 50
45.4813092953
 51
54.4852383921
  0
ARC
  5
334
100
AcDbEntity
  8
0
100
AcDbCircle
 62
7
  6
CONTINUOUS
 10
10.7556955936
 20
10.7045305351
 40
0.3189028996
100
AcDbArc
 50
37.9119403651
 51
48.7791229472
  0
ARC
  5
335
100
AcDbEntity
  8
0
100
AcDbCircle
 62
7
  6
CONTINUOUS
 10
10.0843561612
 20
10.8369952968
 40
0.3102659097
100
AcDbArc
 50
73.8223650416
 51
75.7428117817
  0
ARC
  5
336
100
AcDbEntity
  8
0
100
AcDbCircle
 62
7
  6
CONTINUOUS
 10
10.2541889608
 20
10.8877474044
 40
0.2529300405
100
AcDbArc
 50
73.6795238586
 51
76.0300987351
  0
ARC
  5
337
100
AcDbEntity
  8
0
100
AcDbCircle
 62
7
  6
CONTINUOUS
 10
10.0146223444
 20
11.0028111163
 40
0.1861300308
100
AcDbArc
 50
70.4319546464
 51
73.6206852326
  0
ARC
  5
338
100
AcDbEntity
  8
0
100
AcDbCircle
 62
7
  6
CONTINUOUS
 10
9.8791322987
 20
11.179834793
 40
0.1387282021
100
AcDbArc
 50
65.9541617111
 51
70.1979090077
  0
ARC
  5
339
100
AcDbEntity
  8
0
100
AcDbCircle
 62
7
  6
CONTINUOUS
 10
9.8831653326
 20
11.1172765787
 40
0.1351255607
100
AcDbArc
 50
70.0281678631
 51
73.4308411455
  0
ARC
  5
33A
100
AcDbEntity
  8
0
100
AcDbCircle
 62
7
  6
CONTINUOUS
 10
10.1326210578
 20
11.1207425874
 40
0.01
100
AcDbArc
 50
255.8869005307
 51
335.8869005304
  0
ARC
  5
33B
100
AcDbEntity
  8
0
100
AcDbCircle
 62
7
  6
CONTINUOUS
 10
9.956912091
 20
11.1442978761
 40
0.01
100
AcDbArc
 50
75.8869005311
 51
155.8869005304
  0
ARC
  5
33C
100
AcDbEntity
  8
0
100
AcDbCircle
 62
7
  6
CONTINUOUS
 10
9.9355571795
 20
11.1455425573
 40
0.01
100
AcDbArc
 50
255.8869005307
 51
335.8869005304
  0
ARC
  5
33D
100
AcDbEntity
  8
0
100
AcDbCircle
 62
7
  6
CONTINUOUS
 10
10.1539759693
 20
11.1194979062
 40
0.01
100
AcDbArc
 50
75.8869005297
 51
155.8869005304
  0
ARC
  5
33E
100
AcDbEntity
  8
0
100
AcDbCircle
 62
7
  6
CONTINUOUS
 10
10.314913277
 20
11.0996565923
 40
0.01
100
AcDbArc
 50
255.8869005307
 51
335.8869005304
  0
ARC
  5
33F
100
AcDbEntity
  8
0
100
AcDbCircle
 62
7
  6
CONTINUOUS
 10
10.3362681885
 20
11.0984119111
 40
0.01
100
AcDbArc
 50
75.8869005311
 51
155.8869005304
  0
ARC
  5
340
100
AcDbEntity
  8
0
100
AcDbCircle
 62
7
  6
CONTINUOUS
 10
10.5169010416
 20
11.0736186308
 40
0.01
100
AcDbArc
 50
255.8869005298
 51
335.8869005304
  0
ARC
  5
341
100
AcDbEntity
  8
0
100
AcDbCircle
 62
7
  6
CONTINUOUS
 10
10.537347967
 20
11.0703453655
 40
0.01
100
AcDbArc
 50
65.8869005325
 51
155.8869005304
  0
ARC
  5
342
100
AcDbEntity
  8
0
100
AcDbCircle
 62
7
  6
CONTINUOUS
 10
9.824367803
 20
11.5213031666
 40
0.3243652792
100
AcDbArc
 50
250.3072763711
 51
258.8201933457
  0
ARC
  5
343
100
AcDbEntity
  8
0
100
AcDbCircle
 62
7
  6
CONTINUOUS
 10
9.824367803
 20
11.5213031666
 40
0.3243652792
100
AcDbArc
 50
233.0199728894
 51
241.4665246899
  0
ARC
  5
344
100
AcDbEntity
  8
0
100
AcDbCircle
 62
7
  6
CONTINUOUS
 10
10.3913929559
 20
11.3872374031
 40
0.2690713534
100
AcDbArc
 50
253.3801804292
 51
255.2692161908
  0
ARC
  5
345
100
AcDbEntity
  8
0
100
AcDbCircle
 62
7
  6
CONTINUOUS
 10
9.9742763044
 20
11.4222810612
 40
0.1295436599
100
AcDbArc
 50
245.9481326857
 51
251.6255332019
  0
ARC
  5
346
100
AcDbEntity
  8
0
100
AcDbCircle
 62
7
  6
CONTINUOUS
 10
14.9493741703
 20
9.6255774689
 40
1.0
100
AcDbArc
 50
90.0
 51
124.9180935011
  0
ARC
  5
347
100
AcDbEntity
  8
0
100
AcDbCircle
 62
7
  6
CONTINUOUS
 10
13.7063934461
 20
9.5796736481
 40
0.938
100
AcDbArc
 50
13.6754181611
 51
44.3650233311
  0
ARC
  5
348
100
AcDbEntity
  8
0
100
AcDbCircle
 62
7
  6
CONTINUOUS
 10
14.8987598924
 20
8.2533307736
 40
0.2629110461
100
AcDbArc
 50
94.455300886
 51
95.1475668543
  0
ARC
  5
349
100
AcDbEntity
  8
0
100
AcDbCircle
 62
9
  6
CONTINUOUS
 10
14.4728586164
 20
8.0125716527
 40
0.240142859
100
AcDbArc
 50
343.6212951042
 51
347.1768726207
  0
ARC
  5
34A
100
AcDbEntity
  8
0
100
AcDbCircle
 62
7
  6
CONTINUOUS
 10
14.8968392269
 20
8.2796340995
 40
0.2365380377
100
AcDbArc
 50
92.6362814611
 51
94.486406545
  0
ARC
  5
34B
100
AcDbEntity
  8
0
100
AcDbCircle
 62
7
  6
CONTINUOUS
 10
14.8771019542
 20
8.3024207059
 40
0.2127420407
100
AcDbArc
 50
90.7205232989
 51
93.4489647543
  0
ARC
  5
34C
100
AcDbEntity
  8
0
100
AcDbCircle
 62
7
  6
CONTINUOUS
 10
14.5417102772
 20
8.0322673023
 40
0.1924129997
100
AcDbArc
 50
64.2759970231
 51
67.7313358587
  0
ARC
  5
34D
100
AcDbEntity
  8
0
100
AcDbCircle
 62
7
  6
CONTINUOUS
 10
14.8764810909
 20
8.3353374514
 40
0.1798202095
100
AcDbArc
 50
89.0786640296
 51
90.6546053296
  0
ARC
  5
34E
100
AcDbEntity
  8
0
100
AcDbCircle
 62
7
  6
CONTINUOUS
 10
14.6334113091
 20
7.9837834641
 40
0.1764937079
100
AcDbArc
 50
217.4324264536
 51
217.6436977207
  0
ARC
  5
34F
100
AcDbEntity
  8
0
100
AcDbCircle
 62
9
  6
CONTINUOUS
 10
14.6194532322
 20
7.9770565239
 40
0.1607014686
100
AcDbArc
 50
218.5583362547
 51
218.993945657
  0
ARC
  5
350
100
AcDbEntity
  8
0
100
AcDbCircle
 62
9
  6
CONTINUOUS
 10
14.6161891089
 20
7.9743934943
 40
0.156488872
100
AcDbArc
 50
218.9881503187
 51
221.7233544266
  0
ARC
  5
351
100
AcDbEntity
  8
0
100
AcDbCircle
 62
7
  6
CONTINUOUS
 10
14.6201074602
 20
7.9264455094
 40
0.1484983341
100
AcDbArc
 50
203.1986908619
 51
203.3882129063
  0
ARC
  5
352
100
AcDbEntity
  8
0
100
AcDbCircle
 62
7
  6
CONTINUOUS
 10
14.6211388542
 20
8.1024932192
 40
0.1200006793
100
AcDbArc
 50
115.9521616031
 51
116.9482272609
  0
ARC
  5
353
100
AcDbEntity
  8
0
100
AcDbCircle
 62
9
  6
CONTINUOUS
 10
14.5837607758
 20
8.1004078521
 40
0.1031496789
100
AcDbArc
 50
110.344756404
 51
112.558863276
  0
ARC
  5
354
100
AcDbEntity
  8
0
100
AcDbCircle
 62
9
  6
CONTINUOUS
 10
14.5970267262
 20
8.1141579934
 40
0.0983906341
100
AcDbArc
 50
80.3593869811
 51
89.9877564549
  0
ARC
  5
355
100
AcDbEntity
  8
0
100
AcDbCircle
 62
7
  6
CONTINUOUS
 10
14.5970477839
 20
8.1145414954
 40
0.0980071299
100
AcDbArc
 50
90.0000190794
 51
90.8742157269
  0
ARC
  5
356
100
AcDbEntity
  8
0
100
AcDbCircle
 62
9
  6
CONTINUOUS
 10
14.5813782722
 20
8.1098808026
 40
0.0933457587
100
AcDbArc
 50
90.0000190546
 51
90.8742157021
  0
ARC
  5
357
100
AcDbEntity
  8
0
100
AcDbCircle
 62
7
  6
CONTINUOUS
 10
14.1960014491
 20
7.6974608926
 40
0.0714157073
100
AcDbArc
 50
351.2053959291
 51
352.6018809868
  0
ARC
  5
358
100
AcDbEntity
  8
0
100
AcDbCircle
 62
7
  6
CONTINUOUS
 10
14.3452535836
 20
7.8226983037
 40
0.0714157073
100
AcDbArc
 50
267.398119028
 51
268.7946040861
  0
ARC
  5
359
100
AcDbEntity
  8
0
100
AcDbCircle
 62
7
  6
CONTINUOUS
 10
14.2700107108
 20
7.7584219473
 40
0.0702291569
100
AcDbArc
 50
267.3981560168
 51
268.8185680388
  0
ARC
  5
35A
100
AcDbEntity
  8
0
100
AcDbCircle
 62
7
  6
CONTINUOUS
 10
14.2723670909
 20
7.760399185
 40
0.0702291568
100
AcDbArc
 50
351.1814319531
 51
352.601843976
  0
ARC
  5
35B
100
AcDbEntity
  8
0
100
AcDbCircle
 62
7
  6
CONTINUOUS
 10
14.1244292968
 20
7.6339053121
 40
0.0698932016
100
AcDbArc
 50
353.0811285541
 51
354.4587657575
  0
ARC
  5
35C
100
AcDbEntity
  8
0
100
AcDbCircle
 62
7
  6
CONTINUOUS
 10
14.4202719859
 20
7.8821468034
 40
0.0698932016
100
AcDbArc
 50
265.5412342626
 51
266.9188714662
  0
ARC
  5
35D
100
AcDbEntity
  8
0
100
AcDbCircle
 62
7
  6
CONTINUOUS
 10
14.0610474
 20
7.573698783
 40
0.0670848481
100
AcDbArc
 50
357.0961865599
 51
358.4371857341
  0
ARC
  5
35E
100
AcDbEntity
  8
0
100
AcDbCircle
 62
7
  6
CONTINUOUS
 10
14.4905699934
 20
7.9341110322
 40
0.0670848477
100
AcDbArc
 50
261.5628142491
 51
262.9038134325
  0
ARC
  5
35F
100
AcDbEntity
  8
0
100
AcDbCircle
 62
7
  6
CONTINUOUS
 10
14.0070487902
 20
7.520008723
 40
0.0665075788
100
AcDbArc
 50
3.831765764
 51
5.0627548785
  0
ARC
  5
360
100
AcDbEntity
  8
0
100
AcDbCircle
 62
7
  6
CONTINUOUS
 10
14.552821141
 20
7.9779661012
 40
0.0665075788
100
AcDbArc
 50
254.9372451203
 51
256.1682342343
  0
ARC
  5
361
100
AcDbEntity
  8
0
100
AcDbCircle
 62
7
  6
CONTINUOUS
 10
14.1991507559
 20
7.6932641791
 40
0.0663085756
100
AcDbArc
 50
265.5412907638
 51
266.9944076109
  0
ARC
  5
362
100
AcDbEntity
  8
0
100
AcDbCircle
 62
7
  6
CONTINUOUS
 10
14.3488396683
 20
7.8188680903
 40
0.0663085756
100
AcDbArc
 50
353.0055923826
 51
354.4587092294
  0
ARC
  5
363
100
AcDbEntity
  8
0
100
AcDbCircle
 62
7
  6
CONTINUOUS
 10
14.13703895
 20
7.6320828203
 40
0.0608724583
100
AcDbArc
 50
261.5626797848
 51
263.0421641373
  0
ARC
  5
364
100
AcDbEntity
  8
0
100
AcDbCircle
 62
7
  6
CONTINUOUS
 10
14.4198771466
 20
7.8694122468
 40
0.0608724582
100
AcDbArc
 50
356.9578358488
 51
358.4373202018
  0
ARC
  5
365
100
AcDbEntity
  8
0
100
AcDbCircle
 62
7
  6
CONTINUOUS
 10
14.4792710158
 20
7.9087580073
 40
0.0564867931
100
AcDbArc
 50
3.612228576
 51
5.0635889613
  0
ARC
  5
366
100
AcDbEntity
  8
0
100
AcDbCircle
 62
7
  6
CONTINUOUS
 10
14.0879773029
 20
7.5804235971
 40
0.0564867931
100
AcDbArc
 50
254.9364110178
 51
256.3877714038
  0
ARC
  5
367
100
AcDbEntity
  8
0
100
AcDbCircle
 62
7
  6
CONTINUOUS
 10
14.5694693287
 20
8.4373482783
 40
0.03
100
AcDbArc
 50
104.7630312683
 51
169.8874063134
  0
ARC
  5
368
100
AcDbEntity
  8
0
100
AcDbCircle
 62
7
  6
CONTINUOUS
 10
14.7309324905
 20
7.9426996901
 40
0.02
100
AcDbArc
 50
40.0
 51
130.0
  0
ARC
  5
369
100
AcDbEntity
  8
0
100
AcDbCircle
 62
7
  6
CONTINUOUS
 10
14.6634693287
 20
9.8125486253
 40
0.047
100
AcDbArc
 50
193.6754181615
 51
270.0
  0
ARC
  5
36A
100
AcDbEntity
  8
0
100
AcDbCircle
 62
7
  6
CONTINUOUS
 10
14.2507835645
 20
21.4143853164
 40
10.5435766762
100
AcDbArc
 50
250.3743295946
 51
251.2020062713
  0
ARC
  5
36B
100
AcDbEntity
  8
0
100
AcDbCircle
 62
9
  6
CONTINUOUS
 10
14.2470316941
 20
21.4014658763
 40
10.5300676027
100
AcDbArc
 50
249.8955604247
 51
250.1327230645
  0
ARC
  5
36C
100
AcDbEntity
  8
0
100
AcDbCircle
 62
9
  6
CONTINUOUS
 10
14.2448109132
 20
21.397201126
 40
10.52538563
100
AcDbArc
 50
250.1362404558
 51
250.3735344519
  0
ARC
  5
36D
100
AcDbEntity
  8
0
100
AcDbCircle
 62
9
  6
CONTINUOUS
 10
14.2440539559
 20
21.3957887328
 40
10.5238285362
100
AcDbArc
 50
245.8873693751
 51
249.9002198043
  0
ARC
  5
36E
100
AcDbEntity
  8
0
100
AcDbCircle
 62
7
  6
CONTINUOUS
 10
11.1344255666
 20
19.4254468714
 40
9.5588660925
100
AcDbArc
 50
245.1679644962
 51
245.4579252527
  0
ARC
  5
36F
100
AcDbEntity
  8
0
100
AcDbCircle
 62
7
  6
CONTINUOUS
 10
14.2180258588
 20
12.4352728671
 40
2.75
100
AcDbArc
 50
250.3809604242
 51
270.8114085621
  0
ARC
  5
370
100
AcDbEntity
  8
0
100
AcDbCircle
 62
7
  6
CONTINUOUS
 10
14.9569693287
 20
6.9668786098
 40
1.5506700155
100
AcDbArc
 50
75.2369687319
 51
86.5742389704
  0
ARC
  5
371
100
AcDbEntity
  8
0
100
AcDbCircle
 62
7
  6
CONTINUOUS
 10
14.9569693287
 20
6.9668786098
 40
1.5506700155
100
AcDbArc
 50
87.3749745646
 51
92.6250083507
  0
ARC
  5
372
100
AcDbEntity
  8
0
100
AcDbCircle
 62
7
  6
CONTINUOUS
 10
14.9569693287
 20
6.9668786098
 40
1.5506700155
100
AcDbArc
 50
93.4257610296
 51
104.7630312681
  0
ARC
  5
373
100
AcDbEntity
  8
0
100
AcDbCircle
 62
7
  6
CONTINUOUS
 10
15.119544265
 20
5.7409839993
 40
1.142
100
AcDbArc
 50
144.075458975
 51
183.8723551758
  0
ARC
  5
374
100
AcDbEntity
  8
0
100
AcDbCircle
 62
7
  6
CONTINUOUS
 10
15.0169291802
 20
7.7381019227
 40
0.7771196064
100
AcDbArc
 50
85.5504910359
 51
86.0164661756
  0
ARC
  5
375
100
AcDbEntity
  8
0
100
AcDbCircle
 62
7
  6
CONTINUOUS
 10
16.0095082308
 20
7.3515519538
 40
0.625
100
AcDbArc
 50
184.8096995456
 51
214.9889904701
  0
ARC
  5
376
100
AcDbEntity
  8
0
100
AcDbCircle
 62
9
  6
CONTINUOUS
 10
14.9571492331
 20
5.9296063751
 40
0.5991529554
100
AcDbArc
 50
75.8375516717
 51
90.0172038941
  0
ARC
  5
377
100
AcDbEntity
  8
0
100
AcDbCircle
 62
9
  6
CONTINUOUS
 10
14.957024676
 20
5.9954923519
 40
0.4979123005
100
AcDbArc
 50
90.0063689347
 51
105.5436985729
  0
ARC
  5
378
100
AcDbEntity
  8
0
100
AcDbCircle
 62
9
  6
CONTINUOUS
 10
14.9569712157
 20
5.995895371
 40
0.4975073256
100
AcDbArc
 50
74.4502141857
 51
90.0002173213
  0
ARC
  5
379
100
AcDbEntity
  8
0
100
AcDbCircle
 62
7
  6
CONTINUOUS
 10
15.4044942076
 20
6.7702842221
 40
0.2039751211
100
AcDbArc
 50
326.9521644937
 51
34.9889904702
  0
ARC
  5
37A
100
AcDbEntity
  8
0
100
AcDbCircle
 62
7
  6
CONTINUOUS
 10
15.9498332176
 20
5.6405486253
 40
0.1871361111
100
AcDbArc
 50
0.0
 51
87.8145949287
  0
ARC
  5
37B
100
AcDbEntity
  8
0
100
AcDbCircle
 62
7
  6
CONTINUOUS
 10
15.9499693746
 20
5.6406796856
 40
0.187
100
AcDbArc
 50
359.9598438511
 51
87.8547510776
  0
ARC
  5
37C
100
AcDbEntity
  8
0
100
AcDbCircle
 62
7
  6
CONTINUOUS
 10
15.7699720025
 20
5.8285486253
 40
0.187
100
AcDbArc
 50
359.6936039968
 51
38.587135149
  0
ARC
  5
37D
100
AcDbEntity
  8
0
100
AcDbCircle
 62
7
  6
CONTINUOUS
 10
15.7192438623
 20
6.5655096007
 40
0.1715245336
100
AcDbArc
 50
146.9521644937
 51
225.0826423158
  0
ARC
  5
37E
100
AcDbEntity
  8
0
100
AcDbCircle
 62
7
  6
CONTINUOUS
 10
15.5444693287
 20
6.7055486253
 40
0.1
100
AcDbArc
 50
180.0
 51
225.5729959992
  0
ARC
  5
37F
100
AcDbEntity
  8
0
100
AcDbCircle
 62
7
  6
CONTINUOUS
 10
15.4044693287
 20
6.5627200567
 40
0.1
100
AcDbArc
 50
0.0
 51
45.5729959992
  0
ARC
  5
380
100
AcDbEntity
  8
0
100
AcDbCircle
 62
9
  6
CONTINUOUS
 10
15.3169078326
 20
7.9189900757
 40
0.0984414404
100
AcDbArc
 50
260.6117574659
 51
269.9901482536
  0
ARC
  5
381
100
AcDbEntity
  8
0
100
AcDbCircle
 62
7
  6
CONTINUOUS
 10
15.6867834244
 20
6.3875486253
 40
0.04
100
AcDbArc
 50
35.924541025
 51
90.0
  0
ARC
  5
382
100
AcDbEntity
  8
0
100
AcDbCircle
 62
7
  6
CONTINUOUS
 10
15.3558182172
 20
7.2965486253
 40
0.031
100
AcDbArc
 50
4.8096995456
 51
90.0
  0
ARC
  5
383
100
AcDbEntity
  8
0
100
AcDbCircle
 62
7
  6
CONTINUOUS
 10
15.9088442586
 20
5.6655486253
 40
0.025
100
AcDbArc
 50
270.0
 51
356.1276448242
  0
ARC
  5
384
100
AcDbEntity
  8
0
100
AcDbCircle
 62
7
  6
CONTINUOUS
 10
15.0201869149
 20
7.5979796907
 40
0.02
100
AcDbArc
 50
310.0000000004
 51
40.0
  0
ARC
  5
385
100
AcDbEntity
  8
0
100
AcDbCircle
 62
7
  6
CONTINUOUS
 10
15.68526811
 20
8.254630441
 40
1.3600000006
100
AcDbArc
 50
199.4751147733
 51
202.5744557094
  0
ARC
  5
386
100
AcDbEntity
  8
0
100
AcDbCircle
 62
9
  6
CONTINUOUS
 10
15.4554767769
 20
8.0165486138
 40
0.2771787999
100
AcDbArc
 50
179.9999976147
 51
180.4371261493
  0
ARC
  5
387
100
AcDbEntity
  8
0
100
AcDbCircle
 62
7
  6
CONTINUOUS
 10
15.0149068106
 20
8.2501399079
 40
0.2661133853
100
AcDbArc
 50
84.8492043001
 51
85.5396971875
  0
ARC
  5
388
100
AcDbEntity
  8
0
100
AcDbCircle
 62
9
  6
CONTINUOUS
 10
15.464554928
 20
8.0165486141
 40
0.2639957463
100
AcDbArc
 50
179.9999975765
 51
180.437126111
  0
ARC
  5
389
100
AcDbEntity
  8
0
100
AcDbCircle
 62
7
  6
CONTINUOUS
 10
15.1935682205
 20
8.0746930059
 40
0.253847799
100
AcDbArc
 50
12.8299663287
 51
14.7599971037
  0
ARC
  5
38A
100
AcDbEntity
  8
0
100
AcDbCircle
 62
7
  6
CONTINUOUS
 10
15.1977749925
 20
7.9573748873
 40
0.2495176181
100
AcDbArc
 50
345.290708801
 51
347.2679307786
  0
ARC
  5
38B
100
AcDbEntity
  8
0
100
AcDbCircle
 62
7
  6
CONTINUOUS
 10
15.0167656182
 20
8.2743664857
 40
0.2418156243
100
AcDbArc
 50
85.5323797012
 51
87.3383177241
  0
ARC
  5
38C
100
AcDbEntity
  8
0
100
AcDbCircle
 62
7
  6
CONTINUOUS
 10
15.0181529052
 20
8.3015975376
 40
0.2145495613
100
AcDbArc
 50
87.3706906418
 51
88.5406930931
  0
ARC
  5
38D
100
AcDbEntity
  8
0
100
AcDbCircle
 62
7
  6
CONTINUOUS
 10
15.018420005
 20
8.3084500195
 40
0.2066918927
100
AcDbArc
 50
87.3483741835
 51
89.0188137607
  0
ARC
  5
38E
100
AcDbEntity
  8
0
100
AcDbCircle
 62
7
  6
CONTINUOUS
 10
15.0370631773
 20
8.3088472257
 40
0.2063134302
100
AcDbArc
 50
86.510069342
 51
89.2050272292
  0
ARC
  5
38F
100
AcDbEntity
  8
0
100
AcDbCircle
 62
7
  6
CONTINUOUS
 10
15.2616724878
 20
8.0368566099
 40
0.1991102689
100
AcDbArc
 50
28.8646433325
 51
30.5672686411
  0
ARC
  5
390
100
AcDbEntity
  8
0
100
AcDbCircle
 62
7
  6
CONTINUOUS
 10
15.2622964431
 20
7.9958839232
 40
0.198391648
100
AcDbArc
 50
329.5624192867
 51
331.1172563191
  0
ARC
  5
391
100
AcDbEntity
  8
0
100
AcDbCircle
 62
7
  6
CONTINUOUS
 10
15.654782963
 20
8.0397899998
 40
0.1972171651
100
AcDbArc
 50
149.6562518022
 51
150.1331956902
  0
ARC
  5
392
100
AcDbEntity
  8
0
100
AcDbCircle
 62
7
  6
CONTINUOUS
 10
15.6546105169
 20
7.9932087145
 40
0.1970185763
100
AcDbArc
 50
209.9861420111
 51
210.3183412179
  0
ARC
  5
393
100
AcDbEntity
  8
0
100
AcDbCircle
 62
7
  6
CONTINUOUS
 10
15.2649778711
 20
7.9943128264
 40
0.1952838536
100
AcDbArc
 50
328.9408333249
 51
329.561292901
  0
ARC
  5
394
100
AcDbEntity
  8
0
100
AcDbCircle
 62
7
  6
CONTINUOUS
 10
15.265267729
 20
8.0389582922
 40
0.1949458398
100
AcDbArc
 50
30.5727768529
 51
31.1487014575
  0
ARC
  5
395
100
AcDbEntity
  8
0
100
AcDbCircle
 62
7
  6
CONTINUOUS
 10
15.3724147424
 20
8.0012524283
 40
0.1928745903
100
AcDbArc
 50
244.1114460354
 51
247.7333524674
  0
ARC
  5
396
100
AcDbEntity
  8
0
100
AcDbCircle
 62
9
  6
CONTINUOUS
 10
15.2699250286
 20
8.039429493
 40
0.1903853215
100
AcDbArc
 50
29.2402441065
 51
29.4172913338
  0
ARC
  5
397
100
AcDbEntity
  8
0
100
AcDbCircle
 62
9
  6
CONTINUOUS
 10
15.2707692516
 20
7.9931935668
 40
0.1894170501
100
AcDbArc
 50
330.0177845113
 51
330.6994444602
  0
ARC
  5
398
100
AcDbEntity
  8
0
100
AcDbCircle
 62
9
  6
CONTINUOUS
 10
15.2710950511
 20
8.0400912437
 40
0.1890411252
100
AcDbArc
 50
29.416760245
 51
30.0803027355
  0
ARC
  5
399
100
AcDbEntity
  8
0
100
AcDbCircle
 62
7
  6
CONTINUOUS
 10
15.3702842953
 20
8.0367414984
 40
0.1875359234
100
AcDbArc
 50
112.2791707904
 51
114.6362309351
  0
ARC
  5
39A
100
AcDbEntity
  8
0
100
AcDbCircle
 62
9
  6
CONTINUOUS
 10
15.2735038906
 20
8.0414892656
 40
0.186255992
100
AcDbArc
 50
30.0795646915
 51
31.4743420442
  0
ARC
  5
39B
100
AcDbEntity
  8
0
100
AcDbCircle
 62
9
  6
CONTINUOUS
 10
15.2737330811
 20
7.9914721653
 40
0.1859896009
100
AcDbArc
 50
328.6808407104
 51
330.0208424715
  0
ARC
  5
39C
100
AcDbEntity
  8
0
100
AcDbCircle
 62
7
  6
CONTINUOUS
 10
15.0374544859
 20
8.3364604546
 40
0.1786974302
100
AcDbArc
 50
89.2076411992
 51
90.7266721771
  0
ARC
  5
39D
100
AcDbEntity
  8
0
100
AcDbCircle
 62
9
  6
CONTINUOUS
 10
15.3001716676
 20
7.9722932578
 40
0.1532833056
100
AcDbArc
 50
318.4624579152
 51
319.3474544186
  0
ARC
  5
39E
100
AcDbEntity
  8
0
100
AcDbCircle
 62
9
  6
CONTINUOUS
 10
15.3006343774
 20
8.0612142147
 40
0.1526649399
100
AcDbArc
 50
41.1231496706
 51
41.6515557763
  0
ARC
  5
39F
100
AcDbEntity
  8
0
100
AcDbCircle
 62
7
  6
CONTINUOUS
 10
15.2927849975
 20
8.1024626252
 40
0.1200347048
100
AcDbArc
 50
63.0165669964
 51
64.0315262143
  0
ARC
  5
3A0
100
AcDbEntity
  8
0
100
AcDbCircle
 62
7
  6
CONTINUOUS
 10
15.2928051704
 20
7.9305931694
 40
0.1199885633
100
AcDbArc
 50
295.9521085298
 51
296.9310627829
  0
ARC
  5
3A1
100
AcDbEntity
  8
0
100
AcDbCircle
 62
9
  6
CONTINUOUS
 10
15.3169289372
 20
8.1138001528
 40
0.0987484684
100
AcDbArc
 50
90.0220664227
 51
100.4339229263
  0
ARC
  5
3A2
100
AcDbEntity
  8
0
100
AcDbCircle
 62
7
  6
CONTINUOUS
 10
15.3444693287
 20
8.4373482783
 40
0.03
100
AcDbArc
 50
10.1125936866
 51
75.2369687317
  0
ARC
  5
3A3
100
AcDbEntity
  8
0
100
AcDbCircle
 62
7
  6
CONTINUOUS
 10
14.964564487
 20
9.6255774689
 40
1.0
100
AcDbArc
 50
55.0819064989
 51
90.0
  0
ARC
  5
3A4
100
AcDbEntity
  8
0
100
AcDbCircle
 62
7
  6
CONTINUOUS
 10
15.2504693287
 20
9.8125486253
 40
0.047
100
AcDbArc
 50
270.0
 51
346.3245818385
  0
ARC
  5
3A5
100
AcDbEntity
  8
0
100
AcDbCircle
 62
7
  6
CONTINUOUS
 10
16.4371082176
 20
8.0165486253
 40
0.9451388889
100
AcDbArc
 50
189.3556020554
 51
192.5269812287
  0
ARC
  5
3A6
100
AcDbEntity
  8
0
100
AcDbCircle
 62
7
  6
CONTINUOUS
 10
16.4371082176
 20
8.0165486253
 40
0.9451388889
100
AcDbArc
 50
167.4730187713
 51
170.6558033147
  0
ARC
  5
3A7
100
AcDbEntity
  8
0
100
AcDbCircle
 62
7
  6
CONTINUOUS
 10
15.7931230014
 20
8.0165480064
 40
0.2750000428
100
AcDbArc
 50
215.7908132717
 51
144.2092639667
  0
ARC
  5
3A8
100
AcDbEntity
  8
0
100
AcDbCircle
 62
7
  6
CONTINUOUS
 10
15.7930593926
 20
8.0166263419
 40
0.2748998995
100
AcDbArc
 50
121.1007564958
 51
129.1796766309
  0
ARC
  5
3A9
100
AcDbEntity
  8
0
100
AcDbCircle
 62
7
  6
CONTINUOUS
 10
15.7930093762
 20
8.0163882341
 40
0.2748041338
100
AcDbArc
 50
239.0325325156
 51
243.5505255438
  0
ARC
  5
3AA
100
AcDbEntity
  8
0
100
AcDbCircle
 62
7
  6
CONTINUOUS
 10
15.7930997836
 20
8.0163392673
 40
0.2747890875
100
AcDbArc
 50
261.7885820096
 51
266.8103943274
  0
ARC
  5
3AB
100
AcDbEntity
  8
0
100
AcDbCircle
 62
7
  6
CONTINUOUS
 10
15.793010105
 20
8.0161707054
 40
0.2746053598
100
AcDbArc
 50
250.6337611606
 51
255.5234637988
  0
ARC
  5
3AC
100
AcDbEntity
  8
0
100
AcDbCircle
 62
7
  6
CONTINUOUS
 10
15.7924354773
 20
8.0173372056
 40
0.2739541065
100
AcDbArc
 50
132.3382270209
 51
132.9693287055
  0
ARC
  5
3AD
100
AcDbEntity
  8
0
100
AcDbCircle
 62
7
  6
CONTINUOUS
 10
15.7216902034
 20
8.0165485557
 40
0.2685397182
100
AcDbArc
 50
179.80203817
 51
180.19769707
  0
ARC
  5
3AE
100
AcDbEntity
  8
0
100
AcDbCircle
 62
7
  6
CONTINUOUS
 10
16.2075452112
 20
9.5796736481
 40
0.938
100
AcDbArc
 50
135.6349766689
 51
166.3245818389
  0
ARC
  5
3AF
100
AcDbEntity
  8
0
100
AcDbCircle
 62
9
  6
CONTINUOUS
 10
27.8960657981
 20
7.6593485049
 40
21.7515490584
100
AcDbArc
 50
172.7558724571
 51
173.0173784439
  0
ARC
  5
3B0
100
AcDbEntity
  8
0
100
AcDbCircle
 62
7
  6
CONTINUOUS
 10
28.6467934007
 20
10.1998156547
 40
13.0
100
AcDbArc
 50
190.8290989105
 51
200.2712184445
  0
ARC
  5
3B1
100
AcDbEntity
  8
0
100
AcDbCircle
 62
7
  6
CONTINUOUS
 10
28.6467934007
 20
10.1998156547
 40
13.0
100
AcDbArc
 50
182.2671554514
 51
188.4506092736
  0
ARC
  5
3B2
100
AcDbEntity
  8
0
100
AcDbCircle
 62
7
  6
CONTINUOUS
 10
21.0475819064
 20
17.4323637501
 40
11.963015293
100
AcDbArc
 50
234.8740115477
 51
235.0474484878
  0
ARC
  5
3B3
100
AcDbEntity
  8
0
100
AcDbCircle
 62
7
  6
CONTINUOUS
 10
17.971245175
 20
15.1916278241
 40
8.5340737187
100
AcDbArc
 50
242.9798640539
 51
243.1498992023
  0
ARC
  5
3B4
100
AcDbEntity
  8
0
100
AcDbCircle
 62
7
  6
CONTINUOUS
 10
16.7561277313
 20
14.6524316161
 40
7.6148100464
100
AcDbArc
 50
249.0692616754
 51
249.2700549447
  0
ARC
  5
3B5
100
AcDbEntity
  8
0
100
AcDbCircle
 62
7
  6
CONTINUOUS
 10
180.7533293463
 20
479.6282062829
 40
498.7371414561
100
AcDbArc
 50
249.6906437589
 51
250.1325889094
  0
ARC
  5
3B6
100
AcDbEntity
  8
0
100
AcDbCircle
 62
7
  6
CONTINUOUS
 10
180.7533293463
 20
479.6282062829
 40
498.7371414561
100
AcDbArc
 50
250.357367756
 51
250.3809141546
  0
LINE
  5
3B7
100
AcDbEntity
  8
0
100
AcDbLine
 62
7
  6
CONTINUOUS
 10
14.3580357613
 20
7.6559103285
 11
14.3596326235
 21
7.6572511994
  0
SPLINE
  5
3B8
100
AcDbEntity
  8
0
100
AcDbSpline
 62
9
  6
CONTINUOUS
 70
0
 71
3
 72
12
 73
8
 74
0
 42
0.0000001
 43
0.0000001
 44
0.0000000001
 40
0.0
 40
0.0
 40
0.0
 40
0.0
 40
0.2676099868
 40
0.5337377205
 40
0.7822348666
 40
0.8957336442
 40
1.0
 40
1.0
 40
1.0
 40
1.0
 10
15.1037450292
 20
6.5105486354
 30
0.0
 10
15.1028996245
 20
6.5072752622
 30
0.0
 10
15.1010361425
 20
6.5007913069
 30
0.0
 10
15.0978216201
 20
6.4914417903
 30
0.0
 10
15.0947913832
 20
6.4841009787
 30
0.0
 10
15.0922601042
 20
6.4787810551
 30
0.0
 10
15.0909814322
 20
6.4763440059
 30
0.0
 10
15.0903408712
 20
6.4751930258
 30
0.0
  0
SPLINE
  5
3B9
100
AcDbEntity
  8
0
100
AcDbSpline
 62
9
  6
CONTINUOUS
 70
0
 71
3
 72
19
 73
15
 74
0
 42
0.0000001
 43
0.0000001
 44
0.0000000001
 40
0.0
 40
0.0
 40
0.0
 40
0.0
 40
0.0648223901
 40
0.0971283769
 40
0.1292861066
 40
0.1930534341
 40
0.2561409965
 40
0.3805734692
 40
0.4423830905
 40
0.5040474555
 40
0.6272590168
 40
0.7508258277
 40
0.8750336034
 40
1.0
 40
1.0
 40
1.0
 40
1.0
 10
15.1904373768
 20
6.4398379472
 30
0.0
 10
15.1904406227
 20
6.4424282234
 30
0.0
 10
15.1900770546
 20
6.4463203421
 30
0.0
 10
15.1889323519
 20
6.4513623237
 30
0.0
 10
15.1873743694
 20
6.4562498498
 30
0.0
 10
15.1847181068
 20
6.4620519962
 30
0.0
 10
15.1792798529
 20
6.4705233489
 30
0.0
 10
15.1724098737
 20
6.477860043
 30
0.0
 10
15.1647358761
 20
6.4841318054
 30
0.0
 10
15.1566432472
 20
6.4897762459
 30
0.0
 10
15.1458657614
 20
6.4958170994
 30
0.0
 10
15.1322631272
 20
6.5017542404
 30
0.0
 10
15.1181814347
 20
6.5066430877
 30
0.0
 10
15.1085865395
 20
6.5093250293
 30
0.0
 10
15.1037451601
 20
6.5105486253
 30
0.0
  0
SPLINE
  5
3BA
100
AcDbEntity
  8
0
100
AcDbSpline
 62
7
  6
CONTINUOUS
 70
0
 71
3
 72
31
 73
27
 74
0
 42
0.0000001
 43
0.0000001
 44
0.0000000001
 40
0.0
 40
0.0
 40
0.0
 40
0.0
 40
0.0078209227
 40
0.0156496904
 40
0.0234765299
 40
0.0312981187
 40
0.0469241547
 40
0.062551458
 40
0.0781787077
 40
0.0938050679
 40
0.1094310198
 40
0.1250570663
 40
0.1563034306
 40
0.1875512075
 40
0.2187995158
 40
0.2500480431
 40
0.2812966491
 40
0.3125452203
 40
0.3750398067
 40
0.4375353354
 40
0.5000313217
 40
0.5625274977
 40
0.6250237419
 40
0.7500154285
 40
0.8750076636
 40
1.0
 40
1.0
 40
1.0
 40
1.0
 10
14.477037834
 20
7.7296567774
 30
0.0
 10
14.4768053215
 20
7.729933875
 30
0.0
 10
14.47628438
 20
7.7304438297
 30
0.0
 10
14.4753792071
 20
7.7310528528
 30
0.0
 10
14.4743881732
 20
7.7315065452
 30
0.0
 10
14.4730012688
 20
7.7319289337
 30
0.0
 10
14.4711983062
 20
7.7321671942
 30
0.0
 10
14.4690257887
 20
7.7321349881
 30
0.0
 10
14.4668697142
 20
7.7318785781
 30
0.0
 10
14.4647412848
 20
7.7314569133
 30
0.0
 10
14.4626425305
 20
7.7309084874
 30
0.0
 10
14.4598837852
 20
7.7300425218
 30
0.0
 10
14.4565039969
 20
7.7287561984
 30
0.0
 10
14.4525457488
 20
7.7269829772
 30
0.0
 10
14.4486703982
 20
7.7250360013
 30
0.0
 10
14.4448669711
 20
7.7229528536
 30
0.0
 10
14.4411261387
 20
7.7207596601
 30
0.0
 10
14.4362117807
 20
7.7177143139
 30
0.0
 10
14.4301891251
 20
7.7137179471
 30
0.0
 10
14.4231136048
 20
7.7087033296
 30
0.0
 10
14.4161574153
 20
7.7035248375
 30
0.0
 10
14.4092947044
 20
7.6982234937
 30
0.0
 10
14.4002407587
 20
7.6910323872
 30
0.0
 10
14.3890573248
 20
7.6818769042
 30
0.0
 10
14.375740605
 20
7.6707663095
 30
0.0
 10
14.3668832641
 20
7.6633347408
 30
0.0
 10
14.3624545649
 20
7.6596189952
 30
0.0
  0
LINE
  5
3BB
100
AcDbEntity
  8
0
100
AcDbLine
 62
7
  6
CONTINUOUS
 10
14.3624545649
 20
7.6596189952
 11
14.3596326235
 21
7.6572511994
  0
SPLINE
  5
3BC
100
AcDbEntity
  8
0
100
AcDbSpline
 62
9
  6
CONTINUOUS
 70
0
 71
3
 72
19
 73
15
 74
0
 42
0.0000001
 43
0.0000001
 44
0.0000000001
 40
0.0
 40
0.0
 40
0.0
 40
0.0
 40
0.0648224022
 40
0.0971283974
 40
0.1292861329
 40
0.1930534596
 40
0.256141018
 40
0.3805734708
 40
0.4423830883
 40
0.5040474493
 40
0.6272590073
 40
0.7508258185
 40
0.8750335992
 40
1.0
 40
1.0
 40
1.0
 40
1.0
 10
14.7235012805
 20
6.4398379472
 30
0.0
 10
14.7234980444
 20
6.4424282239
 30
0.0
 10
14.7238615895
 20
6.4463203449
 30
0.0
 10
14.7250063074
 20
6.451362325
 30
0.0
 10
14.72656429
 20
6.4562498509
 30
0.0
 10
14.7292205502
 20
6.4620519988
 30
0.0
 10
14.7346588067
 20
6.4705233486
 30
0.0
 10
14.7415287838
 20
6.4778600425
 30
0.0
 10
14.7492027801
 20
6.4841318047
 30
0.0
 10
14.7572954097
 20
6.4897762434
 30
0.0
 10
14.7680728976
 20
6.4958170924
 30
0.0
 10
14.7816755318
 20
6.5017542327
 30
0.0
 10
14.7957572236
 20
6.5066430826
 30
0.0
 10
14.805352118
 20
6.5093250282
 30
0.0
 10
14.8101934972
 20
6.5105486253
 30
0.0
  0
SPLINE
  5
3BD
100
AcDbEntity
  8
0
100
AcDbSpline
 62
9
  6
CONTINUOUS
 70
0
 71
3
 72
12
 73
8
 74
0
 42
0.0000001
 43
0.0000001
 44
0.0000000001
 40
0.0
 40
0.0
 40
0.0
 40
0.0
 40
0.2676097105
 40
0.5337371412
 40
0.7822343218
 40
0.8957333
 40
1.0
 40
1.0
 40
1.0
 40
1.0
 10
14.810193378
 20
6.5105486023
 30
0.0
 10
14.8110387887
 20
6.507275261
 30
0.0
 10
14.8129022789
 20
6.5007913696
 30
0.0
 10
14.8161168069
 20
6.4914419424
 30
0.0
 10
14.8191470429
 20
6.4841011973
 30
0.0
 10
14.8216783205
 20
6.4787813149
 30
0.0
 10
14.8229569921
 20
6.4763442817
 30
0.0
 10
14.823597553
 20
6.4751933081
 30
0.0
  0
SPLINE
  5
3BE
100
AcDbEntity
  8
0
100
AcDbSpline
 62
9
  6
CONTINUOUS
 70
0
 71
3
 72
21
 73
17
 74
0
 42
0.0000001
 43
0.0000001
 44
0.0000000001
 40
0.0
 40
0.0
 40
0.0
 40
0.0
 40
0.1421235458
 40
0.2821203587
 40
0.4193990402
 40
0.5527124312
 40
0.6175029734
 40
0.6806321199
 40
0.741709089
 40
0.8001855613
 40
0.8555450206
 40
0.9070129035
 40
0.9313349603
 40
0.9548019727
 40
0.9775878313
 40
1.0
 40
1.0
 40
1.0
 40
1.0
 10
15.0903409589
 20
6.4751932705
 30
0.0
 10
15.0946089227
 20
6.4745995769
 30
0.0
 10
15.1030656382
 20
6.4733048613
 30
0.0
 10
15.1155619499
 20
6.4709353743
 30
0.0
 10
15.1276841353
 20
6.4680811084
 30
0.0
 10
15.1374273779
 20
6.4651347288
 30
0.0
 10
15.1448479173
 20
6.4623576131
 30
0.0
 10
15.1501014485
 20
6.4600609015
 30
0.0
 10
15.1550211246
 20
6.4575048281
 30
0.0
 10
15.1594987298
 20
6.4546456723
 30
0.0
 10
15.1633922549
 20
6.4514688216
 30
0.0
 10
15.1660426363
 20
6.4484637797
 30
0.0
 10
15.1676014896
 20
6.4458806351
 30
0.0
 10
15.1684562823
 20
6.4439110415
 30
0.0
 10
15.1689916293
 20
6.4418906146
 30
0.0
 10
15.1691161401
 20
6.4405174644
 30
0.0
 10
15.1691155298
 20
6.4398379477
 30
0.0
  0
SPLINE
  5
3BF
100
AcDbEntity
  8
0
100
AcDbSpline
 62
9
  6
CONTINUOUS
 70
0
 71
3
 72
21
 73
17
 74
0
 42
0.0000001
 43
0.0000001
 44
0.0000000001
 40
0.0
 40
0.0
 40
0.0
 40
0.0
 40
0.0224122026
 40
0.0451980789
 40
0.0686651169
 40
0.0929872081
 40
0.1444550889
 40
0.1998145165
 40
0.2582909766
 40
0.3193679171
 40
0.3824970305
 40
0.4472875328
 40
0.5806008396
 40
0.7178794739
 40
0.8578763424
 40
1.0
 40
1.0
 40
1.0
 40
1.0
 10
14.7448231302
 20
6.4398379477
 30
0.0
 10
14.7448225161
 20
6.4405174654
 30
0.0
 10
14.7449470228
 20
6.4418906181
 30
0.0
 10
14.7454823716
 20
6.4439110473
 30
0.0
 10
14.7463371694
 20
6.4458806413
 30
0.0
 10
14.747896026
 20
6.4484637857
 30
0.0
 10
14.7505464059
 20
6.4514688291
 30
0.0
 10
14.7544399328
 20
6.4546456759
 30
0.0
 10
14.7589175364
 20
6.4575048301
 30
0.0
 10
14.7638372104
 20
6.4600609029
 30
0.0
 10
14.7690907389
 20
6.4623576132
 30
0.0
 10
14.7765112741
 20
6.4651347273
 30
0.0
 10
14.7862545114
 20
6.4680811071
 30
0.0
 10
14.7983766944
 20
6.4709353745
 30
0.0
 10
14.8108730104
 20
6.4733048602
 30
0.0
 10
14.8193297312
 20
6.4745995756
 30
0.0
 10
14.8235976985
 20
6.4751932695
 30
0.0
  0
SPLINE
  5
3C0
100
AcDbEntity
  8
0
100
AcDbSpline
 62
7
  6
CONTINUOUS
 70
0
 71
3
 72
31
 73
27
 74
0
 42
0.0000001
 43
0.0000001
 44
0.0000000001
 40
0.0
 40
0.0
 40
0.0
 40
0.0
 40
0.1249929405
 40
0.2499858308
 40
0.3749782625
 40
0.4374747864
 40
0.4999712575
 40
0.562467564
 40
0.6249634555
 40
0.6874583645
 40
0.7187070993
 40
0.7499558086
 40
0.7812044174
 40
0.8124528131
 40
0.8437007095
 40
0.8749472548
 40
0.8905730607
 40
0.9061988611
 40
0.9218253105
 40
0.9374523234
 40
0.9530790803
 40
0.9687041385
 40
0.9765249377
 40
0.9843516411
 40
0.9921793016
 40
1.0
 40
1.0
 40
1.0
 40
1.0
 10
14.3580357613
 20
7.6559103285
 30
0.0
 10
14.3534231273
 20
7.652039869
 30
0.0
 10
14.3441965221
 20
7.644300533
 30
0.0
 10
14.3303761819
 20
7.6326683343
 30
0.0
 10
14.3189329878
 20
7.6228871152
 30
0.0
 10
14.3098845226
 20
7.6149399329
 30
0.0
 10
14.3031736261
 20
7.6088945007
 30
0.0
 10
14.2965657406
 20
7.6027362767
 30
0.0
 10
14.2900978314
 20
7.5964308644
 30
0.0
 10
14.2848663122
 20
7.5910172131
 30
0.0
 10
14.2808149846
 20
7.5865620291
 30
0.0
 10
14.2778573112
 20
7.5831485367
 30
0.0
 10
14.274998388
 20
7.5796516818
 30
0.0
 10
14.2722627467
 20
7.5760570504
 30
0.0
 10
14.2696861192
 20
7.5723463632
 30
0.0
 10
14.2677157933
 20
7.5691363049
 30
0.0
 10
14.2662931745
 20
7.5664818666
 30
0.0
 10
14.2653220308
 20
7.5644418834
 30
0.0
 10
14.2644725664
 20
7.5623476824
 30
0.0
 10
14.2637843209
 20
7.5601935369
 30
0.0
 10
14.2633192633
 20
7.5579789854
 30
0.0
 10
14.2632023375
 20
7.5560884726
 30
0.0
 10
14.2633580386
 20
7.5545864589
 30
0.0
 10
14.2636272208
 20
7.5534834928
 30
0.0
 10
14.2640766263
 20
7.5524394854
 30
0.0
 10
14.2645031993
 20
7.5518108581
 30
0.0
 10
14.2647453705
 20
7.5515222497
 30
0.0
  0
SPLINE
  5
3C1
100
AcDbEntity
  8
0
100
AcDbSpline
 62
7
  6
CONTINUOUS
 70
0
 71
3
 72
9
 73
5
 74
0
 42
0.0000001
 43
0.0000001
 44
0.0000000001
 40
0.0
 40
0.0
 40
0.0
 40
0.0
 40
0.4831340496
 40
1.0
 40
1.0
 40
1.0
 40
1.0
 10
15.3511813667
 20
8.2215486253
 30
0.0
 10
15.3454318484
 20
8.2215486253
 30
0.0
 10
15.3335206507
 20
8.2205433201
 30
0.0
 10
15.3218825672
 20
8.2178907271
 30
0.0
 10
15.3159770373
 20
8.2161706042
 30
0.0
  0
SPLINE
  5
3C2
100
AcDbEntity
  8
0
100
AcDbSpline
 62
7
  6
CONTINUOUS
 70
0
 71
3
 72
9
 73
5
 74
0
 42
0.0000001
 43
0.0000001
 44
0.0000000001
 40
0.0
 40
0.0
 40
0.0
 40
0.0
 40
0.245314099
 40
1.0
 40
1.0
 40
1.0
 40
1.0
 10
15.3159770373
 20
8.2161706042
 30
0.0
 10
15.3145795697
 20
8.2157635593
 30
0.0
 10
15.3089064288
 20
8.2140241876
 30
0.0
 10
15.3033294421
 20
8.2119746394
 30
0.0
 10
15.2991857163
 20
8.2102774158
 30
0.0
  0
SPLINE
  5
3C3
100
AcDbEntity
  8
0
100
AcDbSpline
 62
7
  6
CONTINUOUS
 70
0
 71
3
 72
20
 73
16
 74
0
 42
0.0000001
 43
0.0000001
 44
0.0000000001
 40
0.0
 40
0.0
 40
0.0
 40
0.0
 40
0.1149266458
 40
0.235033074
 40
0.2965591402
 40
0.3588273044
 40
0.4849816025
 40
0.548724277
 40
0.6127557757
 40
0.6770061619
 40
0.7414344814
 40
0.8059830152
 40
0.8706404845
 40
0.9353560402
 40
1.0
 40
1.0
 40
1.0
 40
1.0
 10
15.2921088835
 20
8.2072065316
 30
0.0
 10
15.2836370744
 20
8.2033242935
 30
0.0
 10
15.2668657334
 20
8.1941373757
 30
0.0
 10
15.2473300341
 20
8.1800132924
 30
0.0
 10
15.2323978371
 20
8.1670288675
 30
0.0
 10
15.2179297164
 20
8.1528225586
 30
0.0
 10
15.2046856113
 20
8.1371578659
 30
0.0
 10
15.1929924324
 20
8.1201953154
 30
0.0
 10
15.1850517099
 20
8.1067859287
 30
0.0
 10
15.1780804203
 20
8.0927849326
 30
0.0
 10
15.1721859274
 20
8.0782505926
 30
0.0
 10
15.1674612063
 20
8.0632587346
 30
0.0
 10
15.1640150841
 20
8.0478962888
 30
0.0
 10
15.1619179614
 20
8.0322853444
 30
0.0
 10
15.1614405427
 20
8.0217903648
 30
0.0
 10
15.1614405427
 20
8.0165486253
 30
0.0
  0
SPLINE
  5
3C4
100
AcDbEntity
  8
0
100
AcDbSpline
 62
7
  6
CONTINUOUS
 70
0
 71
3
 72
18
 73
14
 74
0
 42
0.0000001
 43
0.0000001
 44
0.0000000001
 40
0.0
 40
0.0
 40
0.0
 40
0.0
 40
0.0645190399
 40
0.1290992635
 40
0.1936208006
 40
0.2580455352
 40
0.3223568425
 40
0.3865033476
 40
0.5140437521
 40
0.6401288011
 40
0.7639575078
 40
0.8844005429
 40
1.0
 40
1.0
 40
1.0
 40
1.0
 10
15.1614405427
 20
8.0165486253
 30
0.0
 10
15.1614405427
 20
8.0114104692
 30
0.0
 10
15.1618983224
 20
8.0011239095
 30
0.0
 10
15.1639129196
 20
7.9858183402
 30
0.0
 10
15.1672283526
 20
7.97074794
 30
0.0
 10
15.1717735254
 20
7.9560264779
 30
0.0
 10
15.1774514379
 20
7.9417366459
 30
0.0
 10
15.1863970096
 20
7.9233992446
 30
0.0
 10
15.1999029794
 20
7.9018954914
 30
0.0
 10
15.2190997589
 20
7.8786670928
 30
0.0
 10
15.2405421283
 20
7.8583118679
 30
0.0
 10
15.2635539297
 20
7.8411244641
 30
0.0
 10
15.2799183376
 20
7.8317515141
 30
0.0
 10
15.2882014387
 20
7.8277337635
 30
0.0
  0
SPLINE
  5
3C5
100
AcDbEntity
  8
0
100
AcDbSpline
 62
7
  6
CONTINUOUS
 70
0
 71
3
 72
9
 73
5
 74
0
 42
0.0000001
 43
0.0000001
 44
0.0000000001
 40
0.0
 40
0.0
 40
0.0
 40
0.0
 40
0.2546016886
 40
1.0
 40
1.0
 40
1.0
 40
1.0
 10
15.2993311807
 20
7.8227604101
 30
0.0
 10
15.3007081701
 20
7.8221977434
 30
0.0
 10
15.3061432189
 20
7.8200538712
 30
0.0
 10
15.311685689
 20
7.8181795793
 30
0.0
 10
15.3158660646
 20
7.8169587397
 30
0.0
  0
SPLINE
  5
3C6
100
AcDbEntity
  8
0
100
AcDbSpline
 62
7
  6
CONTINUOUS
 70
0
 71
3
 72
9
 73
5
 74
0
 42
0.0000001
 43
0.0000001
 44
0.0000000001
 40
0.0
 40
0.0
 40
0.0
 40
0.0
 40
0.5169475981
 40
1.0
 40
1.0
 40
1.0
 40
1.0
 10
15.3158660646
 20
7.8169587397
 30
0.0
 10
15.3217903485
 20
7.8152286079
 30
0.0
 10
15.3334647908
 20
7.8125620132
 30
0.0
 10
15.3454142354
 20
7.8115486279
 30
0.0
 10
15.3511813161
 20
7.8115486253
 30
0.0
  0
SPLINE
  5
3C7
100
AcDbEntity
  8
0
100
AcDbSpline
 62
7
  6
CONTINUOUS
 70
0
 71
3
 72
11
 73
7
 74
0
 42
0.0000001
 43
0.0000001
 44
0.0000000001
 40
0.0
 40
0.0
 40
0.0
 40
0.0
 40
0.2496982747
 40
0.4998016425
 40
0.7500498009
 40
1.0
 40
1.0
 40
1.0
 40
1.0
 10
14.7429617416
 20
7.9589654332
 30
0.0
 10
14.7445112172
 20
7.9635908399
 30
0.0
 10
14.7472640587
 20
7.9729707686
 30
0.0
 10
14.7502600474
 20
7.9873298105
 30
0.0
 10
14.7520837078
 20
8.0018893049
 30
0.0
 10
14.7524981146
 20
8.011665665
 30
0.0
 10
14.7524981146
 20
8.0165486253
 30
0.0
  0
SPLINE
  5
3C8
100
AcDbEntity
  8
0
100
AcDbSpline
 62
7
  6
CONTINUOUS
 70
0
 71
3
 72
18
 73
14
 74
0
 42
0.0000001
 43
0.0000001
 44
0.0000000001
 40
0.0
 40
0.0
 40
0.0
 40
0.0
 40
0.0645360738
 40
0.1291343519
 40
0.1936738675
 40
0.2581154154
 40
0.3224427593
 40
0.3866035993
 40
0.5141667966
 40
0.6402630582
 40
0.7640824748
 40
0.8844847724
 40
1.0
 40
1.0
 40
1.0
 40
1.0
 10
14.7524981146
 20
8.0165486253
 30
0.0
 10
14.7524981146
 20
8.0217003666
 30
0.0
 10
14.7520378162
 20
8.0320142311
 30
0.0
 10
14.7500125419
 20
8.0473598061
 30
0.0
 10
14.7466800046
 20
8.0624684566
 30
0.0
 10
14.7421115045
 20
8.0772254128
 30
0.0
 10
14.7364054074
 20
8.0915475274
 30
0.0
 10
14.7274170242
 20
8.109922843
 30
0.0
 10
14.7138492462
 20
8.131464034
 30
0.0
 10
14.6945708437
 20
8.1547208453
 30
0.0
 10
14.6730443211
 20
8.1750855039
 30
0.0
 10
14.6499511566
 20
8.192260737
 30
0.0
 10
14.6335327548
 20
8.2016105711
 30
0.0
 10
14.625224549
 20
8.2056112635
 30
0.0
  0
SPLINE
  5
3C9
100
AcDbEntity
  8
0
100
AcDbSpline
 62
7
  6
CONTINUOUS
 70
0
 71
3
 72
9
 73
5
 74
0
 42
0.0000001
 43
0.0000001
 44
0.0000000001
 40
0.0
 40
0.0
 40
0.0
 40
0.0
 40
0.2546125818
 40
1.0
 40
1.0
 40
1.0
 40
1.0
 10
14.6146252012
 20
8.2103295844
 30
0.0
 10
14.613245328
 20
8.2108935899
 30
0.0
 10
14.6077990684
 20
8.213042356
 30
0.0
 10
14.6022449296
 20
8.2149204569
 30
0.0
 10
14.5980557404
 20
8.2161433931
 30
0.0
  0
SPLINE
  5
3CA
100
AcDbEntity
  8
0
100
AcDbSpline
 62
7
  6
CONTINUOUS
 70
0
 71
3
 72
9
 73
5
 74
0
 42
0.0000001
 43
0.0000001
 44
0.0000000001
 40
0.0
 40
0.0
 40
0.0
 40
0.0
 40
0.516935738
 40
1.0
 40
1.0
 40
1.0
 40
1.0
 10
14.5980557404
 20
8.2161433931
 30
0.0
 10
14.5921342967
 20
8.2178720207
 30
0.0
 10
14.5804653562
 20
8.2205364583
 30
0.0
 10
14.5685217111
 20
8.2215486253
 30
0.0
 10
14.5627572982
 20
8.2215486253
 30
0.0
  0
SPLINE
  5
3CB
100
AcDbEntity
  8
0
100
AcDbSpline
 62
7
  6
CONTINUOUS
 70
0
 71
3
 72
15
 73
11
 74
0
 42
0.0000001
 43
0.0000001
 44
0.0000000001
 40
0.0
 40
0.0
 40
0.0
 40
0.0
 40
0.051008778
 40
0.0841719134
 40
0.1229470796
 40
0.2178522702
 40
0.3357403193
 40
0.4751575254
 40
0.6342210739
 40
1.0
 40
1.0
 40
1.0
 40
1.0
 10
14.9370623676
 20
8.4901688927
 30
0.0
 10
14.9371665838
 20
8.4899656856
 30
0.0
 10
14.9374460422
 20
8.4896906464
 30
0.0
 10
14.9379014153
 20
8.4893849785
 30
0.0
 10
14.9385635785
 20
8.4890346303
 30
0.0
 10
14.9396180316
 20
8.4886312697
 30
0.0
 10
14.9411377357
 20
8.4882055024
 30
0.0
 10
14.9429625191
 20
8.4878194706
 30
0.0
 10
14.945899789
 20
8.4873486583
 30
0.0
 10
14.9482407121
 20
8.4871172957
 30
0.0
 10
14.9498741495
 20
8.4870000649
 30
0.0
  0
LINE
  5
3CC
100
AcDbEntity
  8
0
100
AcDbLine
 62
7
  6
CONTINUOUS
 10
14.9498741495
 20
8.4870000649
 11
14.9570729586
 21
8.4867540682
  0
LINE
  5
3CD
100
AcDbEntity
  8
0
100
AcDbLine
 62
7
  6
CONTINUOUS
 10
14.9570729586
 20
8.4867540682
 11
14.9642085242
 21
8.4870105209
  0
SPLINE
  5
3CE
100
AcDbEntity
  8
0
100
AcDbSpline
 62
7
  6
CONTINUOUS
 70
0
 71
3
 72
15
 73
11
 74
0
 42
0.0000001
 43
0.0000001
 44
0.0000000001
 40
0.0
 40
0.0
 40
0.0
 40
0.0
 40
0.3658917334
 40
0.524880736
 40
0.6641976499
 40
0.781999794
 40
0.8768720632
 40
0.9156583369
 40
0.9488544701
 40
1.0
 40
1.0
 40
1.0
 40
1.0
 10
14.9642085242
 20
8.4870105209
 30
0.0
 10
14.9658247208
 20
8.4871292165
 30
0.0
 10
14.9681403023
 20
8.487361822
 30
0.0
 10
14.9710449635
 20
8.4878324499
 30
0.0
 10
14.9728483375
 20
8.4882173245
 30
0.0
 10
14.9743499641
 20
8.4886411775
 30
0.0
 10
14.9753918146
 20
8.4890422552
 30
0.0
 10
14.9760461148
 20
8.4893903269
 30
0.0
 10
14.9764966259
 20
8.4896941815
 30
0.0
 10
14.9767729165
 20
8.4899673293
 30
0.0
 10
14.9768762898
 20
8.4901688927
 30
0.0
  0
SPLINE
  5
3CF
100
AcDbEntity
  8
0
100
AcDbSpline
 62
7
  6
CONTINUOUS
 70
0
 71
3
 72
15
 73
11
 74
0
 42
0.0000001
 43
0.0000001
 44
0.0000000001
 40
0.0
 40
0.0
 40
0.0
 40
0.0
 40
0.1085831711
 40
0.2175673732
 40
0.3293802689
 40
0.4462964916
 40
0.5703119948
 40
0.7030927544
 40
0.8459752844
 40
1.0
 40
1.0
 40
1.0
 40
1.0
 10
14.9768762898
 20
8.4901688927
 30
0.0
 10
14.9777031746
 20
8.4917812027
 30
0.0
 10
14.9796035631
 20
8.4948940344
 30
0.0
 10
14.9831638483
 20
8.499108283
 30
0.0
 10
14.9874161702
 20
8.5028370201
 30
0.0
 10
14.9923528003
 20
8.5060746717
 30
0.0
 10
14.9979677138
 20
8.5088213993
 30
0.0
 10
15.0042562989
 20
8.5110786015
 30
0.0
 10
15.011214404
 20
8.5128477711
 30
0.0
 10
15.0161059731
 20
8.5136703121
 30
0.0
 10
15.018653737
 20
8.5140098488
 30
0.0
  0
SPLINE
  5
3D0
100
AcDbEntity
  8
0
100
AcDbSpline
 62
7
  6
CONTINUOUS
 70
0
 71
3
 72
9
 73
5
 74
0
 42
0.0000001
 43
0.0000001
 44
0.0000000001
 40
0.0
 40
0.0
 40
0.0
 40
0.0
 40
0.4824664903
 40
1.0
 40
1.0
 40
1.0
 40
1.0
 10
15.018653737
 20
8.5140098488
 30
0.0
 10
15.0212968978
 20
8.5143620989
 30
0.0
 10
15.0268021206
 20
8.5148981931
 30
0.0
 10
15.032328053
 20
8.5151069004
 30
0.0
 10
15.0351881589
 20
8.5151435129
 30
0.0
  0
SPLINE
  5
3D1
100
AcDbEntity
  8
0
100
AcDbSpline
 62
7
  6
CONTINUOUS
 70
0
 71
3
 72
9
 73
5
 74
0
 42
0.0000001
 43
0.0000001
 44
0.0000000001
 40
0.0
 40
0.0
 40
0.0
 40
0.0
 40
0.5180755797
 40
1.0
 40
1.0
 40
1.0
 40
1.0
 10
14.8793725375
 20
8.5151344126
 30
0.0
 10
14.882294996
 20
8.5150862883
 30
0.0
 10
14.887935001
 20
8.5148474788
 30
0.0
 10
14.8935510702
 20
8.5142606124
 30
0.0
 10
14.896242905
 20
8.5138779428
 30
0.0
  0
SPLINE
  5
3D2
100
AcDbEntity
  8
0
100
AcDbSpline
 62
7
  6
CONTINUOUS
 70
0
 71
3
 72
15
 73
11
 74
0
 42
0.0000001
 43
0.0000001
 44
0.0000000001
 40
0.0
 40
0.0
 40
0.0
 40
0.0
 40
0.1533560005
 40
0.2957888199
 40
0.42833828
 40
0.5523319164
 40
0.6694148305
 40
0.7815473468
 40
0.8909535526
 40
1.0
 40
1.0
 40
1.0
 40
1.0
 10
14.896242905
 20
8.5138779428
 30
0.0
 10
14.8987276766
 20
8.5135247092
 30
0.0
 10
14.9034995227
 20
8.5126788278
 30
0.0
 10
14.9102862478
 20
8.5108886804
 30
0.0
 10
14.9164230386
 20
8.5086252261
 30
0.0
 10
14.9219059043
 20
8.5058871287
 30
0.0
 10
14.9267304392
 20
8.5026732243
 30
0.0
 10
14.9308909855
 20
8.4989835949
 30
0.0
 10
14.9343804103
 20
8.4948237333
 30
0.0
 10
14.9362479769
 20
8.4917568408
 30
0.0
 10
14.9370623676
 20
8.4901688927
 30
0.0
  0
SPLINE
  5
3D3
100
AcDbEntity
  8
0
100
AcDbSpline
 62
7
  6
CONTINUOUS
 70
0
 71
3
 72
11
 73
7
 74
0
 42
0.0000001
 43
0.0000001
 44
0.0000000001
 40
0.0
 40
0.0
 40
0.0
 40
0.0
 40
0.2481167851
 40
0.4967908693
 40
0.7471141472
 40
1.0
 40
1.0
 40
1.0
 40
1.0
 10
14.5953528738
 20
8.212535918
 30
0.0
 10
14.5907269202
 20
8.2124665656
 30
0.0
 10
14.5814636071
 20
8.2117576754
 30
0.0
 10
14.567771385
 20
8.2090196543
 30
0.0
 10
14.5544189892
 20
8.2046435345
 30
0.0
 10
14.545875305
 20
8.2007091092
 30
0.0
 10
14.5417061321
 20
8.1985061597
 30
0.0
  0
SPLINE
  5
3D4
100
AcDbEntity
  8
0
100
AcDbSpline
 62
7
  6
CONTINUOUS
 70
0
 71
3
 72
12
 73
8
 74
0
 42
0.0000001
 43
0.0000001
 44
0.0000000001
 40
0.0
 40
0.0
 40
0.0
 40
0.0
 40
0.2591098201
 40
0.5113356135
 40
0.6352780745
 40
0.7579756774
 40
1.0
 40
1.0
 40
1.0
 40
1.0
 10
14.4936593422
 20
7.8759900659
 30
0.0
 10
14.4981583746
 20
7.870157173
 30
0.0
 10
14.507771465
 20
7.8591879602
 30
0.0
 10
14.5214885662
 20
7.8473373595
 30
0.0
 10
14.533212453
 20
7.8393317748
 30
0.0
 10
14.5452719878
 20
7.8324157258
 30
0.0
 10
14.5548799043
 20
7.8283524515
 30
0.0
 10
14.5614248999
 20
7.8262295616
 30
0.0
  0
SPLINE
  5
3D5
100
AcDbEntity
  8
0
100
AcDbSpline
 62
7
  6
CONTINUOUS
 70
0
 71
3
 72
17
 73
13
 74
0
 42
0.0000001
 43
0.0000001
 44
0.0000000001
 40
0.0
 40
0.0
 40
0.0
 40
0.0
 40
0.0585152786
 40
0.1170900794
 40
0.1758453621
 40
0.2348930156
 40
0.3542230487
 40
0.4760612145
 40
0.6011102976
 40
0.7299353623
 40
0.8628630702
 40
1.0
 40
1.0
 40
1.0
 40
1.0
 10
15.6010317503
 20
8.2124482642
 30
0.0
 10
15.5982163925
 20
8.212571106
 30
0.0
 10
15.5925703089
 20
8.2125908042
 30
0.0
 10
15.5841181912
 20
8.2119423736
 30
0.0
 10
15.5757175924
 20
8.2106245649
 30
0.0
 10
15.5645982809
 20
8.207978082
 30
0.0
 10
15.5509621752
 20
8.2029934027
 30
0.0
 10
15.535409747
 20
8.1945541223
 30
0.0
 10
15.5208026584
 20
8.1837852269
 30
0.0
 10
15.5073044821
 20
8.1708793565
 30
0.0
 10
15.4950614494
 20
8.1560243288
 30
0.0
 10
15.4879190418
 20
8.1451211152
 30
0.0
 10
15.4845825642
 20
8.139421493
 30
0.0
  0
SPLINE
  5
3D6
100
AcDbEntity
  8
0
100
AcDbSpline
 62
7
  6
CONTINUOUS
 70
0
 71
3
 72
12
 73
8
 74
0
 42
0.0000001
 43
0.0000001
 44
0.0000000001
 40
0.0
 40
0.0
 40
0.0
 40
0.0
 40
0.2396216361
 40
0.4877449107
 40
0.7422219083
 40
0.8709814962
 40
1.0
 40
1.0
 40
1.0
 40
1.0
 10
15.483759114
 20
8.1380012684
 30
0.0
 10
15.4787613272
 20
8.1292983087
 30
0.0
 10
15.4699183531
 20
8.1107926808
 30
0.0
 10
15.4603928512
 20
8.0811177256
 30
0.0
 10
15.4555364673
 20
8.0550485404
 30
0.0
 10
15.4535336064
 20
8.0336783238
 30
0.0
 10
15.4531707565
 20
8.0228799407
 30
0.0
 10
15.453152088
 20
8.0174763816
 30
0.0
  0
SPLINE
  5
3D7
100
AcDbEntity
  8
0
100
AcDbSpline
 62
7
  6
CONTINUOUS
 70
0
 71
3
 72
12
 73
8
 74
0
 42
0.0000001
 43
0.0000001
 44
0.0000000001
 40
0.0
 40
0.0
 40
0.0
 40
0.0
 40
0.1290481502
 40
0.2578339237
 40
0.5123375783
 40
0.760445913
 40
1.0
 40
1.0
 40
1.0
 40
1.0
 10
15.4531520837
 20
8.0156221071
 30
0.0
 10
15.4531707924
 20
8.0101996555
 30
0.0
 10
15.4535359937
 20
7.9993636399
 30
0.0
 10
15.4555523575
 20
7.9779207402
 30
0.0
 10
15.4604415365
 20
7.9517673796
 30
0.0
 10
15.4700309502
 20
7.9220078859
 30
0.0
 10
15.4789327673
 20
7.9034591745
 30
0.0
 10
15.4839636036
 20
7.8947406974
 30
0.0
  0
SPLINE
  5
3D8
100
AcDbEntity
  8
0
100
AcDbSpline
 62
7
  6
CONTINUOUS
 70
0
 71
3
 72
18
 73
14
 74
0
 42
0.0000001
 43
0.0000001
 44
0.0000000001
 40
0.0
 40
0.0
 40
0.0
 40
0.0
 40
0.1371193821
 40
0.2041292764
 40
0.2700936822
 40
0.3989193623
 40
0.5239747304
 40
0.645818227
 40
0.7057860392
 40
0.7652340876
 40
0.882937313
 40
0.9415001739
 40
1.0
 40
1.0
 40
1.0
 40
1.0
 10
15.4845373832
 20
7.8937529523
 30
0.0
 10
15.4878644793
 20
7.8880635282
 30
0.0
 10
15.493249525
 20
7.8798327576
 30
0.0
 10
15.5012314862
 20
7.8695872362
 30
0.0
 10
15.5095197897
 20
7.8601108941
 30
0.0
 10
15.5206487922
 20
7.849444231
 30
0.0
 10
15.5352082093
 20
7.8386736526
 30
0.0
 10
15.5482065867
 20
7.8315872445
 30
0.0
 10
15.5589454425
 20
7.827184668
 30
0.0
 10
15.5697943283
 20
7.8236638843
 30
0.0
 10
15.5809561822
 20
7.8214205148
 30
0.0
 10
15.5922132024
 20
7.8205202885
 30
0.0
 10
15.5978475398
 20
7.8205208766
 30
0.0
 10
15.6006571555
 20
7.8206336051
 30
0.0
  0
SPLINE
  5
3D9
100
AcDbEntity
  8
0
100
AcDbSpline
 62
7
  6
CONTINUOUS
 70
0
 71
3
 72
22
 73
18
 74
0
 42
0.0000001
 43
0.0000001
 44
0.0000000001
 40
0.0
 40
0.0
 40
0.0
 40
0.0
 40
0.0593509081
 40
0.1247191919
 40
0.1947752034
 40
0.2683049711
 40
0.3441669324
 40
0.4212197895
 40
0.4983427683
 40
0.5744517167
 40
0.648427895
 40
0.7190875072
 40
0.7852105447
 40
0.845552707
 40
0.8987444826
 40
0.9432772265
 40
1.0
 40
1.0
 40
1.0
 40
1.0
 10
15.4817280669
 20
7.9009977516
 30
0.0
 10
15.4807217509
 20
7.9013861266
 30
0.0
 10
15.4785810109
 20
7.9021357889
 30
0.0
 10
15.4751762152
 20
7.9031114951
 30
0.0
 10
15.4714658327
 20
7.9039328759
 30
0.0
 10
15.467522053
 20
7.9045440369
 30
0.0
 10
15.4634227876
 20
7.9049339617
 30
0.0
 10
15.4592423619
 20
7.9050861669
 30
0.0
 10
15.455055503
 20
7.9049851464
 30
0.0
 10
15.4509396911
 20
7.9046190365
 30
0.0
 10
15.4469696118
 20
7.9040258205
 30
0.0
 10
15.4432184795
 20
7.9032402936
 30
0.0
 10
15.4397591125
 20
7.9022993903
 30
0.0
 10
15.4366691707
 20
7.9012377962
 30
0.0
 10
15.4340112174
 20
7.9001424583
 30
0.0
 10
15.431480848
 20
7.8989274415
 30
0.0
 10
15.4298786189
 20
7.8980088962
 30
0.0
 10
15.4290342488
 20
7.8974174703
 30
0.0
  0
SPLINE
  5
3DA
100
AcDbEntity
  8
0
100
AcDbSpline
 62
7
  6
CONTINUOUS
 70
0
 71
3
 72
38
 73
34
 74
0
 42
0.0000001
 43
0.0000001
 44
0.0000000001
 40
0.0
 40
0.0
 40
0.0
 40
0.0
 40
0.0005857419
 40
0.0008871427
 40
0.0009322845
 40
0.0009572856
 40
0.0012151044
 40
0.0017477769
 40
0.0025523106
 40
0.0049652695
 40
0.0084282839
 40
0.012906331
 40
0.0183628266
 40
0.0247617064
 40
0.0320674834
 40
0.0402452978
 40
0.0590804473
 40
0.0810031436
 40
0.1057623851
 40
0.1331209443
 40
0.1628450615
 40
0.1947020348
 40
0.2284631143
 40
0.3008019003
 40
0.3781812658
 40
0.4590756172
 40
0.5420005903
 40
0.6254841722
 40
0.7081034283
 40
0.7884214166
 40
0.8649075309
 40
0.9359765992
 40
1.0
 40
1.0
 40
1.0
 40
1.0
 10
15.4286556634
 20
8.13594266
 30
0.0
 10
15.4286473146
 20
8.1359495058
 30
0.0
 10
15.4286321856
 20
8.135961659
 30
0.0
 10
15.4286238933
 20
8.13596838
 30
0.0
 10
15.4286145476
 20
8.1359754091
 30
0.0
 10
15.4286205843
 20
8.1359696227
 30
0.0
 10
15.4286303166
 20
8.1359627772
 30
0.0
 10
15.428654954
 20
8.1359428342
 30
0.0
 10
15.4287089951
 20
8.1359023167
 30
0.0
 10
15.4288091919
 20
8.1358286163
 30
0.0
 10
15.4289650333
 20
8.1357194863
 30
0.0
 10
15.4291696124
 20
8.1355807242
 30
0.0
 10
15.4294213331
 20
8.1354156999
 30
0.0
 10
15.4297195668
 20
8.1352264161
 30
0.0
 10
15.4300633068
 20
8.1350153744
 30
0.0
 10
15.430607336
 20
8.1346925392
 30
0.0
 10
15.4313940151
 20
8.134250899
 30
0.0
 10
15.4324657024
 20
8.1336937505
 30
0.0
 10
15.4336977377
 20
8.1331059967
 30
0.0
 10
15.4350824676
 20
8.1325066388
 30
0.0
 10
15.4366083935
 20
8.1319065783
 30
0.0
 10
15.4382641705
 20
8.1313166805
 30
0.0
 10
15.4406860424
 20
8.1305404225
 30
0.0
 10
15.4439559428
 20
8.1296661362
 30
0.0
 10
15.448132132
 20
8.1288553704
 30
0.0
 10
15.4525470229
 20
8.1283046577
 30
0.0
 10
15.457100153
 20
8.1280295003
 30
0.0
 10
15.4616939184
 20
8.1280500534
 30
0.0
 10
15.4662269794
 20
8.1283906555
 30
0.0
 10
15.4705991188
 20
8.1290130608
 30
0.0
 10
15.474714356
 20
8.1298680056
 30
0.0
 10
15.4784759855
 20
8.1309087239
 30
0.0
 10
15.4808245325
 20
8.1317433837
 30
0.0
 10
15.4819221837
 20
8.132176777
 30
0.0
  0
SPLINE
  5
3DB
100
AcDbEntity
  8
0
100
AcDbSpline
 62
7
  6
CONTINUOUS
 70
0
 71
3
 72
15
 73
11
 74
0
 42
0.0000001
 43
0.0000001
 44
0.0000000001
 40
0.0
 40
0.0
 40
0.0
 40
0.0
 40
0.1337281524
 40
0.2642909066
 40
0.3918798841
 40
0.5168126581
 40
0.6395857292
 40
0.7606335584
 40
0.8805211035
 40
1.0
 40
1.0
 40
1.0
 40
1.0
 10
15.432107783
 20
8.1397961664
 30
0.0
 10
15.4288231226
 20
8.1452306617
 30
0.0
 10
15.4217988272
 20
8.1556613652
 30
0.0
 10
15.4098110139
 20
8.169940462
 30
0.0
 10
15.3965791002
 20
8.182484407
 30
0.0
 10
15.3822158341
 20
8.1931130411
 30
0.0
 10
15.3668560286
 20
8.2016285634
 30
0.0
 10
15.3506929297
 20
8.2078773409
 30
0.0
 10
15.3339482891
 20
8.2116886873
 30
0.0
 10
15.3225643052
 20
8.2125486253
 30
0.0
 10
15.3168909061
 20
8.2125486253
 30
0.0
  0
SPLINE
  5
3DC
100
AcDbEntity
  8
0
100
AcDbSpline
 62
7
  6
CONTINUOUS
 70
0
 71
3
 72
15
 73
11
 74
0
 42
0.0000001
 43
0.0000001
 44
0.0000000001
 40
0.0
 40
0.0
 40
0.0
 40
0.0
 40
0.1194589323
 40
0.2393238818
 40
0.3603590683
 40
0.4831273597
 40
0.6080628532
 40
0.7356633943
 40
0.8662458324
 40
1.0
 40
1.0
 40
1.0
 40
1.0
 10
15.3168909061
 20
7.8205486253
 30
0.0
 10
15.3225754433
 20
7.8205486253
 30
0.0
 10
15.3339817469
 20
7.8214117288
 30
0.0
 10
15.3507579973
 20
7.8252382386
 30
0.0
 10
15.3669495504
 20
7.8315110057
 30
0.0
 10
15.3823338053
 20
7.8400584924
 30
0.0
 10
15.3967161637
 20
7.8507263045
 30
0.0
 10
15.4099614241
 20
7.8633151141
 30
0.0
 10
15.4219563982
 20
7.8776437082
 30
0.0
 10
15.4289810626
 20
7.8881091355
 30
0.0
 10
15.4322648527
 20
7.8935614032
 30
0.0
  0
SPLINE
  5
3DD
100
AcDbEntity
  8
0
100
AcDbSpline
 62
9
  6
CONTINUOUS
 70
0
 71
3
 72
28
 73
24
 74
0
 42
0.0000001
 43
0.0000001
 44
0.0000000001
 40
0.0
 40
0.0
 40
0.0
 40
0.0
 40
0.0754035227
 40
0.1500960797
 40
0.2232682448
 40
0.2943559701
 40
0.3628699422
 40
0.3960582748
 40
0.4284880212
 40
0.4909934129
 40
0.5505096122
 40
0.6073799263
 40
0.6350361786
 40
0.6622824233
 40
0.6892330092
 40
0.7160100586
 40
0.7427412927
 40
0.769557474
 40
0.7965847306
 40
0.8239430638
 40
0.8800231178
 40
0.9385614136
 40
1.0
 40
1.0
 40
1.0
 40
1.0
 10
15.2005668648
 20
8.0145345336
 30
0.0
 10
15.2006329506
 20
8.0058726618
 30
0.0
 10
15.2016160491
 20
7.9886249561
 30
0.0
 10
15.2056077571
 20
7.9632474674
 30
0.0
 10
15.2120547785
 20
7.9388861728
 30
0.0
 10
15.2208294277
 20
7.9160210764
 30
0.0
 10
15.2300399116
 20
7.8983784598
 30
0.0
 10
15.238439559
 20
7.8854486708
 30
0.0
 10
15.2472501363
 20
7.8736481165
 30
0.0
 10
15.2592991571
 20
7.8605340706
 30
0.0
 10
15.2753850793
 20
7.8476124956
 30
0.0
 10
15.2899135458
 20
7.8394989222
 30
0.0
 10
15.3018891581
 20
7.8348233352
 30
0.0
 10
15.3109448331
 20
7.8322370625
 30
0.0
 10
15.3201077095
 20
7.8305521039
 30
0.0
 10
15.329332811
 20
7.8297742262
 30
0.0
 10
15.3385743736
 20
7.8299124843
 30
0.0
 10
15.3477853237
 20
7.8309650899
 30
0.0
 10
15.3569210881
 20
7.8329229271
 30
0.0
 10
15.3690341506
 20
7.8367601099
 30
0.0
 10
15.3838253211
 20
7.8438615664
 30
0.0
 10
15.4003534159
 20
7.8556644139
 30
0.0
 10
15.4102272912
 20
7.865366546
 30
0.0
 10
15.4149075004
 20
7.870649466
 30
0.0
  0
SPLINE
  5
3DE
100
AcDbEntity
  8
0
100
AcDbSpline
 62
9
  6
CONTINUOUS
 70
0
 71
3
 72
9
 73
5
 74
0
 42
0.0000001
 43
0.0000001
 44
0.0000000001
 40
0.0
 40
0.0
 40
0.0
 40
0.0
 40
0.2446953697
 40
1.0
 40
1.0
 40
1.0
 40
1.0
 10
15.4164637518
 20
7.8724337419
 30
0.0
 10
15.4179306271
 20
7.8741418852
 30
0.0
 10
15.4237727375
 20
7.8812528107
 30
0.0
 10
15.4290085025
 20
7.8888567679
 30
0.0
 10
15.4326212183
 20
7.8947938766
 30
0.0
  0
SPLINE
  5
3DF
100
AcDbEntity
  8
0
100
AcDbSpline
 62
9
  6
CONTINUOUS
 70
0
 71
3
 72
12
 73
8
 74
0
 42
0.0000001
 43
0.0000001
 44
0.0000000001
 40
0.0
 40
0.0
 40
0.0
 40
0.0
 40
0.1302842636
 40
0.2602111437
 40
0.5161026463
 40
0.7637112461
 40
1.0
 40
1.0
 40
1.0
 40
1.0
 10
15.178297977
 20
8.0165486253
 30
0.0
 10
15.178297977
 20
8.0225110954
 30
0.0
 10
15.1786850653
 20
8.0344238236
 30
0.0
 10
15.1809717942
 20
8.0579443766
 30
0.0
 10
15.1865990665
 20
8.0864797971
 30
0.0
 10
15.1976644872
 20
8.1185865594
 30
0.0
 10
15.2079472909
 20
8.1383239342
 30
0.0
 10
15.2137417713
 20
8.1474541978
 30
0.0
  0
SPLINE
  5
3E0
100
AcDbEntity
  8
0
100
AcDbSpline
 62
9
  6
CONTINUOUS
 70
0
 71
3
 72
9
 73
5
 74
0
 42
0.0000001
 43
0.0000001
 44
0.0000000001
 40
0.0
 40
0.0
 40
0.0
 40
0.0
 40
0.2556479724
 40
1.0
 40
1.0
 40
1.0
 40
1.0
 10
15.4323567951
 20
8.138736627
 30
0.0
 10
15.4310948974
 20
8.1407976005
 30
0.0
 10
15.426000679
 20
8.1487607761
 30
0.0
 10
15.4202641817
 20
8.1563184729
 30
0.0
 10
15.4156365295
 20
8.1616188405
 30
0.0
  0
SPLINE
  5
3E1
100
AcDbEntity
  8
0
100
AcDbSpline
 62
9
  6
CONTINUOUS
 70
0
 71
3
 72
28
 73
24
 74
0
 42
0.0000001
 43
0.0000001
 44
0.0000000001
 40
0.0
 40
0.0
 40
0.0
 40
0.0
 40
0.061328603
 40
0.1197540653
 40
0.1757268421
 40
0.2030372275
 40
0.2300220027
 40
0.2568025201
 40
0.2835060819
 40
0.3102643931
 40
0.3372057743
 40
0.3644525938
 40
0.3921191336
 40
0.4490368476
 40
0.5086300134
 40
0.5712313284
 40
0.603712329
 40
0.6369519463
 40
0.7055621185
 40
0.7767269292
 40
0.8499451102
 40
0.9246423877
 40
1.0
 40
1.0
 40
1.0
 40
1.0
 10
15.4147056778
 20
8.1626751545
 30
0.0
 10
15.4100001721
 20
8.1679654123
 30
0.0
 10
15.400072381
 20
8.1776745912
 30
0.0
 10
15.3834543464
 20
8.1894604088
 30
0.0
 10
15.3685865418
 20
8.1965204732
 30
0.0
 10
15.3564157237
 20
8.2003082263
 30
0.0
 10
15.3472379595
 20
8.2022215303
 30
0.0
 10
15.3379871518
 20
8.2032219422
 30
0.0
 10
15.3287084495
 20
8.2033005906
 30
0.0
 10
15.3194495113
 20
8.2024558567
 30
0.0
 10
15.3102566057
 20
8.2006973086
 30
0.0
 10
15.3011752022
 20
8.1980312062
 30
0.0
 10
15.2891695923
 20
8.1932396117
 30
0.0
 10
15.2746182297
 20
8.1849667098
 30
0.0
 10
15.2585318954
 20
8.1718427831
 30
0.0
 10
15.2465040001
 20
8.1585550824
 30
0.0
 10
15.2377229576
 20
8.1466133032
 30
0.0
 10
15.2293633211
 20
8.133539535
 30
0.0
 10
15.2202216496
 20
8.1157210862
 30
0.0
 10
15.2115564951
 20
8.0926574711
 30
0.0
 10
15.2052466982
 20
8.0681159624
 30
0.0
 10
15.2014182985
 20
8.0425838723
 30
0.0
 10
15.2005591818
 20
8.0252483777
 30
0.0
 10
15.2005591818
 20
8.0165486253
 30
0.0
  0
SPLINE
  5
3E2
100
AcDbEntity
  8
0
100
AcDbSpline
 62
7
  6
CONTINUOUS
 70
0
 71
3
 72
19
 73
15
 74
0
 42
0.0000001
 43
0.0000001
 44
0.0000000001
 40
0.0
 40
0.0
 40
0.0
 40
0.0
 40
0.0513404152
 40
0.1035157336
 40
0.1568839592
 40
0.2117369469
 40
0.3265722488
 40
0.3869240059
 40
0.4492123967
 40
0.5792123025
 40
0.7155632648
 40
0.8565671245
 40
0.9281829098
 40
1.0
 40
1.0
 40
1.0
 40
1.0
 10
15.5933057677
 20
7.8282789576
 30
0.0
 10
15.5891874786
 20
7.8288231372
 30
0.0
 10
15.580945895
 20
7.8304624264
 30
0.0
 10
15.5688803909
 20
7.8345052418
 30
0.0
 10
15.5571373759
 20
7.840105283
 30
0.0
 10
15.5418221806
 20
7.8497151538
 30
0.0
 10
15.5277895821
 20
7.8621797887
 30
0.0
 10
15.5153515663
 20
7.876848024
 30
0.0
 10
15.5035618494
 20
7.8935788496
 30
0.0
 10
15.4910882933
 20
7.917203727
 30
0.0
 10
15.4802013492
 20
7.9484272349
 30
0.0
 10
15.4746644276
 20
7.9762118398
 30
0.0
 10
15.4724134697
 20
7.9991280863
 30
0.0
 10
15.47203235
 20
8.0107377173
 30
0.0
 10
15.47203235
 20
8.0165486253
 30
0.0
  0
SPLINE
  5
3E3
100
AcDbEntity
  8
0
100
AcDbSpline
 62
7
  6
CONTINUOUS
 70
0
 71
3
 72
19
 73
15
 74
0
 42
0.0000001
 43
0.0000001
 44
0.0000000001
 40
0.0
 40
0.0
 40
0.0
 40
0.0
 40
0.0718367805
 40
0.1434703126
 40
0.2845002084
 40
0.4208651802
 40
0.5508617496
 40
0.613143061
 40
0.6734842346
 40
0.7882928294
 40
0.843132588
 40
0.8964901971
 40
0.9486590714
 40
1.0
 40
1.0
 40
1.0
 40
1.0
 10
15.47203235
 20
8.0165486253
 30
0.0
 10
15.47203235
 20
8.0223679709
 30
0.0
 10
15.4724145476
 20
8.0339943186
 30
0.0
 10
15.4746718857
 20
8.0569423899
 30
0.0
 10
15.4802243086
 20
8.0847629921
 30
0.0
 10
15.4911408569
 20
8.1160209794
 30
0.0
 10
15.5036481961
 20
8.1396644403
 30
0.0
 10
15.5154682138
 20
8.1564014624
 30
0.0
 10
15.5279373916
 20
8.1710683083
 30
0.0
 10
15.5420035037
 20
8.183523445
 30
0.0
 10
15.5573530636
 20
8.1931111175
 30
0.0
 10
15.5691205252
 20
8.198690069
 30
0.0
 10
15.5812097647
 20
8.2027053331
 30
0.0
 10
15.5894653139
 20
8.2043229302
 30
0.0
 10
15.593590098
 20
8.2048554748
 30
0.0
  0
SPLINE
  5
3E4
100
AcDbEntity
  8
0
100
AcDbSpline
 62
9
  6
CONTINUOUS
 70
0
 71
3
 72
9
 73
5
 74
0
 42
0.0000001
 43
0.0000001
 44
0.0000000001
 40
0.0
 40
0.0
 40
0.0
 40
0.0
 40
0.4955657721
 40
1.0
 40
1.0
 40
1.0
 40
1.0
 10
15.5850096137
 20
8.1950495642
 30
0.0
 10
15.581606641
 20
8.1942595914
 30
0.0
 10
15.5748240063
 20
8.1922804593
 30
0.0
 10
15.568295471
 20
8.1895826368
 30
0.0
 10
15.5650823657
 20
8.1880591705
 30
0.0
  0
SPLINE
  5
3E5
100
AcDbEntity
  8
0
100
AcDbSpline
 62
9
  6
CONTINUOUS
 70
0
 71
3
 72
18
 73
14
 74
0
 42
0.0000001
 43
0.0000001
 44
0.0000000001
 40
0.0
 40
0.0
 40
0.0
 40
0.0
 40
0.0523246361
 40
0.1059352683
 40
0.1609749491
 40
0.2175354249
 40
0.3353141233
 40
0.4593347164
 40
0.5235534574
 40
0.5890605309
 40
0.7233030134
 40
0.8608687745
 40
1.0
 40
1.0
 40
1.0
 40
1.0
 10
15.5650823657
 20
8.1880591705
 30
0.0
 10
15.5618966637
 20
8.1865486972
 30
0.0
 10
15.555597505
 20
8.1831626925
 30
0.0
 10
15.5465666293
 20
8.1771283242
 30
0.0
 10
15.5378999375
 20
8.1701179833
 30
0.0
 10
15.5267490322
 20
8.1593927064
 30
0.0
 10
15.514037653
 20
8.1437046181
 30
0.0
 10
15.5034858261
 20
8.1259106572
 30
0.0
 10
15.4962461592
 20
8.1104107879
 30
0.0
 10
15.4897512843
 20
8.0938415004
 30
0.0
 10
15.4834325663
 20
8.0719471476
 30
0.0
 10
15.4788555495
 20
8.0445840966
 30
0.0
 10
15.4778286184
 20
8.025923337
 30
0.0
 10
15.4778286184
 20
8.0165486253
 30
0.0
  0
SPLINE
  5
3E6
100
AcDbEntity
  8
0
100
AcDbSpline
 62
9
  6
CONTINUOUS
 70
0
 71
3
 72
18
 73
14
 74
0
 42
0.0000001
 43
0.0000001
 44
0.0000000001
 40
0.0
 40
0.0
 40
0.0
 40
0.0
 40
0.1391220668
 40
0.2766770269
 40
0.4109117694
 40
0.4764168437
 40
0.5406345174
 40
0.6646564683
 40
0.7824419387
 40
0.8390077474
 40
0.8940532172
 40
0.9476695946
 40
1.0
 40
1.0
 40
1.0
 40
1.0
 10
15.4778286184
 20
8.0165486253
 30
0.0
 10
15.4778286184
 20
8.0071779155
 30
0.0
 10
15.4788546234
 20
7.9885252528
 30
0.0
 10
15.4834276881
 20
7.961173638
 30
0.0
 10
15.4897409658
 20
7.9392877919
 30
0.0
 10
15.4962301604
 20
7.9227239781
 30
0.0
 10
15.5034637015
 20
7.9072282031
 30
0.0
 10
15.5140071185
 20
7.8894374693
 30
0.0
 10
15.5267086642
 20
7.8737497995
 30
0.0
 10
15.5378513384
 20
7.8630223329
 30
0.0
 10
15.5465119864
 20
7.8560091312
 30
0.0
 10
15.5555371488
 20
7.8499712146
 30
0.0
 10
15.5618323834
 20
7.8465817868
 30
0.0
 10
15.5650162102
 20
7.8450694251
 30
0.0
  0
SPLINE
  5
3E7
100
AcDbEntity
  8
0
100
AcDbSpline
 62
9
  6
CONTINUOUS
 70
0
 71
3
 72
9
 73
5
 74
0
 42
0.0000001
 43
0.0000001
 44
0.0000000001
 40
0.0
 40
0.0
 40
0.0
 40
0.0
 40
0.5044182697
 40
1.0
 40
1.0
 40
1.0
 40
1.0
 10
15.5650162102
 20
7.8450694251
 30
0.0
 10
15.5682043815
 20
7.8435549997
 30
0.0
 10
15.5746814704
 20
7.8408700264
 30
0.0
 10
15.5814098391
 20
7.8388923948
 30
0.0
 10
15.5847858339
 20
7.8380999809
 30
0.0
  0
SPLINE
  5
3E8
100
AcDbEntity
  8
0
100
AcDbSpline
 62
9
  6
CONTINUOUS
 70
0
 71
3
 72
13
 73
9
 74
0
 42
0.0000001
 43
0.0000001
 44
0.0000000001
 40
0.0
 40
0.0
 40
0.0
 40
0.0
 40
0.1312129435
 40
0.261965392
 40
0.5187445881
 40
0.6438278927
 40
0.7660283771
 40
1.0
 40
1.0
 40
1.0
 40
1.0
 10
15.504899251
 20
8.0165486253
 30
0.0
 10
15.504899251
 20
8.0110000299
 30
0.0
 10
15.5052905794
 20
7.9999175238
 30
0.0
 10
15.5075987276
 20
7.978091289
 30
0.0
 10
15.5121761265
 20
7.9568076818
 30
0.0
 10
15.519013817
 20
7.9365980753
 30
0.0
 10
15.52704207
 20
7.9178839684
 30
0.0
 10
15.534682042
 20
7.9047849965
 30
0.0
 10
15.5404681558
 20
7.8967593457
 30
0.0
  0
SPLINE
  5
3E9
100
AcDbEntity
  8
0
100
AcDbSpline
 62
9
  6
CONTINUOUS
 70
0
 71
3
 72
10
 73
6
 74
0
 42
0.0000001
 43
0.0000001
 44
0.0000000001
 40
0.0
 40
0.0
 40
0.0
 40
0.0
 40
0.2559334653
 40
0.5096544517
 40
1.0
 40
1.0
 40
1.0
 40
1.0
 10
15.5223009653
 20
8.0165486253
 30
0.0
 10
15.5223009653
 20
8.0268655578
 30
0.0
 10
15.5233024445
 20
8.047429291
 30
0.0
 10
15.5291801258
 20
8.0873424935
 30
0.0
 10
15.5379895435
 20
8.1163242569
 30
0.0
 10
15.5458634051
 20
8.1344546066
 30
0.0
  0
SPLINE
  5
3EA
100
AcDbEntity
  8
0
100
AcDbSpline
 62
9
  6
CONTINUOUS
 70
0
 71
3
 72
9
 73
5
 74
0
 42
0.0000001
 43
0.0000001
 44
0.0000000001
 40
0.0
 40
0.0
 40
0.0
 40
0.0
 40
0.2569919022
 40
1.0
 40
1.0
 40
1.0
 40
1.0
 10
15.5458634051
 20
8.1344546066
 30
0.0
 10
15.5475464272
 20
8.1383299324
 30
0.0
 10
15.5544661453
 20
8.1532436031
 30
0.0
 10
15.5629112547
 20
8.1674662312
 30
0.0
 10
15.5700544123
 20
8.1773751825
 30
0.0
  0
SPLINE
  5
3EB
100
AcDbEntity
  8
0
100
AcDbSpline
 62
7
  6
CONTINUOUS
 70
0
 71
3
 72
9
 73
5
 74
0
 42
0.0000001
 43
0.0000001
 44
0.0000000001
 40
0.0
 40
0.0
 40
0.0
 40
0.0
 40
0.50453201
 40
1.0
 40
1.0
 40
1.0
 40
1.0
 10
14.56862409
 20
8.2103929995
 30
0.0
 10
14.5723685264
 20
8.2122153358
 30
0.0
 10
14.579985425
 20
8.2154414328
 30
0.0
 10
14.5879153152
 20
8.2178021453
 30
0.0
 10
14.5918954025
 20
8.2187418906
 30
0.0
  0
SPLINE
  5
3EC
100
AcDbEntity
  8
0
100
AcDbSpline
 62
9
  6
CONTINUOUS
 70
0
 71
3
 72
15
 73
11
 74
0
 42
0.0000001
 43
0.0000001
 44
0.0000000001
 40
0.0
 40
0.0
 40
0.0
 40
0.0
 40
0.1160264242
 40
0.2362144739
 40
0.3599244962
 40
0.4863523164
 40
0.6145813216
 40
0.7436142123
 40
0.8724274354
 40
1.0
 40
1.0
 40
1.0
 40
1.0
 10
14.7001874851
 20
8.1474690332
 30
0.0
 10
14.7041642937
 20
8.1412041257
 30
0.0
 10
14.7115165878
 20
8.1279646722
 30
0.0
 10
14.7205122927
 20
8.1067348113
 30
0.0
 10
14.7275448556
 20
8.0840790124
 30
0.0
 10
14.7325120746
 20
8.0603602964
 30
0.0
 10
14.735328071
 20
8.03594982
 30
0.0
 10
14.7359579075
 20
8.011233073
 30
0.0
 10
14.734384654
 20
7.9866024637
 30
0.0
 10
14.7318678017
 20
7.9703720679
 30
0.0
 10
14.7302414071
 20
7.9623768576
 30
0.0
  0
SPLINE
  5
3ED
100
AcDbEntity
  8
0
100
AcDbSpline
 62
9
  6
CONTINUOUS
 70
0
 71
3
 72
23
 73
19
 74
0
 42
0.0000001
 43
0.0000001
 44
0.0000000001
 40
0.0
 40
0.0
 40
0.0
 40
0.0
 40
0.1402173285
 40
0.2111046376
 40
0.2818215629
 40
0.4207011262
 40
0.4881138963
 40
0.5536326725
 40
0.6169706955
 40
0.677944636
 40
0.7075302009
 40
0.7365080541
 40
0.7648914233
 40
0.7927002552
 40
0.8466879302
 40
0.8988869729
 40
0.9498141817
 40
1.0
 40
1.0
 40
1.0
 40
1.0
 10
14.7070122758
 20
7.9592738429
 30
0.0
 10
14.710229208
 20
7.9733849504
 30
0.0
 10
14.713208488
 20
7.9951087595
 30
0.0
 10
14.7135715558
 20
8.024219516
 30
0.0
 10
14.7115276681
 20
8.0531247052
 30
0.0
 10
14.7059474501
 20
8.0813412658
 30
0.0
 10
14.6968377607
 20
8.1079109681
 30
0.0
 10
14.6884794962
 20
8.1264021266
 30
0.0
 10
14.6786433321
 20
8.1433874981
 30
0.0
 10
14.6692274261
 20
8.1562273641
 30
0.0
 10
14.6610749001
 20
8.1654975344
 30
0.0
 10
14.6547430186
 20
8.1718659161
 30
0.0
 10
14.6481568808
 20
8.1776987743
 30
0.0
 10
14.6391587799
 20
8.1846646855
 30
0.0
 10
14.6273683126
 20
8.1919916306
 30
0.0
 10
14.6124184715
 20
8.1984405244
 30
0.0
 10
14.5970148031
 20
8.2023454911
 30
0.0
 10
14.586558391
 20
8.2032265612
 30
0.0
 10
14.5813782412
 20
8.2032265612
 30
0.0
  0
SPLINE
  5
3EE
100
AcDbEntity
  8
0
100
AcDbSpline
 62
7
  6
CONTINUOUS
 70
0
 71
3
 72
11
 73
7
 74
0
 42
0.0000001
 43
0.0000001
 44
0.0000000001
 40
0.0
 40
0.0
 40
0.0
 40
0.0
 40
0.2621869426
 40
0.515384198
 40
0.760756427
 40
1.0
 40
1.0
 40
1.0
 40
1.0
 10
14.5627572897
 20
8.2215486253
 30
0.0
 10
14.5596405887
 20
8.2215486253
 30
0.0
 10
14.5535093968
 20
8.2212662289
 30
0.0
 10
14.5445466141
 20
8.2199499091
 30
0.0
 10
14.5360369449
 20
8.2177576567
 30
0.0
 10
14.5306411962
 20
8.215698265
 30
0.0
 10
14.5280467346
 20
8.2145334002
 30
0.0
  0
SPLINE
  5
3EF
100
AcDbEntity
  8
0
100
AcDbSpline
 62
7
  6
CONTINUOUS
 70
0
 71
3
 72
15
 73
11
 74
0
 42
0.0000001
 43
0.0000001
 44
0.0000000001
 40
0.0
 40
0.0
 40
0.0
 40
0.0
 40
0.1353725308
 40
0.2651023888
 40
0.3902307567
 40
0.5120113127
 40
0.6320478936
 40
0.7521552121
 40
0.8741859777
 40
1.0
 40
1.0
 40
1.0
 40
1.0
 10
14.4838102973
 20
7.8674977476
 30
0.0
 10
14.4853549834
 20
7.8639261954
 30
0.0
 10
14.4886575234
 20
7.8570463053
 30
0.0
 10
14.4944474153
 20
7.8474174929
 30
0.0
 10
14.5010064709
 20
7.8387743371
 30
0.0
 10
14.5083679741
 20
7.8311807214
 30
0.0
 10
14.5165593575
 20
7.8247145035
 30
0.0
 10
14.5255813223
 20
7.8194497809
 30
0.0
 10
14.5354093221
 20
7.8154500414
 30
0.0
 10
14.5423431004
 20
7.8137051943
 30
0.0
 10
14.5458993974
 20
7.8130479591
 30
0.0
  0
SPLINE
  5
3F0
100
AcDbEntity
  8
0
100
AcDbSpline
 62
9
  6
CONTINUOUS
 70
0
 71
3
 72
9
 73
5
 74
0
 42
0.0000001
 43
0.0000001
 44
0.0000000001
 40
0.0
 40
0.0
 40
0.0
 40
0.0
 40
0.495754528
 40
1.0
 40
1.0
 40
1.0
 40
1.0
 10
14.5799540633
 20
8.2032156958
 30
0.0
 10
14.5745431263
 20
8.2031331302
 30
0.0
 10
14.5636237179
 20
8.2020042926
 30
0.0
 10
14.5530598701
 20
8.1990362736
 30
0.0
 10
14.5478989152
 20
8.1971228107
 30
0.0
  0
SPLINE
  5
3F1
100
AcDbEntity
  8
0
100
AcDbSpline
 62
9
  6
CONTINUOUS
 70
0
 71
3
 72
13
 73
9
 74
0
 42
0.0000001
 43
0.0000001
 44
0.0000000001
 40
0.0
 40
0.0
 40
0.0
 40
0.0
 40
0.2666367269
 40
0.3951785334
 40
0.5207191876
 40
0.7638974684
 40
0.8826396685
 40
1.0
 40
1.0
 40
1.0
 40
1.0
 10
14.4993909845
 20
7.8702447295
 30
0.0
 10
14.5041560637
 20
7.8649044301
 30
0.0
 10
14.5117977131
 20
7.857469715
 30
0.0
 10
14.522928958
 20
7.8489942879
 30
0.0
 10
14.5341991779
 20
7.8418210829
 30
0.0
 10
14.5461376657
 20
7.8362549692
 30
0.0
 10
14.5584723999
 20
7.8325453179
 30
0.0
 10
14.5647024849
 20
7.8313162838
 30
0.0
 10
14.5678196019
 20
7.8308607719
 30
0.0
  0
SPLINE
  5
3F2
100
AcDbEntity
  8
0
100
AcDbSpline
 62
9
  6
CONTINUOUS
 70
0
 71
3
 72
14
 73
10
 74
0
 42
0.0000001
 43
0.0000001
 44
0.0000000001
 40
0.0
 40
0.0
 40
0.0
 40
0.0
 40
0.2339280142
 40
0.3561114484
 40
0.4811805221
 40
0.6086647213
 40
0.7380661543
 40
0.8687886704
 40
1.0
 40
1.0
 40
1.0
 40
1.0
 10
15.5700544123
 20
7.8557220681
 30
0.0
 10
15.5622867251
 20
7.8664973635
 30
0.0
 10
15.5520273837
 20
7.8840832623
 30
0.0
 10
15.5412518211
 20
7.9092086694
 30
0.0
 10
15.5344230951
 20
7.9293875652
 30
0.0
 10
15.529045774
 20
7.9504188744
 30
0.0
 10
15.5251644327
 20
7.9721036677
 30
0.0
 10
15.5228257466
 20
7.9942193331
 30
0.0
 10
15.5223009653
 20
8.0090980039
 30
0.0
 10
15.5223009653
 20
8.0165486253
 30
0.0
  0
SPLINE
  5
3F3
100
AcDbEntity
  8
0
100
AcDbSpline
 62
9
  6
CONTINUOUS
 70
0
 71
3
 72
13
 73
9
 74
0
 42
0.0000001
 43
0.0000001
 44
0.0000000001
 40
0.0
 40
0.0
 40
0.0
 40
0.0
 40
0.2339716229
 40
0.3561721072
 40
0.4812554119
 40
0.738034608
 40
0.8687870564
 40
1.0
 40
1.0
 40
1.0
 40
1.0
 10
15.5404681558
 20
8.1363379049
 30
0.0
 10
15.534682042
 20
8.1283122542
 30
0.0
 10
15.52704207
 20
8.1152132823
 30
0.0
 10
15.519013817
 20
8.0964991753
 30
0.0
 10
15.5121761265
 20
8.0762895688
 30
0.0
 10
15.5075987276
 20
8.0550059616
 30
0.0
 10
15.5052905794
 20
8.0331797268
 30
0.0
 10
15.504899251
 20
8.0220972207
 30
0.0
 10
15.504899251
 20
8.0165486253
 30
0.0
  0
SPLINE
  5
3F4
100
AcDbEntity
  8
0
100
AcDbSpline
 62
7
  6
CONTINUOUS
 70
0
 71
3
 72
17
 73
13
 74
0
 42
0.0000001
 43
0.0000001
 44
0.0000000001
 40
0.0
 40
0.0
 40
0.0
 40
0.0
 40
0.1696492325
 40
0.3234485151
 40
0.4622100083
 40
0.5872528903
 40
0.7004962304
 40
0.804595974
 40
0.8543316804
 40
0.9031319961
 40
0.9515136079
 40
1.0
 40
1.0
 40
1.0
 40
1.0
 10
14.8859475259
 20
8.5149204132
 30
0.0
 10
14.8904392681
 20
8.5151264811
 30
0.0
 10
14.8990189524
 20
8.5152619927
 30
0.0
 10
14.9112611548
 20
8.514521385
 30
0.0
 10
14.9222184248
 20
8.512824419
 30
0.0
 10
14.9318797325
 20
8.5101648961
 30
0.0
 10
14.9402351347
 20
8.5065349826
 30
0.0
 10
14.9461887038
 20
8.502622939
 30
0.0
 10
14.950191316
 20
8.4990295251
 30
0.0
 10
14.9528114222
 20
8.4961389923
 30
0.0
 10
14.9550929218
 20
8.4930158656
 30
0.0
 10
14.956383039
 20
8.490789701
 30
0.0
 10
14.9569693287
 20
8.4896461255
 30
0.0
  0
SPLINE
  5
3F5
100
AcDbEntity
  8
0
100
AcDbSpline
 62
7
  6
CONTINUOUS
 70
0
 71
3
 72
15
 73
11
 74
0
 42
0.0000001
 43
0.0000001
 44
0.0000000001
 40
0.0
 40
0.0
 40
0.0
 40
0.0
 40
0.0990189866
 40
0.1994256858
 40
0.3049453329
 40
0.41881967
 40
0.543621463
 40
0.6812602781
 40
0.8330842291
 40
1.0
 40
1.0
 40
1.0
 40
1.0
 10
14.9569693287
 20
8.4896461255
 30
0.0
 10
14.958075583
 20
8.4918039076
 30
0.0
 10
14.9607381783
 20
8.4959438067
 30
0.0
 10
14.9659896774
 20
8.501318279
 30
0.0
 10
14.9724551673
 20
8.5058117981
 30
0.0
 10
14.9801069218
 20
8.5094236755
 30
0.0
 10
14.9889306282
 20
8.5121658886
 30
0.0
 10
14.9989180291
 20
8.514047133
 30
0.0
 10
15.0100601756
 20
8.5150722845
 30
0.0
 10
15.0178724749
 20
8.515180991
 30
0.0
 10
15.0219594163
 20
8.5151116053
 30
0.0
  0
SPLINE
  5
3F6
100
AcDbEntity
  8
0
100
AcDbSpline
 62
9
  6
CONTINUOUS
 70
0
 71
3
 72
12
 73
8
 74
0
 42
0.0000001
 43
0.0000001
 44
0.0000000001
 40
0.0
 40
0.0
 40
0.0
 40
0.0
 40
0.2364555622
 40
0.484028297
 40
0.7398191524
 40
0.8697098219
 40
1.0
 40
1.0
 40
1.0
 40
1.0
 10
15.2134731786
 20
7.8860672523
 30
0.0
 10
15.2078085893
 20
7.8950451538
 30
0.0
 10
15.1977375651
 20
7.9144174973
 30
0.0
 10
15.1868251825
 20
7.9458914388
 30
0.0
 10
15.1811904801
 20
7.9738500474
 30
0.0
 10
15.1788123407
 20
7.9969033562
 30
0.0
 10
15.1783506698
 20
8.0085848068
 30
0.0
 10
15.1783060437
 20
8.0144339567
 30
0.0
  0
SPLINE
  5
3F7
100
AcDbEntity
  8
0
100
AcDbSpline
 62
7
  6
CONTINUOUS
 70
0
 71
3
 72
9
 73
5
 74
0
 42
0.0000001
 43
0.0000001
 44
0.0000000001
 40
0.0
 40
0.0
 40
0.0
 40
0.0
 40
0.4955043
 40
1.0
 40
1.0
 40
1.0
 40
1.0
 10
15.3223510296
 20
8.2186688034
 30
0.0
 10
15.326283373
 20
8.2177280515
 30
0.0
 10
15.3341172879
 20
8.2153765196
 30
0.0
 10
15.3416443081
 20
8.2121805712
 30
0.0
 10
15.3453453777
 20
8.2103780401
 30
0.0
  0
SPLINE
  5
3F8
100
AcDbEntity
  8
0
100
AcDbSpline
 62
7
  6
CONTINUOUS
 70
0
 71
3
 72
9
 73
5
 74
0
 42
0.0000001
 43
0.0000001
 44
0.0000000001
 40
0.0
 40
0.0
 40
0.0
 40
0.0
 40
0.5045153013
 40
1.0
 40
1.0
 40
1.0
 40
1.0
 10
15.3453145324
 20
7.8227042347
 30
0.0
 10
15.3415887481
 20
7.8208909776
 30
0.0
 10
15.3340105478
 20
7.8176789461
 30
0.0
 10
15.3261220924
 20
7.8153232879
 30
0.0
 10
15.3221626421
 20
7.8143836197
 30
0.0
  0
SPLINE
  5
3F9
100
AcDbEntity
  8
0
100
AcDbSpline
 62
7
  6
CONTINUOUS
 70
0
 71
3
 72
19
 73
15
 74
0
 42
0.0000001
 43
0.0000001
 44
0.0000000001
 40
0.0
 40
0.0
 40
0.0
 40
0.0
 40
0.1272461487
 40
0.1881200535
 40
0.2474943978
 40
0.305824975
 40
0.3635980569
 40
0.4212825501
 40
0.4793601619
 40
0.5382829568
 40
0.5984306621
 40
0.7235914931
 40
0.8570367942
 40
1.0
 40
1.0
 40
1.0
 40
1.0
 10
15.3511813111
 20
7.8115486253
 30
0.0
 10
15.3567457025
 20
7.8115486228
 30
0.0
 10
15.3650036227
 20
7.8122285294
 30
0.0
 10
15.3755621161
 20
7.8146662014
 30
0.0
 10
15.3829697485
 20
7.8171829208
 30
0.0
 10
15.3899553726
 20
7.8203908652
 30
0.0
 10
15.3965092179
 20
7.8242648542
 30
0.0
 10
15.4026223468
 20
7.8287829719
 30
0.0
 10
15.4082943088
 20
7.8339173589
 30
0.0
 10
15.4135330667
 20
7.8396385293
 30
0.0
 10
15.4200377734
 20
7.8481238233
 30
0.0
 10
15.4271320386
 20
7.8601877486
 30
0.0
 10
15.4339906617
 20
7.8763926156
 30
0.0
 10
15.4375264612
 20
7.8879721912
 30
0.0
 10
15.4391150674
 20
7.8940186724
 30
0.0
  0
SPLINE
  5
3FA
100
AcDbEntity
  8
0
100
AcDbSpline
 62
7
  6
CONTINUOUS
 70
0
 71
3
 72
18
 73
14
 74
0
 42
0.0000001
 43
0.0000001
 44
0.0000000001
 40
0.0
 40
0.0
 40
0.0
 40
0.0
 40
0.1428643146
 40
0.2762481366
 40
0.4013865935
 40
0.5203475777
 40
0.578438263
 40
0.6361543508
 40
0.6939593717
 40
0.7523274649
 40
0.811757359
 40
0.8726860505
 40
1.0
 40
1.0
 40
1.0
 40
1.0
 10
15.439039423
 20
8.1393659814
 30
0.0
 10
15.4374480247
 20
8.145391894
 30
0.0
 10
15.4339075103
 20
8.1569318866
 30
0.0
 10
15.427043166
 20
8.1730836375
 30
0.0
 10
15.4186469334
 20
8.1873152504
 30
0.0
 10
15.4101615865
 20
8.1975025609
 30
0.0
 10
15.4025482943
 20
8.2043747863
 30
0.0
 10
15.3964407731
 20
8.2088760731
 30
0.0
 10
15.3898954954
 20
8.2127372799
 30
0.0
 10
15.3829191914
 20
8.2159349341
 30
0.0
 10
15.3755208877
 20
8.2184412865
 30
0.0
 10
15.3649788803
 20
8.2208696913
 30
0.0
 10
15.3567354779
 20
8.2215486253
 30
0.0
 10
15.3511813592
 20
8.2215486253
 30
0.0
  0
SPLINE
  5
3FB
100
AcDbEntity
  8
0
100
AcDbSpline
 62
7
  6
CONTINUOUS
 70
0
 71
3
 72
15
 73
11
 74
0
 42
0.0000001
 43
0.0000001
 44
0.0000000001
 40
0.0
 40
0.0
 40
0.0
 40
0.0
 40
0.1677257897
 40
0.3201329278
 40
0.4581103249
 40
0.5829950075
 40
0.6966978358
 40
0.8018155037
 40
0.9016456046
 40
1.0
 40
1.0
 40
1.0
 40
1.0
 10
15.0236168296
 20
8.5160775129
 30
0.0
 10
15.0194187694
 20
8.516183497
 30
0.0
 10
15.011395965
 20
8.5161403607
 30
0.0
 10
14.9999520547
 20
8.5151913976
 30
0.0
 10
14.9896985553
 20
8.5133595562
 30
0.0
 10
14.9806449065
 20
8.510639752
 30
0.0
 10
14.9727995535
 20
8.5070227468
 30
0.0
 10
14.9661772384
 20
8.5024952971
 30
0.0
 10
14.9608074774
 20
8.4970570234
 30
0.0
 10
14.9580933733
 20
8.492854799
 30
0.0
 10
14.9569693287
 20
8.4906637807
 30
0.0
  0
SPLINE
  5
3FC
100
AcDbEntity
  8
0
100
AcDbSpline
 62
7
  6
CONTINUOUS
 70
0
 71
3
 72
17
 73
13
 74
0
 42
0.0000001
 43
0.0000001
 44
0.0000000001
 40
0.0
 40
0.0
 40
0.0
 40
0.0
 40
0.0484771028
 40
0.0968473272
 40
0.145636382
 40
0.1953643548
 40
0.2994611282
 40
0.4127069028
 40
0.537759086
 40
0.6765316895
 40
0.8303316015
 40
1.0
 40
1.0
 40
1.0
 40
1.0
 10
14.9569693287
 20
8.4906637807
 30
0.0
 10
14.9563829994
 20
8.4918066697
 30
0.0
 10
14.9550929455
 20
8.4940314339
 30
0.0
 10
14.9528116286
 20
8.4971523683
 30
0.0
 10
14.9501916858
 20
8.5000405391
 30
0.0
 10
14.946189502
 20
8.5036313737
 30
0.0
 10
14.9402366485
 20
8.5075405483
 30
0.0
 10
14.9318826963
 20
8.5111681233
 30
0.0
 10
14.9222230583
 20
8.5138257394
 30
0.0
 10
14.9112681617
 20
8.515521892
 30
0.0
 10
14.8990284791
 20
8.5162626669
 30
0.0
 10
14.8904505721
 20
8.5161276985
 30
0.0
 10
14.8859595278
 20
8.5159217957
 30
0.0
  0
LINE
  5
3FD
100
AcDbEntity
  8
0
100
AcDbLine
 62
7
  6
CONTINUOUS
 10
10.181192058
 20
11.1230833955
 11
10.1834851777
 21
11.1226165216
  0
LINE
  5
3FE
100
AcDbEntity
  8
0
100
AcDbLine
 62
7
  6
CONTINUOUS
 10
10.1834851777
 20
11.1226165216
 11
10.1889376536
 21
11.1213445424
  0
LINE
  5
3FF
100
AcDbEntity
  8
0
100
AcDbLine
 62
7
  6
CONTINUOUS
 10
10.1889376536
 20
11.1213445424
 11
10.2170169314
 21
11.1142895162
  0
LINE
  5
400
100
AcDbEntity
  8
0
100
AcDbLine
 62
7
  6
CONTINUOUS
 10
10.2170169314
 20
11.1142895162
 11
10.2264632541
 21
11.1117007978
  0
SPLINE
  5
401
100
AcDbEntity
  8
0
100
AcDbSpline
 62
7
  6
CONTINUOUS
 70
0
 71
3
 72
17
 73
13
 74
0
 42
0.0000001
 43
0.0000001
 44
0.0000000001
 40
0.0
 40
0.0
 40
0.0
 40
0.0
 40
0.0116285226
 40
0.0288056813
 40
0.0529668822
 40
0.0844852823
 40
0.1697172268
 40
0.2840472916
 40
0.4263581934
 40
0.5946787465
 40
0.7866795322
 40
1.0
 40
1.0
 40
1.0
 40
1.0
 10
10.1420675808
 20
11.1409855413
 30
0.0
 10
10.1420820072
 20
11.1410197747
 30
0.0
 10
10.1421565568
 20
11.1410848623
 30
0.0
 10
10.1423179949
 20
11.1411368468
 30
0.0
 10
10.1425486973
 20
11.141173582
 30
0.0
 10
10.142998575
 20
11.141197303
 30
0.0
 10
10.1437373645
 20
11.1411659
 30
0.0
 10
10.1448241646
 20
11.141056856
 30
0.0
 10
10.1461690861
 20
11.1408693697
 30
0.0
 10
10.1477532403
 20
11.1406064598
 30
0.0
 10
10.1495549318
 20
11.1402708331
 30
0.0
 10
10.1508240173
 20
11.1400135257
 30
0.0
 10
10.151491019
 20
11.139873783
 30
0.0
  0
LINE
  5
402
100
AcDbEntity
  8
0
100
AcDbLine
 62
7
  6
CONTINUOUS
 10
10.151491019
 20
11.139873783
 11
10.1607668637
 21
11.1377050227
  0
SPLINE
  5
403
100
AcDbEntity
  8
0
100
AcDbSpline
 62
7
  6
CONTINUOUS
 70
0
 71
3
 72
11
 73
7
 74
0
 42
0.0000001
 43
0.0000001
 44
0.0000000001
 40
0.0
 40
0.0
 40
0.0
 40
0.0
 40
0.3158238555
 40
0.5973658295
 40
0.8296387314
 40
1.0
 40
1.0
 40
1.0
 40
1.0
 10
10.1708012825
 20
11.1349754568
 30
0.0
 10
10.1723619712
 20
11.1345224027
 30
0.0
 10
10.1753067714
 20
11.1336407177
 30
0.0
 10
10.1793730962
 20
11.1323390378
 30
0.0
 10
10.1826965325
 20
11.1311778086
 30
0.0
 10
10.1846288449
 20
11.1304257129
 30
0.0
 10
10.1854289705
 20
11.1300675798
 30
0.0
  0
SPLINE
  5
404
100
AcDbEntity
  8
0
100
AcDbSpline
 62
7
  6
CONTINUOUS
 70
0
 71
3
 72
18
 73
14
 74
0
 42
0.0000001
 43
0.0000001
 44
0.0000000001
 40
0.0
 40
0.0
 40
0.0
 40
0.0
 40
0.0138965161
 40
0.033396503
 40
0.0601896778
 40
0.0946800402
 40
0.1368763566
 40
0.1866403847
 40
0.2437360108
 40
0.3077230235
 40
0.4542858948
 40
0.622058256
 40
1.0
 40
1.0
 40
1.0
 40
1.0
 10
10.0463634886
 20
11.1847696355
 30
0.0
 10
10.0464036707
 20
11.1848598718
 30
0.0
 10
10.0465890199
 20
11.1850322389
 30
0.0
 10
10.0469966559
 20
11.1851721846
 30
0.0
 10
10.0475657422
 20
11.1852617923
 30
0.0
 10
10.0483016291
 20
11.1852920678
 30
0.0
 10
10.0492005531
 20
11.1852655011
 30
0.0
 10
10.0502569281
 20
11.1851794762
 30
0.0
 10
10.0514628219
 20
11.185034047
 30
0.0
 10
10.0533440792
 20
11.1847493324
 30
0.0
 10
10.0559870292
 20
11.184247983
 30
0.0
 10
10.0607870773
 20
11.1831619863
 30
0.0
 10
10.064532637
 20
11.1821446976
 30
0.0
 10
10.0671101014
 20
11.1813872169
 30
0.0
  0
LINE
  5
405
100
AcDbEntity
  8
0
100
AcDbLine
 62
7
  6
CONTINUOUS
 10
10.0769621533
 20
11.178191094
 11
10.0850572329
 21
11.1749935703
  0
SPLINE
  5
406
100
AcDbEntity
  8
0
100
AcDbSpline
 62
7
  6
CONTINUOUS
 70
0
 71
3
 72
17
 73
13
 74
0
 42
0.0000001
 43
0.0000001
 44
0.0000000001
 40
0.0
 40
0.0
 40
0.0
 40
0.0
 40
0.0191647661
 40
0.0404372131
 40
0.066102723
 40
0.0974741631
 40
0.1797340215
 40
0.2899548635
 40
0.4285927927
 40
0.5943580709
 40
0.7854627379
 40
1.0
 40
1.0
 40
1.0
 40
1.0
 10
10.0906981565
 20
11.1712246977
 30
0.0
 10
10.0907164582
 20
11.1712654987
 30
0.0
 10
10.0907365648
 20
11.1713609732
 30
0.0
 10
10.0907066954
 20
11.1715151472
 30
0.0
 10
10.0906244833
 20
11.1716799046
 30
0.0
 10
10.0904288629
 20
11.171940882
 30
0.0
 10
10.0900401958
 20
11.1722948132
 30
0.0
 10
10.0894120207
 20
11.1727452341
 30
0.0
 10
10.0885847524
 20
11.1732484465
 30
0.0
 10
10.0875683173
 20
11.17379994
 30
0.0
 10
10.08637375
 20
11.1743926637
 30
0.0
 10
10.0855141375
 20
11.1747890616
 30
0.0
 10
10.0850572329
 20
11.1749935703
 30
0.0
  0
SPLINE
  5
407
100
AcDbEntity
  8
0
100
AcDbSpline
 62
7
  6
CONTINUOUS
 70
0
 71
3
 72
18
 73
14
 74
0
 42
0.0000001
 43
0.0000001
 44
0.0000000001
 40
0.0
 40
0.0
 40
0.0
 40
0.0
 40
0.0187962803
 40
0.0411767287
 40
0.0690548637
 40
0.103343888
 40
0.1443641015
 40
0.1921845527
 40
0.307919705
 40
0.4494429552
 40
0.6142064294
 40
0.7988838177
 40
1.0
 40
1.0
 40
1.0
 40
1.0
 10
9.906791314
 20
11.2486068882
 30
0.0
 10
9.9068305652
 20
11.2486950174
 30
0.0
 10
9.9069649353
 20
11.2488675056
 30
0.0
 10
9.9072726232
 20
11.2490525694
 30
0.0
 10
9.9076874843
 20
11.2491874431
 30
0.0
 10
9.9082110899
 20
11.2492750376
 30
0.0
 10
9.9088424113
 20
11.2493168227
 30
0.0
 10
9.9098930743
 20
11.2493098943
 30
0.0
 10
9.9114547905
 20
11.2491670893
 30
0.0
 10
9.9135945225
 20
11.2488247791
 30
0.0
 10
9.9160614361
 20
11.2483064608
 30
0.0
 10
9.9188039389
 20
11.2476233372
 30
0.0
 10
9.9207098024
 20
11.2470848321
 30
0.0
 10
9.921699424
 20
11.2467912148
 30
0.0
  0
LINE
  5
408
100
AcDbEntity
  8
0
100
AcDbLine
 62
7
  6
CONTINUOUS
 10
9.9293185663
 20
11.2442757762
 11
9.9386813371
 21
11.240510839
  0
SPLINE
  5
409
100
AcDbEntity
  8
0
100
AcDbSpline
 62
7
  6
CONTINUOUS
 70
0
 71
3
 72
15
 73
11
 74
0
 42
0.0000001
 43
0.0000001
 44
0.0000000001
 40
0.0
 40
0.0
 40
0.0
 40
0.0
 40
0.0511302034
 40
0.115263533
 40
0.2005580906
 40
0.3103371703
 40
0.4456709291
 40
0.6062585347
 40
0.7913488026
 40
1.0
 40
1.0
 40
1.0
 40
1.0
 10
9.9501303301
 20
11.2328438427
 30
0.0
 10
9.9501770309
 20
11.2329492783
 30
0.0
 10
9.9502004435
 20
11.2332243228
 30
0.0
 10
9.9500199024
 20
11.2336487864
 30
0.0
 10
9.9496683051
 20
11.2341188621
 30
0.0
 10
9.9491364994
 20
11.2346437053
 30
0.0
 10
9.9484267288
 20
11.2352223412
 30
0.0
 10
9.9475422046
 20
11.2358514753
 30
0.0
 10
9.9464890782
 20
11.2365258517
 30
0.0
 10
9.9457233503
 20
11.2369759638
 30
0.0
 10
9.9453141887
 20
11.2372084063
 30
0.0
  0
LINE
  5
40A
100
AcDbEntity
  8
0
100
AcDbLine
 62
7
  6
CONTINUOUS
 10
9.9453141887
 20
11.2372084063
 11
9.9386813371
 21
11.240510839
  0
SPLINE
  5
40B
100
AcDbEntity
  8
0
100
AcDbSpline
 62
7
  6
CONTINUOUS
 70
0
 71
3
 72
14
 73
10
 74
0
 42
0.0000001
 43
0.0000001
 44
0.0000000001
 40
0.0
 40
0.0
 40
0.0
 40
0.0
 40
0.057102482
 40
0.1263152864
 40
0.2147693967
 40
0.3257455258
 40
0.4601099498
 40
0.6177031292
 40
1.0
 40
1.0
 40
1.0
 40
1.0
 10
9.7418821283
 20
11.3240080464
 30
0.0
 10
9.7419335164
 20
11.3241223444
 30
0.0
 10
9.7421199901
 20
11.3243438965
 30
0.0
 10
9.742550334
 20
11.3245539021
 30
0.0
 10
9.7431292718
 20
11.3246807462
 30
0.0
 10
9.7438622542
 20
11.3247267271
 30
0.0
 10
9.744746897
 20
11.324694507
 30
0.0
 10
9.746218931
 20
11.3245355992
 30
0.0
 10
9.7473844481
 20
11.3243110162
 30
0.0
 10
9.7482033763
 20
11.3241285985
 30
0.0
  0
SPLINE
  5
40C
100
AcDbEntity
  8
0
100
AcDbSpline
 62
7
  6
CONTINUOUS
 70
0
 71
3
 72
10
 73
6
 74
0
 42
0.0000001
 43
0.0000001
 44
0.0000000001
 40
0.0
 40
0.0
 40
0.0
 40
0.0
 40
0.2093062489
 40
0.4514836412
 40
1.0
 40
1.0
 40
1.0
 40
1.0
 10
9.7482033763
 20
11.3241285985
 30
0.0
 10
9.749275851
 20
11.3238897028
 30
0.0
 10
9.7515689984
 20
11.3232834136
 30
0.0
 10
9.7565719444
 20
11.3216897826
 30
0.0
 10
9.7604462459
 20
11.3201863616
 30
0.0
 10
9.7630990717
 20
11.3190666423
 30
0.0
  0
SPLINE
  5
40D
100
AcDbEntity
  8
0
100
AcDbSpline
 62
7
  6
CONTINUOUS
 70
0
 71
3
 72
16
 73
12
 74
0
 42
0.0000001
 43
0.0000001
 44
0.0000000001
 40
0.0
 40
0.0
 40
0.0
 40
0.0
 40
0.1021364183
 40
0.1426158254
 40
0.1898272906
 40
0.2437689894
 40
0.3043423399
 40
0.4447263065
 40
0.6093459887
 40
0.795486824
 40
1.0
 40
1.0
 40
1.0
 40
1.0
 10
9.7840490422
 20
11.3056252797
 30
0.0
 10
9.7842390175
 20
11.306052608
 30
0.0
 10
9.783863895
 20
11.3067883969
 30
0.0
 10
9.7833356924
 20
11.3074438187
 30
0.0
 10
9.7828860198
 20
11.3079203138
 30
0.0
 10
9.782344703
 20
11.3084232796
 30
0.0
 10
9.7814512923
 20
11.3091760422
 30
0.0
 10
9.7801062794
 20
11.3101741138
 30
0.0
 10
9.7782289888
 20
11.3114138285
 30
0.0
 10
9.7760502325
 20
11.3127252517
 30
0.0
 10
9.7744870257
 20
11.3135953423
 30
0.0
 10
9.7736624179
 20
11.3140390561
 30
0.0
  0
LINE
  5
40E
100
AcDbEntity
  8
0
100
AcDbLine
 62
7
  6
CONTINUOUS
 10
9.7736624179
 20
11.3140390561
 11
9.7657457324
 21
11.3179161277
  0
SPLINE
  5
40F
100
AcDbEntity
  8
0
100
AcDbSpline
 62
7
  6
CONTINUOUS
 70
0
 71
3
 72
18
 73
14
 74
0
 42
0.0000001
 43
0.0000001
 44
0.0000000001
 40
0.0
 40
0.0
 40
0.0
 40
0.0
 40
0.0181008705
 40
0.0392872603
 40
0.0658301724
 40
0.0988726038
 40
0.1389678427
 40
0.1862839945
 40
0.3020798772
 40
0.4447300278
 40
0.6118391814
 40
0.7987749799
 40
1.0
 40
1.0
 40
1.0
 40
1.0
 10
9.5735429527
 20
11.4009516397
 30
0.0
 10
9.5735844593
 20
11.4010430824
 30
0.0
 10
9.5737273526
 20
11.4012195033
 30
0.0
 10
9.5740584762
 20
11.4013882334
 30
0.0
 10
9.5744986828
 20
11.401485568
 30
0.0
 10
9.5750525049
 20
11.4015157865
 30
0.0
 10
9.5757206446
 20
11.4014788664
 30
0.0
 10
9.5768388252
 20
11.4013289933
 30
0.0
 10
9.5784963736
 20
11.4009558389
 30
0.0
 10
9.580760414
 20
11.400283224
 30
0.0
 10
9.5833602485
 20
11.3993668897
 30
0.0
 10
9.5862261467
 20
11.3982356616
 30
0.0
 10
9.5882040739
 20
11.3973830678
 30
0.0
 10
9.589223037
 20
11.396926984
 30
0.0
  0
SPLINE
  5
410
100
AcDbEntity
  8
0
100
AcDbSpline
 62
7
  6
CONTINUOUS
 70
0
 71
3
 72
17
 73
13
 74
0
 42
0.0000001
 43
0.0000001
 44
0.0000000001
 40
0.0
 40
0.0
 40
0.0
 40
0.0
 40
0.0205305108
 40
0.0441368292
 40
0.0726140869
 40
0.1069639697
 40
0.1949624001
 40
0.3092149004
 40
0.4488864049
 40
0.612429239
 40
0.7971555911
 40
1.0
 40
1.0
 40
1.0
 40
1.0
 10
9.6145135733
 20
11.379894977
 30
0.0
 10
9.6145503769
 20
11.3799776495
 30
0.0
 10
9.6145916018
 20
11.3801733581
 30
0.0
 10
9.6145488348
 20
11.3804944897
 30
0.0
 10
9.6144140317
 20
11.3808531534
 30
0.0
 10
9.614084698
 20
11.381432761
 30
0.0
 10
9.6134199574
 20
11.3822435823
 30
0.0
 10
9.6123413724
 20
11.3832974967
 30
0.0
 10
9.6109315773
 20
11.3844825218
 30
0.0
 10
9.6092130932
 20
11.3857768063
 30
0.0
 10
9.6072149652
 20
11.3871592477
 30
0.0
 10
9.6057787764
 20
11.3880848725
 30
0.0
 10
9.6050206947
 20
11.3885589234
 30
0.0
  0
LINE
  5
411
100
AcDbEntity
  8
0
100
AcDbLine
 62
7
  6
CONTINUOUS
 10
9.6050206947
 20
11.3885589234
 11
9.5973553862
 21
11.3929533821
  0
LINE
  5
412
100
AcDbEntity
  8
0
100
AcDbLine
 62
7
  6
CONTINUOUS
 10
9.5973553862
 20
11.3929533821
 11
9.589223037
 21
11.396926984
  0
SPLINE
  5
413
100
AcDbEntity
  8
0
100
AcDbSpline
 62
7
  6
CONTINUOUS
 70
0
 71
3
 72
17
 73
13
 74
0
 42
0.0000001
 43
0.0000001
 44
0.0000000001
 40
0.0
 40
0.0
 40
0.0
 40
0.0
 40
0.0189586795
 40
0.0402086956
 40
0.0660360744
 40
0.0977123943
 40
0.1808586435
 40
0.2921382571
 40
0.4317767389
 40
0.5979406192
 40
0.7881974634
 40
1.0
 40
1.0
 40
1.0
 40
1.0
 10
9.4241361426
 20
11.46922084
 30
0.0
 10
9.4241592533
 20
11.4692726195
 30
0.0
 10
9.4242338108
 20
11.4693723816
 30
0.0
 10
9.4244078209
 20
11.4694731683
 30
0.0
 10
9.4246373249
 20
11.4695334151
 30
0.0
 10
9.42505806
 20
11.4695670155
 30
0.0
 10
9.425734698
 20
11.4694955876
 30
0.0
 10
9.4267102962
 20
11.4692777689
 30
0.0
 10
9.427905019
 20
11.4689152948
 30
0.0
 10
9.4293022751
 20
11.4684155307
 30
0.0
 10
9.4308807688
 20
11.4677848857
 30
0.0
 10
9.4319841776
 20
11.4673064719
 30
0.0
 10
9.4325623751
 20
11.467047673
 30
0.0
  0
SPLINE
  5
414
100
AcDbEntity
  8
0
100
AcDbSpline
 62
7
  6
CONTINUOUS
 70
0
 71
3
 72
16
 73
12
 74
0
 42
0.0000001
 43
0.0000001
 44
0.0000000001
 40
0.0
 40
0.0
 40
0.0
 40
0.0
 40
0.0392771211
 40
0.0666696373
 40
0.1004342776
 40
0.1882442618
 40
0.3030600469
 40
0.4437417975
 40
0.608568755
 40
0.7949371944
 40
1.0
 40
1.0
 40
1.0
 40
1.0
 10
9.4640446388
 20
11.4457895856
 30
0.0
 10
9.4641106413
 20
11.4459382616
 30
0.0
 10
9.4640788725
 20
11.4462417731
 30
0.0
 10
9.463915453
 20
11.4466196035
 30
0.0
 10
9.4635962044
 20
11.4471517849
 30
0.0
 10
9.4629697576
 20
11.4479074284
 30
0.0
 10
9.4619654463
 20
11.4489154039
 30
0.0
 10
9.4606597781
 20
11.4500681086
 30
0.0
 10
9.4590735524
 20
11.4513470383
 30
0.0
 10
9.4572317445
 20
11.4527314935
 30
0.0
 10
9.455909371
 20
11.4536695999
 30
0.0
 10
9.4552111082
 20
11.4541530256
 30
0.0
  0
LINE
  5
415
100
AcDbEntity
  8
0
100
AcDbLine
 62
7
  6
CONTINUOUS
 10
9.4552111082
 20
11.4541530256
 11
9.4477974723
 21
11.4589314123
  0
LINE
  5
416
100
AcDbEntity
  8
0
100
AcDbLine
 62
7
  6
CONTINUOUS
 10
9.4398135694
 20
11.4634684726
 11
9.4325623751
 21
11.467047673
  0
SPLINE
  5
417
100
AcDbEntity
  8
0
100
AcDbSpline
 62
7
  6
CONTINUOUS
 70
0
 71
3
 72
15
 73
11
 74
0
 42
0.0000001
 43
0.0000001
 44
0.0000000001
 40
0.0
 40
0.0
 40
0.0
 40
0.0
 40
0.0402897406
 40
0.0969736392
 40
0.178809654
 40
0.2880368974
 40
0.4250724926
 40
0.5897253015
 40
0.781554492
 40
1.0
 40
1.0
 40
1.0
 40
1.0
 10
9.3135147294
 20
11.5197553308
 30
0.0
 10
9.3135325476
 20
11.5197953344
 30
0.0
 10
9.3136221836
 20
11.5198691355
 30
0.0
 10
9.3138199114
 20
11.5198883946
 30
0.0
 10
9.3140879533
 20
11.5198629057
 30
0.0
 10
9.3144366698
 20
11.5197835454
 30
0.0
 10
9.3148640263
 20
11.5196535781
 30
0.0
 10
9.3153688652
 20
11.5194715254
 30
0.0
 10
9.3159487198
 20
11.5192383491
 30
0.0
 10
9.3163576972
 20
11.5190604246
 30
0.0
 10
9.3165744155
 20
11.5189634224
 30
0.0
  0
SPLINE
  5
418
100
AcDbEntity
  8
0
100
AcDbSpline
 62
7
  6
CONTINUOUS
 70
0
 71
3
 72
18
 73
14
 74
0
 42
0.0000001
 43
0.0000001
 44
0.0000000001
 40
0.0
 40
0.0
 40
0.0
 40
0.0
 40
0.010996351
 40
0.0188532079
 40
0.028599859
 40
0.0541162542
 40
0.0878442791
 40
0.1791379329
 40
0.3001756454
 40
0.4474629448
 40
0.6165709121
 40
0.8026148866
 40
1.0
 40
1.0
 40
1.0
 40
1.0
 10
9.3526373579
 20
11.4945634194
 30
0.0
 10
9.3526674292
 20
11.4946310667
 30
0.0
 10
9.3526503967
 20
11.4947703841
 30
0.0
 10
9.3525768874
 20
11.4949457187
 30
0.0
 10
9.3524317399
 20
11.4951991477
 30
0.0
 10
9.3521470262
 20
11.4955671035
 30
0.0
 10
9.3514609638
 20
11.4963140662
 30
0.0
 10
9.3502380161
 20
11.4974346227
 30
0.0
 10
9.348372326
 20
11.4989778481
 30
0.0
 10
9.3460368786
 20
11.5007727786
 30
0.0
 10
9.3433032727
 20
11.502765384
 30
0.0
 10
9.3402518582
 20
11.5048932065
 30
0.0
 10
9.3381087264
 20
11.5063322985
 30
0.0
 10
9.336999518
 20
11.5070640631
 30
0.0
  0
SPLINE
  5
419
100
AcDbEntity
  8
0
100
AcDbSpline
 62
7
  6
CONTINUOUS
 70
0
 71
3
 72
10
 73
6
 74
0
 42
0.0000001
 43
0.0000001
 44
0.0000000001
 40
0.0
 40
0.0
 40
0.0
 40
0.0
 40
0.5761327093
 40
0.8123421746
 40
1.0
 40
1.0
 40
1.0
 40
1.0
 10
9.329158884
 20
11.5120335724
 30
0.0
 10
9.3268007419
 20
11.5134681485
 30
0.0
 10
9.3234435151
 20
11.5154405314
 30
0.0
 10
9.3192186832
 20
11.517700353
 30
0.0
 10
9.3173950242
 20
11.5185961212
 30
0.0
 10
9.3165744155
 20
11.5189634224
 30
0.0
  0
SPLINE
  5
41A
100
AcDbEntity
  8
0
100
AcDbSpline
 62
7
  6
CONTINUOUS
 70
0
 71
3
 72
19
 73
15
 74
0
 42
0.0000001
 43
0.0000001
 44
0.0000000001
 40
0.0
 40
0.0
 40
0.0
 40
0.0
 40
0.0063039168
 40
0.0202049002
 40
0.0422533562
 40
0.0725418731
 40
0.1110002679
 40
0.1574092686
 40
0.2115310178
 40
0.2731234544
 40
0.4177411959
 40
0.5890628331
 40
0.7841685122
 40
1.0
 40
1.0
 40
1.0
 40
1.0
 10
9.2950906127
 20
11.5197531088
 30
0.0
 10
9.29509943
 20
11.5197739498
 30
0.0
 10
9.2950514675
 20
11.5198478051
 30
0.0
 10
9.2949595515
 20
11.5199533202
 30
0.0
 10
9.2947830673
 20
11.5201221679
 30
0.0
 10
9.2945400723
 20
11.5203353638
 30
0.0
 10
9.2942215463
 20
11.5206005266
 30
0.0
 10
9.2938327729
 20
11.5209126814
 30
0.0
 10
9.2933743069
 20
11.5212713847
 30
0.0
 10
9.2926327343
 20
11.5218400064
 30
0.0
 10
9.2915473942
 20
11.522651746
 30
0.0
 10
9.2900668256
 20
11.5237349881
 30
0.0
 10
9.2883700333
 20
11.5249555446
 30
0.0
 10
9.2871668038
 20
11.5258089852
 30
0.0
 10
9.2865335936
 20
11.5262554471
 30
0.0
  0
SPLINE
  5
41B
100
AcDbEntity
  8
0
100
AcDbSpline
 62
7
  6
CONTINUOUS
 70
0
 71
3
 72
17
 73
13
 74
0
 42
0.0000001
 43
0.0000001
 44
0.0000000001
 40
0.0
 40
0.0
 40
0.0
 40
0.0
 40
0.3029740269
 40
0.463907261
 40
0.618492835
 40
0.7573710851
 40
0.818131447
 40
0.8718330724
 40
0.9175647267
 40
0.9545245273
 40
0.9821674797
 40
1.0
 40
1.0
 40
1.0
 40
1.0
 10
9.2865335936
 20
11.5262554471
 30
0.0
 10
9.283587509
 20
11.5283326637
 30
0.0
 10
9.2790386149
 20
11.531459586
 30
0.0
 10
9.2729261232
 20
11.5355570458
 30
0.0
 10
9.268409956
 20
11.5385292185
 30
0.0
 10
9.2648691456
 20
11.5408151674
 30
0.0
 10
9.2623224009
 20
11.5424275098
 30
0.0
 10
9.2607050717
 20
11.543436025
 30
0.0
 10
9.2593204476
 20
11.544282294
 30
0.0
 10
9.2581921275
 20
11.5449536454
 30
0.0
 10
9.2573391774
 20
11.5454373695
 30
0.0
 10
9.2568605554
 20
11.5456911086
 30
0.0
 10
9.2566668997
 20
11.5457777881
 30
0.0
  0
LINE
  5
41C
100
AcDbEntity
  8
0
100
AcDbLine
 62
7
  6
CONTINUOUS
 10
9.1338563366
 20
11.656521575
 11
9.1222534676
 21
11.6644478777
  0
LINE
  5
41D
100
AcDbEntity
  8
0
100
AcDbLine
 62
7
  6
CONTINUOUS
 10
10.3852239696
 20
11.0964144004
 11
10.3867021145
 21
11.096051511
  0
LINE
  5
41E
100
AcDbEntity
  8
0
100
AcDbLine
 62
7
  6
CONTINUOUS
 10
10.3867021145
 20
11.096051511
 11
10.3882305911
 21
11.0956755011
  0
LINE
  5
41F
100
AcDbEntity
  8
0
100
AcDbLine
 62
7
  6
CONTINUOUS
 10
10.3882305911
 20
11.0956755011
 11
10.3924357675
 21
11.0946377088
  0
LINE
  5
420
100
AcDbEntity
  8
0
100
AcDbLine
 62
7
  6
CONTINUOUS
 10
10.3924357675
 20
11.0946377088
 11
10.393763153
 21
11.0943090957
  0
LINE
  5
421
100
AcDbEntity
  8
0
100
AcDbLine
 62
7
  6
CONTINUOUS
 10
10.393763153
 20
11.0943090957
 11
10.3953694778
 21
11.0939107672
  0
LINE
  5
422
100
AcDbEntity
  8
0
100
AcDbLine
 62
7
  6
CONTINUOUS
 10
10.412742768
 20
11.0895587834
 11
10.4201173008
 21
11.0876878453
  0
LINE
  5
423
100
AcDbEntity
  8
0
100
AcDbLine
 62
7
  6
CONTINUOUS
 10
10.4201173008
 20
11.0876878453
 11
10.4231278139
 21
11.0869201989
  0
LINE
  5
424
100
AcDbEntity
  8
0
100
AcDbLine
 62
7
  6
CONTINUOUS
 10
10.4231278139
 20
11.0869201989
 11
10.427672767
 21
11.0857569882
  0
LINE
  5
425
100
AcDbEntity
  8
0
100
AcDbLine
 62
7
  6
CONTINUOUS
 10
10.427672767
 20
11.0857569882
 11
10.4288227965
 21
11.0854619018
  0
LINE
  5
426
100
AcDbEntity
  8
0
100
AcDbLine
 62
7
  6
CONTINUOUS
 10
10.4288227965
 20
11.0854619018
 11
10.4305237241
 21
11.0850248777
  0
SPLINE
  5
427
100
AcDbEntity
  8
0
100
AcDbSpline
 62
7
  6
CONTINUOUS
 70
0
 71
3
 72
18
 73
14
 74
0
 42
0.0000001
 43
0.0000001
 44
0.0000000001
 40
0.0
 40
0.0
 40
0.0
 40
0.0
 40
0.0077810838
 40
0.0226180636
 40
0.0455191614
 40
0.0766546629
 40
0.1158634081
 40
0.1629141591
 40
0.2795291136
 40
0.424414232
 40
0.5950098028
 40
0.7880037876
 40
1.0
 40
1.0
 40
1.0
 40
1.0
 10
10.3632532345
 20
11.106406041
 30
0.0
 10
10.3632661811
 20
11.1064357032
 30
0.0
 10
10.3633660455
 20
11.1064772348
 30
0.0
 10
10.3635475845
 20
11.1064932493
 30
0.0
 10
10.3638380793
 20
11.106492182
 30
0.0
 10
10.3642234461
 20
11.1064630121
 30
0.0
 10
10.3647094255
 20
11.1064094951
 30
0.0
 10
10.3655452488
 20
11.1062948829
 30
0.0
 10
10.3668116684
 20
11.1060846716
 30
0.0
 10
10.3685779297
 20
11.1057523565
 30
0.0
 10
10.3706501602
 20
11.105328994
 30
0.0
 10
10.3729900802
 20
11.1048224912
 30
0.0
 10
10.3746329658
 20
11.1044502055
 30
0.0
 10
10.3754921311
 20
11.1042518147
 30
0.0
  0
SPLINE
  5
428
100
AcDbEntity
  8
0
100
AcDbSpline
 62
7
  6
CONTINUOUS
 70
0
 71
3
 72
9
 73
5
 74
0
 42
0.0000001
 43
0.0000001
 44
0.0000000001
 40
0.0
 40
0.0
 40
0.0
 40
0.0
 40
0.4949261801
 40
1.0
 40
1.0
 40
1.0
 40
1.0
 10
10.3754921311
 20
11.1042518147
 30
0.0
 10
10.3787537232
 20
11.1034986771
 30
0.0
 10
10.38532183
 20
11.1018818366
 30
0.0
 10
10.3918557703
 20
11.1001325792
 30
0.0
 10
10.3951442679
 20
11.0992078191
 30
0.0
  0
SPLINE
  5
429
100
AcDbEntity
  8
0
100
AcDbSpline
 62
7
  6
CONTINUOUS
 70
0
 71
3
 72
12
 73
8
 74
0
 42
0.0000001
 43
0.0000001
 44
0.0000000001
 40
0.0
 40
0.0
 40
0.0
 40
0.0
 40
0.3420950897
 40
0.6326699095
 40
0.8559193167
 40
0.9385214999
 40
1.0
 40
1.0
 40
1.0
 40
1.0
 10
10.3951442679
 20
11.0992078191
 30
0.0
 10
10.3965991447
 20
11.0987986924
 30
0.0
 10
10.3992855438
 20
11.0980265992
 30
0.0
 10
10.4029035921
 20
11.0969275279
 30
0.0
 10
10.4054090196
 20
11.0961097259
 30
0.0
 10
10.4069342592
 20
11.095555482
 30
0.0
 10
10.4075255241
 20
11.0953187805
 30
0.0
 10
10.4077734242
 20
11.0952078214
 30
0.0
  0
SPLINE
  5
42A
100
AcDbEntity
  8
0
100
AcDbSpline
 62
7
  6
CONTINUOUS
 70
0
 71
3
 72
17
 73
13
 74
0
 42
0.0000001
 43
0.0000001
 44
0.0000000001
 40
0.0
 40
0.0
 40
0.0
 40
0.0
 40
0.011423319
 40
0.028970679
 40
0.0540219517
 40
0.0868974144
 40
0.1760521457
 40
0.294747132
 40
0.4400881942
 40
0.6088906577
 40
0.7970267821
 40
1.0
 40
1.0
 40
1.0
 40
1.0
 10
10.2988139443
 20
11.1357049326
 30
0.0
 10
10.2988401203
 20
11.135763233
 30
0.0
 10
10.2989803504
 20
11.1358692821
 30
0.0
 10
10.2992722668
 20
11.1359446623
 30
0.0
 10
10.299693877
 20
11.1359913283
 30
0.0
 10
10.3005169549
 20
11.1359993077
 30
0.0
 10
10.3018615337
 20
11.1358908303
 30
0.0
 10
10.3038195934
 20
11.135625462
 30
0.0
 10
10.3062062148
 20
11.1352125827
 30
0.0
 10
10.3089615099
 20
11.1346600208
 30
0.0
 10
10.3120196295
 20
11.1339810374
 30
0.0
 10
10.3141472735
 20
11.1334700393
 30
0.0
 10
10.3152493443
 20
11.133196452
 30
0.0
  0
SPLINE
  5
42B
100
AcDbEntity
  8
0
100
AcDbSpline
 62
7
  6
CONTINUOUS
 70
0
 71
3
 72
11
 73
7
 74
0
 42
0.0000001
 43
0.0000001
 44
0.0000000001
 40
0.0
 40
0.0
 40
0.0
 40
0.0
 40
0.3012602977
 40
0.5777671419
 40
0.8150339382
 40
1.0
 40
1.0
 40
1.0
 40
1.0
 10
10.3252647562
 20
11.1304856105
 30
0.0
 10
10.3268764754
 20
11.1300143855
 30
0.0
 10
10.3299586197
 20
11.1290800959
 30
0.0
 10
10.3342774541
 20
11.1276690881
 30
0.0
 10
10.3379446617
 20
11.1263567913
 30
0.0
 10
10.3401319007
 20
11.1254838982
 30
0.0
 10
10.3410729198
 20
11.1250627018
 30
0.0
  0
SPLINE
  5
42C
100
AcDbEntity
  8
0
100
AcDbSpline
 62
7
  6
CONTINUOUS
 70
0
 71
3
 72
15
 73
11
 74
0
 42
0.0000001
 43
0.0000001
 44
0.0000000001
 40
0.0
 40
0.0
 40
0.0
 40
0.0
 40
0.0405418563
 40
0.0969238691
 40
0.1784025016
 40
0.2874389986
 40
0.4244520134
 40
0.589222712
 40
0.7812726287
 40
1.0
 40
1.0
 40
1.0
 40
1.0
 10
10.34367012
 20
11.1233224743
 30
0.0
 10
10.3436880697
 20
11.1233622347
 30
0.0
 10
10.3436849904
 20
11.1234767913
 30
0.0
 10
10.3435712414
 20
11.123636927
 30
0.0
 10
10.3433769031
 20
11.1238181387
 30
0.0
 10
10.3430893835
 20
11.1240236521
 30
0.0
 10
10.3427119024
 20
11.1242538184
 30
0.0
 10
10.3422444089
 20
11.124506928
 30
0.0
 10
10.3416893052
 20
11.1247816919
 30
0.0
 10
10.3412877406
 20
11.1249665489
 30
0.0
 10
10.3410729198
 20
11.1250627018
 30
0.0
  0
SPLINE
  5
42D
100
AcDbEntity
  8
0
100
AcDbSpline
 62
7
  6
CONTINUOUS
 70
0
 71
3
 72
18
 73
14
 74
0
 42
0.0000001
 43
0.0000001
 44
0.0000000001
 40
0.0
 40
0.0
 40
0.0
 40
0.0
 40
0.0138384358
 40
0.0332965366
 40
0.0600583361
 40
0.0945241552
 40
0.1367011841
 40
0.186450569
 40
0.2435350974
 40
0.3075139971
 40
0.4540754311
 40
0.6218760389
 40
1.0
 40
1.0
 40
1.0
 40
1.0
 10
10.1963161004
 20
11.1823071665
 30
0.0
 10
10.1963560044
 20
11.1823968119
 30
0.0
 10
10.1965407863
 20
11.1825679362
 30
0.0
 10
10.1969468231
 20
11.1827062292
 30
0.0
 10
10.197513964
 20
11.1827946386
 30
0.0
 10
10.1982475446
 20
11.1828239761
 30
0.0
 10
10.1991438346
 20
11.182796839
 30
0.0
 10
10.2001972737
 20
11.1827106277
 30
0.0
 10
10.2013999678
 20
11.1825654623
 30
0.0
 10
10.2032765246
 20
11.1822817224
 30
0.0
 10
10.2059133517
 20
11.1817826873
 30
0.0
 10
10.2107038774
 20
11.1807023687
 30
0.0
 10
10.2144427165
 20
11.1796908562
 30
0.0
 10
10.2170158697
 20
11.1789373815
 30
0.0
  0
LINE
  5
42E
100
AcDbEntity
  8
0
100
AcDbLine
 62
7
  6
CONTINUOUS
 10
10.2170158697
 20
11.1789373815
 11
10.2268645791
 21
11.1757519794
  0
LINE
  5
42F
100
AcDbEntity
  8
0
100
AcDbLine
 62
7
  6
CONTINUOUS
 10
10.2268645791
 20
11.1757519794
 11
10.23496774
 21
11.1725549582
  0
SPLINE
  5
430
100
AcDbEntity
  8
0
100
AcDbSpline
 62
7
  6
CONTINUOUS
 70
0
 71
3
 72
17
 73
13
 74
0
 42
0.0000001
 43
0.0000001
 44
0.0000000001
 40
0.0
 40
0.0
 40
0.0
 40
0.0
 40
0.0193101445
 40
0.0407042641
 40
0.0664611305
 40
0.0978966853
 40
0.180216784
 40
0.2904204652
 40
0.428995781
 40
0.5946714627
 40
0.7856468093
 40
1.0
 40
1.0
 40
1.0
 40
1.0
 10
10.2406443738
 20
11.1687479752
 30
0.0
 10
10.2406629799
 20
11.1687894007
 30
0.0
 10
10.2406835908
 20
11.168886173
 30
0.0
 10
10.2406540518
 20
11.1690425243
 30
0.0
 10
10.2405716817
 20
11.1692095668
 30
0.0
 10
10.2403753131
 20
11.169473841
 30
0.0
 10
10.2399845164
 20
11.1698320239
 30
0.0
 10
10.2393524364
 20
11.1702874024
 30
0.0
 10
10.2385197223
 20
11.1707956138
 30
0.0
 10
10.2374963593
 20
11.1713520842
 30
0.0
 10
10.2362935167
 20
11.1719496673
 30
0.0
 10
10.2354278524
 20
11.1723490137
 30
0.0
 10
10.23496774
 20
11.1725549582
 30
0.0
  0
SPLINE
  5
431
100
AcDbEntity
  8
0
100
AcDbSpline
 62
7
  6
CONTINUOUS
 70
0
 71
3
 72
16
 73
12
 74
0
 42
0.0000001
 43
0.0000001
 44
0.0000000001
 40
0.0
 40
0.0
 40
0.0
 40
0.0
 40
0.040264207
 40
0.0679881086
 40
0.1020528746
 40
0.1904988397
 40
0.3059272119
 40
0.4469517996
 40
0.6116845569
 40
0.7971975758
 40
1.0
 40
1.0
 40
1.0
 40
1.0
 10
10.0627364944
 20
11.2430352493
 30
0.0
 10
10.0628142687
 20
11.2432074704
 30
0.0
 10
10.0630977259
 20
11.2434167099
 30
0.0
 10
10.0635484359
 20
11.2435654102
 30
0.0
 10
10.0642458504
 20
11.2436939587
 30
0.0
 10
10.0653656572
 20
11.2437207176
 30
0.0
 10
10.0669814133
 20
11.2436050901
 30
0.0
 10
10.0689404384
 20
11.2433326123
 30
0.0
 10
10.0712070513
 20
11.242907082
 30
0.0
 10
10.0737394359
 20
11.2423357979
 30
0.0
 10
10.0755049063
 20
11.2418826375
 30
0.0
 10
10.0764238059
 20
11.2416345782
 30
0.0
  0
SPLINE
  5
432
100
AcDbEntity
  8
0
100
AcDbSpline
 62
7
  6
CONTINUOUS
 70
0
 71
3
 72
9
 73
5
 74
0
 42
0.0000001
 43
0.0000001
 44
0.0000000001
 40
0.0
 40
0.0
 40
0.0
 40
0.0
 40
0.4876122811
 40
1.0
 40
1.0
 40
1.0
 40
1.0
 10
10.0764238059
 20
11.2416345782
 30
0.0
 10
10.0782585593
 20
11.2411392817
 30
0.0
 10
10.0819964603
 20
11.2400308131
 30
0.0
 10
10.0856884629
 20
11.238779013
 30
0.0
 10
10.0875668628
 20
11.2381010831
 30
0.0
  0
LINE
  5
433
100
AcDbEntity
  8
0
100
AcDbLine
 62
7
  6
CONTINUOUS
 10
10.0875668628
 20
11.2381010831
 11
10.0966887775
 21
11.2344480718
  0
SPLINE
  5
434
100
AcDbEntity
  8
0
100
AcDbSpline
 62
7
  6
CONTINUOUS
 70
0
 71
3
 72
15
 73
11
 74
0
 42
0.0000001
 43
0.0000001
 44
0.0000000001
 40
0.0
 40
0.0
 40
0.0
 40
0.0
 40
0.0543211794
 40
0.1200079615
 40
0.2054929703
 40
0.3146253249
 40
0.44867388
 40
0.6078014648
 40
0.7917385042
 40
1.0
 40
1.0
 40
1.0
 40
1.0
 10
10.1063749835
 20
11.2279439827
 30
0.0
 10
10.10641328
 20
11.2280301637
 30
0.0
 10
10.1064403265
 20
11.2282480164
 30
0.0
 10
10.1063162378
 20
11.2285903407
 30
0.0
 10
10.1060582676
 20
11.2289642709
 30
0.0
 10
10.1056630481
 20
11.2293780684
 30
0.0
 10
10.1051317724
 20
11.229832549
 30
0.0
 10
10.1044656296
 20
11.2303257207
 30
0.0
 10
10.1036675438
 20
11.230854678
 30
0.0
 10
10.1030850811
 20
11.2312076579
 30
0.0
 10
10.1027730045
 20
11.2313902386
 30
0.0
  0
LINE
  5
435
100
AcDbEntity
  8
0
100
AcDbLine
 62
7
  6
CONTINUOUS
 10
10.1027730045
 20
11.2313902386
 11
10.0966887775
 21
11.2344480718
  0
SPLINE
  5
436
100
AcDbEntity
  8
0
100
AcDbSpline
 62
7
  6
CONTINUOUS
 70
0
 71
3
 72
11
 73
7
 74
0
 42
0.0000001
 43
0.0000001
 44
0.0000000001
 40
0.0
 40
0.0
 40
0.0
 40
0.0
 40
0.3507472034
 40
0.4826931801
 40
0.6346432212
 40
1.0
 40
1.0
 40
1.0
 40
1.0
 10
9.9071728904
 20
11.3137492472
 30
0.0
 10
9.907330026
 20
11.3141028442
 30
0.0
 10
9.907935299
 20
11.3143327837
 30
0.0
 10
9.9086104656
 20
11.3144386373
 30
0.0
 10
9.909330095
 20
11.3144923526
 30
0.0
 10
9.9099000447
 20
11.3144752076
 30
0.0
 10
9.9103022589
 20
11.3144491566
 30
0.0
  0
SPLINE
  5
437
100
AcDbEntity
  8
0
100
AcDbSpline
 62
7
  6
CONTINUOUS
 70
0
 71
3
 72
12
 73
8
 74
0
 42
0.0000001
 43
0.0000001
 44
0.0000000001
 40
0.0
 40
0.0
 40
0.0
 40
0.0
 40
0.0846530558
 40
0.1832396807
 40
0.4179588425
 40
0.6945166464
 40
1.0
 40
1.0
 40
1.0
 40
1.0
 10
9.9103022589
 20
11.3144491566
 30
0.0
 10
9.9107636845
 20
11.3144192704
 30
0.0
 10
9.9117597317
 20
11.3143118329
 30
0.0
 10
9.9140132474
 20
11.3139420669
 30
0.0
 10
9.9172616665
 20
11.3131896019
 30
0.0
 10
9.9215468331
 20
11.3119437913
 30
0.0
 10
9.9245594107
 20
11.3109244748
 30
0.0
 10
9.9261295649
 20
11.3103597754
 30
0.0
  0
SPLINE
  5
438
100
AcDbEntity
  8
0
100
AcDbSpline
 62
7
  6
CONTINUOUS
 70
0
 71
3
 72
16
 73
12
 74
0
 42
0.0000001
 43
0.0000001
 44
0.0000000001
 40
0.0
 40
0.0
 40
0.0
 40
0.0
 40
0.0229134974
 40
0.0478577989
 40
0.0767673155
 40
0.1108395929
 40
0.1967213529
 40
0.308010656
 40
0.4451201513
 40
0.6072757036
 40
1.0
 40
1.0
 40
1.0
 40
1.0
 10
9.9500153384
 20
11.2968719349
 30
0.0
 10
9.9500456338
 20
11.2969391619
 30
0.0
 10
9.9500844999
 20
11.2970917576
 30
0.0
 10
9.950065646
 20
11.2973413233
 30
0.0
 10
9.9499755811
 20
11.2976117049
 30
0.0
 10
9.9497463665
 20
11.2980342587
 30
0.0
 10
9.9492687823
 20
11.2986118707
 30
0.0
 10
9.9484799815
 20
11.2993448128
 30
0.0
 10
9.947435828
 20
11.3001567644
 30
0.0
 10
9.9455970511
 20
11.3014142129
 30
0.0
 10
9.9440537508
 20
11.302317212
 30
0.0
 10
9.9429471323
 20
11.3029276632
 30
0.0
  0
LINE
  5
439
100
AcDbEntity
  8
0
100
AcDbLine
 62
7
  6
CONTINUOUS
 10
9.9429471323
 20
11.3029276632
 11
9.9356595152
 21
11.306524129
  0
SPLINE
  5
43A
100
AcDbEntity
  8
0
100
AcDbSpline
 62
7
  6
CONTINUOUS
 70
0
 71
3
 72
16
 73
12
 74
0
 42
0.0000001
 43
0.0000001
 44
0.0000000001
 40
0.0
 40
0.0
 40
0.0
 40
0.0
 40
0.1026379457
 40
0.1433207102
 40
0.1906355541
 40
0.2446016305
 40
0.3051522102
 40
0.4454881028
 40
0.6099992893
 40
0.7958589378
 40
1.0
 40
1.0
 40
1.0
 40
1.0
 10
9.7402324869
 20
11.3896252733
 30
0.0
 10
9.740425768
 20
11.3900576713
 30
0.0
 10
9.7412324145
 20
11.3902744883
 30
0.0
 10
9.7420829661
 20
11.3903249594
 30
0.0
 10
9.7427446647
 20
11.3903136935
 30
0.0
 10
9.7434873484
 20
11.3902525322
 30
0.0
 10
9.7446545175
 20
11.3900992459
 30
0.0
 10
9.746310426
 20
11.3897758769
 30
0.0
 10
9.7485065363
 20
11.3892203538
 30
0.0
 10
9.7509593461
 20
11.3884894367
 30
0.0
 10
9.7526657746
 20
11.3879164859
 30
0.0
 10
9.7535543704
 20
11.387603746
 30
0.0
  0
SPLINE
  5
43B
100
AcDbEntity
  8
0
100
AcDbSpline
 62
7
  6
CONTINUOUS
 70
0
 71
3
 72
9
 73
5
 74
0
 42
0.0000001
 43
0.0000001
 44
0.0000000001
 40
0.0
 40
0.0
 40
0.0
 40
0.0
 40
0.4885434102
 40
1.0
 40
1.0
 40
1.0
 40
1.0
 10
9.7535543704
 20
11.387603746
 30
0.0
 10
9.7550939563
 20
11.387061891
 30
0.0
 10
9.7582182234
 20
11.3858752325
 30
0.0
 10
9.761294226
 20
11.3845693388
 30
0.0
 10
9.762853831
 20
11.3838712658
 30
0.0
  0
SPLINE
  5
43C
100
AcDbEntity
  8
0
100
AcDbSpline
 62
7
  6
CONTINUOUS
 70
0
 71
3
 72
17
 73
13
 74
0
 42
0.0000001
 43
0.0000001
 44
0.0000000001
 40
0.0
 40
0.0
 40
0.0
 40
0.0
 40
0.0200609758
 40
0.0430711136
 40
0.0710166142
 40
0.1049717403
 40
0.1927492638
 40
0.307645492
 40
0.4482904962
 40
0.61265202
 40
0.7977358584
 40
1.0
 40
1.0
 40
1.0
 40
1.0
 10
9.7822168305
 20
11.3708333291
 30
0.0
 10
9.7822577507
 20
11.3709251223
 30
0.0
 10
9.7823013887
 20
11.3711434593
 30
0.0
 10
9.7822405901
 20
11.3714991201
 30
0.0
 10
9.782070084
 20
11.3718916997
 30
0.0
 10
9.781662371
 20
11.3725236539
 30
0.0
 10
9.7808512824
 20
11.3733973832
 30
0.0
 10
9.7795464201
 20
11.374519365
 30
0.0
 10
9.7778520623
 20
11.3757691677
 30
0.0
 10
9.7758000953
 20
11.377118692
 30
0.0
 10
9.773429648
 20
11.3785413558
 30
0.0
 10
9.7717326653
 20
11.3794833277
 30
0.0
 10
9.7708396975
 20
11.3799622664
 30
0.0
  0
LINE
  5
43D
100
AcDbEntity
  8
0
100
AcDbLine
 62
7
  6
CONTINUOUS
 10
9.7708396975
 20
11.3799622664
 11
9.762853831
 21
11.3838712658
  0
SPLINE
  5
43E
100
AcDbEntity
  8
0
100
AcDbSpline
 62
7
  6
CONTINUOUS
 70
0
 71
3
 72
19
 73
15
 74
0
 42
0.0000001
 43
0.0000001
 44
0.0000000001
 40
0.0
 40
0.0
 40
0.0
 40
0.0
 40
0.0180187668
 40
0.0392804791
 40
0.0660342007
 40
0.0993662397
 40
0.1397794168
 40
0.1874627995
 40
0.2423042359
 40
0.3040740461
 40
0.4472623155
 40
0.6143915218
 40
0.800633019
 40
1.0
 40
1.0
 40
1.0
 40
1.0
 10
9.5732858337
 20
11.4654945749
 30
0.0
 10
9.573329884
 20
11.4655918592
 30
0.0
 10
9.5734839418
 20
11.4657795287
 30
0.0
 10
9.5738402419
 20
11.4659571767
 30
0.0
 10
9.5743142237
 20
11.4660596217
 30
0.0
 10
9.5749107285
 20
11.4660910374
 30
0.0
 10
9.5756302392
 20
11.466051473
 30
0.0
 10
9.5764706264
 20
11.4659398614
 30
0.0
 10
9.5774274861
 20
11.4657572968
 30
0.0
 10
9.5789261464
 20
11.4654022367
 30
0.0
 10
9.5810425214
 20
11.4647770114
 30
0.0
 10
9.5838208376
 20
11.4638040636
 30
0.0
 10
9.5868700265
 20
11.462604714
 30
0.0
 10
9.588969655
 20
11.4617011313
 30
0.0
 10
9.5900481468
 20
11.4612184027
 30
0.0
  0
SPLINE
  5
43F
100
AcDbEntity
  8
0
100
AcDbSpline
 62
7
  6
CONTINUOUS
 70
0
 71
3
 72
17
 73
13
 74
0
 42
0.0000001
 43
0.0000001
 44
0.0000000001
 40
0.0
 40
0.0
 40
0.0
 40
0.0
 40
0.0212777492
 40
0.0454262475
 40
0.0742222316
 40
0.1087089919
 40
0.1964954444
 40
0.3101230636
 40
0.4490871373
 40
0.6120652619
 40
0.796616884
 40
1.0
 40
1.0
 40
1.0
 40
1.0
 10
9.6144134936
 20
11.4447871949
 30
0.0
 10
9.6144489945
 20
11.4448667984
 30
0.0
 10
9.6144908082
 20
11.4450530066
 30
0.0
 10
9.6144575666
 20
11.4453588602
 30
0.0
 10
9.6143387765
 20
11.4456989825
 30
0.0
 10
9.6140432183
 20
11.4462446939
 30
0.0
 10
9.6134395331
 20
11.447006237
 30
0.0
 10
9.6124533729
 20
11.4479932583
 30
0.0
 10
9.611158878
 20
11.449101162
 30
0.0
 10
9.6095748809
 20
11.4503114659
 30
0.0
 10
9.6077258026
 20
11.4516061302
 30
0.0
 10
9.6063937735
 20
11.4524732533
 30
0.0
 10
9.6056892794
 20
11.4529179875
 30
0.0
  0
LINE
  5
440
100
AcDbEntity
  8
0
100
AcDbLine
 62
7
  6
CONTINUOUS
 10
9.6056892794
 20
11.4529179875
 11
9.5981795373
 21
11.4572442672
  0
SPLINE
  5
441
100
AcDbEntity
  8
0
100
AcDbSpline
 62
7
  6
CONTINUOUS
 70
0
 71
3
 72
19
 73
15
 74
0
 42
0.0000001
 43
0.0000001
 44
0.0000000001
 40
0.0
 40
0.0
 40
0.0
 40
0.0
 40
0.0187282486
 40
0.0399735252
 40
0.0661084768
 40
0.0983748188
 40
0.1373299527
 40
0.1832147404
 40
0.2361131056
 40
0.2960256617
 40
0.4366255446
 40
0.6031850947
 40
0.7922084479
 40
1.0
 40
1.0
 40
1.0
 40
1.0
 10
9.4177159224
 20
11.5361849561
 30
0.0
 10
9.4177462767
 20
11.5362536026
 30
0.0
 10
9.4178461083
 20
11.5363864072
 30
0.0
 10
9.4180809955
 20
11.5365193335
 30
0.0
 10
9.4183928767
 20
11.5365973652
 30
0.0
 10
9.4187832341
 20
11.5366259992
 30
0.0
 10
9.4192528532
 20
11.5366062358
 30
0.0
 10
9.4198010866
 20
11.536537996
 30
0.0
 10
9.4204265761
 20
11.5364211397
 30
0.0
 10
9.421415227
 20
11.5361874166
 30
0.0
 10
9.422825543
 20
11.5357648292
 30
0.0
 10
9.4247000875
 20
11.5350996925
 30
0.0
 10
9.4267988923
 20
11.5342660701
 30
0.0
 10
9.4282587747
 20
11.533634682
 30
0.0
 10
9.4290188844
 20
11.5332944599
 30
0.0
  0
SPLINE
  5
442
100
AcDbEntity
  8
0
100
AcDbSpline
 62
7
  6
CONTINUOUS
 70
0
 71
3
 72
16
 73
12
 74
0
 42
0.0000001
 43
0.0000001
 44
0.0000000001
 40
0.0
 40
0.0
 40
0.0
 40
0.0
 40
0.0454786769
 40
0.0746129125
 40
0.1093037107
 40
0.19689142
 40
0.3097673996
 40
0.4478604771
 40
0.6101100152
 40
0.7947813215
 40
1.0
 40
1.0
 40
1.0
 40
1.0
 10
9.4580425701
 20
11.5136938065
 30
0.0
 10
9.4581024542
 20
11.5138264347
 30
0.0
 10
9.4581069411
 20
11.5140836137
 30
0.0
 10
9.4580026951
 20
11.5144163107
 30
0.0
 10
9.4577917609
 20
11.514854938
 30
0.0
 10
9.4573541921
 20
11.5154712845
 30
0.0
 10
9.456631783
 20
11.5162798598
 30
0.0
 10
9.4556767449
 20
11.5171957947
 30
0.0
 10
9.4545005839
 20
11.5182089943
 30
0.0
 10
9.4531163374
 20
11.5193074084
 30
0.0
 10
9.4521143561
 20
11.5200510072
 30
0.0
 10
9.4515819938
 20
11.5204354303
 30
0.0
  0
LINE
  5
443
100
AcDbEntity
  8
0
100
AcDbLine
 62
7
  6
CONTINUOUS
 10
9.4515819938
 20
11.5204354303
 11
9.4481469162
 21
11.5227932134
  0
SPLINE
  5
444
100
AcDbEntity
  8
0
100
AcDbSpline
 62
7
  6
CONTINUOUS
 70
0
 71
3
 72
9
 73
5
 74
0
 42
0.0000001
 43
0.0000001
 44
0.0000000001
 40
0.0
 40
0.0
 40
0.0
 40
0.0
 40
0.4875195522
 40
1.0
 40
1.0
 40
1.0
 40
1.0
 10
9.4481469162
 20
11.5227932134
 30
0.0
 10
9.4463473115
 20
11.5239741093
 30
0.0
 10
9.4425882185
 20
11.5262936026
 30
0.0
 10
9.4387324216
 20
11.5284474955
 30
0.0
 10
9.4367331564
 20
11.5295070251
 30
0.0
  0
LINE
  5
445
100
AcDbEntity
  8
0
100
AcDbLine
 62
7
  6
CONTINUOUS
 10
9.4367331564
 20
11.5295070251
 11
9.4290188844
 21
11.5332944599
  0
SPLINE
  5
446
100
AcDbEntity
  8
0
100
AcDbSpline
 62
7
  6
CONTINUOUS
 70
0
 71
3
 72
17
 73
13
 74
0
 42
0.0000001
 43
0.0000001
 44
0.0000000001
 40
0.0
 40
0.0
 40
0.0
 40
0.0
 40
0.019311264
 40
0.0406933746
 40
0.0664155962
 40
0.0978162611
 40
0.1801979513
 40
0.2908130899
 40
0.4296666218
 40
0.5953180654
 40
0.7860429989
 40
1.0
 40
1.0
 40
1.0
 40
1.0
 10
9.284119422
 20
11.5968846791
 30
0.0
 10
9.2841380724
 20
11.5969260841
 30
0.0
 10
9.2841965568
 20
11.5970057736
 30
0.0
 10
9.284332565
 20
11.5970880802
 30
0.0
 10
9.2845117399
 20
11.5971382039
 30
0.0
 10
9.2848395902
 20
11.5971681401
 30
0.0
 10
9.2853680966
 20
11.5971150096
 30
0.0
 10
9.2861302033
 20
11.5969454783
 30
0.0
 10
9.2870653335
 20
11.5966624542
 30
0.0
 10
9.2881620732
 20
11.5962701072
 30
0.0
 10
9.2894075943
 20
11.5957719848
 30
0.0
 10
9.2902806913
 20
11.5953931232
 30
0.0
 10
9.2907399219
 20
11.5951875735
 30
0.0
  0
SPLINE
  5
447
100
AcDbEntity
  8
0
100
AcDbSpline
 62
7
  6
CONTINUOUS
 70
0
 71
3
 72
15
 73
11
 74
0
 42
0.0000001
 43
0.0000001
 44
0.0000000001
 40
0.0
 40
0.0
 40
0.0
 40
0.0
 40
0.0438198651
 40
0.0724035081
 40
0.1065945062
 40
0.1932800796
 40
0.3055018781
 40
0.4433523491
 40
0.6059114659
 40
1.0
 40
1.0
 40
1.0
 40
1.0
 10
9.3237625821
 20
11.5728586011
 30
0.0
 10
9.323804781
 20
11.5729535631
 30
0.0
 10
9.3238039483
 20
11.5731385766
 30
0.0
 10
9.3237292727
 20
11.5733787864
 30
0.0
 10
9.3235781548
 20
11.5737012113
 30
0.0
 10
9.3232660726
 20
11.574160005
 30
0.0
 10
9.32274972
 20
11.5747701159
 30
0.0
 10
9.3220653021
 20
11.5754703849
 30
0.0
 10
9.3208576768
 20
11.5765908022
 30
0.0
 10
9.3198394539
 20
11.5774326977
 30
0.0
 10
9.3191074981
 20
11.5780137605
 30
0.0
  0
LINE
  5
448
100
AcDbEntity
  8
0
100
AcDbLine
 62
7
  6
CONTINUOUS
 10
9.3191074981
 20
11.5780137605
 11
9.3171756958
 21
11.5794956006
  0
SPLINE
  5
449
100
AcDbEntity
  8
0
100
AcDbSpline
 62
7
  6
CONTINUOUS
 70
0
 71
3
 72
9
 73
5
 74
0
 42
0.0000001
 43
0.0000001
 44
0.0000000001
 40
0.0
 40
0.0
 40
0.0
 40
0.0
 40
0.471491624
 40
1.0
 40
1.0
 40
1.0
 40
1.0
 10
9.3171756958
 20
11.5794956006
 30
0.0
 10
9.31538206
 20
11.5808301395
 30
0.0
 10
9.3114824238
 20
11.5835322082
 30
0.0
 10
9.3074713857
 20
11.5860633129
 30
0.0
 10
9.3053264527
 20
11.5873591939
 30
0.0
  0
LINE
  5
44A
100
AcDbEntity
  8
0
100
AcDbLine
 62
7
  6
CONTINUOUS
 10
9.3053264527
 20
11.5873591939
 11
9.2975028587
 21
11.5918259525
  0
LINE
  5
44B
100
AcDbEntity
  8
0
100
AcDbLine
 62
7
  6
CONTINUOUS
 10
9.2975028587
 20
11.5918259525
 11
9.2907399219
 21
11.5951875735
  0
SPLINE
  5
44C
100
AcDbEntity
  8
0
100
AcDbSpline
 62
7
  6
CONTINUOUS
 70
0
 71
3
 72
15
 73
11
 74
0
 42
0.0000001
 43
0.0000001
 44
0.0000000001
 40
0.0
 40
0.0
 40
0.0
 40
0.0
 40
0.0406378789
 40
0.0974912849
 40
0.1793566028
 40
0.288529022
 40
0.4254603943
 40
0.5899838756
 40
0.7816780917
 40
1.0
 40
1.0
 40
1.0
 40
1.0
 10
9.1816062178
 20
11.6434576815
 30
0.0
 10
9.1816240224
 20
11.6434976121
 30
0.0
 10
9.1817127206
 20
11.6435714331
 30
0.0
 10
9.1819089789
 20
11.6435917461
 30
0.0
 10
9.1821745385
 20
11.6435673633
 30
0.0
 10
9.1825197534
 20
11.6434896619
 30
0.0
 10
9.1829426454
 20
11.6433617226
 30
0.0
 10
9.183442125
 20
11.6431821123
 30
0.0
 10
9.1840157841
 20
11.6429517348
 30
0.0
 10
9.1844203567
 20
11.6427757879
 30
0.0
 10
9.1846347421
 20
11.6426798299
 30
0.0
  0
SPLINE
  5
44D
100
AcDbEntity
  8
0
100
AcDbSpline
 62
7
  6
CONTINUOUS
 70
0
 71
3
 72
16
 73
12
 74
0
 42
0.0000001
 43
0.0000001
 44
0.0000000001
 40
0.0
 40
0.0
 40
0.0
 40
0.0
 40
0.0127873821
 40
0.0308312807
 40
0.0556658076
 40
0.0878099609
 40
0.1743732375
 40
0.2897659786
 40
0.4323548809
 40
0.600138727
 40
1.0
 40
1.0
 40
1.0
 40
1.0
 10
9.2207235952
 20
11.6182539493
 30
0.0
 10
9.2207438442
 20
11.6182995152
 30
0.0
 10
9.2207461685
 20
11.6184273056
 30
0.0
 10
9.2206658442
 20
11.6186302211
 30
0.0
 10
9.220513396
 20
11.6188811138
 30
0.0
 10
9.2201706615
 20
11.6193243912
 30
0.0
 10
9.2195380751
 20
11.6199850127
 30
0.0
 10
9.2185498976
 20
11.6208954441
 30
0.0
 10
9.217281965
 20
11.6219679629
 30
0.0
 10
9.2151150333
 20
11.6236928804
 30
0.0
 10
9.2133360663
 20
11.6250111999
 30
0.0
 10
9.2120711282
 20
11.6259228138
 30
0.0
  0
LINE
  5
44E
100
AcDbEntity
  8
0
100
AcDbLine
 62
7
  6
CONTINUOUS
 10
9.2120711282
 20
11.6259228138
 11
9.2049235364
 21
11.6308387747
  0
SPLINE
  5
44F
100
AcDbEntity
  8
0
100
AcDbSpline
 62
7
  6
CONTINUOUS
 70
0
 71
3
 72
10
 73
6
 74
0
 42
0.0000001
 43
0.0000001
 44
0.0000000001
 40
0.0
 40
0.0
 40
0.0
 40
0.0
 40
0.5765394728
 40
0.8126009786
 40
1.0
 40
1.0
 40
1.0
 40
1.0
 10
9.1971166492
 20
11.6357934714
 30
0.0
 10
9.1947762339
 20
11.637219971
 30
0.0
 10
9.1914458598
 20
11.6391812517
 30
0.0
 10
9.187255378
 20
11.6414269996
 30
0.0
 10
9.1854479028
 20
11.6423158623
 30
0.0
 10
9.1846347421
 20
11.6426798299
 30
0.0
  0
SPLINE
  5
450
100
AcDbEntity
  8
0
100
AcDbSpline
 62
7
  6
CONTINUOUS
 70
0
 71
3
 72
17
 73
13
 74
0
 42
0.0000001
 43
0.0000001
 44
0.0000000001
 40
0.0
 40
0.0
 40
0.0
 40
0.0
 40
0.0084458997
 40
0.0234050113
 40
0.0460414375
 40
0.0765441048
 40
0.1608227251
 40
0.275213479
 40
0.4183961975
 40
0.5885287979
 40
0.7832111969
 40
1.0
 40
1.0
 40
1.0
 40
1.0
 10
9.1559471614
 20
11.6467907899
 30
0.0
 10
9.1559579165
 20
11.6468138514
 30
0.0
 10
9.1559398654
 20
11.646890997
 30
0.0
 10
9.1558649673
 20
11.6470041356
 30
0.0
 10
9.1557331977
 20
11.647163882
 30
0.0
 10
9.1554451258
 20
11.6474603228
 30
0.0
 10
9.154932344
 20
11.6479243418
 30
0.0
 10
9.1541426231
 20
11.6485851359
 30
0.0
 10
9.1531337123
 20
11.6493871459
 30
0.0
 10
9.1519194278
 20
11.650318812
 30
0.0
 10
9.1505155839
 20
11.6513675704
 30
0.0
 10
9.1495148147
 20
11.6520992486
 30
0.0
 10
9.1489859454
 20
11.652482527
 30
0.0
  0
LINE
  5
451
100
AcDbEntity
  8
0
100
AcDbLine
 62
7
  6
CONTINUOUS
 10
9.1489859454
 20
11.652482527
 11
9.1424559303
 21
11.6570822995
  0
SPLINE
  5
452
100
AcDbEntity
  8
0
100
AcDbSpline
 62
7
  6
CONTINUOUS
 70
0
 71
3
 72
13
 73
9
 74
0
 42
0.0000001
 43
0.0000001
 44
0.0000000001
 40
0.0
 40
0.0
 40
0.0
 40
0.0
 40
0.3363893797
 40
0.6320411006
 40
0.7561581965
 40
0.8604063467
 40
0.9423514762
 40
1.0
 40
1.0
 40
1.0
 40
1.0
 10
9.1348409635
 20
11.6622074555
 30
0.0
 10
9.1329851099
 20
11.6634302945
 30
0.0
 10
9.1294819998
 20
11.6657034308
 30
0.0
 10
9.1252493896
 20
11.6683581774
 30
0.0
 10
9.1222847151
 20
11.6701463093
 30
0.0
 10
9.1205133572
 20
11.6711790533
 30
0.0
 10
9.1191037385
 20
11.6719588558
 30
0.0
 10
9.1182818828
 20
11.6723791057
 30
0.0
 10
9.1179342377
 20
11.6725347103
 30
0.0
  0
SPLINE
  5
453
100
AcDbEntity
  8
0
100
AcDbSpline
 62
7
  6
CONTINUOUS
 70
0
 71
3
 72
33
 73
29
 74
0
 42
0.0000001
 43
0.0000001
 44
0.0000000001
 40
0.0
 40
0.0
 40
0.0
 40
0.0
 40
0.0009294422
 40
0.002839368
 40
0.0058138197
 40
0.0098669694
 40
0.0150007308
 40
0.0212132765
 40
0.0368484162
 40
0.0566081795
 40
0.0802550712
 40
0.1075490728
 40
0.1382494169
 40
0.1721008157
 40
0.2087849254
 40
0.2893072495
 40
0.3771083537
 40
0.469229194
 40
0.5625389835
 40
0.6539085964
 40
0.7402195106
 40
0.8184044334
 40
0.8857541178
 40
0.9397278885
 40
0.9610195734
 40
0.978272835
 40
0.991320003
 40
1.0
 40
1.0
 40
1.0
 40
1.0
 10
9.9940551852
 20
11.1458964215
 30
0.0
 10
9.9940618381
 20
11.1459092091
 30
0.0
 10
9.9941118674
 20
11.1459214487
 30
0.0
 10
9.9941969133
 20
11.1459254926
 30
0.0
 10
9.9943381521
 20
11.1459194496
 30
0.0
 10
9.9945248424
 20
11.1459017318
 30
0.0
 10
9.9947622942
 20
11.1458722281
 30
0.0
 10
9.9951762035
 20
11.1458119271
 30
0.0
 10
9.9958126366
 20
11.1457042013
 30
0.0
 10
9.9967128029
 20
11.1455365614
 30
0.0
 10
9.9977883968
 20
11.1453232632
 30
0.0
 10
9.9990282
 20
11.1450661593
 30
0.0
 10
10.0004208964
 20
11.1447670671
 30
0.0
 10
10.001953966
 20
11.1444281879
 30
0.0
 10
10.0042388947
 20
11.1439108255
 30
0.0
 10
10.0073349944
 20
11.1431873289
 30
0.0
 10
10.0112610028
 20
11.1422375011
 30
0.0
 10
10.0153727958
 20
11.1412126491
 30
0.0
 10
10.0195315614
 20
11.1401477865
 30
0.0
 10
10.0235962246
 20
11.1390790248
 30
0.0
 10
10.0274276502
 20
11.138045981
 30
0.0
 10
10.0308928861
 20
11.1370860439
 30
0.0
 10
10.033868074
 20
11.1362361536
 30
0.0
 10
10.0359887358
 20
11.1356073337
 30
0.0
 10
10.0373586541
 20
11.1351805235
 30
0.0
 10
10.0381197906
 20
11.1349334438
 30
0.0
 10
10.0386908758
 20
11.1347353816
 30
0.0
 10
10.0390061834
 20
11.1346155997
 30
0.0
 10
10.039129055
 20
11.1345606028
 30
0.0
  0
SPLINE
  5
454
100
AcDbEntity
  8
0
100
AcDbSpline
 62
7
  6
CONTINUOUS
 70
0
 71
3
 72
20
 73
16
 74
0
 42
0.0000001
 43
0.0000001
 44
0.0000000001
 40
0.0
 40
0.0
 40
0.0
 40
0.0
 40
0.0128877656
 40
0.0215095948
 40
0.031951488
 40
0.0587444989
 40
0.0936114962
 40
0.1364298467
 40
0.1869478874
 40
0.2448564562
 40
0.3097091784
 40
0.457787669
 40
0.6261429891
 40
0.8090783506
 40
1.0
 40
1.0
 40
1.0
 40
1.0
 10
9.9259884001
 20
11.177421613
 30
0.0
 10
9.9260292075
 20
11.1775125367
 30
0.0
 10
9.9261675193
 20
11.1776283808
 30
0.0
 10
9.9263935537
 20
11.1777241631
 30
0.0
 10
9.9267373961
 20
11.1778178302
 30
0.0
 10
9.9272933806
 20
11.1778795497
 30
0.0
 10
9.9281018329
 20
11.1778902048
 30
0.0
 10
9.9290924001
 20
11.1778374321
 30
0.0
 10
9.9302565057
 20
11.1777216802
 30
0.0
 10
9.9315846256
 20
11.1775421283
 30
0.0
 10
9.933651738
 20
11.1772038774
 30
0.0
 10
9.9365443838
 20
11.1766285071
 30
0.0
 10
9.9403061816
 20
11.1757540301
 30
0.0
 10
9.94436397
 20
11.1746964121
 30
0.0
 10
9.9471446222
 20
11.1739041674
 30
0.0
 10
9.9485600257
 20
11.1734841806
 30
0.0
  0
LINE
  5
455
100
AcDbEntity
  8
0
100
AcDbLine
 62
7
  6
CONTINUOUS
 10
9.9485600257
 20
11.1734841806
 11
9.9583051797
 21
11.1703187943
  0
LINE
  5
456
100
AcDbEntity
  8
0
100
AcDbLine
 62
7
  6
CONTINUOUS
 10
9.9583051797
 20
11.1703187943
 11
9.9659638018
 21
11.1673090791
  0
SPLINE
  5
457
100
AcDbEntity
  8
0
100
AcDbSpline
 62
7
  6
CONTINUOUS
 70
0
 71
3
 72
16
 73
12
 74
0
 42
0.0000001
 43
0.0000001
 44
0.0000000001
 40
0.0
 40
0.0
 40
0.0
 40
0.0
 40
0.0393492014
 40
0.0647328102
 40
0.0957978583
 40
0.177516894
 40
0.2874732468
 40
0.4258637583
 40
0.5916428675
 40
0.7834975098
 40
1.0
 40
1.0
 40
1.0
 40
1.0
 10
9.9705097796
 20
11.1642947173
 30
0.0
 10
9.9705397875
 20
11.1643620796
 30
0.0
 10
9.9705329572
 20
11.1644968979
 30
0.0
 10
9.97045054
 20
11.1646561034
 30
0.0
 10
9.9702943561
 20
11.1648643849
 30
0.0
 10
9.9699819018
 20
11.1651449673
 30
0.0
 10
9.969477277
 20
11.1655032523
 30
0.0
 10
9.9688123077
 20
11.1659046913
 30
0.0
 10
9.9679940776
 20
11.1663462498
 30
0.0
 10
9.967029354
 20
11.166823181
 30
0.0
 10
9.9663341414
 20
11.1671433165
 30
0.0
 10
9.9659638018
 20
11.1673090791
 30
0.0
  0
SPLINE
  5
458
100
AcDbEntity
  8
0
100
AcDbSpline
 62
7
  6
CONTINUOUS
 70
0
 71
3
 72
13
 73
9
 74
0
 42
0.0000001
 43
0.0000001
 44
0.0000000001
 40
0.0
 40
0.0
 40
0.0
 40
0.0
 40
0.0675261533
 40
0.1447457251
 40
0.2374908094
 40
0.3488443412
 40
0.6323639639
 40
1.0
 40
1.0
 40
1.0
 40
1.0
 10
9.7872377445
 20
11.2416309048
 30
0.0
 10
9.787273652
 20
11.2417119861
 30
0.0
 10
9.7873875585
 20
11.2418706403
 30
0.0
 10
9.787646965
 20
11.2420506969
 30
0.0
 10
9.7879921598
 20
11.2421880786
 30
0.0
 10
9.7886184997
 20
11.2423294554
 30
0.0
 10
9.7896238699
 20
11.242382273
 30
0.0
 10
9.7904780143
 20
11.2423297619
 30
0.0
 10
9.7909585616
 20
11.2422833222
 30
0.0
  0
SPLINE
  5
459
100
AcDbEntity
  8
0
100
AcDbSpline
 62
7
  6
CONTINUOUS
 70
0
 71
3
 72
11
 73
7
 74
0
 42
0.0000001
 43
0.0000001
 44
0.0000000001
 40
0.0
 40
0.0
 40
0.0
 40
0.0
 40
0.1889785803
 40
0.42585995
 40
0.7005319411
 40
1.0
 40
1.0
 40
1.0
 40
1.0
 10
9.7909585616
 20
11.2422833222
 30
0.0
 10
9.7920221793
 20
11.2421805352
 30
0.0
 10
9.7944010922
 20
11.2417761291
 30
0.0
 10
9.7982518492
 20
11.2408426343
 30
0.0
 10
9.802648393
 20
11.2395318306
 30
0.0
 10
9.8057205806
 20
11.2384799918
 30
0.0
 10
9.8073124157
 20
11.2379025549
 30
0.0
  0
LINE
  5
45A
100
AcDbEntity
  8
0
100
AcDbLine
 62
7
  6
CONTINUOUS
 10
9.8073124157
 20
11.2379025549
 11
9.8168335355
 21
11.234059193
  0
SPLINE
  5
45B
100
AcDbEntity
  8
0
100
AcDbSpline
 62
7
  6
CONTINUOUS
 70
0
 71
3
 72
17
 73
13
 74
0
 42
0.0000001
 43
0.0000001
 44
0.0000000001
 40
0.0
 40
0.0
 40
0.0
 40
0.0
 40
0.0234249181
 40
0.0487392447
 40
0.0778170217
 40
0.111861419
 40
0.1972817138
 40
0.3079000448
 40
0.4444212045
 40
0.6061840636
 40
0.7918727582
 40
1.0
 40
1.0
 40
1.0
 40
1.0
 10
9.8302448195
 20
11.2251212971
 30
0.0
 10
9.8302722715
 20
11.2251823294
 30
0.0
 10
9.830307966
 20
11.2253200201
 30
0.0
 10
9.8302931618
 20
11.2255446669
 30
0.0
 10
9.8302159861
 20
11.2257871194
 30
0.0
 10
9.830017488
 20
11.2261639286
 30
0.0
 10
9.8295999649
 20
11.2266779286
 30
0.0
 10
9.8289063057
 20
11.2273285924
 30
0.0
 10
9.8279849646
 20
11.2280489396
 30
0.0
 10
9.8268451277
 20
11.2288324516
 30
0.0
 10
9.8254970832
 20
11.229671178
 30
0.0
 10
9.8245208385
 20
11.2302308687
 30
0.0
 10
9.8240008632
 20
11.2305192546
 30
0.0
  0
LINE
  5
45C
100
AcDbEntity
  8
0
100
AcDbLine
 62
7
  6
CONTINUOUS
 10
9.8240008632
 20
11.2305192546
 11
9.8168335355
 21
11.234059193
  0
SPLINE
  5
45D
100
AcDbEntity
  8
0
100
AcDbSpline
 62
7
  6
CONTINUOUS
 70
0
 71
3
 72
19
 73
15
 74
0
 42
0.0000001
 43
0.0000001
 44
0.0000000001
 40
0.0
 40
0.0
 40
0.0
 40
0.0
 40
0.0177858287
 40
0.0388833923
 40
0.0655652405
 40
0.0989021029
 40
0.1393754557
 40
0.1871668467
 40
0.242157733
 40
0.304097452
 40
0.4476064599
 40
0.6149201553
 40
0.8011039479
 40
1.0
 40
1.0
 40
1.0
 40
1.0
 10
9.6199420499
 20
11.3189599933
 30
0.0
 10
9.619986362
 20
11.3190581247
 30
0.0
 10
9.6201434176
 20
11.3192473357
 30
0.0
 10
9.6205070001
 20
11.3194231968
 30
0.0
 10
9.6209908349
 20
11.319522085
 30
0.0
 10
9.6216003475
 20
11.3195481825
 30
0.0
 10
9.6223359392
 20
11.3195016709
 30
0.0
 10
9.6231954156
 20
11.3193813935
 30
0.0
 10
9.6241741775
 20
11.3191885448
 30
0.0
 10
9.6257068671
 20
11.3188172149
 30
0.0
 10
9.6278700652
 20
11.3181693673
 30
0.0
 10
9.63070814
 20
11.3171680466
 30
0.0
 10
9.633819154
 20
11.3159397331
 30
0.0
 10
9.6359604966
 20
11.3150172458
 30
0.0
 10
9.637059512
 20
11.3145253308
 30
0.0
  0
SPLINE
  5
45E
100
AcDbEntity
  8
0
100
AcDbSpline
 62
7
  6
CONTINUOUS
 70
0
 71
3
 72
15
 73
11
 74
0
 42
0.0000001
 43
0.0000001
 44
0.0000000001
 40
0.0
 40
0.0
 40
0.0
 40
0.0
 40
0.1066961562
 40
0.1475339535
 40
0.1947193348
 40
0.3083164954
 40
0.4473111064
 40
0.6104996422
 40
0.7955810116
 40
1.0
 40
1.0
 40
1.0
 40
1.0
 10
9.6611271706
 20
11.2983806459
 30
0.0
 10
9.6612967849
 20
11.2987599607
 30
0.0
 10
9.6610275669
 20
11.2994113555
 30
0.0
 10
9.6606097279
 20
11.3000207964
 30
0.0
 10
9.660111951
 20
11.3006359738
 30
0.0
 10
9.6592899088
 20
11.3014637035
 30
0.0
 10
9.6580616971
 20
11.3025221575
 30
0.0
 10
9.656554933
 20
11.3036762871
 30
0.0
 10
9.6547922119
 20
11.3049123961
 30
0.0
 10
9.6535210067
 20
11.3057404417
 30
0.0
 10
9.652847981
 20
11.3061656154
 30
0.0
  0
LINE
  5
45F
100
AcDbEntity
  8
0
100
AcDbLine
 62
7
  6
CONTINUOUS
 10
9.652847981
 20
11.3061656154
 11
9.6453058167
 21
11.3105024467
  0
SPLINE
  5
460
100
AcDbEntity
  8
0
100
AcDbSpline
 62
7
  6
CONTINUOUS
 70
0
 71
3
 72
17
 73
13
 74
0
 42
0.0000001
 43
0.0000001
 44
0.0000000001
 40
0.0
 40
0.0
 40
0.0
 40
0.0
 40
0.0189000771
 40
0.0399231304
 40
0.0653654082
 40
0.096563014
 40
0.1787443815
 40
0.2893663427
 40
0.428302228
 40
0.5941659298
 40
0.7853160815
 40
1.0
 40
1.0
 40
1.0
 40
1.0
 10
9.4749455431
 20
11.385909979
 30
0.0
 10
9.4749629935
 20
11.3859487391
 30
0.0
 10
9.4750182944
 20
11.3860233506
 30
0.0
 10
9.4751472979
 20
11.3860993088
 30
0.0
 10
9.4753174079
 20
11.3861445282
 30
0.0
 10
9.4756297238
 20
11.3861693337
 30
0.0
 10
9.4761336928
 20
11.3861138912
 30
0.0
 10
9.4768612252
 20
11.3859471285
 30
0.0
 10
9.4777550638
 20
11.3856725268
 30
0.0
 10
9.4788044743
 20
11.3852938953
 30
0.0
 10
9.4799978083
 20
11.3848145518
 30
0.0
 10
9.4808350392
 20
11.3844507834
 30
0.0
 10
9.4812757413
 20
11.3842535269
 30
0.0
  0
SPLINE
  5
461
100
AcDbEntity
  8
0
100
AcDbSpline
 62
7
  6
CONTINUOUS
 70
0
 71
3
 72
15
 73
11
 74
0
 42
0.0000001
 43
0.0000001
 44
0.0000000001
 40
0.0
 40
0.0
 40
0.0
 40
0.0
 40
0.0441287471
 40
0.0728284706
 40
0.1071070343
 40
0.1938875469
 40
0.3061079163
 40
0.4438740219
 40
0.6062901408
 40
1.0
 40
1.0
 40
1.0
 40
1.0
 10
9.514550123
 20
11.3617981189
 30
0.0
 10
9.5145926471
 20
11.361893643
 30
0.0
 10
9.5145927139
 20
11.3620794021
 30
0.0
 10
9.5145189982
 20
11.3623210079
 30
0.0
 10
9.5143692955
 20
11.3626445366
 30
0.0
 10
9.5140591474
 20
11.3631046565
 30
0.0
 10
9.5135451216
 20
11.3637159123
 30
0.0
 10
9.5128632157
 20
11.3644167647
 30
0.0
 10
9.5116593332
 20
11.3655371115
 30
0.0
 10
9.5106433475
 20
11.3663781163
 30
0.0
 10
9.509912786
 20
11.3669582462
 30
0.0
  0
SPLINE
  5
462
100
AcDbEntity
  8
0
100
AcDbSpline
 62
7
  6
CONTINUOUS
 70
0
 71
3
 72
9
 73
5
 74
0
 42
0.0000001
 43
0.0000001
 44
0.0000000001
 40
0.0
 40
0.0
 40
0.0
 40
0.0
 40
0.4701145385
 40
1.0
 40
1.0
 40
1.0
 40
1.0
 10
9.5081938695
 20
11.3682807781
 30
0.0
 10
9.5063535243
 20
11.3696571823
 30
0.0
 10
9.5023328849
 20
11.3724430738
 30
0.0
 10
9.4981936714
 20
11.3750461779
 30
0.0
 10
9.4959741952
 20
11.3763816979
 30
0.0
  0
LINE
  5
463
100
AcDbEntity
  8
0
100
AcDbLine
 62
7
  6
CONTINUOUS
 10
9.4959741952
 20
11.3763816979
 11
9.4880573312
 21
11.3808862432
  0
LINE
  5
464
100
AcDbEntity
  8
0
100
AcDbLine
 62
7
  6
CONTINUOUS
 10
9.4880573312
 20
11.3808862432
 11
9.4812757413
 21
11.3842535269
  0
SPLINE
  5
465
100
AcDbEntity
  8
0
100
AcDbSpline
 62
7
  6
CONTINUOUS
 70
0
 71
3
 72
18
 73
14
 74
0
 42
0.0000001
 43
0.0000001
 44
0.0000000001
 40
0.0
 40
0.0
 40
0.0
 40
0.0
 40
0.0074474978
 40
0.0218795063
 40
0.0441982434
 40
0.0745827878
 40
0.1129368866
 40
0.1590885216
 40
0.2740186078
 40
0.4177896884
 40
0.5884472021
 40
0.7834052526
 40
1.0
 40
1.0
 40
1.0
 40
1.0
 10
9.4350752416
 20
11.3961511369
 30
0.0
 10
9.4350850727
 20
11.3961729994
 30
0.0
 10
9.4350563525
 20
11.3962490086
 30
0.0
 10
9.4349744193
 20
11.3963580146
 30
0.0
 10
9.4348273761
 20
11.3965208364
 30
0.0
 10
9.4346174654
 20
11.3967236889
 30
0.0
 10
9.4343428332
 20
11.3969721089
 30
0.0
 10
9.4338560938
 20
11.3973903573
 30
0.0
 10
9.4330945818
 20
11.3980096033
 30
0.0
 10
9.432004695
 20
11.3988592927
 30
0.0
 10
9.4306967422
 20
11.3998480575
 30
0.0
 10
9.4291893284
 20
11.4009613868
 30
0.0
 10
9.4281165476
 20
11.4017385175
 30
0.0
 10
9.4275504
 20
11.4021453333
 30
0.0
  0
SPLINE
  5
466
100
AcDbEntity
  8
0
100
AcDbSpline
 62
7
  6
CONTINUOUS
 70
0
 71
3
 72
16
 73
12
 74
0
 42
0.0000001
 43
0.0000001
 44
0.0000000001
 40
0.0
 40
0.0
 40
0.0
 40
0.0
 40
0.2905214973
 40
0.4483362389
 40
0.6020431486
 40
0.7422373689
 40
0.8600700861
 40
0.9081828583
 40
0.9479372314
 40
0.9787287806
 40
1.0
 40
1.0
 40
1.0
 40
1.0
 10
9.4275504
 20
11.4021453333
 30
0.0
 10
9.4246697237
 20
11.4042152968
 30
0.0
 10
9.42016803
 20
11.4073315903
 30
0.0
 10
9.4140588417
 20
11.4114198799
 30
0.0
 10
9.4094407995
 20
11.4144357474
 30
0.0
 10
9.405200556
 20
11.4171365716
 30
0.0
 10
9.4020213329
 20
11.4191029332
 30
0.0
 10
9.3998648313
 20
11.420390426
 30
0.0
 10
9.3986107335
 20
11.4211162055
 30
0.0
 10
9.3976289637
 20
11.4216572564
 30
0.0
 10
9.3970625626
 20
11.4219470107
 30
0.0
 10
9.3968255047
 20
11.4220531168
 30
0.0
  0
SPLINE
  5
467
100
AcDbEntity
  8
0
100
AcDbSpline
 62
7
  6
CONTINUOUS
 70
0
 71
3
 72
13
 73
9
 74
0
 42
0.0000001
 43
0.0000001
 44
0.0000000001
 40
0.0
 40
0.0
 40
0.0
 40
0.0
 40
0.2445587631
 40
0.3684042621
 40
0.4931802081
 40
0.6188164438
 40
0.7452347247
 40
1.0
 40
1.0
 40
1.0
 40
1.0
 10
10.9609447372
 20
11.3906637116
 30
0.0
 10
10.9731682226
 20
11.3851955833
 30
0.0
 10
10.9914419951
 20
11.3766391986
 30
0.0
 10
11.0155654237
 20
11.364500486
 30
0.0
 10
11.0336910641
 20
11.3549372812
 30
0.0
 10
11.0517675206
 20
11.3449864008
 30
0.0
 10
11.075857252
 20
11.3312081344
 30
0.0
 10
11.0937213316
 20
11.320404617
 30
0.0
 10
11.1055331152
 20
11.3129833478
 30
0.0
  0
SPLINE
  5
468
100
AcDbEntity
  8
0
100
AcDbSpline
 62
7
  6
CONTINUOUS
 70
0
 71
3
 72
21
 73
17
 74
0
 42
0.0000001
 43
0.0000001
 44
0.0000000001
 40
0.0
 40
0.0
 40
0.0
 40
0.0
 40
0.150432859
 40
0.2984744115
 40
0.3707931623
 40
0.4415283384
 40
0.5103529782
 40
0.5769475765
 40
0.6410052017
 40
0.7022381843
 40
0.7603872362
 40
0.8152343114
 40
0.8666211897
 40
0.9144767072
 40
0.9588565888
 40
1.0
 40
1.0
 40
1.0
 40
1.0
 10
11.1055331152
 20
11.3129833478
 30
0.0
 10
11.0898840233
 20
11.2921800234
 30
0.0
 10
11.0572041301
 20
11.2521077226
 30
0.0
 10
11.0130316861
 20
11.2054838523
 30
0.0
 10
10.9763718769
 20
11.1709207136
 30
0.0
 10
10.9487402734
 20
11.1468055856
 30
0.0
 10
10.9209388062
 20
11.1244344446
 30
0.0
 10
10.8931447884
 20
11.1039447806
 30
0.0
 10
10.8655358538
 20
11.0854737497
 30
0.0
 10
10.8382886866
 20
11.0691579876
 30
0.0
 10
10.8115788617
 20
11.0551335726
 30
0.0
 10
10.7855796144
 20
11.0435361749
 30
0.0
 10
10.760461834
 20
11.0345014615
 30
0.0
 10
10.7363881538
 20
11.0281672074
 30
0.0
 10
10.7135252392
 20
11.0246755198
 30
0.0
 10
10.6986687859
 20
11.0243378923
 30
0.0
 10
10.6915610222
 20
11.0247516241
 30
0.0
  0
SPLINE
  5
469
100
AcDbEntity
  8
0
100
AcDbSpline
 62
9
  6
CONTINUOUS
 70
0
 71
3
 72
18
 73
14
 74
0
 42
0.0000001
 43
0.0000001
 44
0.0000000001
 40
0.0
 40
0.0
 40
0.0
 40
0.0
 40
0.1490007736
 40
0.2930222872
 40
0.4320571969
 40
0.5654096128
 40
0.6918130022
 40
0.751595859
 40
0.8085992821
 40
0.8624304189
 40
0.912608436
 40
0.9586313084
 40
1.0
 40
1.0
 40
1.0
 40
1.0
 10
10.8533001178
 20
11.4331974837
 30
0.0
 10
10.8432288735
 20
11.4131814812
 30
0.0
 10
10.8220462533
 20
11.3745013548
 30
0.0
 10
10.7877981903
 20
11.3192662221
 30
0.0
 10
10.752962401
 20
11.2672201909
 30
0.0
 10
10.7184994591
 20
11.2181382055
 30
0.0
 10
10.6905376416
 20
11.1790589977
 30
0.0
 10
10.6693698149
 20
11.1492365062
 30
0.0
 10
10.6546593554
 20
11.128214192
 30
0.0
 10
10.6410079564
 20
11.1082153817
 30
0.0
 10
10.628530564
 20
11.0894166409
 30
0.0
 10
10.6173496011
 20
11.072009515
 30
0.0
 10
10.6104481524
 20
11.0608240829
 30
0.0
 10
10.6072473822
 20
11.0554895856
 30
0.0
  0
SPLINE
  5
46A
100
AcDbEntity
  8
0
100
AcDbSpline
 62
9
  6
CONTINUOUS
 70
0
 71
3
 72
15
 73
11
 74
0
 42
0.0000001
 43
0.0000001
 44
0.0000000001
 40
0.0
 40
0.0
 40
0.0
 40
0.0
 40
0.1291905484
 40
0.2575428922
 40
0.3853331153
 40
0.5124604913
 40
0.6385464064
 40
0.7626403968
 40
0.8835994267
 40
1.0
 40
1.0
 40
1.0
 40
1.0
 10
10.7094740719
 20
11.4833151029
 30
0.0
 10
10.7028482359
 20
11.4658924647
 30
0.0
 10
10.6885667278
 20
11.4315628518
 30
0.0
 10
10.6648109077
 20
11.3812832104
 30
0.0
 10
10.6396178432
 20
11.3320492422
 30
0.0
 10
10.6136450845
 20
11.2835980864
 30
0.0
 10
10.5876095363
 20
11.2357888635
 30
0.0
 10
10.5622913489
 20
11.1886012455
 30
0.0
 10
10.5385476227
 20
11.1421633371
 30
0.0
 10
10.52384621
 20
11.111222907
 30
0.0
 10
10.5169566991
 20
11.0959064328
 30
0.0
  0
SPLINE
  5
46B
100
AcDbEntity
  8
0
100
AcDbSpline
 62
9
  6
CONTINUOUS
 70
0
 71
3
 72
13
 73
9
 74
0
 42
0.0000001
 43
0.0000001
 44
0.0000000001
 40
0.0
 40
0.0
 40
0.0
 40
0.0
 40
0.2458659657
 40
0.3705803966
 40
0.4961887454
 40
0.7486393142
 40
0.8746553047
 40
1.0
 40
1.0
 40
1.0
 40
1.0
 10
10.6684451831
 20
11.4980408624
 30
0.0
 10
10.6569771145
 20
11.4647629562
 30
0.0
 10
10.6365947599
 20
11.4156606907
 30
0.0
 10
10.6058147682
 20
11.3516445083
 30
0.0
 10
10.5729889465
 20
11.2875784302
 30
0.0
 10
10.5387137045
 20
11.2240722517
 30
0.0
 10
10.5051375879
 20
11.1602365234
 30
0.0
 10
10.4889572355
 20
11.1280895588
 30
0.0
 10
10.4811243701
 20
11.1119448345
 30
0.0
  0
SPLINE
  5
46C
100
AcDbEntity
  8
0
100
AcDbSpline
 62
9
  6
CONTINUOUS
 70
0
 71
3
 72
13
 73
9
 74
0
 42
0.0000001
 43
0.0000001
 44
0.0000000001
 40
0.0
 40
0.0
 40
0.0
 40
0.0
 40
0.2457399584
 40
0.3706072752
 40
0.4964669231
 40
0.7493610684
 40
0.875261797
 40
1.0
 40
1.0
 40
1.0
 40
1.0
 10
10.6274837301
 20
11.51293755
 30
0.0
 10
10.6161716069
 20
11.4799142276
 30
0.0
 10
10.5962497721
 20
11.431082508
 30
0.0
 10
10.5663814685
 20
11.3672012044
 30
0.0
 10
10.534607084
 20
11.3030984812
 30
0.0
 10
10.5015756509
 20
11.2394757085
 30
0.0
 10
10.4693236054
 20
11.1756323069
 30
0.0
 10
10.4538317946
 20
11.143572088
 30
0.0
 10
10.4463523898
 20
11.127509133
 30
0.0
  0
SPLINE
  5
46D
100
AcDbEntity
  8
0
100
AcDbSpline
 62
9
  6
CONTINUOUS
 70
0
 71
3
 72
52
 73
48
 74
0
 42
0.0000001
 43
0.0000001
 44
0.0000000001
 40
0.0
 40
0.0
 40
0.0
 40
0.0
 40
0.0001220876
 40
0.0003720485
 40
0.0007638622
 40
0.0013000437
 40
0.0019811501
 40
0.002807416
 40
0.0049006847
 40
0.0075907657
 40
0.0108890473
 40
0.0147943772
 40
0.0192945614
 40
0.0243772021
 40
0.0300377199
 40
0.0362764839
 40
0.0430938429
 40
0.0584570542
 40
0.0760997306
 40
0.0959825008
 40
0.1180527047
 40
0.1422506266
 40
0.1685062519
 40
0.1967504202
 40
0.2269213545
 40
0.2589587021
 40
0.2927915275
 40
0.3655110244
 40
0.4042197912
 40
0.4443623241
 40
0.4858374939
 40
0.5285445617
 40
0.5723831675
 40
0.5946954911
 40
0.6172530804
 40
0.663050355
 40
0.7096656602
 40
0.7332461429
 40
0.7569906256
 40
0.7808842766
 40
0.8049109115
 40
0.829054137
 40
0.853297595
 40
0.8776251817
 40
0.9020213834
 40
0.9509610552
 40
1.0
 40
1.0
 40
1.0
 40
1.0
 10
9.0639582788
 20
12.1845032658
 30
0.0
 10
9.0639822552
 20
12.1845343714
 30
0.0
 10
9.0641243941
 20
12.1845386495
 30
0.0
 10
9.0643497566
 20
12.1844844245
 30
0.0
 10
9.0647164556
 20
12.1843618347
 30
0.0
 10
9.0651920576
 20
12.1841649257
 30
0.0
 10
9.0657910957
 20
12.1838911017
 30
0.0
 10
9.0668287961
 20
12.183377545
 30
0.0
 10
9.0684325931
 20
12.1825496603
 30
0.0
 10
9.0707593966
 20
12.1813897841
 30
0.0
 10
9.073651523
 20
12.180060102
 30
0.0
 10
9.077100057
 20
12.1785493741
 30
0.0
 10
9.0810795457
 20
12.1768201468
 30
0.0
 10
9.0855648499
 20
12.1748384046
 30
0.0
 10
9.090550131
 20
12.1726046454
 30
0.0
 10
9.0960411515
 20
12.1701349142
 30
0.0
 10
9.1043820683
 20
12.1663923256
 30
0.0
 10
9.1160828129
 20
12.1611766522
 30
0.0
 10
9.1316135062
 20
12.1542298899
 30
0.0
 10
9.1490992258
 20
12.1463699145
 30
0.0
 10
9.1685146177
 20
12.1376594633
 30
0.0
 10
9.1898129242
 20
12.1281377106
 30
0.0
 10
9.2129272303
 20
12.1178118033
 30
0.0
 10
9.2377929338
 20
12.1066956043
 30
0.0
 10
9.26435301
 20
12.0948123418
 30
0.0
 10
9.2925495599
 20
12.0821846864
 30
0.0
 10
9.3332329969
 20
12.0639517914
 30
0.0
 10
9.3758739281
 20
12.0448391417
 30
0.0
 10
9.420376647
 20
12.0249177134
 30
0.0
 10
9.4557131737
 20
12.0091194906
 30
0.0
 10
9.4922367311
 20
11.9928250688
 30
0.0
 10
9.5298481602
 20
11.9760508434
 30
0.0
 10
9.5618114834
 20
11.9617466235
 30
0.0
 10
9.587838059
 20
11.9500446912
 30
0.0
 10
9.6144204738
 20
11.9380426039
 30
0.0
 10
9.6481106447
 20
11.9227846486
 30
0.0
 10
9.6821408367
 20
11.907479809
 30
0.0
 10
9.7097590246
 20
11.8952143317
 30
0.0
 10
9.7307372584
 20
11.886006468
 30
0.0
 10
9.7518785126
 20
11.8768133702
 30
0.0
 10
9.7731505093
 20
11.8675993942
 30
0.0
 10
9.7945232028
 20
11.8583347668
 30
0.0
 10
9.8159658218
 20
11.8489880994
 30
0.0
 10
9.837447955
 20
11.839528665
 30
0.0
 10
9.866131102
 20
11.826710357
 30
0.0
 10
9.9019447399
 20
11.8103660511
 30
0.0
 10
9.9304934078
 20
11.7970091425
 30
0.0
 10
9.9447532511
 20
11.790262942
 30
0.0
  0
SPLINE
  5
46E
100
AcDbEntity
  8
0
100
AcDbSpline
 62
7
  6
CONTINUOUS
 70
0
 71
3
 72
31
 73
27
 74
0
 42
0.0000001
 43
0.0000001
 44
0.0000000001
 40
0.0
 40
0.0
 40
0.0
 40
0.0
 40
0.011589942
 40
0.0273146225
 40
0.0704309304
 40
0.1277957895
 40
0.1973322623
 40
0.27653357
 40
0.3627827222
 40
0.4532096777
 40
0.5448998427
 40
0.6349292191
 40
0.7203703046
 40
0.7984372848
 40
0.833918477
 40
0.8666181666
 40
0.8962301728
 40
0.9225056512
 40
0.9452433677
 40
0.9642448717
 40
0.9793147129
 40
0.9902731669
 40
0.99419082
 40
0.9970803301
 40
0.9989735284
 40
1.0
 40
1.0
 40
1.0
 40
1.0
 10
9.434580407
 20
11.3962677056
 30
0.0
 10
9.434417304
 20
11.3963407099
 30
0.0
 10
9.4340408275
 20
11.3965301332
 30
0.0
 10
9.4330885703
 20
11.3970520921
 30
0.0
 10
9.4315480296
 20
11.3979678113
 30
0.0
 10
9.4293217241
 20
11.3993516465
 30
0.0
 10
9.4266453904
 20
11.4010650871
 30
0.0
 10
9.4236108063
 20
11.4030444965
 30
0.0
 10
9.4203204922
 20
11.4052212793
 30
0.0
 10
9.4168813156
 20
11.4075219136
 30
0.0
 10
9.4134040846
 20
11.4098704118
 30
0.0
 10
9.4100006025
 20
11.4121906886
 30
0.0
 10
9.4067811476
 20
11.4144079386
 30
0.0
 10
9.4042642129
 20
11.4161624063
 30
0.0
 10
9.4024220563
 20
11.417462774
 30
0.0
 10
9.4011943343
 20
11.4183380752
 30
0.0
 10
9.4000868501
 20
11.4191374807
 30
0.0
 10
9.3991092304
 20
11.4198543491
 30
0.0
 10
9.3982697348
 20
11.4204827581
 30
0.0
 10
9.3975756743
 20
11.4210173182
 30
0.0
 10
9.3970347687
 20
11.4214521666
 30
0.0
 10
9.3966844506
 20
11.4217542159
 30
0.0
 10
9.3964884179
 20
11.4219445602
 30
0.0
 10
9.3963983663
 20
11.4220461111
 30
0.0
 10
9.3963472625
 20
11.4221163143
 30
0.0
 10
9.3963316153
 20
11.4221649604
 30
0.0
 10
9.3963378549
 20
11.4221795048
 30
0.0
  0
SPLINE
  5
46F
100
AcDbEntity
  8
0
100
AcDbSpline
 62
9
  6
CONTINUOUS
 70
0
 71
3
 72
23
 73
19
 74
0
 42
0.0000001
 43
0.0000001
 44
0.0000000001
 40
0.0
 40
0.0
 40
0.0
 40
0.0
 40
0.0786790481
 40
0.1571175434
 40
0.2348713076
 40
0.3114925317
 40
0.3865331501
 40
0.4595602215
 40
0.5301546951
 40
0.5979049146
 40
0.6624108973
 40
0.7233056111
 40
0.7802773637
 40
0.8330565517
 40
0.8814327984
 40
0.9252948974
 40
0.9647140559
 40
1.0
 40
1.0
 40
1.0
 40
1.0
 10
11.1637355483
 20
11.2739698615
 30
0.0
 10
11.1558086545
 20
11.264900143
 30
0.0
 10
11.1397072794
 20
11.2470241301
 30
0.0
 10
11.1148786063
 20
11.2210076231
 30
0.0
 10
11.0895479646
 20
11.1959250908
 30
0.0
 10
11.063899262
 20
11.1719231183
 30
0.0
 10
11.0381143848
 20
11.1491462298
 30
0.0
 10
11.0123721615
 20
11.1277366748
 30
0.0
 10
10.9868486924
 20
11.1078338371
 30
0.0
 10
10.9617188069
 20
11.0895755753
 30
0.0
 10
10.9371549764
 20
11.0730978994
 30
0.0
 10
10.9133233435
 20
11.0585324895
 30
0.0
 10
10.8903844154
 20
11.04600376
 30
0.0
 10
10.86849203
 20
11.0356322847
 30
0.0
 10
10.8477961469
 20
11.0275359479
 30
0.0
 10
10.8284288677
 20
11.0218333437
 30
0.0
 10
10.8105192856
 20
11.0186347949
 30
0.0
 10
10.7990270651
 20
11.0182372178
 30
0.0
 10
10.7936354103
 20
11.0185743695
 30
0.0
  0
SPLINE
  5
470
100
AcDbEntity
  8
0
100
AcDbSpline
 62
7
  6
CONTINUOUS
 70
0
 71
3
 72
18
 73
14
 74
0
 42
0.0000001
 43
0.0000001
 44
0.0000000001
 40
0.0
 40
0.0
 40
0.0
 40
0.0
 40
0.1844877471
 40
0.36368571
 40
0.5320330631
 40
0.6836689674
 40
0.8125312895
 40
0.8664897171
 40
0.9124205387
 40
0.9495335115
 40
0.9770339576
 40
0.9941233836
 40
1.0
 40
1.0
 40
1.0
 40
1.0
 10
11.1055330517
 20
11.3129833878
 30
0.0
 10
11.1196594518
 20
11.331762504
 30
0.0
 10
11.1462047836
 20
11.3697730759
 30
0.0
 10
11.1818662243
 20
11.4274281473
 30
0.0
 10
11.2128669031
 20
11.4829627888
 30
0.0
 10
11.2388902774
 20
11.5338800359
 30
0.0
 10
11.2571206756
 20
11.5723904852
 30
0.0
 10
11.2690483073
 20
11.5989752004
 30
0.0
 10
11.276002289
 20
11.6149809113
 30
0.0
 10
11.2814710272
 20
11.6279563741
 30
0.0
 10
11.2854180827
 20
11.6375859489
 30
0.0
 10
11.2877987244
 20
11.6435570966
 30
0.0
 10
11.2888650714
 20
11.6462811682
 30
0.0
 10
11.2891325406
 20
11.6469802854
 30
0.0
  0
LINE
  5
471
100
AcDbEntity
  8
0
100
AcDbLine
 62
7
  6
CONTINUOUS
 10
9.5081643195
 20
11.3633318391
 11
9.5004775789
 21
11.3672473943
  0
LINE
  5
472
100
AcDbEntity
  8
0
100
AcDbLine
 62
7
  6
CONTINUOUS
 10
9.5004775789
 20
11.3672473943
 11
9.491758919
 21
11.3724412154
  0
SPLINE
  5
473
100
AcDbEntity
  8
0
100
AcDbSpline
 62
7
  6
CONTINUOUS
 70
0
 71
3
 72
20
 73
16
 74
0
 42
0.0000001
 43
0.0000001
 44
0.0000000001
 40
0.0
 40
0.0
 40
0.0
 40
0.0
 40
0.1935482327
 40
0.3775276761
 40
0.5458731522
 40
0.6933006393
 40
0.7577023482
 40
0.8151292964
 40
0.865135358
 40
0.9074534104
 40
0.9418829465
 40
0.9683521104
 40
0.9786817487
 40
0.9872094851
 40
1.0
 40
1.0
 40
1.0
 40
1.0
 10
9.491758919
 20
11.3724412154
 30
0.0
 10
9.4905702969
 20
11.3731933857
 30
0.0
 10
9.4882675481
 20
11.3746855706
 30
0.0
 10
9.484986277
 20
11.3769159199
 30
0.0
 10
9.4820341023
 20
11.3790322151
 30
0.0
 10
9.4798374339
 20
11.3807092005
 30
0.0
 10
9.4783213158
 20
11.3819466265
 30
0.0
 10
9.4773748823
 20
11.3827616728
 30
0.0
 10
9.4765747401
 20
11.3834997306
 30
0.0
 10
9.4759260356
 20
11.384154502
 30
0.0
 10
9.4754338759
 20
11.3847213236
 30
0.0
 10
9.4751329787
 20
11.3851446267
 30
0.0
 10
9.47498503
 20
11.3854407468
 30
0.0
 10
9.4749115467
 20
11.3856572362
 30
0.0
 10
9.4749073822
 20
11.3858252176
 30
0.0
 10
9.4749455431
 20
11.385909979
 30
0.0
  0
SPLINE
  5
474
100
AcDbEntity
  8
0
100
AcDbSpline
 62
9
  6
CONTINUOUS
 70
0
 71
3
 72
19
 73
15
 74
0
 42
0.0000001
 43
0.0000001
 44
0.0000000001
 40
0.0
 40
0.0
 40
0.0
 40
0.0
 40
0.1700368193
 40
0.3350043652
 40
0.4913542178
 40
0.6351867511
 40
0.7623538018
 40
0.8183424928
 40
0.8685309096
 40
0.9123585857
 40
0.9492595394
 40
0.9786637368
 40
0.9903759383
 40
1.0
 40
1.0
 40
1.0
 40
1.0
 10
10.960943337
 20
11.3906641006
 30
0.0
 10
10.9729288598
 20
11.4108382472
 30
0.0
 10
10.9949809024
 20
11.4515276916
 30
0.0
 10
11.0233812352
 20
11.5131415387
 30
0.0
 10
11.0471289555
 20
11.5728080254
 30
0.0
 10
11.0665259483
 20
11.6285192268
 30
0.0
 10
11.0798296726
 20
11.6716483312
 30
0.0
 10
11.0886295021
 20
11.702626047
 30
0.0
 10
11.0940384651
 20
11.7226088152
 30
0.0
 10
11.0985794496
 20
11.7400962793
 30
0.0
 10
11.1022899546
 20
11.7548353369
 30
0.0
 10
11.1048805594
 20
11.7652858207
 30
0.0
 10
11.1065912745
 20
11.7720760685
 30
0.0
 10
11.10732959
 20
11.7749265838
 30
0.0
 10
11.1076727607
 20
11.7762096515
 30
0.0
  0
SPLINE
  5
475
100
AcDbEntity
  8
0
100
AcDbSpline
 62
9
  6
CONTINUOUS
 70
0
 71
3
 72
19
 73
15
 74
0
 42
0.0000001
 43
0.0000001
 44
0.0000000001
 40
0.0
 40
0.0
 40
0.0
 40
0.0
 40
0.2334015653
 40
0.4361041947
 40
0.6076662325
 40
0.7476820199
 40
0.8057567193
 40
0.8558366639
 40
0.8979178646
 40
0.9320382134
 40
0.9583286371
 40
0.9771671868
 40
0.9897543451
 40
1.0
 40
1.0
 40
1.0
 40
1.0
 10
11.1076727607
 20
11.7762096515
 30
0.0
 10
11.1078109071
 20
11.7767261617
 30
0.0
 10
11.1080722856
 20
11.7776903821
 30
0.0
 10
11.1084502649
 20
11.7790301386
 30
0.0
 10
11.1087872851
 20
11.780159041
 30
0.0
 10
11.1090477673
 20
11.7809649213
 30
0.0
 10
11.109239013
 20
11.7815003513
 30
0.0
 10
11.1093633176
 20
11.7818212921
 30
0.0
 10
11.109477732
 20
11.7820871925
 30
0.0
 10
11.1095818454
 20
11.7822974992
 30
0.0
 10
11.109676635
 20
11.7824535825
 30
0.0
 10
11.1097604617
 20
11.7825546407
 30
0.0
 10
11.1098454235
 20
11.7826109219
 30
0.0
 10
11.1099025518
 20
11.7825953972
 30
0.0
 10
11.1099212827
 20
11.7825812547
 30
0.0
  0
SPLINE
  5
476
100
AcDbEntity
  8
0
100
AcDbSpline
 62
9
  6
CONTINUOUS
 70
0
 71
3
 72
37
 73
33
 74
0
 42
0.0000001
 43
0.0000001
 44
0.0000000001
 40
0.0
 40
0.0
 40
0.0
 40
0.0
 40
0.0940863597
 40
0.1869105275
 40
0.2779686043
 40
0.3666987768
 40
0.4524916054
 40
0.5346984067
 40
0.6126380682
 40
0.6856025983
 40
0.7528616721
 40
0.8136664039
 40
0.8414102383
 40
0.8672528204
 40
0.8910967173
 40
0.912843919
 40
0.9323959656
 40
0.9496541277
 40
0.9645197012
 40
0.9768945776
 40
0.9821178672
 40
0.9866827611
 40
0.9905781988
 40
0.9937942193
 40
0.9951450284
 40
0.9963235264
 40
0.9973297746
 40
0.9981648994
 40
0.9988321957
 40
0.9993399736
 40
0.9997099238
 40
1.0
 40
1.0
 40
1.0
 40
1.0
 10
10.853300068
 20
11.4331975135
 30
0.0
 10
10.859829884
 20
11.4461660352
 30
0.0
 10
10.872163025
 20
11.4722552948
 30
0.0
 10
10.8887504928
 20
11.5118282578
 30
0.0
 10
10.9034538755
 20
11.5512564921
 30
0.0
 10
10.9163938536
 20
11.5901535761
 30
0.0
 10
10.9276913733
 20
11.6281342946
 30
0.0
 10
10.9374667893
 20
11.6648126766
 30
0.0
 10
10.94584023
 20
11.699802544
 30
0.0
 10
10.9529315168
 20
11.7327174607
 30
0.0
 10
10.9588603151
 20
11.7631707341
 30
0.0
 10
10.9630504726
 20
11.7868485587
 30
0.0
 10
10.9659377719
 20
11.8042641066
 30
0.0
 10
10.9678200654
 20
11.816064261
 30
0.0
 10
10.969501126
 20
11.8269592194
 30
0.0
 10
10.9709958095
 20
11.8369005795
 30
0.0
 10
10.9723189068
 20
11.8458399424
 30
0.0
 10
10.9734848345
 20
11.8537290158
 30
0.0
 10
10.9745082486
 20
11.8605194771
 30
0.0
 10
10.9752912301
 20
11.8654679624
 30
0.0
 10
10.9758690543
 20
11.868839118
 30
0.0
 10
10.976250938
 20
11.8709160835
 30
0.0
 10
10.9766079764
 20
11.8726823795
 30
0.0
 10
10.9769001084
 20
11.8739555275
 30
0.0
 10
10.9771279521
 20
11.8748124907
 30
0.0
 10
10.9772836513
 20
11.8753355134
 30
0.0
 10
10.9774343568
 20
11.8757767303
 30
0.0
 10
10.9775802127
 20
11.8761355412
 30
0.0
 10
10.9777212879
 20
11.876412788
 30
0.0
 10
10.9778587425
 20
11.8766082937
 30
0.0
 10
10.9779975598
 20
11.8767300461
 30
0.0
 10
10.9781056246
 20
11.8767485107
 30
0.0
 10
10.9781495381
 20
11.8767398191
 30
0.0
  0
SPLINE
  5
477
100
AcDbEntity
  8
0
100
AcDbSpline
 62
7
  6
CONTINUOUS
 70
0
 71
3
 72
17
 73
13
 74
0
 42
0.0000001
 43
0.0000001
 44
0.0000000001
 40
0.0
 40
0.0
 40
0.0
 40
0.0
 40
0.2135642357
 40
0.4036110855
 40
0.5683576124
 40
0.7061621289
 40
0.8159710647
 40
0.8985134311
 40
0.9303978762
 40
0.9568985964
 40
0.9793666096
 40
1.0
 40
1.0
 40
1.0
 40
1.0
 10
9.5081643195
 20
11.3633318391
 30
0.0
 10
9.5086063676
 20
11.3631339801
 30
0.0
 10
9.5094465548
 20
11.3627705436
 30
0.0
 10
9.5106455126
 20
11.3622967219
 30
0.0
 10
9.5117005225
 20
11.3619286434
 30
0.0
 10
9.5125999325
 20
11.3616691974
 30
0.0
 10
9.5133345493
 20
11.361522008
 30
0.0
 10
9.5138454998
 20
11.3614859803
 30
0.0
 10
9.5141636271
 20
11.3615272663
 30
0.0
 10
9.5143393775
 20
11.3615845409
 30
0.0
 10
9.5144731953
 20
11.3616731224
 30
0.0
 10
9.5145310935
 20
11.3617553721
 30
0.0
 10
9.514550123
 20
11.3617981189
 30
0.0
  0
SPLINE
  5
478
100
AcDbEntity
  8
0
100
AcDbSpline
 62
7
  6
CONTINUOUS
 70
0
 71
3
 72
18
 73
14
 74
0
 42
0.0000001
 43
0.0000001
 44
0.0000000001
 40
0.0
 40
0.0
 40
0.0
 40
0.0
 40
0.1988947001
 40
0.3830784247
 40
0.5481809772
 40
0.6907198327
 40
0.8077800666
 40
0.8560160823
 40
0.8972635782
 40
0.9316354979
 40
0.9594764192
 40
0.9816318167
 40
1.0
 40
1.0
 40
1.0
 40
1.0
 10
9.6330292107
 20
11.3081090109
 30
0.0
 10
9.6320267265
 20
11.3086836242
 30
0.0
 10
9.6301123909
 20
11.3098195164
 30
0.0
 10
9.6274288441
 20
11.3115355344
 30
0.0
 10
9.6250833068
 20
11.3131690753
 30
0.0
 10
9.6231299127
 20
11.3146778472
 30
0.0
 10
9.6217866776
 20
11.315862518
 30
0.0
 10
9.6209563543
 20
11.3167298343
 30
0.0
 10
9.620497137
 20
11.3172848211
 30
0.0
 10
9.6201606156
 20
11.317784557
 30
0.0
 10
9.6199479227
 20
11.3182287943
 30
0.0
 10
9.6198588416
 20
11.3186212723
 30
0.0
 10
9.6198981335
 20
11.3188627381
 30
0.0
 10
9.6199420499
 20
11.3189599933
 30
0.0
  0
SPLINE
  5
479
100
AcDbEntity
  8
0
100
AcDbSpline
 62
9
  6
CONTINUOUS
 70
0
 71
3
 72
38
 73
34
 74
0
 42
0.0000001
 43
0.0000001
 44
0.0000000001
 40
0.0
 40
0.0
 40
0.0
 40
0.0
 40
0.0934535267
 40
0.1856701278
 40
0.2761956757
 40
0.3645018881
 40
0.4499994488
 40
0.5320487942
 40
0.6099689161
 40
0.6830445228
 40
0.7505318618
 40
0.7819413473
 40
0.811664264
 40
0.8396016183
 40
0.8656533832
 40
0.8897185882
 40
0.9116954036
 40
0.9314812242
 40
0.9489727561
 40
0.9568257238
 40
0.964066125
 40
0.9706809088
 40
0.976657013
 40
0.981981379
 40
0.9866409777
 40
0.9906228568
 40
0.9939142394
 40
0.99650276
 40
0.9983771635
 40
0.9990441181
 40
0.9995309393
 40
0.9998415269
 40
1.0
 40
1.0
 40
1.0
 40
1.0
 10
10.7094742787
 20
11.4833162161
 30
0.0
 10
10.7152986586
 20
11.4985652839
 30
0.0
 10
10.7260106147
 20
11.5291963409
 30
0.0
 10
10.7395864251
 20
11.5755082658
 30
0.0
 10
10.7508057268
 20
11.6215194654
 30
0.0
 10
10.7598853821
 20
11.6668001872
 30
0.0
 10
10.7670423752
 20
11.7109225844
 30
0.0
 10
10.7724928887
 20
11.7534576501
 30
0.0
 10
10.7764528004
 20
11.7939761129
 30
0.0
 10
10.7791376925
 20
11.8320480917
 30
0.0
 10
10.7805234879
 20
11.8620573819
 30
0.0
 10
10.7811858164
 20
11.8845139537
 30
0.0
 10
10.7814855498
 20
11.9000691479
 30
0.0
 10
10.7816272747
 20
11.9146906449
 30
0.0
 10
10.7816379397
 20
11.9283245553
 30
0.0
 10
10.7815444843
 20
11.9409169566
 30
0.0
 10
10.7813737997
 20
11.9524139308
 30
0.0
 10
10.7811527773
 20
11.9627615563
 30
0.0
 10
10.7809418849
 20
11.9706416763
 30
0.0
 10
10.7807725787
 20
11.9763307628
 30
0.0
 10
10.780654524
 20
11.9801206883
 30
0.0
 10
10.7805440727
 20
11.9835828565
 30
0.0
 10
10.7804445613
 20
11.9867105346
 30
0.0
 10
10.7803592873
 20
11.9894969646
 30
0.0
 10
10.7802915207
 20
11.9919354783
 30
0.0
 10
10.7802443919
 20
11.9940191669
 30
0.0
 10
10.7802209936
 20
11.9957419001
 30
0.0
 10
10.7802235749
 20
11.9970956535
 30
0.0
 10
10.7802515566
 20
11.9979931153
 30
0.0
 10
10.780294164
 20
11.9985184404
 30
0.0
 10
10.7803354542
 20
11.9987749439
 30
0.0
 10
10.7803717942
 20
11.9989304036
 30
0.0
 10
10.7804272387
 20
11.9990103187
 30
0.0
 10
10.7804547439
 20
11.9990134288
 30
0.0
  0
SPLINE
  5
47A
100
AcDbEntity
  8
0
100
AcDbSpline
 62
7
  6
CONTINUOUS
 70
0
 71
3
 72
19
 73
15
 74
0
 42
0.0000001
 43
0.0000001
 44
0.0000000001
 40
0.0
 40
0.0
 40
0.0
 40
0.0
 40
0.1985680775
 40
0.3841089801
 40
0.5505385334
 40
0.6936273925
 40
0.7554806156
 40
0.8104234088
 40
0.858300315
 40
0.8990799763
 40
0.9328658013
 40
0.9600418
 40
0.9816570646
 40
1.0
 40
1.0
 40
1.0
 40
1.0
 10
9.6439031854
 20
11.3025756627
 30
0.0
 10
9.6450052584
 20
11.3020823792
 30
0.0
 10
9.6471527184
 20
11.3011625828
 30
0.0
 10
9.6502749381
 20
11.2999525876
 30
0.0
 10
9.6531261167
 20
11.2989838673
 30
0.0
 10
9.6553010975
 20
11.2983701184
 30
0.0
 10
9.6568444174
 20
11.2980283483
 30
0.0
 10
9.6578314586
 20
11.2978572144
 30
0.0
 10
9.6586996644
 20
11.2977583056
 30
0.0
 10
9.6594446481
 20
11.2977309914
 30
0.0
 10
9.6600634942
 20
11.2977744124
 30
0.0
 10
9.660555371
 20
11.2978893013
 30
0.0
 10
9.660923482
 20
11.2980814159
 30
0.0
 10
9.66108164
 20
11.2982788241
 30
0.0
 10
9.6611271706
 20
11.2983806459
 30
0.0
  0
SPLINE
  5
47B
100
AcDbEntity
  8
0
100
AcDbSpline
 62
9
  6
CONTINUOUS
 70
0
 71
3
 72
32
 73
28
 74
0
 42
0.0000001
 43
0.0000001
 44
0.0000000001
 40
0.0
 40
0.0
 40
0.0
 40
0.0
 40
0.0000673169
 40
0.0002690679
 40
0.0006049538
 40
0.0010746754
 40
0.0024144289
 40
0.0042859364
 40
0.0066868068
 40
0.0096146501
 40
0.0130670778
 40
0.0170417024
 40
0.0265479978
 40
0.0381144624
 40
0.0517220418
 40
0.067351702
 40
0.0849844301
 40
0.1046012347
 40
0.149711196
 40
0.2025301111
 40
0.2629068568
 40
0.3306906922
 40
0.4057312722
 40
0.4878786638
 40
0.5769833612
 40
0.7754684304
 40
1.0
 40
1.0
 40
1.0
 40
1.0
 10
10.7168090982
 20
12.0339863755
 30
0.0
 10
10.7168100887
 20
12.0339860003
 30
0.0
 10
10.7168086366
 20
12.0339801695
 30
0.0
 10
10.7168119471
 20
12.0339723255
 30
0.0
 10
10.716813047
 20
12.0339557358
 30
0.0
 10
10.716818433
 20
12.0339228504
 30
0.0
 10
10.716825967
 20
12.0338650855
 30
0.0
 10
10.7168383913
 20
12.0337778142
 30
0.0
 10
10.7168538308
 20
12.0336655097
 30
0.0
 10
10.716872692
 20
12.03352865
 30
0.0
 10
10.7168947428
 20
12.033367202
 30
0.0
 10
10.7169305968
 20
12.0331031741
 30
0.0
 10
10.7169830818
 20
12.0327125494
 30
0.0
 10
10.7170548111
 20
12.0321715727
 30
0.0
 10
10.7171380748
 20
12.0315349278
 30
0.0
 10
10.7172324076
 20
12.0308034636
 30
0.0
 10
10.7173373408
 20
12.0299780264
 30
0.0
 10
10.7174984216
 20
12.028692109
 30
0.0
 10
10.7177230164
 20
12.0268561525
 30
0.0
 10
10.7180162304
 20
12.0243824483
 30
0.0
 10
10.7183406213
 20
12.021553177
 30
0.0
 10
10.7186924478
 20
12.0183751153
 30
0.0
 10
10.7190679643
 20
12.0148550387
 30
0.0
 10
10.7194634296
 20
12.0109997229
 30
0.0
 10
10.7200331348
 20
12.0052096751
 30
0.0
 10
10.7207697137
 20
11.9971848279
 30
0.0
 10
10.7213200823
 20
11.9905511447
 30
0.0
 10
10.7215969829
 20
11.9870288993
 30
0.0
  0
SPLINE
  5
47C
100
AcDbEntity
  8
0
100
AcDbSpline
 62
7
  6
CONTINUOUS
 70
0
 71
3
 72
11
 73
7
 74
0
 42
0.0000001
 43
0.0000001
 44
0.0000000001
 40
0.0
 40
0.0
 40
0.0
 40
0.0
 40
0.1879892797
 40
0.4225927641
 40
0.6958131324
 40
1.0
 40
1.0
 40
1.0
 40
1.0
 10
10.7215969829
 20
11.9870288993
 30
0.0
 10
10.7226937917
 20
11.9730772172
 30
0.0
 10
10.7246307428
 20
11.9416713536
 30
0.0
 10
10.7261000229
 20
11.8898818803
 30
0.0
 10
10.7254861688
 20
11.829419232
 30
0.0
 10
10.7231256644
 20
11.7864788633
 30
0.0
 10
10.7213135234
 20
11.7639065119
 30
0.0
  0
LINE
  5
47D
100
AcDbEntity
  8
0
100
AcDbLine
 62
9
  6
CONTINUOUS
 10
10.7213135234
 20
11.7639065119
 11
10.683302411
 21
11.7834294364
  0
SPLINE
  5
47E
100
AcDbEntity
  8
0
100
AcDbSpline
 62
9
  6
CONTINUOUS
 70
0
 71
3
 72
11
 73
7
 74
0
 42
0.0000001
 43
0.0000001
 44
0.0000000001
 40
0.0
 40
0.0
 40
0.0
 40
0.0
 40
0.2639333255
 40
0.5208090964
 40
0.7673517676
 40
1.0
 40
1.0
 40
1.0
 40
1.0
 10
10.6274844333
 20
11.5129372926
 30
0.0
 10
10.6353610153
 20
11.5359807308
 30
0.0
 10
10.6491982378
 20
11.5820497874
 30
0.0
 10
10.6650434093
 20
11.6510991531
 30
0.0
 10
10.676337415
 20
11.7181030955
 30
0.0
 10
10.6813873059
 20
11.762049204
 30
0.0
 10
10.683302411
 20
11.7834294364
 30
0.0
  0
SPLINE
  5
47F
100
AcDbEntity
  8
0
100
AcDbSpline
 62
7
  6
CONTINUOUS
 70
0
 71
3
 72
11
 73
7
 74
0
 42
0.0000001
 43
0.0000001
 44
0.0000000001
 40
0.0
 40
0.0
 40
0.0
 40
0.0
 40
0.2360454706
 40
0.4834947008
 40
0.7390638902
 40
1.0
 40
1.0
 40
1.0
 40
1.0
 10
10.7213135662
 20
11.7639064899
 30
0.0
 10
10.7196026078
 20
11.742594484
 30
0.0
 10
10.7150581364
 20
11.6990161998
 30
0.0
 10
10.7045803458
 20
11.6328614751
 30
0.0
 10
10.6895576548
 20
11.5652659516
 30
0.0
 10
10.6761458065
 20
11.5203863194
 30
0.0
 10
10.6684452202
 20
11.4980408487
 30
0.0
  0
SPLINE
  5
480
100
AcDbEntity
  8
0
100
AcDbSpline
 62
7
  6
CONTINUOUS
 70
0
 71
3
 72
18
 73
14
 74
0
 42
0.0000001
 43
0.0000001
 44
0.0000000001
 40
0.0
 40
0.0
 40
0.0
 40
0.0
 40
0.2007233566
 40
0.387135085
 40
0.5537495388
 40
0.6960045963
 40
0.8116307927
 40
0.8589933989
 40
0.8992497756
 40
0.9325907175
 40
0.959569061
 40
0.9813089314
 40
1.0
 40
1.0
 40
1.0
 40
1.0
 10
9.8005454465
 20
11.2324632097
 30
0.0
 10
9.7995289962
 20
11.2329181688
 30
0.0
 10
9.7975821248
 20
11.2338264582
 30
0.0
 10
9.7948440785
 20
11.2352212634
 30
0.0
 10
9.7924476381
 20
11.2365681481
 30
0.0
 10
9.7904596344
 20
11.237832897
 30
0.0
 10
9.789097521
 20
11.2388441934
 30
0.0
 10
9.7882571833
 20
11.2395973872
 30
0.0
 10
9.7877944395
 20
11.2400847382
 30
0.0
 10
9.7874567041
 20
11.2405310087
 30
0.0
 10
9.7872436176
 20
11.2409365282
 30
0.0
 10
9.7871559962
 20
11.2413065045
 30
0.0
 10
9.7871957539
 20
11.2415360877
 30
0.0
 10
9.7872377445
 20
11.2416309048
 30
0.0
  0
SPLINE
  5
481
100
AcDbEntity
  8
0
100
AcDbSpline
 62
9
  6
CONTINUOUS
 70
0
 71
3
 72
33
 73
29
 74
0
 42
0.0000001
 43
0.0000001
 44
0.0000000001
 40
0.0
 40
0.0
 40
0.0
 40
0.0
 40
0.0002690366
 40
0.00068539
 40
0.001969302
 40
0.0038557129
 40
0.0063401968
 40
0.0094168616
 40
0.0130793187
 40
0.0173209696
 40
0.0221351155
 40
0.0334538138
 40
0.0469812324
 40
0.0626630293
 40
0.0804449243
 40
0.1002727695
 40
0.1220925882
 40
0.145850602
 40
0.1714932509
 40
0.228219065
 40
0.2918468443
 40
0.3619571104
 40
0.4381333192
 40
0.5199639784
 40
0.6070438099
 40
0.6989744697
 40
0.7953653593
 40
1.0
 40
1.0
 40
1.0
 40
1.0
 10
10.6804578979
 20
12.0530633034
 30
0.0
 10
10.680472573
 20
12.0530440227
 30
0.0
 10
10.6804997665
 20
12.0529878261
 30
0.0
 10
10.6805606087
 20
12.0528215448
 30
0.0
 10
10.6806427479
 20
12.0525082996
 30
0.0
 10
10.6807531553
 20
12.0520114002
 30
0.0
 10
10.6808808115
 20
12.0513527125
 30
0.0
 10
10.6810254982
 20
12.0505347354
 30
0.0
 10
10.6811855661
 20
12.0495587752
 30
0.0
 10
10.6813601135
 20
12.0484267021
 30
0.0
 10
10.6816253045
 20
12.0466109615
 30
0.0
 10
10.6819836175
 20
12.0439637413
 30
0.0
 10
10.6824354947
 20
12.0403417079
 30
0.0
 10
10.6829214132
 20
12.0361374871
 30
0.0
 10
10.6834335322
 20
12.031365248
 30
0.0
 10
10.6839639621
 20
12.026039148
 30
0.0
 10
10.6845048769
 20
12.0201733608
 30
0.0
 10
10.6850484724
 20
12.0137820588
 30
0.0
 10
10.685791772
 20
12.0042528803
 30
0.0
 10
10.6866734917
 20
11.9911331654
 30
0.0
 10
10.6875858513
 20
11.9740031719
 30
0.0
 10
10.6883228097
 20
11.955111393
 30
0.0
 10
10.6888225319
 20
11.9345718214
 30
0.0
 10
10.6890231136
 20
11.9124986148
 30
0.0
 10
10.6888626968
 20
11.88900605
 30
0.0
 10
10.6882794574
 20
11.8642081104
 30
0.0
 10
10.6868262492
 20
11.8288460445
 30
0.0
 10
10.6849470323
 20
11.8017907724
 30
0.0
 10
10.6833028442
 20
11.7834342729
 30
0.0
  0
SPLINE
  5
482
100
AcDbEntity
  8
0
100
AcDbSpline
 62
9
  6
CONTINUOUS
 70
0
 71
3
 72
14
 73
10
 74
0
 42
0.0000001
 43
0.0000001
 44
0.0000000001
 40
0.0
 40
0.0
 40
0.0
 40
0.0
 40
0.1116250115
 40
0.2287081131
 40
0.3504021085
 40
0.4756280349
 40
0.6039262177
 40
0.7348602881
 40
1.0
 40
1.0
 40
1.0
 40
1.0
 10
10.6833028442
 20
11.7834342729
 30
0.0
 10
10.6608747834
 20
11.7949256739
 30
0.0
 10
10.6147988323
 20
11.8182302214
 30
0.0
 10
10.5439437122
 20
11.8534093442
 30
0.0
 10
10.4701499423
 20
11.8895715421
 30
0.0
 10
10.3939662438
 20
11.9266092374
 30
0.0
 10
10.3158222735
 20
11.9643852974
 30
0.0
 10
10.2091707688
 20
12.0157658282
 30
0.0
 10
10.1285992287
 20
12.0545450073
 30
0.0
 10
10.074678486
 20
12.0805366508
 30
0.0
  0
SPLINE
  5
483
100
AcDbEntity
  8
0
100
AcDbSpline
 62
9
  6
CONTINUOUS
 70
0
 71
3
 72
16
 73
12
 74
0
 42
0.0000001
 43
0.0000001
 44
0.0000000001
 40
0.0
 40
0.0
 40
0.0
 40
0.0
 40
0.1533253204
 40
0.3060740871
 40
0.5937594959
 40
0.7208445035
 40
0.8323246185
 40
0.8814458042
 40
0.9258508917
 40
0.9653899628
 40
1.0
 40
1.0
 40
1.0
 40
1.0
 10
10.074678486
 20
12.0805366508
 30
0.0
 10
10.044441712
 20
12.0951336083
 30
0.0
 10
9.9841144625
 20
12.124340333
 30
0.0
 10
9.8671238687
 20
12.1810788666
 30
0.0
 10
9.7551397322
 20
12.2349795074
 30
0.0
 10
9.6506780159
 20
12.2836466713
 30
0.0
 10
9.5932632139
 20
12.3095828174
 30
0.0
 10
9.5521172394
 20
12.3275397531
 30
0.0
 10
9.5252976316
 20
12.3389342464
 30
0.0
 10
9.5012851524
 20
12.3488049566
 30
0.0
 10
9.486180366
 20
12.3547655472
 30
0.0
 10
9.4791037489
 20
12.3574791053
 30
0.0
  0
SPLINE
  5
484
100
AcDbEntity
  8
0
100
AcDbSpline
 62
9
  6
CONTINUOUS
 70
0
 71
3
 72
17
 73
13
 74
0
 42
0.0000001
 43
0.0000001
 44
0.0000000001
 40
0.0
 40
0.0
 40
0.0
 40
0.0
 40
0.205063759
 40
0.3862487541
 40
0.5439294778
 40
0.6785042585
 40
0.7904425604
 40
0.8805585434
 40
0.9177670669
 40
0.9499430322
 40
0.9772738881
 40
1.0
 40
1.0
 40
1.0
 40
1.0
 10
9.4791037489
 20
12.3574791053
 30
0.0
 10
9.4746763161
 20
12.3591768226
 30
0.0
 10
9.4663171902
 20
12.3623233866
 30
0.0
 10
9.4544773876
 20
12.3665693678
 30
0.0
 10
9.4441023908
 20
12.3700658679
 30
0.0
 10
9.4351737926
 20
12.3728335321
 30
0.0
 10
9.4276658764
 20
12.3748935122
 30
0.0
 10
9.4222657994
 20
12.3761143122
 30
0.0
 10
9.4186272799
 20
12.376723421
 30
0.0
 10
9.41640557
 20
12.3769891806
 30
0.0
 10
9.4145059636
 20
12.3770985466
 30
0.0
 10
9.4133463095
 20
12.3770673041
 30
0.0
 10
9.4128231448
 20
12.3770177631
 30
0.0
  0
SPLINE
  5
485
100
AcDbEntity
  8
0
100
AcDbSpline
 62
7
  6
CONTINUOUS
 70
0
 71
3
 72
16
 73
12
 74
0
 42
0.0000001
 43
0.0000001
 44
0.0000000001
 40
0.0
 40
0.0
 40
0.0
 40
0.0
 40
0.2143695654
 40
0.4044134981
 40
0.568844121
 40
0.7065099136
 40
0.8165543672
 40
0.8990162382
 40
0.9307845452
 40
0.9572316636
 40
1.0
 40
1.0
 40
1.0
 40
1.0
 10
9.9304869232
 20
11.1743019217
 30
0.0
 10
9.9301170485
 20
11.1744674761
 30
0.0
 10
9.9294231059
 20
11.1747885023
 30
0.0
 10
9.9284618012
 20
11.1752709329
 30
0.0
 10
9.9276477366
 20
11.1757217691
 30
0.0
 10
9.9269871661
 20
11.1761363164
 30
0.0
 10
9.9264869562
 20
11.1765102581
 30
0.0
 10
9.9261801638
 20
11.1768074
 30
0.0
 10
9.9260310624
 20
11.1770293132
 30
0.0
 10
9.9259541142
 20
11.1772043127
 30
0.0
 10
9.9259552962
 20
11.1773478536
 30
0.0
 10
9.9259884001
 20
11.177421613
 30
0.0
  0
SPLINE
  5
486
100
AcDbEntity
  8
0
100
AcDbSpline
 62
9
  6
CONTINUOUS
 70
0
 71
3
 72
41
 73
37
 74
0
 42
0.0000001
 43
0.0000001
 44
0.0000000001
 40
0.0
 40
0.0
 40
0.0
 40
0.0
 40
0.0057255459
 40
0.0103308367
 40
0.013975106
 40
0.016904107
 40
0.0194947086
 40
0.0221985905
 40
0.0253623514
 40
0.0291260206
 40
0.0334913193
 40
0.0384068637
 40
0.0496386046
 40
0.0558679163
 40
0.0624922844
 40
0.0695522744
 40
0.0770898759
 40
0.0851288208
 40
0.0936794462
 40
0.1123134497
 40
0.1329429341
 40
0.1554840641
 40
0.1799000275
 40
0.2062006981
 40
0.2343995617
 40
0.2645088741
 40
0.3304570881
 40
0.3662903597
 40
0.4040282762
 40
0.4851558468
 40
0.528503649
 40
0.5736809588
 40
0.6694924943
 40
0.7725375956
 40
0.882743969
 40
1.0
 40
1.0
 40
1.0
 40
1.0
 10
10.1563543069
 20
12.2630132972
 30
0.0
 10
10.1560519764
 20
12.2631020907
 30
0.0
 10
10.1555009369
 20
12.2632452166
 30
0.0
 10
10.1547379912
 20
12.2633583347
 30
0.0
 10
10.1541188141
 20
12.2633463834
 30
0.0
 10
10.1536257739
 20
12.2632007739
 30
0.0
 10
10.1532663033
 20
12.2629035099
 30
0.0
 10
10.1530569803
 20
12.2624759262
 30
0.0
 10
10.152968942
 20
12.2619496496
 30
0.0
 10
10.152954816
 20
12.2613275596
 30
0.0
 10
10.1529856682
 20
12.2606101387
 30
0.0
 10
10.1530520478
 20
12.2594834506
 30
0.0
 10
10.153083916
 20
12.2582503143
 30
0.0
 10
10.152983451
 20
12.2569270408
 30
0.0
 10
10.1528009395
 20
12.2558447925
 30
0.0
 10
10.1525063012
 20
12.2547134422
 30
0.0
 10
10.152114131
 20
12.2535303165
 30
0.0
 10
10.1516330109
 20
12.252292274
 30
0.0
 10
10.1508636567
 20
12.2505126398
 30
0.0
 10
10.1497237863
 20
12.2481401855
 30
0.0
 10
10.1481951031
 20
12.2451018586
 30
0.0
 10
10.1465476971
 20
12.2417668521
 30
0.0
 10
10.1448215911
 20
12.2381231812
 30
0.0
 10
10.1430217334
 20
12.234170462
 30
0.0
 10
10.141162005
 20
12.2299013481
 30
0.0
 10
10.138526584
 20
12.223591154
 30
0.0
 10
10.1357694046
 20
12.2168765669
 30
0.0
 10
10.1327330333
 20
12.2098237922
 30
0.0
 10
10.129251984
 20
12.2020540583
 30
0.0
 10
10.1255095981
 20
12.1939490073
 30
0.0
 10
10.121618295
 20
12.18546187
 30
0.0
 10
10.1174424786
 20
12.1762163
 30
0.0
 10
10.1119886943
 20
12.1639432721
 30
0.0
 10
10.1050909319
 20
12.1483957146
 30
0.0
 10
10.0976626475
 20
12.1317924811
 30
0.0
 10
10.0925448062
 20
12.1203682787
 30
0.0
 10
10.0899088356
 20
12.1144781307
 30
0.0
  0
SPLINE
  5
487
100
AcDbEntity
  8
0
100
AcDbSpline
 62
9
  6
CONTINUOUS
 70
0
 71
3
 72
40
 73
36
 74
0
 42
0.0000001
 43
0.0000001
 44
0.0000000001
 40
0.0
 40
0.0
 40
0.0
 40
0.0
 40
0.094126796
 40
0.1892933298
 40
0.284259166
 40
0.3776962383
 40
0.4682687889
 40
0.5546959979
 40
0.635750115
 40
0.7103615286
 40
0.7775597639
 40
0.8081467313
 40
0.8366133577
 40
0.8628832568
 40
0.8869113999
 40
0.9086604371
 40
0.9280928145
 40
0.9451786801
 40
0.9599195506
 40
0.9723245408
 40
0.9776538499
 40
0.9824024615
 40
0.98657219
 40
0.9901678931
 40
0.9931951753
 40
0.9956596209
 40
0.9966825199
 40
0.9975667945
 40
0.998313137
 40
0.9989222381
 40
0.9993947875
 40
0.9997314733
 40
0.9998490821
 40
0.9999329824
 40
1.0
 40
1.0
 40
1.0
 40
1.0
 10
10.0899088356
 20
12.1144781307
 30
0.0
 10
10.0715049177
 20
12.1238035131
 30
0.0
 10
10.0343933306
 20
12.1423595306
 30
0.0
 10
9.9784086998
 20
12.1697084045
 30
0.0
 10
9.9223349991
 20
12.1965256168
 30
0.0
 10
9.8669497821
 20
12.2224436277
 30
0.0
 10
9.8130383439
 20
12.2470898179
 30
0.0
 10
9.7613859676
 20
12.2701439083
 30
0.0
 10
9.7127242251
 20
12.2913089033
 30
0.0
 10
9.667736622
 20
12.3103479074
 30
0.0
 10
9.6327783391
 20
12.3246969186
 30
0.0
 10
9.6070874553
 20
12.3349824228
 30
0.0
 10
9.5896850116
 20
12.3418327997
 30
0.0
 10
9.5735822407
 20
12.3480590536
 30
0.0
 10
9.558818154
 20
12.3536638078
 30
0.0
 10
9.5454238084
 20
12.3586531018
 30
0.0
 10
9.5334270408
 20
12.3630342603
 30
0.0
 10
9.5228474501
 20
12.3668172366
 30
0.0
 10
9.5136963427
 20
12.3700195821
 30
0.0
 10
9.5069617326
 20
12.372325089
 30
0.0
 10
9.5022907862
 20
12.3738960517
 30
0.0
 10
9.499327346
 20
12.3748813807
 30
0.0
 10
9.4967215166
 20
12.3757378314
 30
0.0
 10
9.4944715647
 20
12.3764686438
 30
0.0
 10
9.4925749633
 20
12.3770773311
 30
0.0
 10
9.4912137871
 20
12.3775088757
 30
0.0
 10
9.490299558
 20
12.3777958766
 30
0.0
 10
9.4897443127
 20
12.3779690442
 30
0.0
 10
9.4892754087
 20
12.3781144634
 30
0.0
 10
9.4888924377
 20
12.3782321676
 30
0.0
 10
9.4885952559
 20
12.3783236962
 30
0.0
 10
9.4884006774
 20
12.3783816111
 30
0.0
 10
9.488288036
 20
12.3784173303
 30
0.0
 10
9.4882311965
 20
12.3784315561
 30
0.0
 10
9.4882004493
 20
12.3784463911
 30
0.0
 10
9.4881857837
 20
12.3784472305
 30
0.0
  0
SPLINE
  5
488
100
AcDbEntity
  8
0
100
AcDbSpline
 62
7
  6
CONTINUOUS
 70
0
 71
3
 72
9
 73
5
 74
0
 42
0.0000001
 43
0.0000001
 44
0.0000000001
 40
0.0
 40
0.0
 40
0.0
 40
0.0
 40
0.5066000607
 40
1.0
 40
1.0
 40
1.0
 40
1.0
 10
9.8005454465
 20
11.2324632097
 30
0.0
 10
9.8031937202
 20
11.231277853
 30
0.0
 10
9.8085115229
 20
11.2291378174
 30
0.0
 10
9.8139545456
 20
11.2273393663
 30
0.0
 10
9.8166709759
 20
11.2265606234
 30
0.0
  0
SPLINE
  5
489
100
AcDbEntity
  8
0
100
AcDbSpline
 62
7
  6
CONTINUOUS
 70
0
 71
3
 72
17
 73
13
 74
0
 42
0.0000001
 43
0.0000001
 44
0.0000000001
 40
0.0
 40
0.0
 40
0.0
 40
0.0
 40
0.2023134971
 40
0.3871968386
 40
0.5513002644
 40
0.6918183907
 40
0.8068805125
 40
0.8951789354
 40
0.9294275954
 40
0.9575607601
 40
0.9804889817
 40
1.0
 40
1.0
 40
1.0
 40
1.0
 10
9.8166709759
 20
11.2265606234
 30
0.0
 10
9.817579149
 20
11.2263002694
 30
0.0
 10
9.8193243351
 20
11.22582619
 30
0.0
 10
9.8218298442
 20
11.2252320477
 30
0.0
 10
9.8240735565
 20
11.224791892
 30
0.0
 10
9.826014782
 20
11.2245120418
 30
0.0
 10
9.8276171245
 20
11.2243945064
 30
0.0
 10
9.8287314743
 20
11.2244289009
 30
0.0
 10
9.8294239619
 20
11.2245631873
 30
0.0
 10
9.8298012416
 20
11.2246974898
 30
0.0
 10
9.8300830859
 20
11.2248759036
 30
0.0
 10
9.8302074446
 20
11.225038204
 30
0.0
 10
9.8302448195
 20
11.2251212971
 30
0.0
  0
LINE
  5
48A
100
AcDbEntity
  8
0
100
AcDbLine
 62
7
  6
CONTINUOUS
 10
9.9304869232
 20
11.1743019217
 11
9.9368527301
 21
11.1718000249
  0
SPLINE
  5
48B
100
AcDbEntity
  8
0
100
AcDbSpline
 62
7
  6
CONTINUOUS
 70
0
 71
3
 72
9
 73
5
 74
0
 42
0.0000001
 43
0.0000001
 44
0.0000000001
 40
0.0
 40
0.0
 40
0.0
 40
0.0
 40
0.4896744849
 40
1.0
 40
1.0
 40
1.0
 40
1.0
 10
9.9368527301
 20
11.1718000249
 30
0.0
 10
9.9394795716
 20
11.1708673033
 30
0.0
 10
9.9449004582
 20
11.169121296
 30
0.0
 10
9.9503848045
 20
11.1675901853
 30
0.0
 10
9.9531985128
 20
11.166867329
 30
0.0
  0
SPLINE
  5
48C
100
AcDbEntity
  8
0
100
AcDbSpline
 62
7
  6
CONTINUOUS
 70
0
 71
3
 72
18
 73
14
 74
0
 42
0.0000001
 43
0.0000001
 44
0.0000000001
 40
0.0
 40
0.0
 40
0.0
 40
0.0
 40
0.2007076553
 40
0.3874947077
 40
0.5556333842
 40
0.7010143675
 40
0.8200243287
 40
0.8686461773
 40
0.9097095793
 40
0.9430979824
 40
0.9688240556
 40
0.9872570345
 40
1.0
 40
1.0
 40
1.0
 40
1.0
 10
9.9531985128
 20
11.166867329
 30
0.0
 10
9.9543459371
 20
11.1665725498
 30
0.0
 10
9.9565662493
 20
11.1660227948
 30
0.0
 10
9.9597646696
 20
11.1652964567
 30
0.0
 10
9.9626590142
 20
11.1647085222
 30
0.0
 10
9.9651750649
 20
11.1642737411
 30
0.0
 10
9.9670076933
 20
11.1640311527
 30
0.0
 10
9.9682360386
 20
11.1639343617
 30
0.0
 10
9.9689624647
 20
11.1639113144
 30
0.0
 10
9.9695540411
 20
11.1639305649
 30
0.0
 10
9.9700087489
 20
11.1639951019
 30
0.0
 10
9.9703307904
 20
11.1640960704
 30
0.0
 10
9.9704791728
 20
11.1642260103
 30
0.0
 10
9.9705097796
 20
11.1642947173
 30
0.0
  0
SPLINE
  5
48D
100
AcDbEntity
  8
0
100
AcDbSpline
 62
7
  6
CONTINUOUS
 70
0
 71
3
 72
33
 73
29
 74
0
 42
0.0000001
 43
0.0000001
 44
0.0000000001
 40
0.0
 40
0.0
 40
0.0
 40
0.0
 40
0.0086873893
 40
0.0217388451
 40
0.0390059918
 40
0.0603315886
 40
0.1143617152
 40
0.1816951531
 40
0.2599128676
 40
0.3461855366
 40
0.4375374532
 40
0.5308706283
 40
0.6230545469
 40
0.7109997234
 40
0.7916600528
 40
0.8283841978
 40
0.8622709968
 40
0.8929961641
 40
0.9202588571
 40
0.9438343263
 40
0.9635138738
 40
0.9790901779
 40
0.98527646
 40
0.9903740557
 40
0.9943822088
 40
0.9973035656
 40
0.9991509366
 40
1.0
 40
1.0
 40
1.0
 40
1.0
 10
9.9942379061
 20
11.1457672353
 30
0.0
 10
9.9943608324
 20
11.145712214
 30
0.0
 10
9.9946772802
 20
11.1455950554
 30
0.0
 10
9.995250928
 20
11.1454041623
 30
0.0
 10
9.9960161864
 20
11.1451684259
 30
0.0
 10
9.9973938573
 20
11.1447636875
 30
0.0
 10
9.999525209
 20
11.144171149
 30
0.0
 10
10.0025134911
 20
11.1433690724
 30
0.0
 10
10.0059901088
 20
11.1424583414
 30
0.0
 10
10.0098308353
 20
11.141468382
 30
0.0
 10
10.0139014715
 20
11.1404316176
 30
0.0
 10
10.018063436
 20
11.1393822
 30
0.0
 10
10.0221764298
 20
11.1383546179
 30
0.0
 10
10.0261012422
 20
11.1373844068
 30
0.0
 10
10.0291937797
 20
11.1366301927
 30
0.0
 10
10.0314740398
 20
11.1360824674
 30
0.0
 10
10.0330026142
 20
11.1357198883
 30
0.0
 10
10.0343896487
 20
11.1353961469
 30
0.0
 10
10.035622359
 20
11.1351146134
 30
0.0
 10
10.0366896882
 20
11.1348779373
 30
0.0
 10
10.0375817911
 20
11.1346885563
 30
0.0
 10
10.0382121815
 20
11.134563463
 30
0.0
 10
10.0386218843
 20
11.134490442
 30
0.0
 10
10.0388565669
 20
11.1344530391
 30
0.0
 10
10.0390399743
 20
11.1344286786
 30
0.0
 10
10.039179008
 20
11.1344164981
 30
0.0
 10
10.0392597261
 20
11.1344166424
 30
0.0
 10
10.0393095235
 20
11.1344244595
 30
0.0
 10
10.0393153873
 20
11.134436244
 30
0.0
  0
SPLINE
  5
48E
100
AcDbEntity
  8
0
100
AcDbSpline
 62
7
  6
CONTINUOUS
 70
0
 71
3
 72
13
 73
9
 74
0
 42
0.0000001
 43
0.0000001
 44
0.0000000001
 40
0.0
 40
0.0
 40
0.0
 40
0.0
 40
0.4091563644
 40
0.709802582
 40
0.8186568439
 40
0.9003248762
 40
0.9575929046
 40
1.0
 40
1.0
 40
1.0
 40
1.0
 10
9.2176820733
 20
11.6190015087
 30
0.0
 10
9.2180856523
 20
11.6188208684
 30
0.0
 10
9.218792401
 20
11.6185222294
 30
0.0
 10
9.2196308022
 20
11.6182342047
 30
0.0
 10
9.2201514644
 20
11.6181237919
 30
0.0
 10
9.2204187512
 20
11.6181042721
 30
0.0
 10
9.220617477
 20
11.6181334878
 30
0.0
 10
9.2207049846
 20
11.6182120703
 30
0.0
 10
9.2207235952
 20
11.6182539493
 30
0.0
  0
SPLINE
  5
48F
100
AcDbEntity
  8
0
100
AcDbSpline
 62
7
  6
CONTINUOUS
 70
0
 71
3
 72
17
 73
13
 74
0
 42
0.0000001
 43
0.0000001
 44
0.0000000001
 40
0.0
 40
0.0
 40
0.0
 40
0.0
 40
0.2136663161
 40
0.4040197314
 40
0.5691573908
 40
0.7073101291
 40
0.8173334458
 40
0.8998658391
 40
0.9316053868
 40
0.9578340738
 40
0.9798874967
 40
1.0
 40
1.0
 40
1.0
 40
1.0
 10
9.3171148836
 20
11.5744957784
 30
0.0
 10
9.3175752763
 20
11.5742897084
 30
0.0
 10
9.3184506277
 20
11.5739106191
 30
0.0
 10
9.3196997189
 20
11.5734147548
 30
0.0
 10
9.320799154
 20
11.5730275279
 30
0.0
 10
9.3217362481
 20
11.5727523334
 30
0.0
 10
9.3225010555
 20
11.5725932322
 30
0.0
 10
9.323032457
 20
11.5725496716
 30
0.0
 10
9.3233632051
 20
11.5725874452
 30
0.0
 10
9.3235452506
 20
11.5726432916
 30
0.0
 10
9.3236836908
 20
11.5727316832
 30
0.0
 10
9.3237433011
 20
11.5728152122
 30
0.0
 10
9.3237625821
 20
11.5728586011
 30
0.0
  0
SPLINE
  5
490
100
AcDbEntity
  8
0
100
AcDbSpline
 62
7
  6
CONTINUOUS
 70
0
 71
3
 72
17
 73
13
 74
0
 42
0.0000001
 43
0.0000001
 44
0.0000000001
 40
0.0
 40
0.0
 40
0.0
 40
0.0
 40
0.2076745457
 40
0.3963739271
 40
0.5623222722
 40
0.7023288815
 40
0.8150386055
 40
0.8999925197
 40
0.9324317402
 40
0.9589082069
 40
0.9806875033
 40
1.0
 40
1.0
 40
1.0
 40
1.0
 10
9.4466982449
 20
11.5164947814
 30
0.0
 10
9.4474601108
 20
11.5161537732
 30
0.0
 10
9.4489230913
 20
11.5155224219
 30
0.0
 10
9.4510263135
 20
11.5146936377
 30
0.0
 10
9.4529038956
 20
11.514038277
 30
0.0
 10
9.4545214812
 20
11.5135689903
 30
0.0
 10
9.4558506024
 20
11.5132912694
 30
0.0
 10
9.4567772075
 20
11.5132056978
 30
0.0
 10
9.4573548802
 20
11.5132596656
 30
0.0
 10
9.4576698121
 20
11.5133464755
 30
0.0
 10
9.4579079046
 20
11.5134865516
 30
0.0
 10
9.4580106273
 20
11.5136230614
 30
0.0
 10
9.4580425701
 20
11.5136938065
 30
0.0
  0
SPLINE
  5
491
100
AcDbEntity
  8
0
100
AcDbSpline
 62
7
  6
CONTINUOUS
 70
0
 71
3
 72
19
 73
15
 74
0
 42
0.0000001
 43
0.0000001
 44
0.0000000001
 40
0.0
 40
0.0
 40
0.0
 40
0.0
 40
0.1993561207
 40
0.3852810808
 40
0.5518200569
 40
0.6947706254
 40
0.7565009003
 40
0.8112969064
 40
0.8589905644
 40
0.8995739715
 40
0.9331773337
 40
0.9602110604
 40
0.9817159058
 40
1.0
 40
1.0
 40
1.0
 40
1.0
 10
9.5976012652
 20
11.4489511898
 30
0.0
 10
9.5986820792
 20
11.4484674217
 30
0.0
 10
9.6007854382
 20
11.4475645447
 30
0.0
 10
9.6038398152
 20
11.4463732726
 30
0.0
 10
9.6066234626
 20
11.4454163213
 30
0.0
 10
9.6087442981
 20
11.444807068
 30
0.0
 10
9.6102476643
 20
11.4444656133
 30
0.0
 10
9.6112081943
 20
11.4442932938
 30
0.0
 10
9.61205261
 20
11.4441921526
 30
0.0
 10
9.6127768411
 20
11.4441615184
 30
0.0
 10
9.6133784774
 20
11.4442006605
 30
0.0
 10
9.6138569557
 20
11.4443099598
 30
0.0
 10
9.6142156441
 20
11.4444956756
 30
0.0
 10
9.6143692586
 20
11.4446880073
 30
0.0
 10
9.6144134936
 20
11.4447871949
 30
0.0
  0
SPLINE
  5
492
100
AcDbEntity
  8
0
100
AcDbSpline
 62
7
  6
CONTINUOUS
 70
0
 71
3
 72
19
 73
15
 74
0
 42
0.0000001
 43
0.0000001
 44
0.0000000001
 40
0.0
 40
0.0
 40
0.0
 40
0.0
 40
0.1884771463
 40
0.3703876844
 40
0.5376771401
 40
0.684489181
 40
0.7486361624
 40
0.8059746558
 40
0.8561273166
 40
0.8987786295
 40
0.933818373
 40
0.9615588045
 40
0.9828880386
 40
1.0
 40
1.0
 40
1.0
 40
1.0
 10
9.7595401531
 20
11.3764679877
 30
0.0
 10
9.7609135089
 20
11.3758532791
 30
0.0
 10
9.7636345292
 20
11.3746941922
 30
0.0
 10
9.7676423806
 20
11.3731544558
 30
0.0
 10
9.7713955007
 20
11.3718884356
 30
0.0
 10
9.7743019098
 20
11.3710622253
 30
0.0
 10
9.7763903402
 20
11.3705846214
 30
0.0
 10
9.777737914
 20
11.3703340048
 30
0.0
 10
9.7789266781
 20
11.3701752729
 30
0.0
 10
9.7799461429
 20
11.3701094016
 30
0.0
 10
9.7807894606
 20
11.3701362392
 30
0.0
 10
9.7814532836
 20
11.370255706
 30
0.0
 10
9.7819462034
 20
11.3704677877
 30
0.0
 10
9.782161209
 20
11.3707085571
 30
0.0
 10
9.7822168305
 20
11.3708333291
 30
0.0
  0
SPLINE
  5
493
100
AcDbEntity
  8
0
100
AcDbSpline
 62
7
  6
CONTINUOUS
 70
0
 71
3
 72
18
 73
14
 74
0
 42
0.0000001
 43
0.0000001
 44
0.0000000001
 40
0.0
 40
0.0
 40
0.0
 40
0.0
 40
0.1991006272
 40
0.3832904786
 40
0.5484511796
 40
0.6908904353
 40
0.8076128364
 40
0.8558162533
 40
0.8970773533
 40
0.9314251587
 40
0.95923556
 40
0.9814512963
 40
1.0
 40
1.0
 40
1.0
 40
1.0
 10
9.9334407552
 20
11.2993419798
 30
0.0
 10
9.9345235831
 20
11.2989837211
 30
0.0
 10
9.9366182337
 20
11.2983238807
 30
0.0
 10
9.9396452309
 20
11.2974799959
 30
0.0
 10
9.9423872786
 20
11.2968292267
 30
0.0
 10
9.9447779456
 20
11.2963844041
 30
0.0
 10
9.9465292934
 20
11.296178731
 30
0.0
 10
9.9477105513
 20
11.2961400165
 30
0.0
 10
9.9484200632
 20
11.2961681555
 30
0.0
 10
9.9490081314
 20
11.2962511353
 30
0.0
 10
9.9494737387
 20
11.2963898519
 30
0.0
 10
9.949819952
 20
11.2965862942
 30
0.0
 10
9.9499716826
 20
11.2967750602
 30
0.0
 10
9.9500153384
 20
11.2968719349
 30
0.0
  0
LINE
  5
494
100
AcDbEntity
  8
0
100
AcDbLine
 62
7
  6
CONTINUOUS
 10
10.0723820614
 20
11.2364411941
 11
10.0801796996
 21
11.2332928835
  0
SPLINE
  5
495
100
AcDbEntity
  8
0
100
AcDbSpline
 62
7
  6
CONTINUOUS
 70
0
 71
3
 72
19
 73
15
 74
0
 42
0.0000001
 43
0.0000001
 44
0.0000000001
 40
0.0
 40
0.0
 40
0.0
 40
0.0
 40
0.3609008778
 40
0.5288232343
 40
0.6786033439
 40
0.7446868673
 40
0.8040482084
 40
0.8560951853
 40
0.9003440003
 40
0.9365613756
 40
0.9647080338
 40
0.9758713304
 40
0.9852610511
 40
1.0
 40
1.0
 40
1.0
 40
1.0
 10
10.0801796996
 20
11.2332928835
 30
0.0
 10
10.0832505239
 20
11.2321664306
 30
0.0
 10
10.0878061326
 20
11.2306616759
 30
0.0
 10
10.0937380759
 20
11.2290344012
 30
0.0
 10
10.0971275443
 20
11.2282466422
 30
0.0
 10
10.0995785967
 20
11.2277818613
 30
0.0
 10
10.1011681846
 20
11.2275326883
 30
0.0
 10
10.1025699838
 20
11.227370288
 30
0.0
 10
10.1037696303
 20
11.2272960215
 30
0.0
 10
10.1047547733
 20
11.2273100395
 30
0.0
 10
10.1054369957
 20
11.2273961969
 30
0.0
 10
10.1058613035
 20
11.2275248304
 30
0.0
 10
10.1061498627
 20
11.227660741
 30
0.0
 10
10.106320738
 20
11.2278219109
 30
0.0
 10
10.1063749835
 20
11.2279439827
 30
0.0
  0
SPLINE
  5
496
100
AcDbEntity
  8
0
100
AcDbSpline
 62
7
  6
CONTINUOUS
 70
0
 71
3
 72
10
 73
6
 74
0
 42
0.0000001
 43
0.0000001
 44
0.0000000001
 40
0.0
 40
0.0
 40
0.0
 40
0.0
 40
0.2503045329
 40
0.5003217676
 40
1.0
 40
1.0
 40
1.0
 40
1.0
 10
12.0111705572
 20
10.5362446806
 30
0.0
 10
12.0193435264
 20
10.5278867604
 30
0.0
 10
12.035443829
 20
10.5109483947
 30
0.0
 10
12.0668699852
 20
10.4763987657
 30
0.0
 10
12.089788033
 20
10.4499187992
 30
0.0
 10
12.1047882525
 20
10.4320422337
 30
0.0
  0
SPLINE
  5
497
100
AcDbEntity
  8
0
100
AcDbSpline
 62
7
  6
CONTINUOUS
 70
0
 71
3
 72
10
 73
6
 74
0
 42
0.0000001
 43
0.0000001
 44
0.0000000001
 40
0.0
 40
0.0
 40
0.0
 40
0.0
 40
0.5025468674
 40
0.7515405278
 40
1.0
 40
1.0
 40
1.0
 40
1.0
 10
12.0907700331
 20
10.6030365715
 30
0.0
 10
12.1095260499
 20
10.5887067428
 30
0.0
 10
12.1358881341
 20
10.5650457485
 30
0.0
 10
12.1684925282
 20
10.531238951
 30
0.0
 10
12.1839135524
 20
10.5136698994
 30
0.0
 10
12.1914146635
 20
10.5047304233
 30
0.0
  0
SPLINE
  5
498
100
AcDbEntity
  8
0
100
AcDbSpline
 62
7
  6
CONTINUOUS
 70
0
 71
3
 72
14
 73
10
 74
0
 42
0.0000001
 43
0.0000001
 44
0.0000000001
 40
0.0
 40
0.0
 40
0.0
 40
0.0
 40
0.1292333549
 40
0.2564002816
 40
0.382077228
 40
0.5067216942
 40
0.6306473243
 40
0.7540553041
 40
1.0
 40
1.0
 40
1.0
 40
1.0
 10
12.1627861028
 20
10.663465229
 30
0.0
 10
12.1680808989
 20
10.6603676134
 30
0.0
 10
12.178407661
 20
10.6539121144
 30
0.0
 10
12.1932436193
 20
10.6434673778
 30
0.0
 10
12.2073735554
 20
10.6324381949
 30
0.0
 10
12.2209000592
 20
10.6209156764
 30
0.0
 10
12.2339020822
 20
10.6089630341
 30
0.0
 10
12.2505292804
 20
10.5924718804
 30
0.0
 10
12.2622841267
 20
10.5794366664
 30
0.0
 10
12.2697882154
 20
10.5704936418
 30
0.0
  0
LINE
  5
499
100
AcDbEntity
  8
0
100
AcDbLine
 62
7
  6
CONTINUOUS
 10
10.2019654226
 20
11.178440197
 11
10.2088232381
 21
11.1757125474
  0
LINE
  5
49A
100
AcDbEntity
  8
0
100
AcDbLine
 62
7
  6
CONTINUOUS
 10
10.2088232381
 20
11.1757125474
 11
10.2170903034
 21
11.1729771539
  0
SPLINE
  5
49B
100
AcDbEntity
  8
0
100
AcDbSpline
 62
7
  6
CONTINUOUS
 70
0
 71
3
 72
20
 73
16
 74
0
 42
0.0000001
 43
0.0000001
 44
0.0000000001
 40
0.0
 40
0.0
 40
0.0
 40
0.0
 40
0.1888266084
 40
0.3708849574
 40
0.5392795189
 40
0.6879850675
 40
0.7532034028
 40
0.8115781906
 40
0.8626124506
 40
0.9058389529
 40
0.9409264252
 40
0.9678614799
 40
0.9783761447
 40
0.9870598804
 40
1.0
 40
1.0
 40
1.0
 40
1.0
 10
10.2170903034
 20
11.1729771539
 30
0.0
 10
10.218549249
 20
11.1725336004
 30
0.0
 10
10.2214254839
 20
11.1716969935
 30
0.0
 10
10.2256355397
 20
11.1705810446
 30
0.0
 10
10.2295586976
 20
11.1696528644
 30
0.0
 10
10.2325847277
 20
11.1690359914
 30
0.0
 10
10.2347531702
 20
11.1686696966
 30
0.0
 10
10.236149671
 20
11.1684719333
 30
0.0
 10
10.2373755109
 20
11.1683403654
 30
0.0
 10
10.2384186541
 20
11.1682756734
 30
0.0
 10
10.2392692614
 20
11.1682798461
 30
0.0
 10
10.2398537893
 20
11.1683399957
 30
0.0
 10
10.2402160504
 20
11.1684346962
 30
0.0
 10
10.240454514
 20
11.1685323884
 30
0.0
 10
10.2406015591
 20
11.16865265
 30
0.0
 10
10.2406443738
 20
11.1687479752
 30
0.0
  0
SPLINE
  5
49C
100
AcDbEntity
  8
0
100
AcDbSpline
 62
7
  6
CONTINUOUS
 70
0
 71
3
 72
10
 73
6
 74
0
 42
0.0000001
 43
0.0000001
 44
0.0000000001
 40
0.0
 40
0.0
 40
0.0
 40
0.0
 40
0.1879765196
 40
0.4239070466
 40
1.0
 40
1.0
 40
1.0
 40
1.0
 10
10.301398233
 20
11.1339344667
 30
0.0
 10
10.302187799
 20
11.1335810601
 30
0.0
 10
10.303998183
 20
11.1328513673
 30
0.0
 10
10.3083268183
 20
11.1312882401
 30
0.0
 10
10.3118931085
 20
11.1301660357
 30
0.0
 10
10.3144332077
 20
11.1294068572
 30
0.0
  0
SPLINE
  5
49D
100
AcDbEntity
  8
0
100
AcDbSpline
 62
7
  6
CONTINUOUS
 70
0
 71
3
 72
18
 73
14
 74
0
 42
0.0000001
 43
0.0000001
 44
0.0000000001
 40
0.0
 40
0.0
 40
0.0
 40
0.0
 40
0.195784453
 40
0.3814143762
 40
0.5509762058
 40
0.6992039796
 40
0.8211959062
 40
0.9131787724
 40
0.9470239359
 40
0.9724446385
 40
0.9820529145
 40
0.9896962007
 40
1.0
 40
1.0
 40
1.0
 40
1.0
 10
10.3229741378
 20
11.1270100821
 30
0.0
 10
10.3243106511
 20
11.1266580715
 30
0.0
 10
10.3269195111
 20
11.1259917025
 30
0.0
 10
10.3307027755
 20
11.1250881143
 30
0.0
 10
10.3341739159
 20
11.1243254415
 30
0.0
 10
10.3372204302
 20
11.1237255206
 30
0.0
 10
10.3397435856
 20
11.1233105359
 30
0.0
 10
10.3414824049
 20
11.1231032195
 30
0.0
 10
10.3425500901
 20
11.1230599521
 30
0.0
 10
10.3430363337
 20
11.1230777841
 30
0.0
 10
10.3433354577
 20
11.1231282415
 30
0.0
 10
10.3435189722
 20
11.1231819706
 30
0.0
 10
10.3436401915
 20
11.1232561796
 30
0.0
 10
10.34367012
 20
11.1233224743
 30
0.0
  0
SPLINE
  5
49E
100
AcDbEntity
  8
0
100
AcDbSpline
 62
7
  6
CONTINUOUS
 70
0
 71
3
 72
12
 73
8
 74
0
 42
0.0000001
 43
0.0000001
 44
0.0000000001
 40
0.0
 40
0.0
 40
0.0
 40
0.0
 40
0.06434812
 40
0.1482249897
 40
0.3706215642
 40
0.6584217855
 40
1.0
 40
1.0
 40
1.0
 40
1.0
 10
10.3639043106
 20
11.105956995
 30
0.0
 10
10.3641116999
 20
11.1058641684
 30
0.0
 10
10.3645972051
 20
11.1056679421
 30
0.0
 10
10.3658261842
 20
11.1052180426
 30
0.0
 10
10.3678200479
 20
11.1045645795
 30
0.0
 10
10.3706977509
 20
11.1036899472
 30
0.0
 10
10.3728335184
 20
11.1030752588
 30
0.0
 10
10.3739942758
 20
11.1027475601
 30
0.0
  0
LINE
  5
49F
100
AcDbEntity
  8
0
100
AcDbLine
 62
7
  6
CONTINUOUS
 10
10.3739942758
 20
11.1027475601
 11
10.3907769043
 21
11.0983387973
  0
SPLINE
  5
4A0
100
AcDbEntity
  8
0
100
AcDbSpline
 62
7
  6
CONTINUOUS
 70
0
 71
3
 72
20
 73
16
 74
0
 42
0.0000001
 43
0.0000001
 44
0.0000000001
 40
0.0
 40
0.0
 40
0.0
 40
0.0
 40
0.2031017868
 40
0.3928095309
 40
0.5638971376
 40
0.7117430318
 40
0.7756527599
 40
0.8322016941
 40
0.8809696422
 40
0.9216642279
 40
0.9540135049
 40
0.9777750765
 40
0.9928213957
 40
0.9972334293
 40
1.0
 40
1.0
 40
1.0
 40
1.0
 10
10.3907769043
 20
11.0983387973
 30
0.0
 10
10.3919643827
 20
11.0980464822
 30
0.0
 10
10.3942629064
 20
11.09748872
 30
0.0
 10
10.3975684133
 20
11.0967125646
 30
0.0
 10
10.4005562358
 20
11.0960394522
 30
0.0
 10
10.4028108438
 20
11.0955587597
 30
0.0
 10
10.4043951881
 20
11.095242685
 30
0.0
 10
10.4053965745
 20
11.0950542711
 30
0.0
 10
10.4062629417
 20
11.0949040816
 30
0.0
 10
10.4069878074
 20
11.0947931262
 30
0.0
 10
10.407566962
 20
11.0947213831
 30
0.0
 10
10.4079931804
 20
11.0946896665
 30
0.0
 10
10.4082563664
 20
11.094692782
 30
0.0
 10
10.4083861106
 20
11.0947231622
 30
0.0
 10
10.4084243262
 20
11.0947509562
 30
0.0
 10
10.4084308892
 20
11.0947662671
 30
0.0
  0
SPLINE
  5
4A1
100
AcDbEntity
  8
0
100
AcDbSpline
 62
7
  6
CONTINUOUS
 70
0
 71
3
 72
13
 73
9
 74
0
 42
0.0000001
 43
0.0000001
 44
0.0000000001
 40
0.0
 40
0.0
 40
0.0
 40
0.0
 40
0.4087740596
 40
0.7092341099
 40
0.8180670736
 40
0.8997780005
 40
0.9572262924
 40
1.0
 40
1.0
 40
1.0
 40
1.0
 10
9.3495592991
 20
11.4953130525
 30
0.0
 10
9.3499673458
 20
11.4951304125
 30
0.0
 10
9.3506821061
 20
11.4948286499
 30
0.0
 10
9.3515303706
 20
11.494538339
 30
0.0
 10
9.3520574113
 20
11.4944280258
 30
0.0
 10
9.3523282432
 20
11.4944092674
 30
0.0
 10
9.3525298516
 20
11.4944403275
 30
0.0
 10
9.3526183558
 20
11.4945206731
 30
0.0
 10
9.3526373579
 20
11.4945634194
 30
0.0
  0
SPLINE
  5
4A2
100
AcDbEntity
  8
0
100
AcDbSpline
 62
7
  6
CONTINUOUS
 70
0
 71
3
 72
17
 73
13
 74
0
 42
0.0000001
 43
0.0000001
 44
0.0000000001
 40
0.0
 40
0.0
 40
0.0
 40
0.0
 40
0.2113405269
 40
0.4010224619
 40
0.5664373217
 40
0.7051658922
 40
0.8160827656
 40
0.8995681143
 40
0.9316462522
 40
0.9580384446
 40
0.9800633496
 40
1.0
 40
1.0
 40
1.0
 40
1.0
 10
9.4555744622
 20
11.4478610873
 30
0.0
 10
9.4561541947
 20
11.4476016013
 30
0.0
 10
9.4572606286
 20
11.447123266
 30
0.0
 10
9.4588441665
 20
11.4464974072
 30
0.0
 10
9.4602453358
 20
11.4460070225
 30
0.0
 10
9.4614444066
 20
11.4456587505
 30
0.0
 10
9.4624256725
 20
11.4454571402
 30
0.0
 10
9.4631085618
 20
11.4454008959
 30
0.0
 10
9.4635341315
 20
11.4454476314
 30
0.0
 10
9.4637677129
 20
11.4455176113
 30
0.0
 10
9.4639445077
 20
11.4456291282
 30
0.0
 10
9.4640203276
 20
11.4457348225
 30
0.0
 10
9.4640446388
 20
11.4457895856
 30
0.0
  0
SPLINE
  5
4A3
100
AcDbEntity
  8
0
100
AcDbSpline
 62
7
  6
CONTINUOUS
 70
0
 71
3
 72
18
 73
14
 74
0
 42
0.0000001
 43
0.0000001
 44
0.0000000001
 40
0.0
 40
0.0
 40
0.0
 40
0.0
 40
0.2010513557
 40
0.3875266749
 40
0.5538855481
 40
0.6961645935
 40
0.8118656627
 40
0.8591880646
 40
0.8994535448
 40
0.9328432037
 40
0.9598201029
 40
0.9814512167
 40
1.0
 40
1.0
 40
1.0
 40
1.0
 10
9.5987652354
 20
11.3837694668
 30
0.0
 10
9.5997866634
 20
11.3833122797
 30
0.0
 10
9.6017690047
 20
11.3824608101
 30
0.0
 10
9.6046417209
 20
11.3813400403
 30
0.0
 10
9.6072489093
 20
11.3804435979
 30
0.0
 10
9.60952102
 20
11.3797948575
 30
0.0
 10
9.6111867924
 20
11.3794439455
 30
0.0
 10
9.6123117071
 20
11.3793139384
 30
0.0
 10
9.6129855671
 20
11.3792899177
 30
0.0
 10
9.613545797
 20
11.379331395
 30
0.0
 10
9.6139922142
 20
11.3794388326
 30
0.0
 10
9.61432791
 20
11.3796177205
 30
0.0
 10
9.6144715843
 20
11.3798006561
 30
0.0
 10
9.6145135733
 20
11.379894977
 30
0.0
  0
SPLINE
  5
4A4
100
AcDbEntity
  8
0
100
AcDbSpline
 62
7
  6
CONTINUOUS
 70
0
 71
3
 72
19
 73
15
 74
0
 42
0.0000001
 43
0.0000001
 44
0.0000000001
 40
0.0
 40
0.0
 40
0.0
 40
0.0
 40
0.1918515765
 40
0.3743320842
 40
0.5409496248
 40
0.6864834699
 40
0.7499798238
 40
0.8067184563
 40
0.8563158849
 40
0.8985067227
 40
0.9333202416
 40
0.961059464
 40
0.9825757772
 40
1.0
 40
1.0
 40
1.0
 40
1.0
 10
9.7627325965
 20
11.3104147633
 30
0.0
 10
9.7640532484
 20
11.3098599423
 30
0.0
 10
9.7666485196
 20
11.3088206916
 30
0.0
 10
9.7704511034
 20
11.3074561217
 30
0.0
 10
9.7739765021
 20
11.3063520753
 30
0.0
 10
9.7766927711
 20
11.3056456942
 30
0.0
 10
9.7786373031
 20
11.3052478574
 30
0.0
 10
9.7798894972
 20
11.30504519
 30
0.0
 10
9.7809926553
 20
11.3049252093
 30
0.0
 10
9.7819381953
 20
11.3048891707
 30
0.0
 10
9.7827208289
 20
11.3049351986
 30
0.0
 10
9.7833381677
 20
11.3050635344
 30
0.0
 10
9.7837971264
 20
11.3052756641
 30
0.0
 10
9.7839961923
 20
11.3055063998
 30
0.0
 10
9.7840490422
 20
11.3056252797
 30
0.0
  0
LINE
  5
4A5
100
AcDbEntity
  8
0
100
AcDbLine
 62
7
  6
CONTINUOUS
 10
9.9181766536
 20
11.2408021866
 11
9.9261737256
 21
11.2375665505
  0
SPLINE
  5
4A6
100
AcDbEntity
  8
0
100
AcDbSpline
 62
7
  6
CONTINUOUS
 70
0
 71
3
 72
18
 73
14
 74
0
 42
0.0000001
 43
0.0000001
 44
0.0000000001
 40
0.0
 40
0.0
 40
0.0
 40
0.0
 40
0.187076796
 40
0.3677913109
 40
0.5352662402
 40
0.6832903425
 40
0.7482415789
 40
0.8064431379
 40
0.857438514
 40
0.9008239437
 40
0.9364130659
 40
0.9643271318
 40
1.0
 40
1.0
 40
1.0
 40
1.0
 10
9.9261737256
 20
11.2375665505
 30
0.0
 10
9.9276295087
 20
11.237032533
 30
0.0
 10
9.9305094687
 20
11.2360308262
 30
0.0
 10
9.9347465224
 20
11.2347119718
 30
0.0
 10
9.9387163272
 20
11.2336326289
 30
0.0
 10
9.9417925811
 20
11.2329326214
 30
0.0
 10
9.9440048201
 20
11.2325321329
 30
0.0
 10
9.9454333558
 20
11.2323244965
 30
0.0
 10
9.9466931594
 20
11.2321979121
 30
0.0
 10
9.9477675215
 20
11.2321512531
 30
0.0
 10
9.9486619877
 20
11.2321906388
 30
0.0
 10
9.9494520786
 20
11.2323154168
 30
0.0
 10
9.9500105829
 20
11.2325734911
 30
0.0
 10
9.9501303301
 20
11.2328438427
 30
0.0
  0
SPLINE
  5
4A7
100
AcDbEntity
  8
0
100
AcDbSpline
 62
7
  6
CONTINUOUS
 70
0
 71
3
 72
12
 73
8
 74
0
 42
0.0000001
 43
0.0000001
 44
0.0000000001
 40
0.0
 40
0.0
 40
0.0
 40
0.0
 40
0.061607397
 40
0.1442794826
 40
0.3675222635
 40
0.6579722523
 40
1.0
 40
1.0
 40
1.0
 40
1.0
 10
9.1551759957
 20
11.6469789804
 30
0.0
 10
9.1549302164
 20
11.6470889903
 30
0.0
 10
9.1543657441
 20
11.6473710733
 30
0.0
 10
9.152954167
 20
11.6481378882
 30
0.0
 10
9.1507077005
 20
11.6494612885
 30
0.0
 10
9.1475259159
 20
11.6514273719
 30
0.0
 10
9.1451954504
 20
11.6529146126
 30
0.0
 10
9.1439393693
 20
11.6537252495
 30
0.0
  0
SPLINE
  5
4A8
100
AcDbEntity
  8
0
100
AcDbSpline
 62
7
  6
CONTINUOUS
 70
0
 71
3
 72
21
 73
17
 74
0
 42
0.0000001
 43
0.0000001
 44
0.0000000001
 40
0.0
 40
0.0
 40
0.0
 40
0.0
 40
0.1935863523
 40
0.3793551928
 40
0.5505611297
 40
0.6287766567
 40
0.7011268374
 40
0.7669095495
 40
0.8254350794
 40
0.8761642744
 40
0.9186694599
 40
0.9525347594
 40
0.9773687136
 40
0.9929309675
 40
0.9973777969
 40
1.0
 40
1.0
 40
1.0
 40
1.0
 10
9.1356140918
 20
11.6592162929
 30
0.0
 10
9.1343867002
 20
11.6600415784
 30
0.0
 10
9.1319874951
 20
11.6616677879
 30
0.0
 10
9.1285236396
 20
11.6640544319
 30
0.0
 10
9.1258021307
 20
11.6659647159
 30
0.0
 10
9.1238019358
 20
11.6673940897
 30
0.0
 10
9.1224632792
 20
11.6683637791
 30
0.0
 10
9.1212532713
 20
11.669254589
 30
0.0
 10
9.1201841206
 20
11.6700579167
 30
0.0
 10
9.1192659423
 20
11.670766243
 30
0.0
 10
9.1185076561
 20
11.6713724179
 30
0.0
 10
9.1179153473
 20
11.6718710703
 30
0.0
 10
9.1174985213
 20
11.6722532478
 30
0.0
 10
9.1172619729
 20
11.6725072512
 30
0.0
 10
9.1171716532
 20
11.6726521766
 30
0.0
 10
9.1171608683
 20
11.672711145
 30
0.0
 10
9.1171692303
 20
11.6727293507
 30
0.0
  0
SPLINE
  5
4A9
100
AcDbEntity
  8
0
100
AcDbSpline
 62
7
  6
CONTINUOUS
 70
0
 71
3
 72
14
 73
10
 74
0
 42
0.0000001
 43
0.0000001
 44
0.0000000001
 40
0.0
 40
0.0
 40
0.0
 40
0.0
 40
0.1292333549
 40
0.2564002816
 40
0.382077228
 40
0.5067216942
 40
0.6306473243
 40
0.7540553041
 40
1.0
 40
1.0
 40
1.0
 40
1.0
 10
11.7773736574
 20
10.3400657882
 30
0.0
 10
11.7795047816
 20
10.3343135367
 30
0.0
 10
11.7840689836
 20
10.3230226757
 30
0.0
 10
11.7917788041
 20
10.3065983994
 30
0.0
 10
11.8001867913
 20
10.2907679312
 30
0.0
 10
11.8091854041
 20
10.2754460611
 30
0.0
 10
11.8186986813
 20
10.2605660135
 30
0.0
 10
11.8320520146
 20
10.241327761
 30
0.0
 10
11.8428479868
 20
10.227487956
 30
0.0
 10
11.8503520754
 20
10.2185449314
 30
0.0
  0
SPLINE
  5
4AA
100
AcDbEntity
  8
0
100
AcDbSpline
 62
7
  6
CONTINUOUS
 70
0
 71
3
 72
10
 73
6
 74
0
 42
0.0000001
 43
0.0000001
 44
0.0000000001
 40
0.0
 40
0.0
 40
0.0
 40
0.0
 40
0.5025468674
 40
0.7515405278
 40
1.0
 40
1.0
 40
1.0
 40
1.0
 10
11.8493897271
 20
10.4004944457
 30
0.0
 10
11.8602449053
 20
10.3795350263
 30
0.0
 10
11.8789687081
 20
10.3494647529
 30
0.0
 10
11.9066002107
 20
10.311485204
 30
0.0
 10
11.9212245162
 20
10.293247626
 30
0.0
 10
11.9287256273
 20
10.2843081499
 30
0.0
  0
SPLINE
  5
4AB
100
AcDbEntity
  8
0
100
AcDbSpline
 62
7
  6
CONTINUOUS
 70
0
 71
3
 72
10
 73
6
 74
0
 42
0.0000001
 43
0.0000001
 44
0.0000000001
 40
0.0
 40
0.0
 40
0.0
 40
0.0
 40
0.2503045329
 40
0.5003217676
 40
1.0
 40
1.0
 40
1.0
 40
1.0
 10
11.928989203
 20
10.4672863366
 30
0.0
 10
11.9358009264
 20
10.4577861956
 30
0.0
 10
11.9496861721
 20
10.4389891764
 30
0.0
 10
11.9782538198
 20
10.402040974
 30
0.0
 10
12.0003518189
 20
10.3748729049
 30
0.0
 10
12.0153520384
 20
10.3569963394
 30
0.0
  0
SPLINE
  5
4AC
100
AcDbEntity
  8
0
100
AcDbSpline
 62
7
  6
CONTINUOUS
 70
0
 71
3
 72
9
 73
5
 74
0
 42
0.0000001
 43
0.0000001
 44
0.0000000001
 40
0.0
 40
0.0
 40
0.0
 40
0.0
 40
0.4995822554
 40
1.0
 40
1.0
 40
1.0
 40
1.0
 10
14.1365511503
 20
7.8290496771
 30
0.0
 10
14.1533304048
 20
7.8090529403
 30
0.0
 10
14.1875928704
 20
7.7695929529
 30
0.0
 10
14.2233536828
 20
7.7314546864
 30
0.0
 10
14.2418964748
 20
7.7130194268
 30
0.0
  0
LINE
  5
4AD
100
AcDbEntity
  8
0
100
AcDbLine
 62
7
  6
CONTINUOUS
 10
14.2418964752
 20
7.7130194272
 11
14.2668226486
 21
7.6882651897
  0
LINE
  5
4AE
100
AcDbEntity
  8
0
100
AcDbLine
 62
7
  6
CONTINUOUS
 10
14.1167636461
 20
7.5776021886
 11
14.1281072943
 21
7.5718691871
  0
LINE
  5
4AF
100
AcDbEntity
  8
0
100
AcDbLine
 62
7
  6
CONTINUOUS
 10
14.0607614247
 20
7.5306107453
 11
14.073296899
 21
7.5258778046
  0
SPLINE
  5
4B0
100
AcDbEntity
  8
0
100
AcDbSpline
 62
7
  6
CONTINUOUS
 70
0
 71
3
 72
11
 73
7
 74
0
 42
0.0000001
 43
0.0000001
 44
0.0000000001
 40
0.0
 40
0.0
 40
0.0
 40
0.0
 40
0.1851114391
 40
0.4223311626
 40
0.6987224767
 40
1.0
 40
1.0
 40
1.0
 40
1.0
 10
9.2176820733
 20
11.6190015087
 30
0.0
 10
9.2167489883
 20
11.6194191539
 30
0.0
 10
9.2146623148
 20
11.6204648403
 30
0.0
 10
9.2112803653
 20
11.6223233623
 30
0.0
 10
9.2074001379
 20
11.6246040882
 30
0.0
 10
9.2046848238
 20
11.626279138
 30
0.0
 10
9.2032770323
 20
11.6271659476
 30
0.0
  0
SPLINE
  5
4B1
100
AcDbEntity
  8
0
100
AcDbSpline
 62
7
  6
CONTINUOUS
 70
0
 71
3
 72
19
 73
15
 74
0
 42
0.0000001
 43
0.0000001
 44
0.0000000001
 40
0.0
 40
0.0
 40
0.0
 40
0.0
 40
0.1828496549
 40
0.363280511
 40
0.5332156528
 40
0.6852953435
 40
0.8126154183
 40
0.8652543299
 40
0.909740792
 40
0.9455137064
 40
0.972262832
 40
0.9822668547
 40
0.9900890713
 40
1.0
 40
1.0
 40
1.0
 40
1.0
 10
9.2032770323
 20
11.6271659476
 30
0.0
 10
9.2018699036
 20
11.6280523397
 30
0.0
 10
9.1990907013
 20
11.6298396189
 30
0.0
 10
9.195057389
 20
11.6325329148
 30
0.0
 10
9.1913043542
 20
11.6351407448
 30
0.0
 10
9.1879984689
 20
11.6375439095
 30
0.0
 10
9.1856053298
 20
11.6393870713
 30
0.0
 10
9.1840321485
 20
11.6406884141
 30
0.0
 10
9.1831241654
 20
11.6414863414
 30
0.0
 10
9.1824222412
 20
11.6421620904
 30
0.0
 10
9.1819790254
 20
11.6426497933
 30
0.0
 10
9.1817410426
 20
11.6429826043
 30
0.0
 10
9.1816207443
 20
11.6431968095
 30
0.0
 10
9.1815695088
 20
11.6433753538
 30
0.0
 10
9.1816062178
 20
11.6434576815
 30
0.0
  0
LINE
  5
4B2
100
AcDbEntity
  8
0
100
AcDbLine
 62
7
  6
CONTINUOUS
 10
10.0519669584
 20
11.1809181784
 11
10.058786365
 21
11.1782096607
  0
LINE
  5
4B3
100
AcDbEntity
  8
0
100
AcDbLine
 62
7
  6
CONTINUOUS
 10
10.058786365
 20
11.1782096607
 11
10.0670004006
 21
11.17549906
  0
SPLINE
  5
4B4
100
AcDbEntity
  8
0
100
AcDbSpline
 62
7
  6
CONTINUOUS
 70
0
 71
3
 72
20
 73
16
 74
0
 42
0.0000001
 43
0.0000001
 44
0.0000000001
 40
0.0
 40
0.0
 40
0.0
 40
0.0
 40
0.1885604618
 40
0.3705458432
 40
0.5390169347
 40
0.6878800368
 40
0.753188423
 40
0.8116516335
 40
0.8627606235
 40
0.9060357819
 40
0.9411447497
 40
0.9680661825
 40
0.9785550426
 40
0.9871968374
 40
1.0
 40
1.0
 40
1.0
 40
1.0
 10
10.0670004006
 20
11.17549906
 30
0.0
 10
10.0684662448
 20
11.175054498
 30
0.0
 10
10.071357487
 20
11.1742156645
 30
0.0
 10
10.0755910421
 20
11.1730957894
 30
0.0
 10
10.079538866
 20
11.1721622528
 30
0.0
 10
10.0825851581
 20
11.1715399226
 30
0.0
 10
10.08476877
 20
11.1711686794
 30
0.0
 10
10.0861752797
 20
11.1709672547
 30
0.0
 10
10.0874098146
 20
11.1708320594
 30
0.0
 10
10.0884601165
 20
11.1707639083
 30
0.0
 10
10.0893162354
 20
11.1707648211
 30
0.0
 10
10.0899043235
 20
11.1708221762
 30
0.0
 10
10.090268741
 20
11.1709148891
 30
0.0
 10
10.0905076974
 20
11.1710107159
 30
0.0
 10
10.0906555895
 20
11.1711298007
 30
0.0
 10
10.0906981565
 20
11.1712246977
 30
0.0
  0
LINE
  5
4B5
100
AcDbEntity
  8
0
100
AcDbLine
 62
7
  6
CONTINUOUS
 10
9.3171148836
 20
11.5744957784
 11
9.3093618797
 21
11.5784212484
  0
SPLINE
  5
4B6
100
AcDbEntity
  8
0
100
AcDbSpline
 62
7
  6
CONTINUOUS
 70
0
 71
3
 72
20
 73
16
 74
0
 42
0.0000001
 43
0.0000001
 44
0.0000000001
 40
0.0
 40
0.0
 40
0.0
 40
0.0
 40
0.1710132293
 40
0.3458154198
 40
0.5148326751
 40
0.6689884234
 40
0.7378512218
 40
0.8000645646
 40
0.8547972307
 40
0.9012745771
 40
0.9390179926
 40
0.9677717401
 40
0.9787870528
 40
0.9876494486
 40
1.0
 40
1.0
 40
1.0
 40
1.0
 10
9.3093618797
 20
11.5784212484
 30
0.0
 10
9.3077835138
 20
11.5792918728
 30
0.0
 10
9.3046226499
 20
11.5811086307
 30
0.0
 10
9.2999973269
 20
11.5839479611
 30
0.0
 10
9.295604872
 20
11.5868227907
 30
0.0
 10
9.2922183938
 20
11.5891925006
 30
0.0
 10
9.2898103042
 20
11.5909928925
 30
0.0
 10
9.288270351
 20
11.5922033664
 30
0.0
 10
9.286948587
 20
11.593308477
 30
0.0
 10
9.2858632015
 20
11.5942927322
 30
0.0
 10
9.2850289499
 20
11.5951437784
 30
0.0
 10
9.2845072194
 20
11.5957743388
 30
0.0
 10
9.2842374178
 20
11.5962139425
 30
0.0
 10
9.2840987081
 20
11.5965191957
 30
0.0
 10
9.2840659571
 20
11.596765984
 30
0.0
 10
9.284119422
 20
11.5968846791
 30
0.0
  0
SPLINE
  5
4B7
100
AcDbEntity
  8
0
100
AcDbSpline
 62
7
  6
CONTINUOUS
 70
0
 71
3
 72
12
 73
8
 74
0
 42
0.0000001
 43
0.0000001
 44
0.0000000001
 40
0.0
 40
0.0
 40
0.0
 40
0.0
 40
0.2537115924
 40
0.5247547092
 40
0.78233556
 40
0.8976390063
 40
1.0
 40
1.0
 40
1.0
 40
1.0
 10
9.4466982449
 20
11.5164947814
 30
0.0
 10
9.4445028127
 20
11.5174774481
 30
0.0
 10
9.4400358959
 20
11.5196759493
 30
0.0
 10
9.433555088
 20
11.5232877042
 30
0.0
 10
9.4283736718
 20
11.5265227933
 30
0.0
 10
9.4246664989
 20
11.5290845595
 30
0.0
 10
9.423011928
 20
11.5303190272
 30
0.0
 10
9.4222495136
 20
11.5309194184
 30
0.0
  0
SPLINE
  5
4B8
100
AcDbEntity
  8
0
100
AcDbSpline
 62
7
  6
CONTINUOUS
 70
0
 71
3
 72
13
 73
9
 74
0
 42
0.0000001
 43
0.0000001
 44
0.0000000001
 40
0.0
 40
0.0
 40
0.0
 40
0.0
 40
0.3893420205
 40
0.5502723046
 40
0.6872755684
 40
0.7996103894
 40
0.8874622246
 40
1.0
 40
1.0
 40
1.0
 40
1.0
 10
9.4222495136
 20
11.5309194184
 30
0.0
 10
9.4215216122
 20
11.5314926309
 30
0.0
 10
9.4205111762
 20
11.5323272334
 30
0.0
 10
9.4193217644
 20
11.5334521466
 30
0.0
 10
9.4186519883
 20
11.5341602058
 30
0.0
 10
9.41814705
 20
11.5347942107
 30
0.0
 10
9.4177630799
 20
11.5354095829
 30
0.0
 10
9.41760762
 20
11.5359400297
 30
0.0
 10
9.4177159224
 20
11.5361849561
 30
0.0
  0
SPLINE
  5
4B9
100
AcDbEntity
  8
0
100
AcDbSpline
 62
7
  6
CONTINUOUS
 70
0
 71
3
 72
11
 73
7
 74
0
 42
0.0000001
 43
0.0000001
 44
0.0000000001
 40
0.0
 40
0.0
 40
0.0
 40
0.0
 40
0.1742106366
 40
0.4053982351
 40
0.6842910949
 40
1.0
 40
1.0
 40
1.0
 40
1.0
 10
10.1437086027
 20
11.1398549834
 30
0.0
 10
10.144371698
 20
11.1395581845
 30
0.0
 10
10.1459466176
 20
11.1389400061
 30
0.0
 10
10.1486398187
 20
11.1379965586
 30
0.0
 10
10.1519194046
 20
11.1369448324
 30
0.0
 10
10.1542941183
 20
11.1362310207
 30
0.0
 10
10.1555576645
 20
11.1358611809
 30
0.0
  0
SPLINE
  5
4BA
100
AcDbEntity
  8
0
100
AcDbSpline
 62
7
  6
CONTINUOUS
 70
0
 71
3
 72
9
 73
5
 74
0
 42
0.0000001
 43
0.0000001
 44
0.0000000001
 40
0.0
 40
0.0
 40
0.0
 40
0.0
 40
0.5001035644
 40
1.0
 40
1.0
 40
1.0
 40
1.0
 10
10.1555576645
 20
11.1358611809
 30
0.0
 10
10.1583544768
 20
11.1350425542
 30
0.0
 10
10.1639721072
 20
11.1334914088
 30
0.0
 10
10.16962349
 20
11.1320686249
 30
0.0
 10
10.1724578642
 20
11.1313966143
 30
0.0
  0
SPLINE
  5
4BB
100
AcDbEntity
  8
0
100
AcDbSpline
 62
7
  6
CONTINUOUS
 70
0
 71
3
 72
17
 73
13
 74
0
 42
0.0000001
 43
0.0000001
 44
0.0000000001
 40
0.0
 40
0.0
 40
0.0
 40
0.0
 40
0.2071312992
 40
0.3976604319
 40
0.5674426324
 40
0.7127628171
 40
0.8306451834
 40
0.9183261582
 40
0.9502882084
 40
0.9742635144
 40
0.9904471718
 40
1.0
 40
1.0
 40
1.0
 40
1.0
 10
10.1724578642
 20
11.1313966143
 30
0.0
 10
10.1734602978
 20
11.1311589442
 30
0.0
 10
10.1753871594
 20
11.1307124623
 30
0.0
 10
10.1781441711
 20
11.1301083111
 30
0.0
 10
10.1806084833
 20
11.1296062308
 30
0.0
 10
10.1827270514
 20
11.1292173595
 30
0.0
 10
10.1844513747
 20
11.1289498199
 30
0.0
 10
10.185627346
 20
11.1288189621
 30
0.0
 10
10.186340448
 20
11.1287911947
 30
0.0
 10
10.1867014849
 20
11.1288087069
 30
0.0
 10
10.1869416445
 20
11.1288479383
 30
0.0
 10
10.1870643395
 20
11.1289204246
 30
0.0
 10
10.1870834722
 20
11.1289639157
 30
0.0
  0
SPLINE
  5
4BC
100
AcDbEntity
  8
0
100
AcDbSpline
 62
7
  6
CONTINUOUS
 70
0
 71
3
 72
9
 73
5
 74
0
 42
0.0000001
 43
0.0000001
 44
0.0000000001
 40
0.0
 40
0.0
 40
0.0
 40
0.0
 40
0.5008378306
 40
1.0
 40
1.0
 40
1.0
 40
1.0
 10
9.5976012652
 20
11.4489511898
 30
0.0
 10
9.5956234059
 20
11.4498364717
 30
0.0
 10
9.5917226898
 20
11.45171309
 30
0.0
 10
9.5879148624
 20
11.4537717149
 30
0.0
 10
9.5860443627
 20
11.454851305
 30
0.0
  0
SPLINE
  5
4BD
100
AcDbEntity
  8
0
100
AcDbSpline
 62
7
  6
CONTINUOUS
 70
0
 71
3
 72
18
 73
14
 74
0
 42
0.0000001
 43
0.0000001
 44
0.0000000001
 40
0.0
 40
0.0
 40
0.0
 40
0.0
 40
0.1993376118
 40
0.383613714
 40
0.5485606083
 40
0.6908571999
 40
0.8076105827
 40
0.8557180053
 40
0.8968892216
 40
0.931242398
 40
0.9591315573
 40
0.9814158349
 40
1.0
 40
1.0
 40
1.0
 40
1.0
 10
9.5860443627
 20
11.454851305
 30
0.0
 10
9.5850636795
 20
11.4554173227
 30
0.0
 10
9.583192026
 20
11.4565340258
 30
0.0
 10
9.5805694339
 20
11.4582178417
 30
0.0
 10
9.5782803691
 20
11.4598181868
 30
0.0
 10
9.576376269
 20
11.4612944187
 30
0.0
 10
9.575068811
 20
11.4624537231
 30
0.0
 10
9.5742624016
 20
11.4633029529
 30
0.0
 10
9.5738168755
 20
11.463846837
 30
0.0
 10
9.5734909829
 20
11.46433728
 30
0.0
 10
9.5732858996
 20
11.4647740416
 30
0.0
 10
9.573201802
 20
11.4651608547
 30
0.0
 10
9.57324229
 20
11.4653984095
 30
0.0
 10
9.5732858337
 20
11.4654945749
 30
0.0
  0
SPLINE
  5
4BE
100
AcDbEntity
  8
0
100
AcDbSpline
 62
7
  6
CONTINUOUS
 70
0
 71
3
 72
19
 73
15
 74
0
 42
0.0000001
 43
0.0000001
 44
0.0000000001
 40
0.0
 40
0.0
 40
0.0
 40
0.0
 40
0.1882546193
 40
0.3703045599
 40
0.5377948525
 40
0.6846204079
 40
0.7487900843
 40
0.8060610437
 40
0.8561124612
 40
0.8987403229
 40
0.9338536467
 40
0.9616148129
 40
0.9828960069
 40
1.0
 40
1.0
 40
1.0
 40
1.0
 10
9.7595401531
 20
11.3764679877
 30
0.0
 10
9.7581684699
 20
11.3770819477
 30
0.0
 10
9.7554922548
 20
11.3783392316
 30
0.0
 10
9.7516732374
 20
11.3803026969
 30
0.0
 10
9.7482258673
 20
11.3822586748
 30
0.0
 10
9.745672537
 20
11.3838776195
 30
0.0
 10
9.7439248326
 20
11.385116065
 30
0.0
 10
9.7428412963
 20
11.3859535731
 30
0.0
 10
9.7419327473
 20
11.3867340403
 30
0.0
 10
9.7412052094
 20
11.3874505403
 30
0.0
 10
9.7406622475
 20
11.3880969623
 30
0.0
 10
9.7403078296
 20
11.3886713561
 30
0.0
 10
9.7401393115
 20
11.3891808102
 30
0.0
 10
9.7401767672
 20
11.3895006204
 30
0.0
 10
9.7402324869
 20
11.3896252733
 30
0.0
  0
SPLINE
  5
4BF
100
AcDbEntity
  8
0
100
AcDbSpline
 62
7
  6
CONTINUOUS
 70
0
 71
3
 72
19
 73
15
 74
0
 42
0.0000001
 43
0.0000001
 44
0.0000000001
 40
0.0
 40
0.0
 40
0.0
 40
0.0
 40
0.1990708236
 40
0.3850305876
 40
0.5519009983
 40
0.6948972738
 40
0.7566160132
 40
0.8114453614
 40
0.8591630731
 40
0.899673299
 40
0.9331718031
 40
0.9601552216
 40
0.9816958532
 40
1.0
 40
1.0
 40
1.0
 40
1.0
 10
9.921479041
 20
11.3039847857
 30
0.0
 10
9.9203998277
 20
11.3044678373
 30
0.0
 10
9.9183267914
 20
11.3054345545
 30
0.0
 10
9.9154035816
 20
11.3069195136
 30
0.0
 10
9.9128327177
 20
11.3083577981
 30
0.0
 10
9.9109638688
 20
11.309534983
 30
0.0
 10
9.9097076761
 20
11.3104292266
 30
0.0
 10
9.908938978
 20
11.3110307419
 30
0.0
 10
9.90830069
 20
11.3115925637
 30
0.0
 10
9.9077963134
 20
11.3121118979
 30
0.0
 10
9.9074263488
 20
11.3125862465
 30
0.0
 10
9.9071906249
 20
11.3130158599
 30
0.0
 10
9.9070894141
 20
11.3134065615
 30
0.0
 10
9.9071287401
 20
11.3136498975
 30
0.0
 10
9.9071728904
 20
11.3137492472
 30
0.0
  0
SPLINE
  5
4C0
100
AcDbEntity
  8
0
100
AcDbSpline
 62
7
  6
CONTINUOUS
 70
0
 71
3
 72
17
 73
13
 74
0
 42
0.0000001
 43
0.0000001
 44
0.0000000001
 40
0.0
 40
0.0
 40
0.0
 40
0.0
 40
0.2073047134
 40
0.3958850688
 40
0.5620681122
 40
0.702394264
 40
0.8150770229
 40
0.9000126161
 40
0.9325067065
 40
0.9589895748
 40
0.9807162922
 40
1.0
 40
1.0
 40
1.0
 40
1.0
 10
10.0723820614
 20
11.2364411941
 30
0.0
 10
10.0716215279
 20
11.2367816058
 30
0.0
 10
10.0701778612
 20
11.2374514233
 30
0.0
 10
10.068159664
 20
11.2384677963
 30
0.0
 10
10.0664184198
 20
11.2394321692
 30
0.0
 10
10.0649883021
 20
11.2403259685
 30
0.0
 10
10.0638949543
 20
11.2411332264
 30
0.0
 10
10.0632144487
 20
11.2417678593
 30
0.0
 10
10.0628690073
 20
11.2422341675
 30
0.0
 10
10.0627233292
 20
11.2425266772
 30
0.0
 10
10.0626700121
 20
11.2427975989
 30
0.0
 10
10.0627045937
 20
11.2429646094
 30
0.0
 10
10.0627364944
 20
11.2430352493
 30
0.0
  0
SPLINE
  5
4C1
100
AcDbEntity
  8
0
100
AcDbSpline
 62
7
  6
CONTINUOUS
 70
0
 71
3
 72
17
 73
13
 74
0
 42
0.0000001
 43
0.0000001
 44
0.0000000001
 40
0.0
 40
0.0
 40
0.0
 40
0.0
 40
0.2132219299
 40
0.4032968164
 40
0.5684142178
 40
0.7068915599
 40
0.8173562821
 40
0.8999440759
 40
0.9316451911
 40
0.9578397578
 40
0.9798852239
 40
1.0
 40
1.0
 40
1.0
 40
1.0
 10
10.2019654226
 20
11.178440197
 30
0.0
 10
10.2015060178
 20
11.1786458248
 30
0.0
 10
10.2006417921
 20
11.179045442
 30
0.0
 10
10.1994416339
 20
11.179646087
 30
0.0
 10
10.1984205109
 20
11.1802082091
 30
0.0
 10
10.1975894487
 20
11.1807244142
 30
0.0
 10
10.1969589432
 20
11.1811887869
 30
0.0
 10
10.1965714987
 20
11.1815567188
 30
0.0
 10
10.1963796806
 20
11.181828737
 30
0.0
 10
10.1963004737
 20
11.1820016889
 30
0.0
 10
10.1962744571
 20
11.1821637233
 30
0.0
 10
10.1962967912
 20
11.1822637877
 30
0.0
 10
10.1963161004
 20
11.1823071665
 30
0.0
  0
SPLINE
  5
4C2
100
AcDbEntity
  8
0
100
AcDbSpline
 62
7
  6
CONTINUOUS
 70
0
 71
3
 72
15
 73
11
 74
0
 42
0.0000001
 43
0.0000001
 44
0.0000000001
 40
0.0
 40
0.0
 40
0.0
 40
0.0
 40
0.2173965969
 40
0.4082885245
 40
0.5721655605
 40
0.70865233
 40
0.8176545959
 40
0.8997554905
 40
0.9575099837
 40
1.0
 40
1.0
 40
1.0
 40
1.0
 10
10.301398233
 20
11.1339344667
 30
0.0
 10
10.3011838106
 20
11.1340304413
 30
0.0
 10
10.3007831256
 20
11.1342152953
 30
0.0
 10
10.3002297171
 20
11.1344912132
 30
0.0
 10
10.299764045
 20
11.1347466137
 30
0.0
 10
10.2993882454
 20
11.134980163
 30
0.0
 10
10.2991020786
 20
11.1351903189
 30
0.0
 10
10.2989085451
 20
11.1353771763
 30
0.0
 10
10.2987957699
 20
11.1355445961
 30
0.0
 10
10.2987951376
 20
11.1356630457
 30
0.0
 10
10.2988139443
 20
11.1357049326
 30
0.0
  0
LINE
  5
4C3
100
AcDbEntity
  8
0
100
AcDbLine
 62
7
  6
CONTINUOUS
 10
14.3219618313
 20
7.780202238
 11
14.3420116117
 21
7.7513562209
  0
SPLINE
  5
4C4
100
AcDbEntity
  8
0
100
AcDbSpline
 62
7
  6
CONTINUOUS
 70
0
 71
3
 72
9
 73
5
 74
0
 42
0.0000001
 43
0.0000001
 44
0.0000000001
 40
0.0
 40
0.0
 40
0.0
 40
0.0
 40
0.4995822554
 40
1.0
 40
1.0
 40
1.0
 40
1.0
 10
14.2259873645
 20
7.9040955714
 30
0.0
 10
14.242766619
 20
7.8840988346
 30
0.0
 10
14.2756775058
 20
7.843504738
 30
0.0
 10
14.3070265664
 20
7.8016645722
 30
0.0
 10
14.321961831
 20
7.7802022377
 30
0.0
  0
SPLINE
  5
4C5
100
AcDbEntity
  8
0
100
AcDbSpline
 62
7
  6
CONTINUOUS
 70
0
 71
3
 72
12
 73
8
 74
0
 42
0.0000001
 43
0.0000001
 44
0.0000000001
 40
0.0
 40
0.0
 40
0.0
 40
0.0
 40
0.2478272467
 40
0.4963334773
 40
0.6211103514
 40
0.7464575487
 40
1.0
 40
1.0
 40
1.0
 40
1.0
 10
14.3126137755
 20
7.976783761
 30
0.0
 10
14.3210047734
 20
7.9667837591
 30
0.0
 10
14.337320038
 20
7.9463386612
 30
0.0
 10
14.3563506995
 20
7.9197062452
 30
0.0
 10
14.3707156273
 20
7.8977127366
 30
0.0
 10
14.3844852245
 20
7.8750328116
 30
0.0
 10
14.3938408855
 20
7.8573656991
 30
0.0
 10
14.3995117868
 20
7.845274377
 30
0.0
  0
LINE
  5
4C6
100
AcDbEntity
  8
0
100
AcDbLine
 62
7
  6
CONTINUOUS
 10
14.4097295586
 20
7.8234297777
 11
14.4148383752
 21
7.8124651313
  0
LINE
  5
4C7
100
AcDbEntity
  8
0
100
AcDbLine
 62
7
  6
CONTINUOUS
 10
14.4770508654
 20
7.8799190614
 11
14.4807269658
 21
7.8677522234
  0
SPLINE
  5
4C8
100
AcDbEntity
  8
0
100
AcDbSpline
 62
7
  6
CONTINUOUS
 70
0
 71
3
 72
13
 73
9
 74
0
 42
0.0000001
 43
0.0000001
 44
0.0000000001
 40
0.0
 40
0.0
 40
0.0
 40
0.0
 40
0.2445822766
 40
0.3674214085
 40
0.4909250545
 40
0.7411552802
 40
0.8691061617
 40
1.0
 40
1.0
 40
1.0
 40
1.0
 10
14.3909873274
 20
8.0425469795
 30
0.0
 10
14.3993824657
 20
8.0325420433
 30
0.0
 10
14.4114089395
 20
8.0170042622
 30
0.0
 10
14.4261193125
 20
7.9952972624
 30
0.0
 10
14.4400333947
 20
7.9727193225
 30
0.0
 10
14.4525810303
 20
7.948985775
 30
0.0
 10
14.4631184969
 20
7.923910474
 30
0.0
 10
14.4676276057
 20
7.9108306064
 30
0.0
 10
14.4696735933
 20
7.904147123
 30
0.0
  0
LINE
  5
4C9
100
AcDbEntity
  8
0
100
AcDbLine
 62
7
  6
CONTINUOUS
 10
14.5330530866
 20
7.9269105046
 11
14.535537361
 21
7.9137436058
  0
SPLINE
  5
4CA
100
AcDbEntity
  8
0
100
AcDbSpline
 62
7
  6
CONTINUOUS
 70
0
 71
3
 72
17
 73
13
 74
0
 42
0.0000001
 43
0.0000001
 44
0.0000000001
 40
0.0
 40
0.0
 40
0.0
 40
0.0
 40
0.2131220285
 40
0.4030724416
 40
0.5680666806
 40
0.706450176
 40
0.8168789448
 40
0.8994968749
 40
0.9312527155
 40
0.9575391311
 40
0.979718825
 40
1.0
 40
1.0
 40
1.0
 40
1.0
 10
10.0519669584
 20
11.1809181784
 30
0.0
 10
10.0515106858
 20
11.1811224042
 30
0.0
 10
10.0506524883
 20
11.1815194015
 30
0.0
 10
10.04946101
 20
11.1821165327
 30
0.0
 10
10.0484476411
 20
11.1826757419
 30
0.0
 10
10.0476231902
 20
11.183189712
 30
0.0
 10
10.0469979638
 20
11.183652496
 30
0.0
 10
10.0466141979
 20
11.1840196188
 30
0.0
 10
10.0464246932
 20
11.1842912007
 30
0.0
 10
10.0463466803
 20
11.1844641074
 30
0.0
 10
10.0463215597
 20
11.1846261491
 30
0.0
 10
10.0463441372
 20
11.1847261784
 30
0.0
 10
10.0463634886
 20
11.1847696355
 30
0.0
  0
SPLINE
  5
4CB
100
AcDbEntity
  8
0
100
AcDbSpline
 62
7
  6
CONTINUOUS
 70
0
 71
3
 72
16
 73
12
 74
0
 42
0.0000001
 43
0.0000001
 44
0.0000000001
 40
0.0
 40
0.0
 40
0.0
 40
0.0
 40
0.2052281733
 40
0.393702087
 40
0.5608790422
 40
0.7026814915
 40
0.763430583
 40
0.8172414757
 40
0.8640458678
 40
0.903859617
 40
1.0
 40
1.0
 40
1.0
 40
1.0
 10
9.9181766536
 20
11.2408021866
 30
0.0
 10
9.9172919288
 20
11.2411981859
 30
0.0
 10
9.9156055125
 20
11.2419824127
 30
0.0
 10
9.9132412701
 20
11.2431784965
 30
0.0
 10
9.9111880185
 20
11.2443224242
 30
0.0
 10
9.9097091072
 20
11.2452526011
 30
0.0
 10
9.9087240048
 20
11.2459589896
 30
0.0
 10
9.908127832
 20
11.2464303371
 30
0.0
 10
9.9076290699
 20
11.2468800288
 30
0.0
 10
9.9070558148
 20
11.2474791317
 30
0.0
 10
9.9066065707
 20
11.2481920919
 30
0.0
 10
9.906791314
 20
11.2486068882
 30
0.0
  0
SPLINE
  5
4CC
100
AcDbEntity
  8
0
100
AcDbSpline
 62
7
  6
CONTINUOUS
 70
0
 71
3
 72
19
 73
15
 74
0
 42
0.0000001
 43
0.0000001
 44
0.0000000001
 40
0.0
 40
0.0
 40
0.0
 40
0.0
 40
0.1907448172
 40
0.3737149795
 40
0.5410413998
 40
0.6869582011
 40
0.7505650692
 40
0.8072703469
 40
0.8567606712
 40
0.8988974016
 40
0.9336613509
 40
0.961284949
 40
0.9826298194
 40
1.0
 40
1.0
 40
1.0
 40
1.0
 10
9.7601102785
 20
11.3115520673
 30
0.0
 10
9.7587958219
 20
11.3121404129
 30
0.0
 10
9.7562409118
 20
11.3133393271
 30
0.0
 10
9.752606243
 20
11.3152056741
 30
0.0
 10
9.7493462574
 20
11.3170540639
 30
0.0
 10
9.7469430496
 20
11.3185806932
 30
0.0
 10
9.7453051431
 20
11.3197465837
 30
0.0
 10
9.7442928328
 20
11.3205339727
 30
0.0
 10
9.7434463478
 20
11.3212682869
 30
0.0
 10
9.7427704229
 20
11.3219432587
 30
0.0
 10
9.7422676812
 20
11.3225540375
 30
0.0
 10
9.7419405062
 20
11.3230985273
 30
0.0
 10
9.741788374
 20
11.3235845244
 30
0.0
 10
9.7418283512
 20
11.3238884349
 30
0.0
 10
9.7418821283
 20
11.3240080464
 30
0.0
  0
SPLINE
  5
4CD
100
AcDbEntity
  8
0
100
AcDbSpline
 62
7
  6
CONTINUOUS
 70
0
 71
3
 72
9
 73
5
 74
0
 42
0.0000001
 43
0.0000001
 44
0.0000000001
 40
0.0
 40
0.0
 40
0.0
 40
0.0
 40
0.5015936028
 40
1.0
 40
1.0
 40
1.0
 40
1.0
 10
9.5987652354
 20
11.3837694668
 30
0.0
 10
9.5964462534
 20
11.3848074339
 30
0.0
 10
9.591891093
 20
11.3870301464
 30
0.0
 10
9.5874649615
 20
11.3894997074
 30
0.0
 10
9.585302049
 20
11.3908016636
 30
0.0
  0
SPLINE
  5
4CE
100
AcDbEntity
  8
0
100
AcDbSpline
 62
7
  6
CONTINUOUS
 70
0
 71
3
 72
18
 73
14
 74
0
 42
0.0000001
 43
0.0000001
 44
0.0000000001
 40
0.0
 40
0.0
 40
0.0
 40
0.0
 40
0.200574673
 40
0.3850755985
 40
0.5497843947
 40
0.6916011867
 40
0.8076968419
 40
0.8555904616
 40
0.8966521753
 40
0.9309800647
 40
0.9589091663
 40
0.9812809282
 40
1.0
 40
1.0
 40
1.0
 40
1.0
 10
9.585302049
 20
11.3908016636
 30
0.0
 10
9.5843896158
 20
11.391350899
 30
0.0
 10
9.5826523681
 20
11.3924297897
 30
0.0
 10
9.5802235563
 20
11.3940501798
 30
0.0
 10
9.578111695
 20
11.3955806009
 30
0.0
 10
9.5763601891
 20
11.3969846777
 30
0.0
 10
9.5751620366
 20
11.3980842095
 30
0.0
 10
9.5744251392
 20
11.3988866434
 30
0.0
 10
9.5740181084
 20
11.3994002451
 30
0.0
 10
9.5737210444
 20
11.3998629935
 30
0.0
 10
9.5735352191
 20
11.4002745591
 30
0.0
 10
9.5734617763
 20
11.4006386361
 30
0.0
 10
9.5735018717
 20
11.4008611348
 30
0.0
 10
9.5735429527
 20
11.4009516397
 30
0.0
  0
LINE
  5
4CF
100
AcDbEntity
  8
0
100
AcDbLine
 62
7
  6
CONTINUOUS
 10
9.4555744622
 20
11.4478610873
 11
9.4473240036
 21
11.4520159187
  0
SPLINE
  5
4D0
100
AcDbEntity
  8
0
100
AcDbSpline
 62
7
  6
CONTINUOUS
 70
0
 71
3
 72
20
 73
16
 74
0
 42
0.0000001
 43
0.0000001
 44
0.0000000001
 40
0.0
 40
0.0
 40
0.0
 40
0.0
 40
0.1773637609
 40
0.3546045322
 40
0.5231229273
 40
0.6750110619
 40
0.7423841504
 40
0.8030408427
 40
0.856322758
 40
0.9016015115
 40
0.9384006143
 40
0.9666282553
 40
0.9776162563
 40
0.9866547424
 40
1.0
 40
1.0
 40
1.0
 40
1.0
 10
9.4473240036
 20
11.4520159187
 30
0.0
 10
9.4458080092
 20
11.4528490665
 30
0.0
 10
9.4428055807
 20
11.454567025
 30
0.0
 10
9.4384546001
 20
11.4572330819
 30
0.0
 10
9.4343965616
 20
11.4598971371
 30
0.0
 10
9.4313065999
 20
11.4620799687
 30
0.0
 10
9.4291335645
 20
11.4637330371
 30
0.0
 10
9.4277558186
 20
11.464842047
 30
0.0
 10
9.4265799111
 20
11.4658567772
 30
0.0
 10
9.4256197448
 20
11.4667639152
 30
0.0
 10
9.4248882603
 20
11.4675539745
 30
0.0
 10
9.424438257
 20
11.4681459775
 30
0.0
 10
9.4242127933
 20
11.4685619207
 30
0.0
 10
9.4240979432
 20
11.4688636813
 30
0.0
 10
9.4240830936
 20
11.4691019836
 30
0.0
 10
9.4241361426
 20
11.46922084
 30
0.0
  0
SPLINE
  5
4D1
100
AcDbEntity
  8
0
100
AcDbSpline
 62
7
  6
CONTINUOUS
 70
0
 71
3
 72
11
 73
7
 74
0
 42
0.0000001
 43
0.0000001
 44
0.0000000001
 40
0.0
 40
0.0
 40
0.0
 40
0.0
 40
0.1854884887
 40
0.4228435542
 40
0.6991033507
 40
1.0
 40
1.0
 40
1.0
 40
1.0
 10
9.3495592991
 20
11.4953130525
 30
0.0
 10
9.3486225795
 20
11.4957323245
 30
0.0
 10
9.3465298662
 20
11.4967820225
 30
0.0
 10
9.3431412193
 20
11.4986476032
 30
0.0
 10
9.3392578954
 20
11.5009354273
 30
0.0
 10
9.3365417223
 20
11.5026149462
 30
0.0
 10
9.3351339811
 20
11.5035036698
 30
0.0
  0
SPLINE
  5
4D2
100
AcDbEntity
  8
0
100
AcDbSpline
 62
7
  6
CONTINUOUS
 70
0
 71
3
 72
19
 73
15
 74
0
 42
0.0000001
 43
0.0000001
 44
0.0000000001
 40
0.0
 40
0.0
 40
0.0
 40
0.0
 40
0.1830185761
 40
0.3635323026
 40
0.5334953997
 40
0.6855619546
 40
0.812833114
 40
0.8654378389
 40
0.9098879183
 40
0.9456245667
 40
0.9723364294
 40
0.9823218502
 40
0.9901256453
 40
1.0
 40
1.0
 40
1.0
 40
1.0
 10
9.3351339811
 20
11.5035036698
 30
0.0
 10
9.3337299419
 20
11.5043900563
 30
0.0
 10
9.3309573786
 20
11.5061766335
 30
0.0
 10
9.3269338836
 20
11.5088673986
 30
0.0
 10
9.3231903911
 20
11.511470515
 30
0.0
 10
9.3198929661
 20
11.5138674332
 30
0.0
 10
9.3175056453
 20
11.5157043346
 30
0.0
 10
9.3159361352
 20
11.517000419
 30
0.0
 10
9.3150302828
 20
11.5177947222
 30
0.0
 10
9.3143298915
 20
11.5184671231
 30
0.0
 10
9.3138875243
 20
11.5189522112
 30
0.0
 10
9.3136498505
 20
11.5192831766
 30
0.0
 10
9.3135297264
 20
11.5194959699
 30
0.0
 10
9.3134782796
 20
11.519673497
 30
0.0
 10
9.3135147294
 20
11.5197553308
 30
0.0
  0
SPLINE
  5
4D3
100
AcDbEntity
  8
0
100
AcDbSpline
 62
7
  6
CONTINUOUS
 70
0
 71
3
 72
32
 73
28
 74
0
 42
0.0000001
 43
0.0000001
 44
0.0000000001
 40
0.0
 40
0.0
 40
0.0
 40
0.0
 40
0.0095490196
 40
0.0234036923
 40
0.0633474388
 40
0.1183754519
 40
0.186409543
 40
0.2649118273
 40
0.3511942306
 40
0.4422699087
 40
0.535106574
 40
0.6266373882
 40
0.713786372
 40
0.7936444599
 40
0.829996114
 40
0.8635159811
 40
0.8938849657
 40
0.9208560625
 40
0.9442030944
 40
0.9637007599
 40
0.9791256993
 40
0.9852494332
 40
0.9903036871
 40
0.9942888308
 40
0.9972092302
 40
0.9990823557
 40
1.0
 40
1.0
 40
1.0
 40
1.0
 10
9.2948027099
 20
11.519821884
 30
0.0
 10
9.2946677698
 20
11.5198822827
 30
0.0
 10
9.2943457322
 20
11.5200491598
 30
0.0
 10
9.29349095
 20
11.5205298521
 30
0.0
 10
9.2920505489
 20
11.5214048537
 30
0.0
 10
9.289915638
 20
11.5227505009
 30
0.0
 10
9.2872944972
 20
11.5244442724
 30
0.0
 10
9.2842807859
 20
11.5264217483
 30
0.0
 10
9.2809805645
 20
11.528612775
 30
0.0
 10
9.2775052547
 20
11.5309412256
 30
0.0
 10
9.2739712609
 20
11.5333280227
 30
0.0
 10
9.2704961462
 20
11.5356933288
 30
0.0
 10
9.2671959268
 20
11.5379584257
 30
0.0
 10
9.264608255
 20
11.5397519769
 30
0.0
 10
9.2627092612
 20
11.5410815182
 30
0.0
 10
9.2614412598
 20
11.5419763555
 30
0.0
 10
9.2602956881
 20
11.5427927778
 30
0.0
 10
9.2592826484
 20
11.5435237385
 30
0.0
 10
9.2584109512
 20
11.5441629434
 30
0.0
 10
9.2576893043
 20
11.5447042599
 30
0.0
 10
9.2571869347
 20
11.5450937613
 30
0.0
 10
9.2568675077
 20
11.5453535076
 30
0.0
 10
9.2566882991
 20
11.5455058158
 30
0.0
 10
9.2565515417
 20
11.5456291168
 30
0.0
 10
9.2564539422
 20
11.5457274737
 30
0.0
 10
9.2564004919
 20
11.545791747
 30
0.0
 10
9.2563772282
 20
11.5458366972
 30
0.0
 10
9.2563824068
 20
11.545849927
 30
0.0
  0
SPLINE
  5
4D4
100
AcDbEntity
  8
0
100
AcDbSpline
 62
7
  6
CONTINUOUS
 70
0
 71
3
 72
12
 73
8
 74
0
 42
0.0000001
 43
0.0000001
 44
0.0000000001
 40
0.0
 40
0.0
 40
0.0
 40
0.0
 40
0.2478272467
 40
0.4963334773
 40
0.6211103514
 40
0.7464575487
 40
1.0
 40
1.0
 40
1.0
 40
1.0
 10
14.0499247393
 20
7.7563614876
 30
0.0
 10
14.0583157372
 20
7.7463614857
 30
0.0
 10
14.0756171122
 20
7.7267438326
 30
0.0
 10
14.0985402822
 20
7.7033776191
 30
0.0
 10
14.1177052165
 20
7.6854117942
 30
0.0
 10
14.137649517
 20
7.6679130605
 30
0.0
 10
14.1534236329
 20
7.6556316711
 30
0.0
 10
14.1643465189
 20
7.6479472875
 30
0.0
  0
SPLINE
  5
4D5
100
AcDbEntity
  8
0
100
AcDbSpline
 62
7
  6
CONTINUOUS
 70
0
 71
3
 72
13
 73
9
 74
0
 42
0.0000001
 43
0.0000001
 44
0.0000000001
 40
0.0
 40
0.0
 40
0.0
 40
0.0
 40
0.2445822766
 40
0.3674214085
 40
0.4909250545
 40
0.7411552802
 40
0.8691061617
 40
1.0
 40
1.0
 40
1.0
 40
1.0
 10
13.9715511874
 20
7.6905982691
 30
0.0
 10
13.9799463257
 20
7.6805933329
 30
0.0
 10
13.9931596776
 20
7.6660514608
 30
0.0
 10
14.0119824699
 20
7.6477951905
 30
0.0
 10
14.0318012452
 20
7.6301718764
 30
0.0
 10
14.0529953526
 20
7.6136935803
 30
0.0
 10
14.0758598917
 20
7.5989619212
 30
0.0
 10
14.0879580482
 20
7.5922500206
 30
0.0
 10
14.0941847124
 20
7.5890745415
 30
0.0
  0
SPLINE
  5
4D6
100
AcDbEntity
  8
0
100
AcDbSpline
 62
7
  6
CONTINUOUS
 70
0
 71
3
 72
8
 73
4
 74
0
 42
0.0000001
 43
0.0000001
 44
0.0000000001
 40
0.0
 40
0.0
 40
0.0
 40
0.0
 40
1.0
 40
1.0
 40
1.0
 40
1.0
 10
12.6625374781
 20
8.1953517868
 30
0.0
 10
13.3249777516
 20
7.8870504189
 30
0.0
 10
13.8792849061
 20
6.9668432498
 30
0.0
 10
13.66226135
 20
6.2804921121
 30
0.0
  0
SPLINE
  5
4D7
100
AcDbEntity
  8
0
100
AcDbSpline
 62
7
  6
CONTINUOUS
 70
0
 71
3
 72
23
 73
19
 74
0
 42
0.0000001
 43
0.0000001
 44
0.0000000001
 40
0.0
 40
0.0
 40
0.0
 40
0.0
 40
0.0625018746
 40
0.1250081971
 40
0.1875105346
 40
0.2500003164
 40
0.3124922374
 40
0.3749981149
 40
0.4375049562
 40
0.5
 40
0.5624950438
 40
0.6250018851
 40
0.6875077626
 40
0.7499996836
 40
0.8124894654
 40
0.8749918029
 40
0.9374981254
 40
1.0
 40
1.0
 40
1.0
 40
1.0
 10
5.0446006923
 20
10.9739833591
 30
0.0
 10
5.054096081
 20
11.0278343845
 30
0.0
 10
5.0790947155
 20
11.1345751312
 30
0.0
 10
5.133780014
 20
11.2895665783
 30
0.0
 10
5.2049146608
 20
11.4377409475
 30
0.0
 10
5.2917589529
 20
11.5772829703
 30
0.0
 10
5.3935401291
 20
11.7063407838
 30
0.0
 10
5.5087674821
 20
11.8235534442
 30
0.0
 10
5.6359998286
 20
11.9276160391
 30
0.0
 10
5.7738083447
 20
12.0172085286
 30
0.0
 10
5.9207024098
 20
12.0909657989
 30
0.0
 10
6.0747512333
 20
12.1482899093
 30
0.0
 10
6.2340941244
 20
12.1886135214
 30
0.0
 10
6.3968772146
 20
12.2113509927
 30
0.0
 10
6.5611732696
 20
12.2159022029
 30
0.0
 10
6.7249935636
 20
12.2025345959
 30
0.0
 10
6.886397647
 20
12.1715256869
 30
0.0
 10
6.9911643377
 20
12.1392385493
 30
0.0
 10
7.0424466455
 20
12.1202590804
 30
0.0
  0
SPLINE
  5
4D8
100
AcDbEntity
  8
0
100
AcDbSpline
 62
9
  6
CONTINUOUS
 70
0
 71
3
 72
14
 73
10
 74
0
 42
0.0000001
 43
0.0000001
 44
0.0000000001
 40
0.0
 40
0.0
 40
0.0
 40
0.0
 40
0.1181296221
 40
0.239720624
 40
0.3642220735
 40
0.4910303799
 40
0.619374559
 40
0.7479471871
 40
1.0
 40
1.0
 40
1.0
 40
1.0
 10
6.9604652001
 20
10.8057006987
 30
0.0
 10
6.9654928798
 20
10.8314346051
 30
0.0
 10
6.9746357605
 20
10.8838667402
 30
0.0
 10
6.9859336112
 20
10.9639276387
 30
0.0
 10
6.9953620564
 20
11.0461669022
 30
0.0
 10
7.0032468309
 20
11.1300705981
 30
0.0
 10
7.0099064791
 20
11.2149859748
 30
0.0
 10
7.01712569
 20
11.3277300669
 30
0.0
 10
7.020825216
 20
11.4121476204
 30
0.0
 10
7.0224971275
 20
11.4680691067
 30
0.0
  0
SPLINE
  5
4D9
100
AcDbEntity
  8
0
100
AcDbSpline
 62
9
  6
CONTINUOUS
 70
0
 71
3
 72
12
 73
8
 74
0
 42
0.0000001
 43
0.0000001
 44
0.0000000001
 40
0.0
 40
0.0
 40
0.0
 40
0.0
 40
0.253492469
 40
0.5071781629
 40
0.7572492011
 40
0.8797616058
 40
1.0
 40
1.0
 40
1.0
 40
1.0
 10
7.0224971295
 20
11.468069112
 30
0.0
 10
7.0238497256
 20
11.5219874804
 30
0.0
 10
7.026932466
 20
11.6298591555
 30
0.0
 10
7.0352181809
 20
11.7907881863
 30
0.0
 10
7.0473566498
 20
11.9235412296
 30
0.0
 10
7.0610765316
 20
12.0275091341
 30
0.0
 10
7.0693998145
 20
12.0784954527
 30
0.0
 10
7.0739691533
 20
12.1036670833
 30
0.0
  0
SPLINE
  5
4DA
100
AcDbEntity
  8
0
100
AcDbSpline
 62
7
  6
CONTINUOUS
 70
0
 71
3
 72
13
 73
9
 74
0
 42
0.0000001
 43
0.0000001
 44
0.0000000001
 40
0.0
 40
0.0
 40
0.0
 40
0.0
 40
0.2578351209
 40
0.3849236403
 40
0.5106740554
 40
0.635058679
 40
0.7580624762
 40
1.0
 40
1.0
 40
1.0
 40
1.0
 10
16.2517368319
 20
6.2806575628
 30
0.0
 10
16.2380081126
 20
6.2372375771
 30
0.0
 10
16.2154002259
 20
6.1730301876
 30
0.0
 10
16.1800118492
 20
6.0900372911
 30
0.0
 10
16.1508403526
 20
6.0301051536
 30
0.0
 10
16.1185936455
 20
5.9725671014
 30
0.0
 10
16.0713170001
 20
5.9001979588
 30
0.0
 10
16.0295869657
 20
5.8504080053
 30
0.0
 10
15.9986682861
 20
5.8209128759
 30
0.0
  0
SPLINE
  5
4DB
100
AcDbEntity
  8
0
100
AcDbSpline
 62
9
  6
CONTINUOUS
 70
0
 71
3
 72
10
 73
6
 74
0
 42
0.0000001
 43
0.0000001
 44
0.0000000001
 40
0.0
 40
0.0
 40
0.0
 40
0.0
 40
0.2486596612
 40
0.4992823073
 40
1.0
 40
1.0
 40
1.0
 40
1.0
 10
7.1200881967
 20
10.7503666726
 30
0.0
 10
7.1382449765
 20
10.8001010137
 30
0.0
 10
7.1737093689
 20
10.900325707
 30
0.0
 10
7.2419343109
 20
11.1020244887
 30
0.0
 10
7.2912971061
 20
11.2541995193
 30
0.0
 10
7.3239790382
 20
11.3556803026
 30
0.0
  0
SPLINE
  5
4DC
100
AcDbEntity
  8
0
100
AcDbSpline
 62
7
  6
CONTINUOUS
 70
0
 71
3
 72
17
 73
13
 74
0
 42
0.0000001
 43
0.0000001
 44
0.0000000001
 40
0.0
 40
0.0
 40
0.0
 40
0.0
 40
0.0590612255
 40
0.1183573375
 40
0.1779776191
 40
0.2379975428
 40
0.3593629775
 40
0.4829939485
 40
0.6090324358
 40
0.7373992918
 40
0.8678501214
 40
1.0
 40
1.0
 40
1.0
 40
1.0
 10
6.3228237487
 20
10.4325906996
 30
0.0
 10
6.3257150568
 20
10.448575456
 30
0.0
 10
6.333344174
 20
10.4803058559
 30
0.0
 10
6.3500386702
 20
10.526421137
 30
0.0
 10
6.3717969009
 20
10.5706786381
 30
0.0
 10
6.4073812316
 20
10.6267362345
 30
0.0
 10
6.4637268785
 20
10.689811895
 30
0.0
 10
6.5464463486
 20
10.7507621977
 30
0.0
 10
6.6415345963
 20
10.7945029324
 30
0.0
 10
6.7450728485
 20
10.8195149111
 30
0.0
 10
6.8531127041
 20
10.8243053811
 30
0.0
 10
6.9251027581
 20
10.8141004823
 30
0.0
 10
6.9604652001
 20
10.8057006987
 30
0.0
  0
SPLINE
  5
4DD
100
AcDbEntity
  8
0
100
AcDbSpline
 62
7
  6
CONTINUOUS
 70
0
 71
3
 72
23
 73
19
 74
0
 42
0.0000001
 43
0.0000001
 44
0.0000000001
 40
0.0
 40
0.0
 40
0.0
 40
0.0
 40
0.0634763453
 40
0.126833728
 40
0.1900492377
 40
0.2531042274
 40
0.3160048671
 40
0.3787599002
 40
0.4413605075
 40
0.5038018016
 40
0.5661045893
 40
0.6282946114
 40
0.6903789394
 40
0.7523667736
 40
0.8142917786
 40
0.8761928477
 40
0.9380890931
 40
1.0
 40
1.0
 40
1.0
 40
1.0
 10
5.7410491823
 20
10.6977276477
 30
0.0
 10
5.747801362
 20
10.7329001317
 30
0.0
 10
5.7649876814
 20
10.8025257057
 30
0.0
 10
5.8013602923
 20
10.9035905908
 30
0.0
 10
5.8478560393
 20
11.0001665553
 30
0.0
 10
5.9040241526
 20
11.091160068
 30
0.0
 10
5.9693966284
 20
11.1754574691
 30
0.0
 10
6.0430823419
 20
11.2522309891
 30
0.0
 10
6.1242173645
 20
11.3206856054
 30
0.0
 10
6.2119450874
 20
11.3800184934
 30
0.0
 10
6.3053752399
 20
11.4294003219
 30
0.0
 10
6.403351091
 20
11.4684474827
 30
0.0
 10
6.5047561318
 20
11.4967962512
 30
0.0
 10
6.6084785454
 20
11.5140728707
 30
0.0
 10
6.7133648688
 20
11.5198939763
 30
0.0
 10
6.8182127896
 20
11.5143845898
 30
0.0
 10
6.9218472111
 20
11.4976775571
 30
0.0
 10
6.9893684191
 20
11.4791463415
 30
0.0
 10
7.0224971391
 20
11.4680694941
 30
0.0
  0
SPLINE
  5
4DE
100
AcDbEntity
  8
0
100
AcDbSpline
 62
9
  6
CONTINUOUS
 70
0
 71
3
 72
15
 73
11
 74
0
 42
0.0000001
 43
0.0000001
 44
0.0000000001
 40
0.0
 40
0.0
 40
0.0
 40
0.0
 40
0.0414202363
 40
0.0867756023
 40
0.1883664402
 40
0.3029035647
 40
0.4284921569
 40
0.7047767373
 40
0.851113629
 40
1.0
 40
1.0
 40
1.0
 40
1.0
 10
6.3228237487
 20
10.4325906996
 30
0.0
 10
6.3151429134
 20
10.4369524283
 30
0.0
 10
6.2989543936
 20
10.445919636
 30
0.0
 10
6.2635063966
 20
10.4648168324
 30
0.0
 10
6.2137789194
 20
10.4900577994
 30
0.0
 10
6.1482074768
 20
10.5218541877
 30
0.0
 10
6.0484493798
 20
10.5685034934
 30
0.0
 10
5.9416764473
 20
10.6161552763
 30
0.0
 10
5.8292365453
 20
10.6631857065
 30
0.0
 10
5.7706985619
 20
10.6863705744
 30
0.0
 10
5.7410491823
 20
10.6977276477
 30
0.0
  0
SPLINE
  5
4DF
100
AcDbEntity
  8
0
100
AcDbSpline
 62
7
  6
CONTINUOUS
 70
0
 71
3
 72
25
 73
21
 74
0
 42
0.0000001
 43
0.0000001
 44
0.0000000001
 40
0.0
 40
0.0
 40
0.0
 40
0.0
 40
0.0638686913
 40
0.1276358562
 40
0.1912601859
 40
0.254705203
 40
0.3179611694
 40
0.3810218469
 40
0.443862873
 40
0.4752052607
 40
0.5064873425
 40
0.56885821
 40
0.6310146506
 40
0.6620231837
 40
0.6929768889
 40
0.7546998266
 40
0.8162342669
 40
0.8776173629
 40
0.9388664251
 40
1.0
 40
1.0
 40
1.0
 40
1.0
 10
5.1575421526
 20
10.9502826865
 30
0.0
 10
5.1676470277
 20
11.003350189
 30
0.0
 10
5.1934271348
 20
11.1084212328
 30
0.0
 10
5.2480985823
 20
11.2609634607
 30
0.0
 10
5.3180595864
 20
11.4067503714
 30
0.0
 10
5.4026180601
 20
11.544086058
 30
0.0
 10
5.5010582514
 20
11.6712438134
 30
0.0
 10
5.6119808514
 20
11.7869410376
 30
0.0
 10
5.7138298593
 20
11.8728941889
 30
0.0
 10
5.8001856445
 20
11.934648487
 30
0.0
 10
5.8894124864
 20
11.9914427896
 30
0.0
 10
6.0062495307
 20
12.0530010666
 30
0.0
 10
6.1288209408
 20
12.1015185838
 30
0.0
 10
6.2292811832
 20
12.1321506367
 30
0.0
 10
6.3308938656
 20
12.1572127151
 30
0.0
 10
6.4599442301
 20
12.1780544937
 30
0.0
 10
6.6162435878
 20
12.1856635655
 30
0.0
 10
6.7720382152
 20
12.1761026833
 30
0.0
 10
6.925498695
 20
12.1496234135
 30
0.0
 10
7.0251836678
 20
12.1208033787
 30
0.0
 10
7.0739691561
 20
12.1036670985
 30
0.0
  0
SPLINE
  5
4E0
100
AcDbEntity
  8
0
100
AcDbSpline
 62
9
  6
CONTINUOUS
 70
0
 71
3
 72
15
 73
11
 74
0
 42
0.0000001
 43
0.0000001
 44
0.0000000001
 40
0.0
 40
0.0
 40
0.0
 40
0.0
 40
0.2939821872
 40
0.4353395561
 40
0.5698656483
 40
0.6953604636
 40
0.8100098317
 40
0.912110997
 40
0.9579343648
 40
1.0
 40
1.0
 40
1.0
 40
1.0
 10
5.7410491823
 20
10.6977276477
 30
0.0
 10
5.6828704395
 20
10.7201385854
 30
0.0
 10
5.5968861813
 20
10.7537720521
 30
0.0
 10
5.4849166742
 20
10.7992565452
 30
0.0
 10
5.4064126607
 20
10.832169123
 30
0.0
 10
5.3335860823
 20
10.8639560358
 30
0.0
 10
5.2675934264
 20
10.8941821085
 30
0.0
 10
5.2175042497
 20
10.918530007
 30
0.0
 10
5.1817142105
 20
10.9370411213
 30
0.0
 10
5.1653288204
 20
10.9459292468
 30
0.0
 10
5.1575421526
 20
10.9502826865
 30
0.0
  0
SPLINE
  5
4E1
100
AcDbEntity
  8
0
100
AcDbSpline
 62
7
  6
CONTINUOUS
 70
0
 71
3
 72
13
 73
9
 74
0
 42
0.0000001
 43
0.0000001
 44
0.0000000001
 40
0.0
 40
0.0
 40
0.0
 40
0.0
 40
0.2419384428
 40
0.3649420606
 40
0.4893267696
 40
0.6150764334
 40
0.7421646228
 40
1.0
 40
1.0
 40
1.0
 40
1.0
 10
13.9153149968
 20
5.8208702421
 30
0.0
 10
13.8843996336
 20
5.8503557442
 30
0.0
 10
13.8426731375
 20
5.9001305436
 30
0.0
 10
13.7953983891
 20
5.9724788735
 30
0.0
 10
13.7631530884
 20
6.0300012491
 30
0.0
 10
13.733981085
 20
6.0899169657
 30
0.0
 10
13.698592829
 20
6.1728886773
 30
0.0
 10
13.6759877044
 20
6.2370816219
 30
0.0
 10
13.66226135
 20
6.2804921121
 30
0.0
  0
LINE
  5
4E2
100
AcDbEntity
  8
0
100
AcDbLine
 62
7
  6
CONTINUOUS
 10
14.440320172
 20
7.7292039087
 11
14.4420126435
 21
7.7263030983
  0
LINE
  5
4E3
100
AcDbEntity
  8
0
100
AcDbLine
 62
7
  6
CONTINUOUS
 10
5.689348761
 20
10.4123522535
 11
5.7285947687
 21
10.6307408399
  0
SPLINE
  5
4E4
100
AcDbEntity
  8
0
100
AcDbSpline
 62
9
  6
CONTINUOUS
 70
0
 71
3
 72
14
 73
10
 74
0
 42
0.0000001
 43
0.0000001
 44
0.0000000001
 40
0.0
 40
0.0
 40
0.0
 40
0.0
 40
0.0862538507
 40
0.1874504489
 40
0.3017292319
 40
0.4272160339
 40
0.7038258604
 40
0.8505700466
 40
1.0
 40
1.0
 40
1.0
 40
1.0
 10
6.3181402414
 20
10.4021599844
 30
0.0
 10
6.301683322
 20
10.4099000715
 30
0.0
 10
6.2656372965
 20
10.4261226582
 30
0.0
 10
6.2071197038
 20
10.451087287
 30
0.0
 10
6.14059512
 20
10.4783457425
 30
0.0
 10
6.0393981839
 20
10.5185105776
 30
0.0
 10
5.9312420905
 20
10.5596940602
 30
0.0
 10
5.8175915524
 20
10.6005528562
 30
0.0
 10
5.7585112948
 20
10.6207911293
 30
0.0
 10
5.728614752
 20
10.6307341939
 30
0.0
  0
LINE
  5
4E5
100
AcDbEntity
  8
0
100
AcDbLine
 62
7
  6
CONTINUOUS
 10
5.1383852144
 20
10.849337208
 11
5.1575466516
 21
10.9502801712
  0
SPLINE
  5
4E6
100
AcDbEntity
  8
0
100
AcDbSpline
 62
9
  6
CONTINUOUS
 70
0
 71
3
 72
15
 73
11
 74
0
 42
0.0000001
 43
0.0000001
 44
0.0000000001
 40
0.0
 40
0.0
 40
0.0
 40
0.0
 40
0.2946734517
 40
0.4362882524
 40
0.5709674084
 40
0.6964748371
 40
0.8109683294
 40
0.9127134412
 40
0.9582698806
 40
1.0
 40
1.0
 40
1.0
 40
1.0
 10
5.7286147519
 20
10.6307341939
 30
0.0
 10
5.6699588372
 20
10.6503464383
 30
0.0
 10
5.5832310198
 20
10.6797396634
 30
0.0
 10
5.470131853
 20
10.7193628759
 30
0.0
 10
5.3907877213
 20
10.7479411259
 30
0.0
 10
5.3171079972
 20
10.775435107
 30
0.0
 10
5.2502649402
 20
10.8014588412
 30
0.0
 10
5.1994255448
 20
10.8223179416
 30
0.0
 10
5.1630224271
 20
10.8380982145
 30
0.0
 10
5.1463285266
 20
10.8456471749
 30
0.0
 10
5.1383852144
 20
10.849337208
 30
0.0
  0
SPLINE
  5
4E7
100
AcDbEntity
  8
0
100
AcDbSpline
 62
9
  6
CONTINUOUS
 70
0
 71
3
 72
9
 73
5
 74
0
 42
0.0000001
 43
0.0000001
 44
0.0000000001
 40
0.0
 40
0.0
 40
0.0
 40
0.0
 40
0.5001183926
 40
1.0
 40
1.0
 40
1.0
 40
1.0
 10
7.3239793547
 20
11.355681202
 30
0.0
 10
7.3554694668
 20
11.4540408934
 30
0.0
 10
7.4185465946
 20
11.6506789161
 30
0.0
 10
7.4854713264
 20
11.8460724655
 30
0.0
 10
7.5205403526
 20
11.943161712
 30
0.0
  0
ENDSEC
  0
SECTION
  2
OBJECTS
  0
DICTIONARY
  5
C
100
AcDbDictionary
280
0
281
1
  3
ACAD_GROUP
350
D
  3
ACAD_MLINESTYLE
350
17
  3
ACAD_LAYOUT
350
1A
  3
ACAD_PLOTSETTINGS
350
19
  3
ACAD_PLOTSTYLENAME
350
E
  0
DICTIONARY
  5
D
102
{ACAD_REACTORS
330
C
102
}
100
AcDbDictionary
280
0
281
1
  0
ACDBDICTIONARYWDFLT
  5
E
102
{ACAD_REACTORS
330
C
102
}
100
AcDbDictionary
281
1
  3
Normal
350
F
100
AcDbDictionaryWithDefault
340
F
  0
DICTIONARY
  5
17
102
{ACAD_REACTORS
330
C
102
}
100
AcDbDictionary
280
0
281
1
  3
Standard
350
18
  0
DICTIONARY
  5
19
102
{ACAD_REACTORS
330
C
102
}
100
AcDbDictionary
281
1
  0
DICTIONARY
  5
1A
102
{ACAD_REACTORS
330
C
102
}
100
AcDbDictionary
281
1
  3
Model
350
4E8
  3
Layout1
350
4E9
  0
ACDBPLACEHOLDER
  5
F
102
{ACAD_REACTORS
330
E
102
}
  0
MLINESTYLE
  5
18
102
{ACAD_REACTORS
330
17
102
}
100
AcDbMlineStyle
  2
STANDARD
 70
0
  3

 62
256
 51
90.0
 52
90.0
 71
2
 49
0.5
 62
256
  6
BYLAYER
 49
-0.5
 62
256
  6
BYLAYER
  0
LAYOUT
  5
4E8
102
{ACAD_REACTORS
330
1A
102
}
100
AcDbPlotSettings
  1

  2
none_device
  4
ANSI_C_(22.00_x_17.00_Inches)
  6

 40
0.0
 41
0.0
 42
0.0
 43
0.0
 44
558.8
 45
431.8
 46
0.0
 47
0.0
 48
0.0
 49
0.0
140
0.0
141
0.0
142
1.0
143
1.0
 70
1024
 72
0
 73
0
 74
0
  7

 75
0
147
1.0
148
0.0
149
0.0
100
AcDbLayout
  1
Model
 70
0
 71
0
 10
0.0
 20
0.0
 11
22.0
 21
17.0
 12
0.0
 22
0.0
 32
0.0
 14
0.0
 24
0.0
 34
0.0
 15
0.0
 25
0.0
 35
0.0
146
0.0
 13
0.0
 23
0.0
 33
0.0
 16
1.0
 26
0.0
 36
0.0
 17
0.0
 27
1.0
 37
0.0
 76
0
330
202
345
0
346
0
  0
LAYOUT
  5
4E9
102
{ACAD_REACTORS
330
1A
102
}
100
AcDbPlotSettings
  1

  2
none_device
  4
ANSI_C_(22.00_x_17.00_Inches)
  6

 40
0.0
 41
0.0
 42
0.0
 43
0.0
 44
558.8
 45
431.8
 46
0.0
 47
0.0
 48
0.0
 49
0.0
140
0.0
141
0.0
142
1.0
143
1.0
 70
0
 72
0
 73
0
 74
0
  7

 75
0
147
1.0
148
0.0
149
0.0
100
AcDbLayout
  1
Layout1
 70
0
 71
1
 10
0.0
 20
0.0
 11
22.0
 21
17.0
 12
0.0
 22
0.0
 32
0.0
 14
0.0
 24
0.0
 34
0.0
 15
0.0
 25
0.0
 35
0.0
146
0.0
 13
0.0
 23
0.0
 33
0.0
 16
1.0
 26
0.0
 36
0.0
 17
0.0
 27
1.0
 37
0.0
 76
0
330
203
345
0
346
0
  0
ENDSEC
  0
EOF
