999
DXF file: 3-9301_front.dxf
999
Pro/ENGINEER 2018400 by Parametric Technology Corporation
  0
SECTION
  2
HEADER
  9
$ACADVER
  1
AC1027
  9
$DWGCODEPAGE
  3
ANSI_1252
  9
$EXTMAX
 10
11.0
 20
8.5
 30
0.0
  9
$EXTMIN
 10
0.0
 20
0.0
 30
0.0
  9
$LIMMIN
 10
0.0
 20
0.0
  9
$LIMMAX
 10
11.0
 20
8.5
  9
$VIEWCTR
 10
5.5
 20
4.25
  9
$VIEWSIZE
 40
8.5
  9
$CLAYER
  8
0
  9
$LTSCALE
 40
0.605
  9
$CELTYPE
  6
BYLAYER
  9
$DIMSCALE
 40
1.0
  9
$DIMASZ
 40
0.1
  9
$DIMEXO
 40
0.0625
  9
$DIMDLI
 40
0.418
  9
$DIMEXE
 40
0.125
  9
$DIMCEN
 40
0.099
  9
$DIMLFAC
 40
1.0
  9
$DIMBLK
  1
_FILLED
  9
$DIMALT
 70
1
  9
$DIMALTD
 70
2
  9
$DIMALTTD
 70
2
  9
$DIMALTF
 40
25.4
  9
$DIMTXT
 40
0.08
  9
$DIMTOL
 70
1
  9
$DIMLIM
 70
0
  9
$DIMTFAC
 40
1.0
  9
$DIMTP
 40
0.001
  9
$DIMTM
 40
0.001
  9
$DIMGAP
 40
0.09
  9
$DIMDSEP
 70
46
  9
$AUNITS
 70
0
  9
$PDMODE
 70
3
  9
$PDSIZE
 40
0.3125
  9
$HANDSEED
  5
3B5
  9
$TILEMODE
 70
1
  9
$MEASUREMENT
 70
0
  9
$INSUNITS
 70
1
  0
ENDSEC
  0
SECTION
  2
CLASSES
  0
CLASS
  1
ACDBDICTIONARYWDFLT
  2
AcDbDictionaryWithDefault
  3
AutoCAD 2000
 90
0
 91
1
280
0
281
0
  0
CLASS
  1
ACDBPLACEHOLDER
  2
AcDbPlaceHolder
  3
AutoCAD 2000
 90
0
 91
1
280
0
281
0
  0
CLASS
  1
LAYOUT
  2
AcDbLayout
  3
AutoCAD 2000
 90
0
 91
0
280
0
281
0
  0
ENDSEC
  0
SECTION
  2
TABLES
  0
TABLE
  2
VPORT
  5
8
100
AcDbSymbolTable
 70
2
  0
VPORT
  5
1F4
100
AcDbSymbolTableRecord
100
AcDbViewportTableRecord
  2
*ACTIVE
 70
0
 10
0.0
 20
0.0
 11
1.0
 21
1.0
 12
5.5
 22
4.25
 13
0.0
 23
0.0
 14
1.0
 24
1.0
 15
0.0
 25
0.0
 16
0.0
 26
0.0
 36
1.0
 17
0.0
 27
0.0
 37
0.0
 40
8.5
 41
1.2941176471
 42
50.0
 43
0.0
 44
0.0
 50
0.0
 51
0.0
 71
0
 72
100
 73
1
 74
1
 75
0
 76
0
 77
0
 78
0
  0
ENDTAB
  0
TABLE
  2
LTYPE
  5
5
100
AcDbSymbolTable
 70
6
  0
LTYPE
  5
14
100
AcDbSymbolTableRecord
100
AcDbLinetypeTableRecord
  2
BYBLOCK
 70
0
  3

 72
65
 73
0
 40
0.0
  0
LTYPE
  5
15
100
AcDbSymbolTableRecord
100
AcDbLinetypeTableRecord
  2
BYLAYER
 70
0
  3

 72
65
 73
0
 40
0.0
  0
LTYPE
  5
16
100
AcDbSymbolTableRecord
100
AcDbLinetypeTableRecord
  2
CONTINUOUS
 70
64
  3
Solid line
 72
65
 73
0
 40
0.0
  0
LTYPE
  5
1F5
100
AcDbSymbolTableRecord
100
AcDbLinetypeTableRecord
  2
CENTER
 70
64
  3
____ _ ____ _ ____ _ ____ _ ____ _ ____ _ ____
 72
65
 73
4
 40
0.6
 49
0.375
 74
0
 49
-0.075
 74
0
 49
0.075
 74
0
 49
-0.075
 74
0
  0
LTYPE
  5
1F6
100
AcDbSymbolTableRecord
100
AcDbLinetypeTableRecord
  2
HIDDEN
 70
64
  3
- - - - - - - - - - - - - - - - - - - -
 72
65
 73
2
 40
0.2
 49
0.1
 74
0
 49
-0.1
 74
0
  0
LTYPE
  5
1F7
100
AcDbSymbolTableRecord
100
AcDbLinetypeTableRecord
  2
PHANTOM
 70
64
  3
_____ _ _ _____ _ _ _____ _ _ _____
 72
65
 73
6
 40
0.8
 49
0.45
 74
0
 49
-0.05
 74
0
 49
0.1
 74
0
 49
-0.05
 74
0
 49
0.1
 74
0
 49
-0.05
 74
0
  0
LTYPE
  5
1F8
100
AcDbSymbolTableRecord
100
AcDbLinetypeTableRecord
  2
DOT
 70
64
  3
. . . . . . . . . . . . . . . . . . . .
 72
65
 73
2
 40
0.2
 49
0.1
 74
0
 49
-0.1
 74
0
  0
LTYPE
  5
1F9
100
AcDbSymbolTableRecord
100
AcDbLinetypeTableRecord
  2
DASHED
 70
64
  3
- - - - - - - - - - - - - - - - - - - -
 72
65
 73
2
 40
0.2
 49
0.1
 74
0
 49
-0.1
 74
0
  0
ENDTAB
  0
TABLE
  2
LAYER
  5
2
100
AcDbSymbolTable
 70
36
  0
LAYER
  5
10
100
AcDbSymbolTableRecord
100
AcDbLayerTableRecord
  2
0
 70
0
 62
7
  6
CONTINUOUS
370
-3
390
F
  0
LAYER
  5
1FA
100
AcDbSymbolTableRecord
100
AcDbLayerTableRecord
  2
DEFAULT_1
 70
0
 62
7
  6
CENTER
370
-3
390
F
  0
LAYER
  5
1FB
100
AcDbSymbolTableRecord
100
AcDbLayerTableRecord
  2
DEFAULT_2
 70
0
 62
8
  6
HIDDEN
370
-3
390
F
  0
LAYER
  5
1FC
100
AcDbSymbolTableRecord
100
AcDbLayerTableRecord
  2
DEFAULT_3
 70
0
 62
7
  6
PHANTOM
370
-3
390
F
  0
LAYER
  5
1FD
100
AcDbSymbolTableRecord
100
AcDbLayerTableRecord
  2
2-141_ASSY_DATUMS
 70
0
 62
7
  6
CONTINUOUS
370
-3
390
F
  0
LAYER
  5
1FE
100
AcDbSymbolTableRecord
100
AcDbLayerTableRecord
  2
2-142_ASSY_DATUMS
 70
0
 62
7
  6
CONTINUOUS
370
-3
390
F
  0
LAYER
  5
1FF
100
AcDbSymbolTableRecord
100
AcDbLayerTableRecord
  2
2-218_ASSY_PLANES
 70
0
 62
7
  6
CONTINUOUS
370
-3
390
F
  0
LAYER
  5
200
100
AcDbSymbolTableRecord
100
AcDbLayerTableRecord
  2
2-259_ASSY_PLANES
 70
0
 62
7
  6
CONTINUOUS
370
-3
390
F
  0
LAYER
  5
201
100
AcDbSymbolTableRecord
100
AcDbLayerTableRecord
  2
3-163C
 70
0
 62
7
  6
CONTINUOUS
370
-3
390
F
  0
LAYER
  5
202
100
AcDbSymbolTableRecord
100
AcDbLayerTableRecord
  2
3-163H
 70
0
 62
7
  6
CONTINUOUS
370
-3
390
F
  0
LAYER
  5
203
100
AcDbSymbolTableRecord
100
AcDbLayerTableRecord
  2
ALL_ASSEMBLY_MEMBERS
 70
0
 62
7
  6
CONTINUOUS
370
-3
390
F
  0
LAYER
  5
204
100
AcDbSymbolTableRecord
100
AcDbLayerTableRecord
  2
ALL_FEATURES
 70
0
 62
7
  6
CONTINUOUS
370
-3
390
F
  0
LAYER
  5
205
100
AcDbSymbolTableRecord
100
AcDbLayerTableRecord
  2
AXES_FEATURES
 70
0
 62
7
  6
CONTINUOUS
370
-3
390
F
  0
LAYER
  5
206
100
AcDbSymbolTableRecord
100
AcDbLayerTableRecord
  2
CHAMFER_FEATURES
 70
0
 62
7
  6
CONTINUOUS
370
-3
390
F
  0
LAYER
  5
207
100
AcDbSymbolTableRecord
100
AcDbLayerTableRecord
  2
CUT_FEATURES
 70
0
 62
7
  6
CONTINUOUS
370
-3
390
F
  0
LAYER
  5
208
100
AcDbSymbolTableRecord
100
AcDbLayerTableRecord
  2
DATUM_CURVES
 70
0
 62
7
  6
CONTINUOUS
370
-3
390
F
  0
LAYER
  5
209
100
AcDbSymbolTableRecord
100
AcDbLayerTableRecord
  2
DATUM_PLANES
 70
0
 62
7
  6
CONTINUOUS
370
-3
390
F
  0
LAYER
  5
20A
100
AcDbSymbolTableRecord
100
AcDbLayerTableRecord
  2
DATUM_SHAPER
 70
0
 62
7
  6
CONTINUOUS
370
-3
390
F
  0
LAYER
  5
20B
100
AcDbSymbolTableRecord
100
AcDbLayerTableRecord
  2
DEFAULT_COORDINATE_SYSTEM
 70
0
 62
7
  6
CONTINUOUS
370
-3
390
F
  0
LAYER
  5
20C
100
AcDbSymbolTableRecord
100
AcDbLayerTableRecord
  2
DEFAULT_DATUM_AXES
 70
0
 62
7
  6
CONTINUOUS
370
-3
390
F
  0
LAYER
  5
20D
100
AcDbSymbolTableRecord
100
AcDbLayerTableRecord
  2
DEFAULT_DATUM_CURVES
 70
0
 62
7
  6
CONTINUOUS
370
-3
390
F
  0
LAYER
  5
20E
100
AcDbSymbolTableRecord
100
AcDbLayerTableRecord
  2
DEFAULT_DATUM_PLANES
 70
0
 62
7
  6
CONTINUOUS
370
-3
390
F
  0
LAYER
  5
20F
100
AcDbSymbolTableRecord
100
AcDbLayerTableRecord
  2
DEFAULT_SURFACES
 70
0
 62
7
  6
CONTINUOUS
370
-3
390
F
  0
LAYER
  5
210
100
AcDbSymbolTableRecord
100
AcDbLayerTableRecord
  2
DIMENSIONS
 70
0
 62
7
  6
CONTINUOUS
370
-3
390
F
  0
LAYER
  5
211
100
AcDbSymbolTableRecord
100
AcDbLayerTableRecord
  2
LAY0001
 70
0
 62
7
  6
CONTINUOUS
370
-3
390
F
  0
LAYER
  5
212
100
AcDbSymbolTableRecord
100
AcDbLayerTableRecord
  2
PART_REFERENCE_DIMENSIONS
 70
0
 62
7
  6
CONTINUOUS
370
-3
390
F
  0
LAYER
  5
213
100
AcDbSymbolTableRecord
100
AcDbLayerTableRecord
  2
PLATED_SURAFCE
 70
0
 62
7
  6
CONTINUOUS
370
-3
390
F
  0
LAYER
  5
214
100
AcDbSymbolTableRecord
100
AcDbLayerTableRecord
  2
PLATED_SURFACE_AREA
 70
0
 62
7
  6
CONTINUOUS
370
-3
390
F
  0
LAYER
  5
215
100
AcDbSymbolTableRecord
100
AcDbLayerTableRecord
  2
PROTRUSION_FEATURES
 70
0
 62
7
  6
CONTINUOUS
370
-3
390
F
  0
LAYER
  5
216
100
AcDbSymbolTableRecord
100
AcDbLayerTableRecord
  2
QUILT
 70
0
 62
7
  6
CONTINUOUS
370
-3
390
F
  0
LAYER
  5
217
100
AcDbSymbolTableRecord
100
AcDbLayerTableRecord
  2
QUILTS
 70
0
 62
7
  6
CONTINUOUS
370
-3
390
F
  0
LAYER
  5
218
100
AcDbSymbolTableRecord
100
AcDbLayerTableRecord
  2
REFERENCE_DIMENSIONS
 70
0
 62
7
  6
CONTINUOUS
370
-3
390
F
  0
LAYER
  5
219
100
AcDbSymbolTableRecord
100
AcDbLayerTableRecord
  2
ROUND_FEATURES
 70
0
 62
7
  6
CONTINUOUS
370
-3
390
F
  0
LAYER
  5
21A
100
AcDbSymbolTableRecord
100
AcDbLayerTableRecord
  2
SHELL_FEATURES
 70
0
 62
7
  6
CONTINUOUS
370
-3
390
F
  0
LAYER
  5
21B
100
AcDbSymbolTableRecord
100
AcDbLayerTableRecord
  2
SIZE_REF
 70
0
 62
7
  6
CONTINUOUS
370
-3
390
F
  0
LAYER
  5
21C
100
AcDbSymbolTableRecord
100
AcDbLayerTableRecord
  2
WETTED_SURFACE_AREA
 70
0
 62
7
  6
CONTINUOUS
370
-3
390
F
  0
LAYER
  5
21D
100
AcDbSymbolTableRecord
100
AcDbLayerTableRecord
  2
XSEC_DATUMS
 70
0
 62
7
  6
CONTINUOUS
370
-3
390
F
  0
ENDTAB
  0
TABLE
  2
STYLE
  5
3
100
AcDbSymbolTable
 70
1
  0
STYLE
  5
11
100
AcDbSymbolTableRecord
100
AcDbTextStyleTableRecord
  2
STANDARD
 70
0
 40
0.0
 41
0.8
 50
0.0
 71
0
 42
0.2
  3
txt
  4

  0
STYLE
  5
21E
100
AcDbSymbolTableRecord
100
AcDbTextStyleTableRecord
  2
TEXTSTYLE_1
 70
0
 40
0.0
 41
0.8
 50
0.0
 71
0
 42
0.2
  3
gdt
  4

  0
ENDTAB
  0
TABLE
  2
VIEW
  5
6
100
AcDbSymbolTable
 70
0
  0
ENDTAB
  0
TABLE
  2
UCS
  5
7
100
AcDbSymbolTable
 70
0
  0
ENDTAB
  0
TABLE
  2
APPID
  5
9
100
AcDbSymbolTable
 70
1
  0
APPID
  5
21F
100
AcDbSymbolTableRecord
100
AcDbRegAppTableRecord
  2
ACAD
 70
0
  0
ENDTAB
  0
TABLE
  2
BLOCK_RECORD
  5
1
100
AcDbSymbolTable
 70
0
  0
BLOCK_RECORD
  5
220
100
AcDbSymbolTableRecord
100
AcDbBlockTableRecord
  2
*Model_Space
  0
BLOCK_RECORD
  5
221
100
AcDbSymbolTableRecord
100
AcDbBlockTableRecord
  2
*Paper_Space
  0
BLOCK_RECORD
  5
222
100
AcDbSymbolTableRecord
100
AcDbBlockTableRecord
  2
_FILLED
  0
ENDTAB
  0
TABLE
  2
DIMSTYLE
  5
A
100
AcDbSymbolTable
 70
1
100
AcDbDimStyleTable
 71
0
  0
DIMSTYLE
105
223
100
AcDbSymbolTableRecord
100
AcDbDimStyleTableRecord
  2
STANDARD
 70
0
  3

  4

 40
1.0
 41
0.1
 42
0.0625
 43
0.38
 44
0.125
 45
0.0
 46
0.0
 47
0.001
 48
0.001
140
0.08
141
0.09
142
0.0
143
25.4
144
1.0
145
0.0
146
1.0
147
0.09
 71
1.0
 72
0.0
 73
1
 74
1
 75
0
 76
0
 77
0
 78
4
 79
1
170
1
171
2
172
0
173
0
174
0
175
0
176
0
177
0
178
0
270
2
179
3
271
3
272
3
273
2
274
2
275
0
280
0
281
0
282
0
283
1
284
4
285
0
286
0
287
3
288
0
340
11
278
46
341
222
342
222
343
222
344
222
  0
ENDTAB
  0
ENDSEC
  0
SECTION
  2
BLOCKS
  0
BLOCK
  5
20
100
AcDbEntity
  8
0
100
AcDbBlockBegin
  2
*Model_Space
 70
0
 10
0.0
 20
0.0
 30
0.0
  3
*Model_Space
  1

  0
ENDBLK
  5
21
100
AcDbEntity
  8
0
100
AcDbBlockEnd
  0
BLOCK
  5
1C
100
AcDbEntity
  8
0
100
AcDbBlockBegin
  2
*Paper_Space
 70
0
 10
0.0
 20
0.0
 30
0.0
  3
*Paper_Space
  1

  0
ENDBLK
  5
1D
100
AcDbEntity
  8
0
100
AcDbBlockEnd
  0
BLOCK
  5
224
100
AcDbEntity
  8
0
100
AcDbBlockBegin
  2
_FILLED
 70
64
 10
0.0
 20
0.0
  3
_FILLED
  1

  0
SOLID
  5
225
100
AcDbEntity
  8
0
  6
BYBLOCK
 62
0
100
AcDbTrace
 10
0.0
 20
0.0
 11
-1.0
 21
0.2
 12
-1.0
 22
-0.2
 13
-1.0
 23
-0.2
  0
ENDBLK
  5
226
100
AcDbEntity
  8
0
  6
BYBLOCK
 62
0
100
AcDbBlockEnd
  0
ENDSEC
  0
SECTION
  2
ENTITIES
  0
MTEXT
  5
227
100
AcDbEntity
  8
0
100
AcDbMText
 62
2
  6
CONTINUOUS
  7
STANDARD
 71
3
 72
1
 10
2.986568323
 20
1.8755318323
 30
0.0
 11
1.0
 21
0.0
 31
0.0
 73
2
 44
0.9
  1
SCALE  .500
 40
0.08
 41
0.704
  0
LINE
  5
228
100
AcDbEntity
  8
0
100
AcDbLine
 62
7
  6
CONTINUOUS
 10
0.0
 20
0.0
 11
0.0
 21
8.5
  0
LINE
  5
229
100
AcDbEntity
  8
0
100
AcDbLine
 62
7
  6
CONTINUOUS
 10
0.0
 20
0.0
 11
11.0
 21
0.0
  0
LINE
  5
22A
100
AcDbEntity
  8
0
100
AcDbLine
 62
7
  6
CONTINUOUS
 10
0.0
 20
8.5
 11
11.0
 21
8.5
  0
LINE
  5
22B
100
AcDbEntity
  8
0
100
AcDbLine
 62
7
  6
CONTINUOUS
 10
11.0
 20
0.0
 11
11.0
 21
8.5
  0
LINE
  5
22C
100
AcDbEntity
  8
ALL_ASSEMBLY_MEMBERS
100
AcDbLine
 62
7
  6
CONTINUOUS
 10
2.7193446793
 20
4.4544279293
 11
2.7193446793
 21
4.6796947415
  0
LINE
  5
22D
100
AcDbEntity
  8
ALL_ASSEMBLY_MEMBERS
100
AcDbLine
 62
7
  6
CONTINUOUS
 10
2.7603893078
 20
4.4831676876
 11
2.7603893078
 21
4.6509549832
  0
LINE
  5
22E
100
AcDbEntity
  8
ALL_ASSEMBLY_MEMBERS
100
AcDbLine
 62
7
  6
CONTINUOUS
 10
2.7729779193
 20
4.4725158906
 11
2.7729779193
 21
4.6616067803
  0
LINE
  5
22F
100
AcDbEntity
  8
ALL_ASSEMBLY_MEMBERS
100
AcDbLine
 62
7
  6
CONTINUOUS
 10
2.7854094985
 20
4.4716026888
 11
2.7854094985
 21
4.662519982
  0
LINE
  5
230
100
AcDbEntity
  8
ALL_ASSEMBLY_MEMBERS
100
AcDbLine
 62
7
  6
CONTINUOUS
 10
2.9034779193
 20
4.3775461095
 11
2.9034779193
 21
4.5083980525
  0
LINE
  5
231
100
AcDbEntity
  8
ALL_ASSEMBLY_MEMBERS
100
AcDbLine
 62
7
  6
CONTINUOUS
 10
2.9034779193
 20
4.6257246183
 11
2.9034779193
 21
4.7565765613
  0
LINE
  5
232
100
AcDbEntity
  8
ALL_ASSEMBLY_MEMBERS
100
AcDbLine
 62
7
  6
CONTINUOUS
 10
2.9661449143
 20
4.6604003034
 11
2.9661449107
 21
4.651461857
  0
LINE
  5
233
100
AcDbEntity
  8
ALL_ASSEMBLY_MEMBERS
100
AcDbLine
 62
7
  6
CONTINUOUS
 10
2.9661449105
 20
4.4826608174
 11
2.9661449143
 21
4.4737223674
  0
LINE
  5
234
100
AcDbEntity
  8
ALL_ASSEMBLY_MEMBERS
100
AcDbLine
 62
7
  6
CONTINUOUS
 10
3.0992279193
 20
4.5245613354
 11
3.0992279193
 21
4.5365613354
  0
LINE
  5
235
100
AcDbEntity
  8
ALL_ASSEMBLY_MEMBERS
100
AcDbLine
 62
7
  6
CONTINUOUS
 10
3.0992279193
 20
4.6000613354
 11
3.0992279193
 21
4.6090613354
  0
LINE
  5
236
100
AcDbEntity
  8
ALL_ASSEMBLY_MEMBERS
100
AcDbLine
 62
7
  6
CONTINUOUS
 10
3.1074779193
 20
4.5479603485
 11
3.1074779193
 21
4.5886623223
  0
LINE
  5
237
100
AcDbEntity
  8
ALL_ASSEMBLY_MEMBERS
100
AcDbLine
 62
7
  6
CONTINUOUS
 10
3.1274779193
 20
4.5620613354
 11
3.1274779193
 21
4.5479603485
  0
LINE
  5
238
100
AcDbEntity
  8
ALL_ASSEMBLY_MEMBERS
100
AcDbLine
 62
7
  6
CONTINUOUS
 10
3.1279779193
 20
4.5888391476
 11
3.1279779193
 21
4.5768391476
  0
LINE
  5
239
100
AcDbEntity
  8
ALL_ASSEMBLY_MEMBERS
100
AcDbLine
 62
7
  6
CONTINUOUS
 10
3.1357279193
 20
4.6090613354
 11
3.1357279193
 21
4.6000613354
  0
LINE
  5
23A
100
AcDbEntity
  8
ALL_ASSEMBLY_MEMBERS
100
AcDbLine
 62
7
  6
CONTINUOUS
 10
3.1357279193
 20
4.5365613354
 11
3.1357279193
 21
4.5245613354
  0
LINE
  5
23B
100
AcDbEntity
  8
ALL_ASSEMBLY_MEMBERS
100
AcDbLine
 62
7
  6
CONTINUOUS
 10
3.1442279193
 20
4.5245613354
 11
3.1442279193
 21
4.5365613354
  0
LINE
  5
23C
100
AcDbEntity
  8
ALL_ASSEMBLY_MEMBERS
100
AcDbLine
 62
7
  6
CONTINUOUS
 10
3.1442279193
 20
4.6000613354
 11
3.1442279193
 21
4.6090613354
  0
LINE
  5
23D
100
AcDbEntity
  8
ALL_ASSEMBLY_MEMBERS
100
AcDbLine
 62
7
  6
CONTINUOUS
 10
3.1519779193
 20
4.5768391476
 11
3.1519779193
 21
4.5888391476
  0
LINE
  5
23E
100
AcDbEntity
  8
ALL_ASSEMBLY_MEMBERS
100
AcDbLine
 62
7
  6
CONTINUOUS
 10
3.1524779193
 20
4.5479603485
 11
3.1524779193
 21
4.5620613354
  0
LINE
  5
23F
100
AcDbEntity
  8
ALL_ASSEMBLY_MEMBERS
100
AcDbLine
 62
7
  6
CONTINUOUS
 10
3.1724779193
 20
4.5886623223
 11
3.1724779193
 21
4.5479603485
  0
LINE
  5
240
100
AcDbEntity
  8
ALL_ASSEMBLY_MEMBERS
100
AcDbLine
 62
7
  6
CONTINUOUS
 10
3.1807279193
 20
4.6090613354
 11
3.1807279193
 21
4.6000613354
  0
LINE
  5
241
100
AcDbEntity
  8
ALL_ASSEMBLY_MEMBERS
100
AcDbLine
 62
7
  6
CONTINUOUS
 10
3.1807279193
 20
4.5365613354
 11
3.1807279193
 21
4.5245613354
  0
LINE
  5
242
100
AcDbEntity
  8
ALL_ASSEMBLY_MEMBERS
100
AcDbLine
 62
7
  6
CONTINUOUS
 10
3.3007279193
 20
4.5245613354
 11
3.3007279193
 21
4.5365613354
  0
LINE
  5
243
100
AcDbEntity
  8
ALL_ASSEMBLY_MEMBERS
100
AcDbLine
 62
7
  6
CONTINUOUS
 10
3.3099779193
 20
4.5522914816
 11
3.3099779193
 21
4.5986113354
  0
LINE
  5
244
100
AcDbEntity
  8
ALL_ASSEMBLY_MEMBERS
100
AcDbLine
 62
7
  6
CONTINUOUS
 10
3.3279779193
 20
4.5986113354
 11
3.3279779193
 21
4.5522914816
  0
LINE
  5
245
100
AcDbEntity
  8
ALL_ASSEMBLY_MEMBERS
100
AcDbLine
 62
7
  6
CONTINUOUS
 10
3.3372279193
 20
4.5365613354
 11
3.3372279193
 21
4.5245613354
  0
LINE
  5
246
100
AcDbEntity
  8
ALL_ASSEMBLY_MEMBERS
100
AcDbLine
 62
7
  6
CONTINUOUS
 10
3.4973109242
 20
4.4737223674
 11
3.4973109277
 21
4.4824571708
  0
LINE
  5
247
100
AcDbEntity
  8
ALL_ASSEMBLY_MEMBERS
100
AcDbLine
 62
7
  6
CONTINUOUS
 10
3.497310928
 20
4.6514618534
 11
3.4973109242
 21
4.6604003034
  0
LINE
  5
248
100
AcDbEntity
  8
ALL_ASSEMBLY_MEMBERS
100
AcDbLine
 62
7
  6
CONTINUOUS
 10
3.2767279193
 20
4.5983039761
 11
3.2812279193
 21
4.6090613354
  0
LINE
  5
249
100
AcDbEntity
  8
ALL_ASSEMBLY_MEMBERS
100
AcDbLine
 62
7
  6
CONTINUOUS
 10
3.3156215671
 20
5.0383999469
 11
3.3443613253
 21
5.0794445754
  0
LINE
  5
24A
100
AcDbEntity
  8
ALL_ASSEMBLY_MEMBERS
100
AcDbLine
 62
7
  6
CONTINUOUS
 10
3.3156215671
 20
4.0957227239
 11
3.3443613253
 21
4.0546780954
  0
LINE
  5
24B
100
AcDbEntity
  8
ALL_ASSEMBLY_MEMBERS
100
AcDbLine
 62
7
  6
CONTINUOUS
 10
3.3567279193
 20
4.6090613354
 11
3.3612279193
 21
4.5983039761
  0
LINE
  5
24C
100
AcDbEntity
  8
ALL_ASSEMBLY_MEMBERS
100
AcDbLine
 62
7
  6
CONTINUOUS
 10
3.5599779193
 20
4.7565765613
 11
3.5599779193
 21
4.6257246183
  0
LINE
  5
24D
100
AcDbEntity
  8
ALL_ASSEMBLY_MEMBERS
100
AcDbLine
 62
7
  6
CONTINUOUS
 10
3.5599779193
 20
4.5083980525
 11
3.5599779193
 21
4.3775461095
  0
LINE
  5
24E
100
AcDbEntity
  8
ALL_ASSEMBLY_MEMBERS
100
AcDbLine
 62
7
  6
CONTINUOUS
 10
3.67804634
 20
4.662519982
 11
3.67804634
 21
4.4716026888
  0
LINE
  5
24F
100
AcDbEntity
  8
ALL_ASSEMBLY_MEMBERS
100
AcDbLine
 62
7
  6
CONTINUOUS
 10
3.6904779193
 20
4.6616067803
 11
3.6904779193
 21
4.4725158906
  0
LINE
  5
250
100
AcDbEntity
  8
ALL_ASSEMBLY_MEMBERS
100
AcDbLine
 62
7
  6
CONTINUOUS
 10
3.7030665307
 20
4.6509549832
 11
3.7030665307
 21
4.4831676876
  0
LINE
  5
251
100
AcDbEntity
  8
ALL_ASSEMBLY_MEMBERS
100
AcDbLine
 62
7
  6
CONTINUOUS
 10
3.7441111593
 20
4.6796947415
 11
3.7441111593
 21
4.4544279293
  0
LINE
  5
252
100
AcDbEntity
  8
ALL_ASSEMBLY_MEMBERS
100
AcDbLine
 62
7
  6
CONTINUOUS
 10
3.1478342715
 20
4.0957227239
 11
3.1190945132
 21
4.0546780954
  0
LINE
  5
253
100
AcDbEntity
  8
ALL_ASSEMBLY_MEMBERS
100
AcDbLine
 62
7
  6
CONTINUOUS
 10
3.3612279193
 20
4.5983039761
 11
3.3569852786
 21
4.5940613354
  0
LINE
  5
254
100
AcDbEntity
  8
ALL_ASSEMBLY_MEMBERS
100
AcDbLine
 62
7
  6
CONTINUOUS
 10
2.7193446793
 20
4.4544279293
 11
2.7603893078
 21
4.4831676876
  0
LINE
  5
255
100
AcDbEntity
  8
ALL_ASSEMBLY_MEMBERS
100
AcDbLine
 62
7
  6
CONTINUOUS
 10
2.9034779193
 20
4.7565765613
 11
3.1756584694
 21
4.9137200752
  0
LINE
  5
256
100
AcDbEntity
  8
ALL_ASSEMBLY_MEMBERS
100
AcDbLine
 62
7
  6
CONTINUOUS
 10
3.1756584694
 20
4.2204025957
 11
2.9034779193
 21
4.3775461095
  0
LINE
  5
257
100
AcDbEntity
  8
ALL_ASSEMBLY_MEMBERS
100
AcDbLine
 62
7
  6
CONTINUOUS
 10
2.7193446793
 20
4.6796947415
 11
2.7603893078
 21
4.6509549832
  0
LINE
  5
258
100
AcDbEntity
  8
ALL_ASSEMBLY_MEMBERS
100
AcDbLine
 62
7
  6
CONTINUOUS
 10
3.2809705599
 20
4.5940613354
 11
3.2767279193
 21
4.5983039761
  0
LINE
  5
259
100
AcDbEntity
  8
ALL_ASSEMBLY_MEMBERS
100
AcDbLine
 62
7
  6
CONTINUOUS
 10
3.1478342715
 20
5.0383999469
 11
3.1190945132
 21
5.0794445754
  0
LINE
  5
25A
100
AcDbEntity
  8
ALL_ASSEMBLY_MEMBERS
100
AcDbLine
 62
7
  6
CONTINUOUS
 10
3.7441111593
 20
4.6796947415
 11
3.7030665307
 21
4.6509549832
  0
LINE
  5
25B
100
AcDbEntity
  8
ALL_ASSEMBLY_MEMBERS
100
AcDbLine
 62
7
  6
CONTINUOUS
 10
3.7441111593
 20
4.4544279293
 11
3.7030665307
 21
4.4831676876
  0
LINE
  5
25C
100
AcDbEntity
  8
ALL_ASSEMBLY_MEMBERS
100
AcDbLine
 62
7
  6
CONTINUOUS
 10
3.5599779193
 20
4.3775461095
 11
3.2877973691
 21
4.2204025957
  0
LINE
  5
25D
100
AcDbEntity
  8
ALL_ASSEMBLY_MEMBERS
100
AcDbLine
 62
7
  6
CONTINUOUS
 10
3.2877973691
 20
4.9137200752
 11
3.5599779193
 21
4.7565765613
  0
LINE
  5
25E
100
AcDbEntity
  8
ALL_ASSEMBLY_MEMBERS
100
AcDbLine
 62
7
  6
CONTINUOUS
 10
3.1190945132
 20
4.0546780954
 11
3.3443613253
 21
4.0546780954
  0
LINE
  5
25F
100
AcDbEntity
  8
ALL_ASSEMBLY_MEMBERS
100
AcDbLine
 62
7
  6
CONTINUOUS
 10
7.0561045132
 20
4.0546780954
 11
7.2813713253
 21
4.0546780954
  0
LINE
  5
260
100
AcDbEntity
  8
ALL_ASSEMBLY_MEMBERS
100
AcDbLine
 62
7
  6
CONTINUOUS
 10
3.1478342715
 20
4.0957227239
 11
3.3156215671
 21
4.0957227239
  0
LINE
  5
261
100
AcDbEntity
  8
ALL_ASSEMBLY_MEMBERS
100
AcDbLine
 62
7
  6
CONTINUOUS
 10
7.0848442715
 20
4.0957227239
 11
7.2526315671
 21
4.0957227239
  0
LINE
  5
262
100
AcDbEntity
  8
ALL_ASSEMBLY_MEMBERS
100
AcDbLine
 62
7
  6
CONTINUOUS
 10
3.1371824744
 20
4.1083113354
 11
3.3262733641
 21
4.1083113354
  0
LINE
  5
263
100
AcDbEntity
  8
ALL_ASSEMBLY_MEMBERS
100
AcDbLine
 62
7
  6
CONTINUOUS
 10
7.0741924744
 20
4.1083113354
 11
7.2632833641
 21
4.1083113354
  0
LINE
  5
264
100
AcDbEntity
  8
ALL_ASSEMBLY_MEMBERS
100
AcDbLine
 62
7
  6
CONTINUOUS
 10
3.1362692726
 20
4.1207429147
 11
3.3271865659
 21
4.1207429147
  0
LINE
  5
265
100
AcDbEntity
  8
ALL_ASSEMBLY_MEMBERS
100
AcDbLine
 62
7
  6
CONTINUOUS
 10
7.0732792726
 20
4.1207429147
 11
7.2641965659
 21
4.1207429147
  0
LINE
  5
266
100
AcDbEntity
  8
ALL_ASSEMBLY_MEMBERS
100
AcDbLine
 62
7
  6
CONTINUOUS
 10
4.9917406703
 20
4.3109285446
 11
5.0262393877
 21
3.9622334647
  0
LINE
  5
267
100
AcDbEntity
  8
ALL_ASSEMBLY_MEMBERS
100
AcDbLine
 62
7
  6
CONTINUOUS
 10
3.1383889518
 20
4.30147833
 11
3.1473273981
 21
4.3014783264
  0
LINE
  5
268
100
AcDbEntity
  8
ALL_ASSEMBLY_MEMBERS
100
AcDbLine
 62
7
  6
CONTINUOUS
 10
7.253342074
 20
4.3014783299
 11
7.2620768867
 21
4.30147833
  0
LINE
  5
269
100
AcDbEntity
  8
ALL_ASSEMBLY_MEMBERS
100
AcDbLine
 62
7
  6
CONTINUOUS
 10
3.316332074
 20
4.3014783299
 11
3.3250668867
 21
4.30147833
  0
LINE
  5
26A
100
AcDbEntity
  8
ALL_ASSEMBLY_MEMBERS
100
AcDbLine
 62
7
  6
CONTINUOUS
 10
7.0753989518
 20
4.30147833
 11
7.0843373981
 21
4.3014783264
  0
LINE
  5
26B
100
AcDbEntity
  8
ALL_ASSEMBLY_MEMBERS
100
AcDbLine
 62
7
  6
CONTINUOUS
 10
5.0439829193
 20
4.9100549074
 11
5.0439829193
 21
4.3840569675
  0
LINE
  5
26C
100
AcDbEntity
  8
ALL_ASSEMBLY_MEMBERS
100
AcDbLine
 62
7
  6
CONTINUOUS
 10
7.3059879193
 20
4.5245613354
 11
7.2637379193
 21
4.5245613354
  0
LINE
  5
26D
100
AcDbEntity
  8
ALL_ASSEMBLY_MEMBERS
100
AcDbLine
 62
7
  6
CONTINUOUS
 10
7.2484770908
 20
4.5245613354
 11
7.1737379193
 21
4.5245613354
  0
LINE
  5
26E
100
AcDbEntity
  8
ALL_ASSEMBLY_MEMBERS
100
AcDbLine
 62
7
  6
CONTINUOUS
 10
3.3372279193
 20
4.5245613354
 11
3.3007279193
 21
4.5245613354
  0
LINE
  5
26F
100
AcDbEntity
  8
ALL_ASSEMBLY_MEMBERS
100
AcDbLine
 62
7
  6
CONTINUOUS
 10
3.1807279193
 20
4.5245613354
 11
3.1442279193
 21
4.5245613354
  0
LINE
  5
270
100
AcDbEntity
  8
ALL_ASSEMBLY_MEMBERS
100
AcDbLine
 62
7
  6
CONTINUOUS
 10
3.1357279193
 20
4.5245613354
 11
3.0992279193
 21
4.5245613354
  0
LINE
  5
271
100
AcDbEntity
  8
ALL_ASSEMBLY_MEMBERS
100
AcDbLine
 62
7
  6
CONTINUOUS
 10
7.2174879193
 20
4.5359466578
 11
7.2294879193
 21
4.5359466578
  0
LINE
  5
272
100
AcDbEntity
  8
ALL_ASSEMBLY_MEMBERS
100
AcDbLine
 62
7
  6
CONTINUOUS
 10
7.2898788594
 20
4.5365613354
 11
7.3038103133
 21
4.5365613354
  0
LINE
  5
273
100
AcDbEntity
  8
ALL_ASSEMBLY_MEMBERS
100
AcDbLine
 62
7
  6
CONTINUOUS
 10
3.1494779193
 20
4.5650613354
 11
3.1304779193
 21
4.5650613354
  0
LINE
  5
274
100
AcDbEntity
  8
ALL_ASSEMBLY_MEMBERS
100
AcDbLine
 62
7
  6
CONTINUOUS
 10
3.1309779193
 20
4.5738391476
 11
3.1489779193
 21
4.5738391476
  0
LINE
  5
275
100
AcDbEntity
  8
ALL_ASSEMBLY_MEMBERS
100
AcDbLine
 62
7
  6
CONTINUOUS
 10
5.3564829193
 20
4.9100563814
 11
5.3564829193
 21
4.3840565596
  0
LINE
  5
276
100
AcDbEntity
  8
ALL_ASSEMBLY_MEMBERS
100
AcDbLine
 62
7
  6
CONTINUOUS
 10
7.3038103133
 20
4.6000613354
 11
7.2898788594
 21
4.6000613354
  0
LINE
  5
277
100
AcDbEntity
  8
ALL_ASSEMBLY_MEMBERS
100
AcDbLine
 62
7
  6
CONTINUOUS
 10
3.3423792865
 20
4.6001113354
 11
3.3294779193
 21
4.6001113354
  0
LINE
  5
278
100
AcDbEntity
  8
ALL_ASSEMBLY_MEMBERS
100
AcDbLine
 62
7
  6
CONTINUOUS
 10
3.3084779193
 20
4.6001113354
 11
3.295576552
 21
4.6001113354
  0
LINE
  5
279
100
AcDbEntity
  8
ALL_ASSEMBLY_MEMBERS
100
AcDbLine
 62
7
  6
CONTINUOUS
 10
3.0992279193
 20
4.6090613354
 11
3.1357279193
 21
4.6090613354
  0
LINE
  5
27A
100
AcDbEntity
  8
ALL_ASSEMBLY_MEMBERS
100
AcDbLine
 62
7
  6
CONTINUOUS
 10
3.1442279193
 20
4.6090613354
 11
3.1807279193
 21
4.6090613354
  0
LINE
  5
27B
100
AcDbEntity
  8
ALL_ASSEMBLY_MEMBERS
100
AcDbLine
 62
7
  6
CONTINUOUS
 10
3.2812279193
 20
4.6090613354
 11
3.3567279193
 21
4.6090613354
  0
LINE
  5
27C
100
AcDbEntity
  8
ALL_ASSEMBLY_MEMBERS
100
AcDbLine
 62
7
  6
CONTINUOUS
 10
7.0612379193
 20
4.6090613354
 11
7.0702379193
 21
4.6090613354
  0
LINE
  5
27D
100
AcDbEntity
  8
ALL_ASSEMBLY_MEMBERS
100
AcDbLine
 62
7
  6
CONTINUOUS
 10
7.1737379193
 20
4.6090613354
 11
7.2132379193
 21
4.6090613354
  0
LINE
  5
27E
100
AcDbEntity
  8
ALL_ASSEMBLY_MEMBERS
100
AcDbLine
 62
7
  6
CONTINUOUS
 10
7.2637379193
 20
4.6090613354
 11
7.3059879193
 21
4.6090613354
  0
LINE
  5
27F
100
AcDbEntity
  8
ALL_ASSEMBLY_MEMBERS
100
AcDbLine
 62
7
  6
CONTINUOUS
 10
7.2668382188
 20
4.2009460331
 11
7.2245212692
 21
4.2122848256
  0
LINE
  5
280
100
AcDbEntity
  8
ALL_ASSEMBLY_MEMBERS
100
AcDbLine
 62
7
  6
CONTINUOUS
 10
7.1090370263
 20
4.2432287352
 11
6.9007229166
 21
4.2990463327
  0
LINE
  5
281
100
AcDbEntity
  8
ALL_ASSEMBLY_MEMBERS
100
AcDbLine
 62
7
  6
CONTINUOUS
 10
5.4087251682
 20
4.3109285446
 11
5.3742264508
 21
3.9622334647
  0
LINE
  5
282
100
AcDbEntity
  8
ALL_ASSEMBLY_MEMBERS
100
AcDbLine
 62
7
  6
CONTINUOUS
 10
3.3250668867
 20
4.8326443409
 11
3.3161284406
 21
4.8326443444
  0
LINE
  5
283
100
AcDbEntity
  8
ALL_ASSEMBLY_MEMBERS
100
AcDbLine
 62
7
  6
CONTINUOUS
 10
7.0843373911
 20
4.832644341
 11
7.0753989518
 21
4.8326443409
  0
LINE
  5
284
100
AcDbEntity
  8
ALL_ASSEMBLY_MEMBERS
100
AcDbLine
 62
7
  6
CONTINUOUS
 10
3.1473273911
 20
4.832644341
 11
3.1383889518
 21
4.8326443409
  0
LINE
  5
285
100
AcDbEntity
  8
ALL_ASSEMBLY_MEMBERS
100
AcDbLine
 62
7
  6
CONTINUOUS
 10
7.2620768867
 20
4.8326443409
 11
7.2531384406
 21
4.8326443444
  0
LINE
  5
286
100
AcDbEntity
  8
ALL_ASSEMBLY_MEMBERS
100
AcDbLine
 62
7
  6
CONTINUOUS
 10
7.0782379193
 20
4.5810313826
 11
7.0695835061
 21
4.5785613354
  0
LINE
  5
287
100
AcDbEntity
  8
ALL_ASSEMBLY_MEMBERS
100
AcDbLine
 62
7
  6
CONTINUOUS
 10
3.1362692726
 20
5.0133797561
 11
3.3271865659
 21
5.0133797561
  0
LINE
  5
288
100
AcDbEntity
  8
ALL_ASSEMBLY_MEMBERS
100
AcDbLine
 62
7
  6
CONTINUOUS
 10
7.0732792726
 20
5.0133797561
 11
7.2641965659
 21
5.0133797561
  0
LINE
  5
289
100
AcDbEntity
  8
ALL_ASSEMBLY_MEMBERS
100
AcDbLine
 62
7
  6
CONTINUOUS
 10
3.1371824744
 20
5.0258113354
 11
3.3262733641
 21
5.0258113354
  0
LINE
  5
28A
100
AcDbEntity
  8
ALL_ASSEMBLY_MEMBERS
100
AcDbLine
 62
7
  6
CONTINUOUS
 10
7.0741924744
 20
5.0258113354
 11
7.2632833641
 21
5.0258113354
  0
LINE
  5
28B
100
AcDbEntity
  8
ALL_ASSEMBLY_MEMBERS
100
AcDbLine
 62
7
  6
CONTINUOUS
 10
3.1478342715
 20
5.0383999469
 11
3.3156215671
 21
5.0383999469
  0
LINE
  5
28C
100
AcDbEntity
  8
ALL_ASSEMBLY_MEMBERS
100
AcDbLine
 62
7
  6
CONTINUOUS
 10
7.0848442715
 20
5.0383999469
 11
7.2526315671
 21
5.0383999469
  0
LINE
  5
28D
100
AcDbEntity
  8
ALL_ASSEMBLY_MEMBERS
100
AcDbLine
 62
7
  6
CONTINUOUS
 10
3.1190945132
 20
5.0794445754
 11
3.3443613253
 21
5.0794445754
  0
LINE
  5
28E
100
AcDbEntity
  8
ALL_ASSEMBLY_MEMBERS
100
AcDbLine
 62
7
  6
CONTINUOUS
 10
7.0561045132
 20
5.0794445754
 11
7.2813713253
 21
5.0794445754
  0
LINE
  5
28F
100
AcDbEntity
  8
ALL_ASSEMBLY_MEMBERS
100
AcDbLine
 62
7
  6
CONTINUOUS
 10
7.0699628635
 20
4.5550613354
 11
7.0782379193
 21
4.5515224865
  0
LINE
  5
290
100
AcDbEntity
  8
ALL_ASSEMBLY_MEMBERS
100
AcDbLine
 62
7
  6
CONTINUOUS
 10
6.6563546793
 20
4.4544279293
 11
6.6973993078
 21
4.4831676876
  0
LINE
  5
291
100
AcDbEntity
  8
ALL_ASSEMBLY_MEMBERS
100
AcDbLine
 62
7
  6
CONTINUOUS
 10
7.0706376197
 20
4.9331766377
 11
7.1129545693
 21
4.9218378452
  0
LINE
  5
292
100
AcDbEntity
  8
ALL_ASSEMBLY_MEMBERS
100
AcDbLine
 62
7
  6
CONTINUOUS
 10
7.2284388122
 20
4.8908939356
 11
7.4367529219
 21
4.8350763381
  0
LINE
  5
293
100
AcDbEntity
  8
ALL_ASSEMBLY_MEMBERS
100
AcDbLine
 62
7
  6
CONTINUOUS
 10
6.6563546793
 20
4.6796947415
 11
6.6973993078
 21
4.6509549832
  0
LINE
  5
294
100
AcDbEntity
  8
ALL_ASSEMBLY_MEMBERS
100
AcDbLine
 62
7
  6
CONTINUOUS
 10
6.802622617
 20
4.665161635
 11
7.0706376197
 21
4.9331766377
  0
LINE
  5
295
100
AcDbEntity
  8
ALL_ASSEMBLY_MEMBERS
100
AcDbLine
 62
7
  6
CONTINUOUS
 10
7.2489603876
 20
4.5541502972
 11
7.2532379193
 21
4.5515613354
  0
LINE
  5
296
100
AcDbEntity
  8
ALL_ASSEMBLY_MEMBERS
100
AcDbLine
 62
7
  6
CONTINUOUS
 10
6.6563546793
 20
4.4544279293
 11
6.6563546793
 21
4.6796947415
  0
LINE
  5
297
100
AcDbEntity
  8
ALL_ASSEMBLY_MEMBERS
100
AcDbLine
 62
7
  6
CONTINUOUS
 10
6.6973993078
 20
4.4831676876
 11
6.6973993078
 21
4.6509549832
  0
LINE
  5
298
100
AcDbEntity
  8
ALL_ASSEMBLY_MEMBERS
100
AcDbLine
 62
7
  6
CONTINUOUS
 10
6.7099879193
 20
4.4725158906
 11
6.7099879193
 21
4.6616067803
  0
LINE
  5
299
100
AcDbEntity
  8
ALL_ASSEMBLY_MEMBERS
100
AcDbLine
 62
7
  6
CONTINUOUS
 10
7.2526315671
 20
5.0383999469
 11
7.2813713253
 21
5.0794445754
  0
LINE
  5
29A
100
AcDbEntity
  8
ALL_ASSEMBLY_MEMBERS
100
AcDbLine
 62
7
  6
CONTINUOUS
 10
7.6811211593
 20
4.6796947415
 11
7.6400765307
 21
4.6509549832
  0
LINE
  5
29B
100
AcDbEntity
  8
ALL_ASSEMBLY_MEMBERS
100
AcDbLine
 62
7
  6
CONTINUOUS
 10
7.6811211593
 20
4.4544279293
 11
7.6400765307
 21
4.4831676876
  0
LINE
  5
29C
100
AcDbEntity
  8
ALL_ASSEMBLY_MEMBERS
100
AcDbLine
 62
7
  6
CONTINUOUS
 10
7.2526315671
 20
4.0957227239
 11
7.2813713253
 21
4.0546780954
  0
LINE
  5
29D
100
AcDbEntity
  8
ALL_ASSEMBLY_MEMBERS
100
AcDbLine
 62
7
  6
CONTINUOUS
 10
6.7224194985
 20
4.4716026888
 11
6.7224194985
 21
4.662519982
  0
LINE
  5
29E
100
AcDbEntity
  8
ALL_ASSEMBLY_MEMBERS
100
AcDbLine
 62
7
  6
CONTINUOUS
 10
6.9007229166
 20
4.2990463327
 11
6.8449053191
 21
4.5073604424
  0
LINE
  5
29F
100
AcDbEntity
  8
ALL_ASSEMBLY_MEMBERS
100
AcDbLine
 62
7
  6
CONTINUOUS
 10
6.8139614095
 20
4.6228446854
 11
6.802622617
 21
4.665161635
  0
LINE
  5
2A0
100
AcDbEntity
  8
ALL_ASSEMBLY_MEMBERS
100
AcDbLine
 62
7
  6
CONTINUOUS
 10
6.9031549143
 20
4.6604003034
 11
6.9031549107
 21
4.651461857
  0
LINE
  5
2A1
100
AcDbEntity
  8
ALL_ASSEMBLY_MEMBERS
100
AcDbLine
 62
7
  6
CONTINUOUS
 10
6.9031549105
 20
4.4826608174
 11
6.9031549143
 21
4.4737223674
  0
LINE
  5
2A2
100
AcDbEntity
  8
ALL_ASSEMBLY_MEMBERS
100
AcDbLine
 62
7
  6
CONTINUOUS
 10
7.2423205142
 20
4.5431797725
 11
7.2489603876
 21
4.5541502972
  0
LINE
  5
2A3
100
AcDbEntity
  8
ALL_ASSEMBLY_MEMBERS
100
AcDbLine
 62
7
  6
CONTINUOUS
 10
7.0848442715
 20
4.0957227239
 11
7.0561045132
 21
4.0546780954
  0
LINE
  5
2A4
100
AcDbEntity
  8
ALL_ASSEMBLY_MEMBERS
100
AcDbLine
 62
7
  6
CONTINUOUS
 10
7.5348532215
 20
4.4689610358
 11
7.2668382188
 21
4.2009460331
  0
LINE
  5
2A5
100
AcDbEntity
  8
ALL_ASSEMBLY_MEMBERS
100
AcDbLine
 62
7
  6
CONTINUOUS
 10
7.0848442715
 20
5.0383999469
 11
7.0561045132
 21
5.0794445754
  0
LINE
  5
2A6
100
AcDbEntity
  8
ALL_ASSEMBLY_MEMBERS
100
AcDbLine
 62
7
  6
CONTINUOUS
 10
7.0702379193
 20
4.6090613354
 11
7.0782379193
 21
4.5810313826
  0
LINE
  5
2A7
100
AcDbEntity
  8
ALL_ASSEMBLY_MEMBERS
100
AcDbLine
 62
7
  6
CONTINUOUS
 10
7.1737379193
 20
4.5245613354
 11
7.1737379193
 21
4.5365613354
  0
LINE
  5
2A8
100
AcDbEntity
  8
ALL_ASSEMBLY_MEMBERS
100
AcDbLine
 62
7
  6
CONTINUOUS
 10
7.1737379193
 20
4.6000613354
 11
7.1737379193
 21
4.6090613354
  0
LINE
  5
2A9
100
AcDbEntity
  8
ALL_ASSEMBLY_MEMBERS
100
AcDbLine
 62
7
  6
CONTINUOUS
 10
7.1844879193
 20
4.5509466578
 11
7.1844879193
 21
4.585676013
  0
LINE
  5
2AA
100
AcDbEntity
  8
ALL_ASSEMBLY_MEMBERS
100
AcDbLine
 62
7
  6
CONTINUOUS
 10
7.2024879193
 20
4.585676013
 11
7.2024879193
 21
4.5509466578
  0
LINE
  5
2AB
100
AcDbEntity
  8
ALL_ASSEMBLY_MEMBERS
100
AcDbLine
 62
7
  6
CONTINUOUS
 10
7.2132379193
 20
4.6090613354
 11
7.2132379193
 21
4.6000613354
  0
LINE
  5
2AC
100
AcDbEntity
  8
ALL_ASSEMBLY_MEMBERS
100
AcDbLine
 62
7
  6
CONTINUOUS
 10
7.2637379193
 20
4.5245613354
 11
7.2637379193
 21
4.5365613354
  0
LINE
  5
2AD
100
AcDbEntity
  8
ALL_ASSEMBLY_MEMBERS
100
AcDbLine
 62
7
  6
CONTINUOUS
 10
7.2637379193
 20
4.6000613354
 11
7.2637379193
 21
4.6090613354
  0
LINE
  5
2AE
100
AcDbEntity
  8
ALL_ASSEMBLY_MEMBERS
100
AcDbLine
 62
7
  6
CONTINUOUS
 10
7.2687379193
 20
4.5446235932
 11
7.2687379193
 21
4.5919990777
  0
LINE
  5
2AF
100
AcDbEntity
  8
ALL_ASSEMBLY_MEMBERS
100
AcDbLine
 62
7
  6
CONTINUOUS
 10
7.2532379193
 20
4.5515613354
 11
7.2484770908
 21
4.5245613354
  0
LINE
  5
2B0
100
AcDbEntity
  8
ALL_ASSEMBLY_MEMBERS
100
AcDbLine
 62
7
  6
CONTINUOUS
 10
7.2868788594
 20
4.5395613354
 11
7.2868788594
 21
4.5970613354
  0
LINE
  5
2B1
100
AcDbEntity
  8
ALL_ASSEMBLY_MEMBERS
100
AcDbLine
 62
7
  6
CONTINUOUS
 10
7.4343209242
 20
4.4737223674
 11
7.4343209277
 21
4.4824571708
  0
LINE
  5
2B2
100
AcDbEntity
  8
ALL_ASSEMBLY_MEMBERS
100
AcDbLine
 62
7
  6
CONTINUOUS
 10
7.434320928
 20
4.6514618534
 11
7.4343209242
 21
4.6604003034
  0
LINE
  5
2B3
100
AcDbEntity
  8
ALL_ASSEMBLY_MEMBERS
100
AcDbLine
 62
7
  6
CONTINUOUS
 10
7.4367529219
 20
4.8350763381
 11
7.4925705194
 21
4.6267622284
  0
LINE
  5
2B4
100
AcDbEntity
  8
ALL_ASSEMBLY_MEMBERS
100
AcDbLine
 62
7
  6
CONTINUOUS
 10
7.5235144291
 20
4.5112779854
 11
7.5348532215
 21
4.4689610358
  0
LINE
  5
2B5
100
AcDbEntity
  8
ALL_ASSEMBLY_MEMBERS
100
AcDbLine
 62
7
  6
CONTINUOUS
 10
7.61505634
 20
4.662519982
 11
7.61505634
 21
4.4716026888
  0
LINE
  5
2B6
100
AcDbEntity
  8
ALL_ASSEMBLY_MEMBERS
100
AcDbLine
 62
7
  6
CONTINUOUS
 10
7.6274879193
 20
4.6616067803
 11
7.6274879193
 21
4.4725158906
  0
LINE
  5
2B7
100
AcDbEntity
  8
ALL_ASSEMBLY_MEMBERS
100
AcDbLine
 62
7
  6
CONTINUOUS
 10
7.6400765307
 20
4.6509549832
 11
7.6400765307
 21
4.4831676876
  0
LINE
  5
2B8
100
AcDbEntity
  8
ALL_ASSEMBLY_MEMBERS
100
AcDbLine
 62
7
  6
CONTINUOUS
 10
7.6811211593
 20
4.6796947415
 11
7.6811211593
 21
4.4544279293
  0
ARC
  5
2B9
100
AcDbEntity
  8
ALL_ASSEMBLY_MEMBERS
100
AcDbCircle
 62
7
  6
CONTINUOUS
 10
5.2002255651
 20
2.1496404007
 40
1.8126179821
100
AcDbArc
 50
89.9997675382
 51
90.4502295648
  0
ARC
  5
2BA
100
AcDbEntity
  8
ALL_ASSEMBLY_MEMBERS
100
AcDbCircle
 62
7
  6
CONTINUOUS
 10
5.1230951269
 20
3.5169076342
 40
0.8100827682
100
AcDbArc
 50
94.9261787274
 51
95.3293855716
  0
ARC
  5
2BB
100
AcDbEntity
  8
ALL_ASSEMBLY_MEMBERS
100
AcDbCircle
 62
7
  6
CONTINUOUS
 10
5.1159957532
 20
3.5927883205
 40
0.7338706609
100
AcDbArc
 50
95.4194203761
 51
95.5472000454
  0
ARC
  5
2BC
100
AcDbEntity
  8
ALL_ASSEMBLY_MEMBERS
100
AcDbCircle
 62
7
  6
CONTINUOUS
 10
5.1114960885
 20
3.6387577344
 40
0.6876815639
100
AcDbArc
 50
95.544290131
 51
95.8391253564
  0
ARC
  5
2BD
100
AcDbEntity
  8
ALL_ASSEMBLY_MEMBERS
100
AcDbCircle
 62
7
  6
CONTINUOUS
 10
3.2317279193
 20
3.9758113354
 40
0.1375
100
AcDbArc
 50
145.0
 51
35.0
  0
ARC
  5
2BE
100
AcDbEntity
  8
ALL_ASSEMBLY_MEMBERS
100
AcDbCircle
 62
7
  6
CONTINUOUS
 10
3.5866658987
 20
4.3863113354
 40
0.125
100
AcDbArc
 50
43.0260516848
 51
135.6300714454
  0
ARC
  5
2BF
100
AcDbEntity
  8
ALL_ASSEMBLY_MEMBERS
100
AcDbCircle
 62
7
  6
CONTINUOUS
 10
2.8767899398
 20
4.3863113354
 40
0.125
100
AcDbArc
 50
44.3699285546
 51
136.9739483152
  0
ARC
  5
2C0
100
AcDbEntity
  8
ALL_ASSEMBLY_MEMBERS
100
AcDbCircle
 62
7
  6
CONTINUOUS
 10
3.0509779193
 20
4.2121233559
 40
0.125
100
AcDbArc
 50
313.0260516848
 51
45.6300714454
  0
ARC
  5
2C1
100
AcDbEntity
  8
ALL_ASSEMBLY_MEMBERS
100
AcDbCircle
 62
7
  6
CONTINUOUS
 10
3.4124779193
 20
4.2121233559
 40
0.125
100
AcDbArc
 50
134.3699285546
 51
226.9739483152
  0
ARC
  5
2C2
100
AcDbEntity
  8
ALL_ASSEMBLY_MEMBERS
100
AcDbCircle
 62
7
  6
CONTINUOUS
 10
3.3459779193
 20
4.5522914816
 40
0.018
100
AcDbArc
 50
180.0
 51
240.9147049393
  0
ARC
  5
2C3
100
AcDbEntity
  8
ALL_ASSEMBLY_MEMBERS
100
AcDbCircle
 62
7
  6
CONTINUOUS
 10
3.2919779193
 20
4.5522914816
 40
0.018
100
AcDbArc
 50
299.0852950607
 51
360.0
  0
ARC
  5
2C4
100
AcDbEntity
  8
ALL_ASSEMBLY_MEMBERS
100
AcDbCircle
 62
7
  6
CONTINUOUS
 10
3.4862309073
 20
4.4845613354
 40
0.0155
100
AcDbArc
 50
297.1688835585
 51
315.6300714454
  0
ARC
  5
2C5
100
AcDbEntity
  8
ALL_ASSEMBLY_MEMBERS
100
AcDbCircle
 62
7
  6
CONTINUOUS
 10
2.9772249312
 20
4.4845613354
 40
0.0155
100
AcDbArc
 50
224.3699285546
 51
243.1436647045
  0
ARC
  5
2C6
100
AcDbEntity
  8
ALL_ASSEMBLY_MEMBERS
100
AcDbCircle
 62
7
  6
CONTINUOUS
 10
3.1492279193
 20
4.3125583473
 40
0.0155
100
AcDbArc
 50
206.8563505138
 51
225.6300714454
  0
ARC
  5
2C7
100
AcDbEntity
  8
ALL_ASSEMBLY_MEMBERS
100
AcDbCircle
 62
7
  6
CONTINUOUS
 10
3.3142279193
 20
4.3125583473
 40
0.0155
100
AcDbArc
 50
314.3699285546
 51
332.8311494163
  0
ARC
  5
2C8
100
AcDbEntity
  8
ALL_ASSEMBLY_MEMBERS
100
AcDbCircle
 62
7
  6
CONTINUOUS
 10
3.1844779193
 20
4.5479603485
 40
0.012
100
AcDbArc
 50
180.0
 51
251.7900431357
  0
ARC
  5
2C9
100
AcDbEntity
  8
ALL_ASSEMBLY_MEMBERS
100
AcDbCircle
 62
7
  6
CONTINUOUS
 10
3.1404779193
 20
4.5479603485
 40
0.012
100
AcDbArc
 50
288.2099568643
 51
360.0
  0
ARC
  5
2CA
100
AcDbEntity
  8
ALL_ASSEMBLY_MEMBERS
100
AcDbCircle
 62
7
  6
CONTINUOUS
 10
3.1394779193
 20
4.5479603485
 40
0.012
100
AcDbArc
 50
180.0
 51
251.7900431357
  0
ARC
  5
2CB
100
AcDbEntity
  8
ALL_ASSEMBLY_MEMBERS
100
AcDbCircle
 62
7
  6
CONTINUOUS
 10
3.0954779193
 20
4.5479603485
 40
0.012
100
AcDbArc
 50
288.2099568643
 51
360.0
  0
ARC
  5
2CC
100
AcDbEntity
  8
ALL_ASSEMBLY_MEMBERS
100
AcDbCircle
 62
7
  6
CONTINUOUS
 10
3.6838946882
 20
4.4770613354
 40
0.008
100
AcDbArc
 50
223.0260516848
 51
325.3765489003
  0
ARC
  5
2CD
100
AcDbEntity
  8
ALL_ASSEMBLY_MEMBERS
100
AcDbCircle
 62
7
  6
CONTINUOUS
 10
3.6984779193
 20
4.4766144712
 40
0.008
100
AcDbArc
 50
55.0
 51
180.0
  0
ARC
  5
2CE
100
AcDbEntity
  8
ALL_ASSEMBLY_MEMBERS
100
AcDbCircle
 62
7
  6
CONTINUOUS
 10
2.7795611503
 20
4.4770613354
 40
0.008
100
AcDbArc
 50
214.6234510997
 51
316.9739483152
  0
ARC
  5
2CF
100
AcDbEntity
  8
ALL_ASSEMBLY_MEMBERS
100
AcDbCircle
 62
7
  6
CONTINUOUS
 10
2.7649779193
 20
4.4766144712
 40
0.008
100
AcDbArc
 50
0.0
 51
125.0
  0
ARC
  5
2D0
100
AcDbEntity
  8
ALL_ASSEMBLY_MEMBERS
100
AcDbCircle
 62
7
  6
CONTINUOUS
 10
3.1417279193
 20
4.1148945665
 40
0.008
100
AcDbArc
 50
133.0260516848
 51
235.3765489003
  0
ARC
  5
2D1
100
AcDbEntity
  8
ALL_ASSEMBLY_MEMBERS
100
AcDbCircle
 62
7
  6
CONTINUOUS
 10
3.3217279193
 20
4.1148945665
 40
0.008
100
AcDbArc
 50
304.6234510997
 51
46.9739483152
  0
ARC
  5
2D2
100
AcDbEntity
  8
ALL_ASSEMBLY_MEMBERS
100
AcDbCircle
 62
7
  6
CONTINUOUS
 10
3.1412810551
 20
4.1003113354
 40
0.008
100
AcDbArc
 50
325.0
 51
90.0
  0
ARC
  5
2D3
100
AcDbEntity
  8
ALL_ASSEMBLY_MEMBERS
100
AcDbCircle
 62
7
  6
CONTINUOUS
 10
3.3221747834
 20
4.1003113354
 40
0.008
100
AcDbArc
 50
90.0
 51
215.0
  0
ARC
  5
2D4
100
AcDbEntity
  8
ALL_ASSEMBLY_MEMBERS
100
AcDbCircle
 62
7
  6
CONTINUOUS
 10
3.1494779193
 20
4.5620613354
 40
0.003
100
AcDbArc
 50
0.0
 51
90.0
  0
ARC
  5
2D5
100
AcDbEntity
  8
ALL_ASSEMBLY_MEMBERS
100
AcDbCircle
 62
7
  6
CONTINUOUS
 10
3.1304779193
 20
4.5620613354
 40
0.003
100
AcDbArc
 50
90.0
 51
180.0
  0
ARC
  5
2D6
100
AcDbEntity
  8
ALL_ASSEMBLY_MEMBERS
100
AcDbCircle
 62
7
  6
CONTINUOUS
 10
2.6404779193
 20
4.5670613354
 40
0.1375
100
AcDbArc
 50
55.0
 51
305.0
  0
ARC
  5
2D7
100
AcDbEntity
  8
ALL_ASSEMBLY_MEMBERS
100
AcDbCircle
 62
7
  6
CONTINUOUS
 10
2.8767899398
 20
4.7478113354
 40
0.125
100
AcDbArc
 50
223.0260516848
 51
315.6300714454
  0
ARC
  5
2D8
100
AcDbEntity
  8
ALL_ASSEMBLY_MEMBERS
100
AcDbCircle
 62
7
  6
CONTINUOUS
 10
2.9772249312
 20
4.6495613354
 40
0.0155
100
AcDbArc
 50
116.8563471109
 51
135.6300714454
  0
ARC
  5
2D9
100
AcDbEntity
  8
ALL_ASSEMBLY_MEMBERS
100
AcDbCircle
 62
7
  6
CONTINUOUS
 10
3.1492279193
 20
4.8215643235
 40
0.0155
100
AcDbArc
 50
134.3699285546
 51
153.1436644189
  0
ARC
  5
2DA
100
AcDbEntity
  8
ALL_ASSEMBLY_MEMBERS
100
AcDbCircle
 62
7
  6
CONTINUOUS
 10
3.0954779193
 20
4.5886623223
 40
0.012
100
AcDbArc
 50
0.0
 51
71.7900431357
  0
ARC
  5
2DB
100
AcDbEntity
  8
ALL_ASSEMBLY_MEMBERS
100
AcDbCircle
 62
7
  6
CONTINUOUS
 10
3.1399779193
 20
4.5888391476
 40
0.012
100
AcDbArc
 50
110.7423799545
 51
180.0
  0
ARC
  5
2DC
100
AcDbEntity
  8
ALL_ASSEMBLY_MEMBERS
100
AcDbCircle
 62
7
  6
CONTINUOUS
 10
3.1399779193
 20
4.5888391476
 40
0.012
100
AcDbArc
 50
0.0
 51
69.2576200455
  0
ARC
  5
2DD
100
AcDbEntity
  8
ALL_ASSEMBLY_MEMBERS
100
AcDbCircle
 62
7
  6
CONTINUOUS
 10
3.1844779193
 20
4.5886623223
 40
0.012
100
AcDbArc
 50
108.2099568643
 51
180.0
  0
ARC
  5
2DE
100
AcDbEntity
  8
ALL_ASSEMBLY_MEMBERS
100
AcDbCircle
 62
7
  6
CONTINUOUS
 10
2.7795611503
 20
4.6570613354
 40
0.008
100
AcDbArc
 50
43.0260516848
 51
145.3765489003
  0
ARC
  5
2DF
100
AcDbEntity
  8
ALL_ASSEMBLY_MEMBERS
100
AcDbCircle
 62
7
  6
CONTINUOUS
 10
2.7649779193
 20
4.6575081996
 40
0.008
100
AcDbArc
 50
235.0
 51
360.0
  0
ARC
  5
2E0
100
AcDbEntity
  8
ALL_ASSEMBLY_MEMBERS
100
AcDbCircle
 62
7
  6
CONTINUOUS
 10
3.1309779193
 20
4.5768391476
 40
0.003
100
AcDbArc
 50
180.0
 51
270.0
  0
ARC
  5
2E1
100
AcDbEntity
  8
ALL_ASSEMBLY_MEMBERS
100
AcDbCircle
 62
7
  6
CONTINUOUS
 10
3.1489779193
 20
4.5768391476
 40
0.003
100
AcDbArc
 50
270.0
 51
360.0
  0
ARC
  5
2E2
100
AcDbEntity
  8
ALL_ASSEMBLY_MEMBERS
100
AcDbCircle
 62
7
  6
CONTINUOUS
 10
3.0509779193
 20
4.9219993149
 40
0.125
100
AcDbArc
 50
314.3699285546
 51
46.9739483152
  0
ARC
  5
2E3
100
AcDbEntity
  8
ALL_ASSEMBLY_MEMBERS
100
AcDbCircle
 62
7
  6
CONTINUOUS
 10
3.1417279193
 20
5.0192281043
 40
0.008
100
AcDbArc
 50
124.6234510997
 51
226.9739483152
  0
ARC
  5
2E4
100
AcDbEntity
  8
ALL_ASSEMBLY_MEMBERS
100
AcDbCircle
 62
7
  6
CONTINUOUS
 10
3.1412810551
 20
5.0338113354
 40
0.008
100
AcDbArc
 50
270.0
 51
35.0
  0
ARC
  5
2E5
100
AcDbEntity
  8
ALL_ASSEMBLY_MEMBERS
100
AcDbCircle
 62
7
  6
CONTINUOUS
 10
3.2317279193
 20
4.5670613354
 40
0.59
100
AcDbArc
 50
193.3645021647
 51
256.6348277137
  0
ARC
  5
2E6
100
AcDbEntity
  8
ALL_ASSEMBLY_MEMBERS
100
AcDbCircle
 62
7
  6
CONTINUOUS
 10
3.2317279193
 20
4.5670613354
 40
0.59
100
AcDbArc
 50
103.3651722863
 51
166.6354978353
  0
ARC
  5
2E7
100
AcDbEntity
  8
ALL_ASSEMBLY_MEMBERS
100
AcDbCircle
 62
7
  6
CONTINUOUS
 10
3.2317279193
 20
4.5670613354
 40
0.59
100
AcDbArc
 50
283.3651722863
 51
346.6354978353
  0
ARC
  5
2E8
100
AcDbEntity
  8
ALL_ASSEMBLY_MEMBERS
100
AcDbCircle
 62
7
  6
CONTINUOUS
 10
3.2317279193
 20
4.5670613354
 40
0.59
100
AcDbArc
 50
13.3645021647
 51
76.6348277137
  0
ARC
  5
2E9
100
AcDbEntity
  8
ALL_ASSEMBLY_MEMBERS
100
AcDbCircle
 62
7
  6
CONTINUOUS
 10
3.2317279193
 20
4.5670613354
 40
0.5000013369
100
AcDbArc
 50
11.2155259073
 51
78.7844740927
  0
ARC
  5
2EA
100
AcDbEntity
  8
ALL_ASSEMBLY_MEMBERS
100
AcDbCircle
 62
7
  6
CONTINUOUS
 10
3.2317279193
 20
4.5670613354
 40
0.5000013369
100
AcDbArc
 50
281.2155259073
 51
348.7844740927
  0
ARC
  5
2EB
100
AcDbEntity
  8
ALL_ASSEMBLY_MEMBERS
100
AcDbCircle
 62
7
  6
CONTINUOUS
 10
3.2317279193
 20
4.5670613354
 40
0.5000013369
100
AcDbArc
 50
191.2155259073
 51
258.7844740927
  0
ARC
  5
2EC
100
AcDbEntity
  8
ALL_ASSEMBLY_MEMBERS
100
AcDbCircle
 62
7
  6
CONTINUOUS
 10
3.2317279193
 20
4.5670613354
 40
0.5000013369
100
AcDbArc
 50
101.2155259073
 51
168.7844740927
  0
ARC
  5
2ED
100
AcDbEntity
  8
ALL_ASSEMBLY_MEMBERS
100
AcDbCircle
 62
7
  6
CONTINUOUS
 10
3.2317279193
 20
4.5670613354
 40
0.4065013369
100
AcDbArc
 50
279.1563815576
 51
350.8420549967
  0
ARC
  5
2EE
100
AcDbEntity
  8
ALL_ASSEMBLY_MEMBERS
100
AcDbCircle
 62
7
  6
CONTINUOUS
 10
3.2317279193
 20
4.5670613354
 40
0.4065013369
100
AcDbArc
 50
9.1579450033
 51
80.8436184424
  0
ARC
  5
2EF
100
AcDbEntity
  8
ALL_ASSEMBLY_MEMBERS
100
AcDbCircle
 62
7
  6
CONTINUOUS
 10
3.2317279193
 20
4.5670613354
 40
0.4065013369
100
AcDbArc
 50
189.1579450033
 51
260.8436184424
  0
ARC
  5
2F0
100
AcDbEntity
  8
ALL_ASSEMBLY_MEMBERS
100
AcDbCircle
 62
7
  6
CONTINUOUS
 10
3.2317279193
 20
4.5670613354
 40
0.4065013369
100
AcDbArc
 50
99.1563815576
 51
170.8420549967
  0
ARC
  5
2F1
100
AcDbEntity
  8
ALL_ASSEMBLY_MEMBERS
100
AcDbCircle
 62
7
  6
CONTINUOUS
 10
3.2317279193
 20
4.5670613354
 40
0.3705
100
AcDbArc
 50
278.7408227595
 51
327.6237776714
  0
ARC
  5
2F2
100
AcDbEntity
  8
ALL_ASSEMBLY_MEMBERS
100
AcDbCircle
 62
7
  6
CONTINUOUS
 10
3.2317279193
 20
4.5670613354
 40
0.3705
100
AcDbArc
 50
332.3762223286
 51
351.2576807926
  0
ARC
  5
2F3
100
AcDbEntity
  8
ALL_ASSEMBLY_MEMBERS
100
AcDbCircle
 62
7
  6
CONTINUOUS
 10
3.2317279193
 20
4.5670613354
 40
0.3705
100
AcDbArc
 50
8.7423192074
 51
27.6237776714
  0
ARC
  5
2F4
100
AcDbEntity
  8
ALL_ASSEMBLY_MEMBERS
100
AcDbCircle
 62
7
  6
CONTINUOUS
 10
3.2317279193
 20
4.5670613354
 40
0.3705
100
AcDbArc
 50
32.3762223286
 51
81.2591772405
  0
ARC
  5
2F5
100
AcDbEntity
  8
ALL_ASSEMBLY_MEMBERS
100
AcDbCircle
 62
7
  6
CONTINUOUS
 10
3.2317279193
 20
4.5670613354
 40
0.3705
100
AcDbArc
 50
212.3762223286
 51
261.2591772405
  0
ARC
  5
2F6
100
AcDbEntity
  8
ALL_ASSEMBLY_MEMBERS
100
AcDbCircle
 62
7
  6
CONTINUOUS
 10
3.2317279193
 20
4.5670613354
 40
0.3705
100
AcDbArc
 50
188.7423192074
 51
207.6237776714
  0
ARC
  5
2F7
100
AcDbEntity
  8
ALL_ASSEMBLY_MEMBERS
100
AcDbCircle
 62
7
  6
CONTINUOUS
 10
3.2317279193
 20
4.5670613354
 40
0.3705
100
AcDbArc
 50
152.3762223286
 51
171.2576807926
  0
ARC
  5
2F8
100
AcDbEntity
  8
ALL_ASSEMBLY_MEMBERS
100
AcDbCircle
 62
7
  6
CONTINUOUS
 10
3.2317279193
 20
4.5670613354
 40
0.3705
100
AcDbArc
 50
98.7408227595
 51
147.6237776714
  0
ARC
  5
2F9
100
AcDbEntity
  8
ALL_ASSEMBLY_MEMBERS
100
AcDbCircle
 62
7
  6
CONTINUOUS
 10
3.2317279193
 20
4.5670613354
 40
0.32575
100
AcDbArc
 50
10.7534680923
 51
79.2465319077
  0
ARC
  5
2FA
100
AcDbEntity
  8
ALL_ASSEMBLY_MEMBERS
100
AcDbCircle
 62
7
  6
CONTINUOUS
 10
3.2317279193
 20
4.5670613354
 40
0.32575
100
AcDbArc
 50
280.7534680923
 51
349.2465319077
  0
ARC
  5
2FB
100
AcDbEntity
  8
ALL_ASSEMBLY_MEMBERS
100
AcDbCircle
 62
7
  6
CONTINUOUS
 10
3.2317279193
 20
4.5670613354
 40
0.32575
100
AcDbArc
 50
190.7534680923
 51
259.2465319077
  0
ARC
  5
2FC
100
AcDbEntity
  8
ALL_ASSEMBLY_MEMBERS
100
AcDbCircle
 62
7
  6
CONTINUOUS
 10
3.2317279193
 20
4.5670613354
 40
0.32575
100
AcDbArc
 50
100.7534680923
 51
169.2465319077
  0
ARC
  5
2FD
100
AcDbEntity
  8
ALL_ASSEMBLY_MEMBERS
100
AcDbCircle
 62
7
  6
CONTINUOUS
 10
3.2317279193
 20
4.5670613354
 40
0.3073169971
100
AcDbArc
 50
282.9347710886
 51
347.0652289121
  0
ARC
  5
2FE
100
AcDbEntity
  8
ALL_ASSEMBLY_MEMBERS
100
AcDbCircle
 62
7
  6
CONTINUOUS
 10
3.2317279193
 20
4.5670613354
 40
0.3073169971
100
AcDbArc
 50
12.9347710879
 51
77.0652289114
  0
ARC
  5
2FF
100
AcDbEntity
  8
ALL_ASSEMBLY_MEMBERS
100
AcDbCircle
 62
7
  6
CONTINUOUS
 10
3.2317279193
 20
4.5670613354
 40
0.3073169971
100
AcDbArc
 50
192.9347710879
 51
257.0652289114
  0
ARC
  5
300
100
AcDbEntity
  8
ALL_ASSEMBLY_MEMBERS
100
AcDbCircle
 62
7
  6
CONTINUOUS
 10
3.2317279193
 20
4.5670613354
 40
0.3073169971
100
AcDbArc
 50
102.9347710886
 51
167.0652289121
  0
CIRCLE
  5
301
100
AcDbEntity
  8
ALL_ASSEMBLY_MEMBERS
100
AcDbCircle
 62
7
  6
CONTINUOUS
 10
3.2317279193
 20
4.5670613354
 40
0.27875
  0
CIRCLE
  5
302
100
AcDbEntity
  8
ALL_ASSEMBLY_MEMBERS
100
AcDbCircle
 62
7
  6
CONTINUOUS
 10
3.2317279193
 20
4.5670613354
 40
0.26375
  0
CIRCLE
  5
303
100
AcDbEntity
  8
ALL_ASSEMBLY_MEMBERS
100
AcDbCircle
 62
7
  6
CONTINUOUS
 10
3.2317279193
 20
4.5670613354
 40
0.2566170761
  0
CIRCLE
  5
304
100
AcDbEntity
  8
ALL_ASSEMBLY_MEMBERS
100
AcDbCircle
 62
7
  6
CONTINUOUS
 10
3.2317279193
 20
4.5670613354
 40
0.2272549781
  0
CIRCLE
  5
305
100
AcDbEntity
  8
ALL_ASSEMBLY_MEMBERS
100
AcDbCircle
 62
7
  6
CONTINUOUS
 10
3.2317279193
 20
4.5670613354
 40
0.21375
  0
CIRCLE
  5
306
100
AcDbEntity
  8
ALL_ASSEMBLY_MEMBERS
100
AcDbCircle
 62
7
  6
CONTINUOUS
 10
3.2317279193
 20
4.5670613354
 40
0.20875
  0
CIRCLE
  5
307
100
AcDbEntity
  8
ALL_ASSEMBLY_MEMBERS
100
AcDbCircle
 62
7
  6
CONTINUOUS
 10
3.2317279193
 20
4.5670613354
 40
0.1975723198
  0
ARC
  5
308
100
AcDbEntity
  8
ALL_ASSEMBLY_MEMBERS
100
AcDbCircle
 62
7
  6
CONTINUOUS
 10
3.295576552
 20
4.5794553434
 40
0.0206559921
100
AcDbArc
 50
90.0
 51
135.0
  0
ARC
  5
309
100
AcDbEntity
  8
ALL_ASSEMBLY_MEMBERS
100
AcDbCircle
 62
7
  6
CONTINUOUS
 10
3.3423792865
 20
4.5794553434
 40
0.0206559921
100
AcDbArc
 50
45.0
 51
90.0
  0
ARC
  5
30A
100
AcDbEntity
  8
ALL_ASSEMBLY_MEMBERS
100
AcDbCircle
 62
7
  6
CONTINUOUS
 10
3.3084779193
 20
4.5986113354
 40
0.0015
100
AcDbArc
 50
0.0
 51
90.0
  0
ARC
  5
30B
100
AcDbEntity
  8
ALL_ASSEMBLY_MEMBERS
100
AcDbCircle
 62
7
  6
CONTINUOUS
 10
3.3294779193
 20
4.5986113354
 40
0.0015
100
AcDbArc
 50
90.0
 51
180.0
  0
ARC
  5
30C
100
AcDbEntity
  8
ALL_ASSEMBLY_MEMBERS
100
AcDbCircle
 62
7
  6
CONTINUOUS
 10
3.4862309073
 20
4.6495613354
 40
0.0155
100
AcDbArc
 50
44.3699285546
 51
63.1436650029
  0
ARC
  5
30D
100
AcDbEntity
  8
ALL_ASSEMBLY_MEMBERS
100
AcDbCircle
 62
7
  6
CONTINUOUS
 10
3.3142279193
 20
4.8215643235
 40
0.0155
100
AcDbArc
 50
26.8563510653
 51
45.6300714454
  0
ARC
  5
30E
100
AcDbEntity
  8
ALL_ASSEMBLY_MEMBERS
100
AcDbCircle
 62
7
  6
CONTINUOUS
 10
3.8229779193
 20
4.5670613354
 40
0.1375
100
AcDbArc
 50
235.0
 51
125.0
  0
ARC
  5
30F
100
AcDbEntity
  8
ALL_ASSEMBLY_MEMBERS
100
AcDbCircle
 62
7
  6
CONTINUOUS
 10
3.6838946882
 20
4.6570613354
 40
0.008
100
AcDbArc
 50
34.6234510997
 51
136.9739483152
  0
ARC
  5
310
100
AcDbEntity
  8
ALL_ASSEMBLY_MEMBERS
100
AcDbCircle
 62
7
  6
CONTINUOUS
 10
3.6984779193
 20
4.6575081996
 40
0.008
100
AcDbArc
 50
180.0
 51
305.0
  0
ARC
  5
311
100
AcDbEntity
  8
ALL_ASSEMBLY_MEMBERS
100
AcDbCircle
 62
7
  6
CONTINUOUS
 10
3.5866658987
 20
4.7478113354
 40
0.125
100
AcDbArc
 50
224.3699285546
 51
316.9739483152
  0
ARC
  5
312
100
AcDbEntity
  8
ALL_ASSEMBLY_MEMBERS
100
AcDbCircle
 62
7
  6
CONTINUOUS
 10
3.2317279193
 20
5.1583113354
 40
0.1375
100
AcDbArc
 50
325.0
 51
215.0
  0
ARC
  5
313
100
AcDbEntity
  8
ALL_ASSEMBLY_MEMBERS
100
AcDbCircle
 62
7
  6
CONTINUOUS
 10
3.4124779193
 20
4.9219993149
 40
0.125
100
AcDbArc
 50
133.0260516848
 51
225.6300714454
  0
ARC
  5
314
100
AcDbEntity
  8
ALL_ASSEMBLY_MEMBERS
100
AcDbCircle
 62
7
  6
CONTINUOUS
 10
3.3217279193
 20
5.0192281043
 40
0.008
100
AcDbArc
 50
313.0260516848
 51
55.3765489003
  0
ARC
  5
315
100
AcDbEntity
  8
ALL_ASSEMBLY_MEMBERS
100
AcDbCircle
 62
7
  6
CONTINUOUS
 10
3.3221747834
 20
5.0338113354
 40
0.008
100
AcDbArc
 50
145.0
 51
270.0
  0
ARC
  5
316
100
AcDbEntity
  8
ALL_ASSEMBLY_MEMBERS
100
AcDbCircle
 62
7
  6
CONTINUOUS
 10
5.0140967423
 20
4.3620266528
 40
0.0577001662
100
AcDbArc
 50
246.4017232062
 51
247.4391923503
  0
ARC
  5
317
100
AcDbEntity
  8
ALL_ASSEMBLY_MEMBERS
100
AcDbCircle
 62
7
  6
CONTINUOUS
 10
5.2002402735
 20
2.1496404006
 40
1.8126179822
100
AcDbArc
 50
89.5497704352
 51
90.0002324618
  0
ARC
  5
318
100
AcDbEntity
  8
ALL_ASSEMBLY_MEMBERS
100
AcDbCircle
 62
7
  6
CONTINUOUS
 10
5.277068095
 20
3.5136114977
 40
0.8133927635
100
AcDbArc
 50
84.6709554254
 51
85.1058821691
  0
ARC
  5
319
100
AcDbEntity
  8
ALL_ASSEMBLY_MEMBERS
100
AcDbCircle
 62
7
  6
CONTINUOUS
 10
5.2851818383
 20
3.6003430344
 40
0.7262825364
100
AcDbArc
 50
84.3264639099
 51
84.6728056377
  0
ARC
  5
31A
100
AcDbEntity
  8
ALL_ASSEMBLY_MEMBERS
100
AcDbCircle
 62
7
  6
CONTINUOUS
 10
5.2900628517
 20
3.6495312946
 40
0.6768526952
100
AcDbArc
 50
84.1601445363
 51
84.3259851849
  0
ARC
  5
31B
100
AcDbEntity
  8
ALL_ASSEMBLY_MEMBERS
100
AcDbCircle
 62
7
  6
CONTINUOUS
 10
5.3861021412
 20
4.3628047129
 40
0.0585206852
100
AcDbArc
 50
292.5113521651
 51
293.5556787808
  0
ARC
  5
31C
100
AcDbEntity
  8
ALL_FEATURES
100
AcDbCircle
 62
7
  6
CONTINUOUS
 10
5.2002329193
 20
4.5670613354
 40
0.59
100
AcDbArc
 50
287.5818020922
 51
252.4181979078
  0
ARC
  5
31D
100
AcDbEntity
  8
ALL_FEATURES
100
AcDbCircle
 62
7
  6
CONTINUOUS
 10
5.2002329193
 20
4.5670613354
 40
0.575
100
AcDbArc
 50
288.2227684446
 51
251.7772315554
  0
ARC
  5
31E
100
AcDbEntity
  8
ALL_FEATURES
100
AcDbCircle
 62
7
  6
CONTINUOUS
 10
5.2002329193
 20
4.5670613354
 40
0.5655
100
AcDbArc
 50
288.651090832
 51
251.348909168
  0
ARC
  5
31F
100
AcDbEntity
  8
ALL_FEATURES
100
AcDbCircle
 62
7
  6
CONTINUOUS
 10
5.2002329193
 20
4.5670613354
 40
0.441
100
AcDbArc
 50
296.202731331
 51
71.9125266733
  0
ARC
  5
320
100
AcDbEntity
  8
ALL_FEATURES
100
AcDbCircle
 62
7
  6
CONTINUOUS
 10
5.2002329193
 20
4.5670613354
 40
0.441
100
AcDbArc
 50
108.0874733267
 51
243.797268669
  0
ARC
  5
321
100
AcDbEntity
  8
ALL_FEATURES
100
AcDbCircle
 62
7
  6
CONTINUOUS
 10
5.2002329193
 20
4.5670613354
 40
0.4165
100
AcDbArc
 50
298.3209388048
 51
68.9350464563
  0
ARC
  5
322
100
AcDbEntity
  8
ALL_FEATURES
100
AcDbCircle
 62
7
  6
CONTINUOUS
 10
5.2002329193
 20
4.5670613354
 40
0.4165
100
AcDbArc
 50
111.0649535437
 51
241.6790611952
  0
ARC
  5
323
100
AcDbEntity
  8
ALL_FEATURES
100
AcDbCircle
 62
7
  6
CONTINUOUS
 10
5.2002329193
 20
4.5670613354
 40
0.2655
100
AcDbArc
 50
315.0951987628
 51
53.9399773265
  0
ARC
  5
324
100
AcDbEntity
  8
ALL_FEATURES
100
AcDbCircle
 62
7
  6
CONTINUOUS
 10
5.2002329193
 20
4.5670613354
 40
0.2655
100
AcDbArc
 50
126.0600226735
 51
224.9054972198
  0
ARC
  5
325
100
AcDbEntity
  8
ALL_ASSEMBLY_MEMBERS
100
AcDbCircle
 62
7
  6
CONTINUOUS
 10
5.2002329193
 20
4.5670613354
 40
0.23425
100
AcDbArc
 50
131.8508806577
 51
228.1491193423
  0
ARC
  5
326
100
AcDbEntity
  8
ALL_ASSEMBLY_MEMBERS
100
AcDbCircle
 62
7
  6
CONTINUOUS
 10
5.2002329193
 20
4.5670613354
 40
0.23425
100
AcDbArc
 50
311.8508806577
 51
48.1491193423
  0
ARC
  5
327
100
AcDbEntity
  8
ALL_ASSEMBLY_MEMBERS
100
AcDbCircle
 62
7
  6
CONTINUOUS
 10
5.2002329193
 20
4.5670613354
 40
0.20275
100
AcDbArc
 50
140.4309317992
 51
219.5690682008
  0
ARC
  5
328
100
AcDbEntity
  8
ALL_ASSEMBLY_MEMBERS
100
AcDbCircle
 62
7
  6
CONTINUOUS
 10
5.2002329193
 20
4.5670613354
 40
0.20275
100
AcDbArc
 50
320.4309317992
 51
39.5690682008
  0
ARC
  5
329
100
AcDbEntity
  8
ALL_ASSEMBLY_MEMBERS
100
AcDbCircle
 62
7
  6
CONTINUOUS
 10
5.2002329193
 20
4.5670613354
 40
0.17
100
AcDbArc
 50
336.8359686455
 51
23.1640313545
  0
ARC
  5
32A
100
AcDbEntity
  8
ALL_ASSEMBLY_MEMBERS
100
AcDbCircle
 62
7
  6
CONTINUOUS
 10
5.2002329193
 20
4.5670613354
 40
0.17
100
AcDbArc
 50
156.8359686455
 51
203.1640313545
  0
ARC
  5
32B
100
AcDbEntity
  8
ALL_ASSEMBLY_MEMBERS
100
AcDbCircle
 62
7
  6
CONTINUOUS
 10
5.2002329193
 20
4.5670613354
 40
0.1625
100
AcDbArc
 50
344.1338342343
 51
15.8661657657
  0
ARC
  5
32C
100
AcDbEntity
  8
ALL_ASSEMBLY_MEMBERS
100
AcDbCircle
 62
7
  6
CONTINUOUS
 10
5.2002329193
 20
4.5670613354
 40
0.1625
100
AcDbArc
 50
164.1338342343
 51
195.8661657657
  0
ARC
  5
32D
100
AcDbEntity
  8
ALL_ASSEMBLY_MEMBERS
100
AcDbCircle
 62
7
  6
CONTINUOUS
 10
5.2002329193
 20
4.5670613354
 40
0.16
100
AcDbArc
 50
167.6659018965
 51
192.3340981035
  0
ARC
  5
32E
100
AcDbEntity
  8
ALL_ASSEMBLY_MEMBERS
100
AcDbCircle
 62
7
  6
CONTINUOUS
 10
5.2002329193
 20
4.5670613354
 40
0.16
100
AcDbArc
 50
347.6659018965
 51
12.3340981035
  0
ARC
  5
32F
100
AcDbEntity
  8
ALL_ASSEMBLY_MEMBERS
100
AcDbCircle
 62
7
  6
CONTINUOUS
 10
5.2002329193
 20
4.5670613354
 40
0.1585249984
100
AcDbArc
 50
170.3031386663
 51
189.6177246807
  0
ARC
  5
330
100
AcDbEntity
  8
ALL_ASSEMBLY_MEMBERS
100
AcDbCircle
 62
7
  6
CONTINUOUS
 10
5.2002329193
 20
4.9110613354
 40
0.15625
100
AcDbArc
 50
0.0
 51
180.0
  0
ARC
  5
331
100
AcDbEntity
  8
ALL_ASSEMBLY_MEMBERS
100
AcDbCircle
 62
7
  6
CONTINUOUS
 10
7.1687379193
 20
3.9758113354
 40
0.1375
100
AcDbArc
 50
145.0
 51
35.0
  0
ARC
  5
332
100
AcDbEntity
  8
ALL_ASSEMBLY_MEMBERS
100
AcDbCircle
 62
7
  6
CONTINUOUS
 10
6.8137999398
 20
4.3863113354
 40
0.125
100
AcDbArc
 50
44.3699285546
 51
136.9739483152
  0
ARC
  5
333
100
AcDbEntity
  8
ALL_ASSEMBLY_MEMBERS
100
AcDbCircle
 62
7
  6
CONTINUOUS
 10
7.5236758987
 20
4.3863113354
 40
0.125
100
AcDbArc
 50
43.0260516848
 51
135.6300714454
  0
ARC
  5
334
100
AcDbEntity
  8
ALL_ASSEMBLY_MEMBERS
100
AcDbCircle
 62
7
  6
CONTINUOUS
 10
6.9879879193
 20
4.2121233559
 40
0.125
100
AcDbArc
 50
313.0260516848
 51
45.6300714454
  0
ARC
  5
335
100
AcDbEntity
  8
ALL_ASSEMBLY_MEMBERS
100
AcDbCircle
 62
7
  6
CONTINUOUS
 10
7.3494879193
 20
4.2121233559
 40
0.125
100
AcDbArc
 50
134.3699285546
 51
226.9739483152
  0
ARC
  5
336
100
AcDbEntity
  8
ALL_ASSEMBLY_MEMBERS
100
AcDbCircle
 62
7
  6
CONTINUOUS
 10
7.0389506177
 20
4.5485613354
 40
0.0605
100
AcDbArc
 50
72.3178031512
 51
100.863388708
  0
ARC
  5
337
100
AcDbEntity
  8
ALL_ASSEMBLY_MEMBERS
100
AcDbCircle
 62
7
  6
CONTINUOUS
 10
7.1457114536
 20
4.5670131692
 40
0.0569735547
100
AcDbArc
 50
179.9515613656
 51
187.0787597455
  0
ARC
  5
338
100
AcDbEntity
  8
ALL_ASSEMBLY_MEMBERS
100
AcDbCircle
 62
7
  6
CONTINUOUS
 10
7.3059879193
 20
4.5668113354
 40
0.04225
100
AcDbArc
 50
270.0
 51
90.0
  0
ARC
  5
339
100
AcDbEntity
  8
ALL_ASSEMBLY_MEMBERS
100
AcDbCircle
 62
7
  6
CONTINUOUS
 10
7.0400370584
 20
4.5605613354
 40
0.024
100
AcDbArc
 50
201.6000344342
 51
256.3709027892
  0
ARC
  5
33A
100
AcDbEntity
  8
ALL_ASSEMBLY_MEMBERS
100
AcDbCircle
 62
7
  6
CONTINUOUS
 10
7.3038103133
 20
4.5605613354
 40
0.024
100
AcDbArc
 50
270.0
 51
341.5590861804
  0
ARC
  5
33B
100
AcDbEntity
  8
ALL_ASSEMBLY_MEMBERS
100
AcDbCircle
 62
7
  6
CONTINUOUS
 10
6.9142349312
 20
4.4845613354
 40
0.0155
100
AcDbArc
 50
224.3699285546
 51
243.1436647045
  0
ARC
  5
33C
100
AcDbEntity
  8
ALL_ASSEMBLY_MEMBERS
100
AcDbCircle
 62
7
  6
CONTINUOUS
 10
7.4232409073
 20
4.4845613354
 40
0.0155
100
AcDbArc
 50
297.1688835585
 51
315.6300714454
  0
ARC
  5
33D
100
AcDbEntity
  8
ALL_ASSEMBLY_MEMBERS
100
AcDbCircle
 62
7
  6
CONTINUOUS
 10
7.0862379193
 20
4.3125583473
 40
0.0155
100
AcDbArc
 50
206.8563505138
 51
225.6300714454
  0
ARC
  5
33E
100
AcDbEntity
  8
ALL_ASSEMBLY_MEMBERS
100
AcDbCircle
 62
7
  6
CONTINUOUS
 10
7.2512379193
 20
4.3125583473
 40
0.0155
100
AcDbArc
 50
314.3699285546
 51
332.8311494163
  0
ARC
  5
33F
100
AcDbEntity
  8
ALL_ASSEMBLY_MEMBERS
100
AcDbCircle
 62
7
  6
CONTINUOUS
 10
7.1694879193
 20
4.5509466578
 40
0.015
100
AcDbArc
 50
286.4592496283
 51
360.0
  0
ARC
  5
340
100
AcDbEntity
  8
ALL_ASSEMBLY_MEMBERS
100
AcDbCircle
 62
7
  6
CONTINUOUS
 10
7.2294879193
 20
4.5509466578
 40
0.015
100
AcDbArc
 50
270.0
 51
328.815717175
  0
ARC
  5
341
100
AcDbEntity
  8
ALL_ASSEMBLY_MEMBERS
100
AcDbCircle
 62
7
  6
CONTINUOUS
 10
7.2174879193
 20
4.5509466578
 40
0.015
100
AcDbArc
 50
180.0
 51
270.0
  0
ARC
  5
342
100
AcDbEntity
  8
ALL_ASSEMBLY_MEMBERS
100
AcDbCircle
 62
7
  6
CONTINUOUS
 10
7.2597379193
 20
4.5446235932
 40
0.009
100
AcDbArc
 50
296.3877999612
 51
360.0
  0
ARC
  5
343
100
AcDbEntity
  8
ALL_ASSEMBLY_MEMBERS
100
AcDbCircle
 62
7
  6
CONTINUOUS
 10
6.7165711503
 20
4.4770613354
 40
0.008
100
AcDbArc
 50
214.6234510997
 51
316.9739483152
  0
ARC
  5
344
100
AcDbEntity
  8
ALL_ASSEMBLY_MEMBERS
100
AcDbCircle
 62
7
  6
CONTINUOUS
 10
6.7019879193
 20
4.4766144712
 40
0.008
100
AcDbArc
 50
0.0
 51
125.0
  0
ARC
  5
345
100
AcDbEntity
  8
ALL_ASSEMBLY_MEMBERS
100
AcDbCircle
 62
7
  6
CONTINUOUS
 10
7.6209046882
 20
4.4770613354
 40
0.008
100
AcDbArc
 50
223.0260516848
 51
325.3765489003
  0
ARC
  5
346
100
AcDbEntity
  8
ALL_ASSEMBLY_MEMBERS
100
AcDbCircle
 62
7
  6
CONTINUOUS
 10
7.6354879193
 20
4.4766144712
 40
0.008
100
AcDbArc
 50
55.0
 51
180.0
  0
ARC
  5
347
100
AcDbEntity
  8
ALL_ASSEMBLY_MEMBERS
100
AcDbCircle
 62
7
  6
CONTINUOUS
 10
7.0787379193
 20
4.1148945665
 40
0.008
100
AcDbArc
 50
133.0260516849
 51
235.3765489003
  0
ARC
  5
348
100
AcDbEntity
  8
ALL_ASSEMBLY_MEMBERS
100
AcDbCircle
 62
7
  6
CONTINUOUS
 10
7.2587379193
 20
4.1148945665
 40
0.008
100
AcDbArc
 50
304.6234510997
 51
46.9739483151
  0
ARC
  5
349
100
AcDbEntity
  8
ALL_ASSEMBLY_MEMBERS
100
AcDbCircle
 62
7
  6
CONTINUOUS
 10
7.0782910551
 20
4.1003113354
 40
0.008
100
AcDbArc
 50
325.0
 51
90.0
  0
ARC
  5
34A
100
AcDbEntity
  8
ALL_ASSEMBLY_MEMBERS
100
AcDbCircle
 62
7
  6
CONTINUOUS
 10
7.2591847834
 20
4.1003113354
 40
0.008
100
AcDbArc
 50
90.0
 51
215.0
  0
ARC
  5
34B
100
AcDbEntity
  8
ALL_ASSEMBLY_MEMBERS
100
AcDbCircle
 62
7
  6
CONTINUOUS
 10
7.2898788594
 20
4.5395613354
 40
0.003
100
AcDbArc
 50
180.0
 51
270.0
  0
ARC
  5
34C
100
AcDbEntity
  8
ALL_ASSEMBLY_MEMBERS
100
AcDbCircle
 62
7
  6
CONTINUOUS
 10
6.5774879193
 20
4.5670613354
 40
0.1375
100
AcDbArc
 50
55.0
 51
305.0
  0
ARC
  5
34D
100
AcDbEntity
  8
ALL_ASSEMBLY_MEMBERS
100
AcDbCircle
 62
7
  6
CONTINUOUS
 10
6.8137999398
 20
4.7478113354
 40
0.125
100
AcDbArc
 50
223.0260516848
 51
315.6300714454
  0
ARC
  5
34E
100
AcDbEntity
  8
ALL_ASSEMBLY_MEMBERS
100
AcDbCircle
 62
7
  6
CONTINUOUS
 10
7.1107253876
 20
4.5670633642
 40
0.0565125317
100
AcDbArc
 50
359.9979430712
 51
2.4505484091
  0
ARC
  5
34F
100
AcDbEntity
  8
ALL_ASSEMBLY_MEMBERS
100
AcDbCircle
 62
7
  6
CONTINUOUS
 10
7.037384805
 20
4.568993426
 40
0.0444320906
100
AcDbArc
 50
224.2338173193
 51
336.8459014309
  0
ARC
  5
350
100
AcDbEntity
  8
ALL_ASSEMBLY_MEMBERS
100
AcDbCircle
 62
7
  6
CONTINUOUS
 10
7.0572379193
 20
4.56737165
 40
0.0425
100
AcDbArc
 50
158.3999655658
 51
201.6000344342
  0
ARC
  5
351
100
AcDbEntity
  8
ALL_ASSEMBLY_MEMBERS
100
AcDbCircle
 62
7
  6
CONTINUOUS
 10
7.0354003374
 20
4.5670613354
 40
0.0416624181
100
AcDbArc
 50
100.863388708
 51
224.2338173193
  0
ARC
  5
352
100
AcDbEntity
  8
ALL_ASSEMBLY_MEMBERS
100
AcDbCircle
 62
7
  6
CONTINUOUS
 10
7.03606
 20
4.568993426
 40
0.0348621622
100
AcDbArc
 50
15.9292215989
 51
31.2636680057
  0
ARC
  5
353
100
AcDbEntity
  8
ALL_ASSEMBLY_MEMBERS
100
AcDbCircle
 62
7
  6
CONTINUOUS
 10
7.0416402791
 20
4.5671735615
 40
0.0308038115
100
AcDbArc
 50
256.3709027892
 51
336.8459014309
  0
ARC
  5
354
100
AcDbEntity
  8
ALL_ASSEMBLY_MEMBERS
100
AcDbCircle
 62
7
  6
CONTINUOUS
 10
7.0428024704
 20
4.5730870585
 40
0.0269742769
100
AcDbArc
 50
31.2636680057
 51
158.3999655658
  0
ARC
  5
355
100
AcDbEntity
  8
ALL_ASSEMBLY_MEMBERS
100
AcDbCircle
 62
7
  6
CONTINUOUS
 10
6.9142349312
 20
4.6495613354
 40
0.0155
100
AcDbArc
 50
116.8563471109
 51
135.6300714454
  0
ARC
  5
356
100
AcDbEntity
  8
ALL_ASSEMBLY_MEMBERS
100
AcDbCircle
 62
7
  6
CONTINUOUS
 10
7.0862379193
 20
4.8215643235
 40
0.0155
100
AcDbArc
 50
134.3699285546
 51
153.1436644189
  0
ARC
  5
357
100
AcDbEntity
  8
ALL_ASSEMBLY_MEMBERS
100
AcDbCircle
 62
7
  6
CONTINUOUS
 10
6.7165711503
 20
4.6570613354
 40
0.008
100
AcDbArc
 50
43.0260516848
 51
145.3765489003
  0
ARC
  5
358
100
AcDbEntity
  8
ALL_ASSEMBLY_MEMBERS
100
AcDbCircle
 62
7
  6
CONTINUOUS
 10
6.7019879193
 20
4.6575081996
 40
0.008
100
AcDbArc
 50
235.0
 51
360.0
  0
ARC
  5
359
100
AcDbEntity
  8
ALL_ASSEMBLY_MEMBERS
100
AcDbCircle
 62
7
  6
CONTINUOUS
 10
7.0582379193
 20
4.6090613354
 40
0.003
100
AcDbArc
 50
252.3178031512
 51
360.0
  0
ARC
  5
35A
100
AcDbEntity
  8
ALL_ASSEMBLY_MEMBERS
100
AcDbCircle
 62
7
  6
CONTINUOUS
 10
6.9879879193
 20
4.9219993149
 40
0.125
100
AcDbArc
 50
314.3699285546
 51
46.9739483152
  0
ARC
  5
35B
100
AcDbEntity
  8
ALL_ASSEMBLY_MEMBERS
100
AcDbCircle
 62
7
  6
CONTINUOUS
 10
7.0787379193
 20
5.0192281043
 40
0.008
100
AcDbArc
 50
124.6234510997
 51
226.9739483151
  0
ARC
  5
35C
100
AcDbEntity
  8
ALL_ASSEMBLY_MEMBERS
100
AcDbCircle
 62
7
  6
CONTINUOUS
 10
7.0782910551
 20
5.0338113354
 40
0.008
100
AcDbArc
 50
270.0
 51
35.0
  0
ARC
  5
35D
100
AcDbEntity
  8
ALL_ASSEMBLY_MEMBERS
100
AcDbCircle
 62
7
  6
CONTINUOUS
 10
7.1687379193
 20
4.5670613354
 40
0.59
100
AcDbArc
 50
283.3644905284
 51
346.6360911685
  0
ARC
  5
35E
100
AcDbEntity
  8
ALL_ASSEMBLY_MEMBERS
100
AcDbCircle
 62
7
  6
CONTINUOUS
 10
7.1687379193
 20
4.5670613354
 40
0.59
100
AcDbArc
 50
13.3639088315
 51
76.6355094716
  0
ARC
  5
35F
100
AcDbEntity
  8
ALL_ASSEMBLY_MEMBERS
100
AcDbCircle
 62
7
  6
CONTINUOUS
 10
7.1687379193
 20
4.5670613354
 40
0.59
100
AcDbArc
 50
103.3644905284
 51
166.6360911685
  0
ARC
  5
360
100
AcDbEntity
  8
ALL_ASSEMBLY_MEMBERS
100
AcDbCircle
 62
7
  6
CONTINUOUS
 10
7.1687379193
 20
4.5670613354
 40
0.59
100
AcDbArc
 50
193.3639088315
 51
256.6355094716
  0
ARC
  5
361
100
AcDbEntity
  8
ALL_ASSEMBLY_MEMBERS
100
AcDbCircle
 62
7
  6
CONTINUOUS
 10
7.1687379193
 20
4.5670613354
 40
0.5000013369
100
AcDbArc
 50
101.2114437584
 51
168.7885562416
  0
ARC
  5
362
100
AcDbEntity
  8
ALL_ASSEMBLY_MEMBERS
100
AcDbCircle
 62
7
  6
CONTINUOUS
 10
7.1687379193
 20
4.5670613354
 40
0.5000013369
100
AcDbArc
 50
11.2114437584
 51
78.7885562416
  0
ARC
  5
363
100
AcDbEntity
  8
ALL_ASSEMBLY_MEMBERS
100
AcDbCircle
 62
7
  6
CONTINUOUS
 10
7.1687379193
 20
4.5670613354
 40
0.5000013369
100
AcDbArc
 50
281.2114437584
 51
348.7885562416
  0
ARC
  5
364
100
AcDbEntity
  8
ALL_ASSEMBLY_MEMBERS
100
AcDbCircle
 62
7
  6
CONTINUOUS
 10
7.1687379193
 20
4.5670613354
 40
0.5000013369
100
AcDbArc
 50
191.2114437584
 51
258.7885562416
  0
ARC
  5
365
100
AcDbEntity
  8
ALL_ASSEMBLY_MEMBERS
100
AcDbCircle
 62
7
  6
CONTINUOUS
 10
7.1687379193
 20
4.5670613354
 40
0.4065013369
100
AcDbArc
 50
99.157544143
 51
170.8424558568
  0
ARC
  5
366
100
AcDbEntity
  8
ALL_ASSEMBLY_MEMBERS
100
AcDbCircle
 62
7
  6
CONTINUOUS
 10
7.1687379193
 20
4.5670613354
 40
0.4065013369
100
AcDbArc
 50
9.156000814
 51
80.8439991862
  0
ARC
  5
367
100
AcDbEntity
  8
ALL_ASSEMBLY_MEMBERS
100
AcDbCircle
 62
7
  6
CONTINUOUS
 10
7.1687379193
 20
4.5670613354
 40
0.4065013369
100
AcDbArc
 50
279.157544143
 51
350.8424558568
  0
ARC
  5
368
100
AcDbEntity
  8
ALL_ASSEMBLY_MEMBERS
100
AcDbCircle
 62
7
  6
CONTINUOUS
 10
7.1687379193
 20
4.5670613354
 40
0.4065013369
100
AcDbArc
 50
189.156000814
 51
260.8439991862
  0
ARC
  5
369
100
AcDbEntity
  8
ALL_ASSEMBLY_MEMBERS
100
AcDbCircle
 62
7
  6
CONTINUOUS
 10
7.1687379193
 20
4.5670613354
 40
0.3705
100
AcDbArc
 50
47.3764232079
 51
81.2585687621
  0
ARC
  5
36A
100
AcDbEntity
  8
ALL_ASSEMBLY_MEMBERS
100
AcDbCircle
 62
7
  6
CONTINUOUS
 10
7.1687379193
 20
4.5670613354
 40
0.3705
100
AcDbArc
 50
98.7407483892
 51
102.6237776714
  0
ARC
  5
36B
100
AcDbEntity
  8
ALL_ASSEMBLY_MEMBERS
100
AcDbCircle
 62
7
  6
CONTINUOUS
 10
7.1687379193
 20
4.5670613354
 40
0.3705
100
AcDbArc
 50
107.3762223286
 51
162.6237776714
  0
ARC
  5
36C
100
AcDbEntity
  8
ALL_ASSEMBLY_MEMBERS
100
AcDbCircle
 62
7
  6
CONTINUOUS
 10
7.1687379193
 20
4.5670613354
 40
0.3705
100
AcDbArc
 50
167.3762223286
 51
171.2592516109
  0
ARC
  5
36D
100
AcDbEntity
  8
ALL_ASSEMBLY_MEMBERS
100
AcDbCircle
 62
7
  6
CONTINUOUS
 10
7.1687379193
 20
4.5670613354
 40
0.3705
100
AcDbArc
 50
188.7414312379
 51
222.6235767921
  0
ARC
  5
36E
100
AcDbEntity
  8
ALL_ASSEMBLY_MEMBERS
100
AcDbCircle
 62
7
  6
CONTINUOUS
 10
7.1687379193
 20
4.5670613354
 40
0.3705
100
AcDbArc
 50
8.7414312379
 51
42.6235767921
  0
ARC
  5
36F
100
AcDbEntity
  8
ALL_ASSEMBLY_MEMBERS
100
AcDbCircle
 62
7
  6
CONTINUOUS
 10
7.1687379193
 20
4.5670613354
 40
0.3705
100
AcDbArc
 50
347.3762223286
 51
351.2592516109
  0
ARC
  5
370
100
AcDbEntity
  8
ALL_ASSEMBLY_MEMBERS
100
AcDbCircle
 62
7
  6
CONTINUOUS
 10
7.1687379193
 20
4.5670613354
 40
0.3705
100
AcDbArc
 50
287.3762223286
 51
342.6237776714
  0
ARC
  5
371
100
AcDbEntity
  8
ALL_ASSEMBLY_MEMBERS
100
AcDbCircle
 62
7
  6
CONTINUOUS
 10
7.1687379193
 20
4.5670613354
 40
0.3705
100
AcDbArc
 50
278.7407483892
 51
282.6237776714
  0
ARC
  5
372
100
AcDbEntity
  8
ALL_ASSEMBLY_MEMBERS
100
AcDbCircle
 62
7
  6
CONTINUOUS
 10
7.1687379193
 20
4.5670613354
 40
0.3705
100
AcDbArc
 50
227.3764232079
 51
261.2585687621
  0
ARC
  5
373
100
AcDbEntity
  8
ALL_ASSEMBLY_MEMBERS
100
AcDbCircle
 62
7
  6
CONTINUOUS
 10
7.1687379193
 20
4.5670613354
 40
0.32575
100
AcDbArc
 50
100.7599529256
 51
169.2400470744
  0
ARC
  5
374
100
AcDbEntity
  8
ALL_ASSEMBLY_MEMBERS
100
AcDbCircle
 62
7
  6
CONTINUOUS
 10
7.1687379193
 20
4.5670613354
 40
0.32575
100
AcDbArc
 50
10.7599529256
 51
79.2400470744
  0
ARC
  5
375
100
AcDbEntity
  8
ALL_ASSEMBLY_MEMBERS
100
AcDbCircle
 62
7
  6
CONTINUOUS
 10
7.1687379193
 20
4.5670613354
 40
0.32575
100
AcDbArc
 50
280.7599529256
 51
349.2400470744
  0
ARC
  5
376
100
AcDbEntity
  8
ALL_ASSEMBLY_MEMBERS
100
AcDbCircle
 62
7
  6
CONTINUOUS
 10
7.1687379193
 20
4.5670613354
 40
0.32575
100
AcDbArc
 50
190.7599529256
 51
259.2400470744
  0
ARC
  5
377
100
AcDbEntity
  8
ALL_ASSEMBLY_MEMBERS
100
AcDbCircle
 62
7
  6
CONTINUOUS
 10
7.1687379193
 20
4.5670613354
 40
0.3073169971
100
AcDbArc
 50
102.9345878278
 51
167.0654121729
  0
ARC
  5
378
100
AcDbEntity
  8
ALL_ASSEMBLY_MEMBERS
100
AcDbCircle
 62
7
  6
CONTINUOUS
 10
7.1687379193
 20
4.5670613354
 40
0.3073169971
100
AcDbArc
 50
12.9345878271
 51
77.0654121722
  0
ARC
  5
379
100
AcDbEntity
  8
ALL_ASSEMBLY_MEMBERS
100
AcDbCircle
 62
7
  6
CONTINUOUS
 10
7.1687379193
 20
4.5670613354
 40
0.3073169971
100
AcDbArc
 50
282.9345878278
 51
347.0654121729
  0
ARC
  5
37A
100
AcDbEntity
  8
ALL_ASSEMBLY_MEMBERS
100
AcDbCircle
 62
7
  6
CONTINUOUS
 10
7.1687379193
 20
4.5670613354
 40
0.3073169971
100
AcDbArc
 50
192.9345878271
 51
257.0654121722
  0
CIRCLE
  5
37B
100
AcDbEntity
  8
ALL_ASSEMBLY_MEMBERS
100
AcDbCircle
 62
7
  6
CONTINUOUS
 10
7.1687379193
 20
4.5670613354
 40
0.27875
  0
CIRCLE
  5
37C
100
AcDbEntity
  8
ALL_ASSEMBLY_MEMBERS
100
AcDbCircle
 62
7
  6
CONTINUOUS
 10
7.1687379193
 20
4.5670613354
 40
0.26375
  0
CIRCLE
  5
37D
100
AcDbEntity
  8
ALL_ASSEMBLY_MEMBERS
100
AcDbCircle
 62
7
  6
CONTINUOUS
 10
7.1687379193
 20
4.5670613354
 40
0.2566170761
  0
CIRCLE
  5
37E
100
AcDbEntity
  8
ALL_ASSEMBLY_MEMBERS
100
AcDbCircle
 62
7
  6
CONTINUOUS
 10
7.1687379193
 20
4.5670613354
 40
0.2272549781
  0
CIRCLE
  5
37F
100
AcDbEntity
  8
ALL_ASSEMBLY_MEMBERS
100
AcDbCircle
 62
7
  6
CONTINUOUS
 10
7.1687379193
 20
4.5670613354
 40
0.21375
  0
CIRCLE
  5
380
100
AcDbEntity
  8
ALL_ASSEMBLY_MEMBERS
100
AcDbCircle
 62
7
  6
CONTINUOUS
 10
7.1687379193
 20
4.5670613354
 40
0.20875
  0
CIRCLE
  5
381
100
AcDbEntity
  8
ALL_ASSEMBLY_MEMBERS
100
AcDbCircle
 62
7
  6
CONTINUOUS
 10
7.1687379193
 20
4.5670613354
 40
0.1975723283
  0
ARC
  5
382
100
AcDbEntity
  8
ALL_ASSEMBLY_MEMBERS
100
AcDbCircle
 62
7
  6
CONTINUOUS
 10
7.2174879193
 20
4.585676013
 40
0.015
100
AcDbArc
 50
106.4592496283
 51
180.0
  0
ARC
  5
383
100
AcDbEntity
  8
ALL_ASSEMBLY_MEMBERS
100
AcDbCircle
 62
7
  6
CONTINUOUS
 10
7.1694879193
 20
4.585676013
 40
0.015
100
AcDbArc
 50
0.0
 51
73.5407503717
  0
ARC
  5
384
100
AcDbEntity
  8
ALL_ASSEMBLY_MEMBERS
100
AcDbCircle
 62
7
  6
CONTINUOUS
 10
7.2805683792
 20
4.5683113354
 40
0.0485
100
AcDbArc
 50
341.5590861804
 51
18.4409138196
  0
ARC
  5
385
100
AcDbEntity
  8
ALL_ASSEMBLY_MEMBERS
100
AcDbCircle
 62
7
  6
CONTINUOUS
 10
7.2597379193
 20
4.5919990777
 40
0.009
100
AcDbArc
 50
0.0
 51
63.6122000388
  0
ARC
  5
386
100
AcDbEntity
  8
ALL_ASSEMBLY_MEMBERS
100
AcDbCircle
 62
7
  6
CONTINUOUS
 10
7.2898788594
 20
4.5970613354
 40
0.003
100
AcDbArc
 50
90.0
 51
180.0
  0
ARC
  5
387
100
AcDbEntity
  8
ALL_ASSEMBLY_MEMBERS
100
AcDbCircle
 62
7
  6
CONTINUOUS
 10
7.3038103133
 20
4.5760613354
 40
0.024
100
AcDbArc
 50
18.4409138196
 51
90.0
  0
ARC
  5
388
100
AcDbEntity
  8
ALL_ASSEMBLY_MEMBERS
100
AcDbCircle
 62
7
  6
CONTINUOUS
 10
7.4232409073
 20
4.6495613354
 40
0.0155
100
AcDbArc
 50
44.3699285546
 51
63.1436650029
  0
ARC
  5
389
100
AcDbEntity
  8
ALL_ASSEMBLY_MEMBERS
100
AcDbCircle
 62
7
  6
CONTINUOUS
 10
7.2512379193
 20
4.8215643235
 40
0.0155
100
AcDbArc
 50
26.8563510653
 51
45.6300714454
  0
ARC
  5
38A
100
AcDbEntity
  8
ALL_ASSEMBLY_MEMBERS
100
AcDbCircle
 62
7
  6
CONTINUOUS
 10
7.7599879193
 20
4.5670613354
 40
0.1375
100
AcDbArc
 50
235.0
 51
125.0
  0
ARC
  5
38B
100
AcDbEntity
  8
ALL_ASSEMBLY_MEMBERS
100
AcDbCircle
 62
7
  6
CONTINUOUS
 10
7.6209046882
 20
4.6570613354
 40
0.008
100
AcDbArc
 50
34.6234510997
 51
136.9739483152
  0
ARC
  5
38C
100
AcDbEntity
  8
ALL_ASSEMBLY_MEMBERS
100
AcDbCircle
 62
7
  6
CONTINUOUS
 10
7.6354879193
 20
4.6575081996
 40
0.008
100
AcDbArc
 50
180.0
 51
305.0
  0
ARC
  5
38D
100
AcDbEntity
  8
ALL_ASSEMBLY_MEMBERS
100
AcDbCircle
 62
7
  6
CONTINUOUS
 10
7.5236758987
 20
4.7478113354
 40
0.125
100
AcDbArc
 50
224.3699285546
 51
316.9739483152
  0
ARC
  5
38E
100
AcDbEntity
  8
ALL_ASSEMBLY_MEMBERS
100
AcDbCircle
 62
7
  6
CONTINUOUS
 10
7.1687379193
 20
5.1583113354
 40
0.1375
100
AcDbArc
 50
325.0
 51
215.0
  0
ARC
  5
38F
100
AcDbEntity
  8
ALL_ASSEMBLY_MEMBERS
100
AcDbCircle
 62
7
  6
CONTINUOUS
 10
7.3494879193
 20
4.9219993149
 40
0.125
100
AcDbArc
 50
133.0260516848
 51
225.6300714454
  0
ARC
  5
390
100
AcDbEntity
  8
ALL_ASSEMBLY_MEMBERS
100
AcDbCircle
 62
7
  6
CONTINUOUS
 10
7.2587379193
 20
5.0192281043
 40
0.008
100
AcDbArc
 50
313.0260516849
 51
55.3765489003
  0
ARC
  5
391
100
AcDbEntity
  8
ALL_ASSEMBLY_MEMBERS
100
AcDbCircle
 62
7
  6
CONTINUOUS
 10
7.2591847834
 20
5.0338113354
 40
0.008
100
AcDbArc
 50
145.0
 51
270.0
  0
SPLINE
  5
392
100
AcDbEntity
  8
ALL_ASSEMBLY_MEMBERS
100
AcDbSpline
 62
7
  6
CONTINUOUS
 70
0
 71
3
 72
21
 73
17
 74
0
 42
0.0000001
 43
0.0000001
 44
0.0000000001
 40
0.0
 40
0.0
 40
0.0
 40
0.0
 40
0.1566166934
 40
0.3100202103
 40
0.4570674709
 40
0.5272604941
 40
0.5947501362
 40
0.6591920546
 40
0.7202584129
 40
0.7776398407
 40
0.8310474137
 40
0.8802146987
 40
0.9249000136
 40
0.9648891305
 40
0.9830645811
 40
1.0
 40
1.0
 40
1.0
 40
1.0
 10
5.2002329193
 20
3.9479566344
 30
0.0
 10
5.2065067837
 20
3.9479566344
 30
0.0
 10
5.2189259479
 20
3.9480338377
 30
0.0
 10
5.237232682
 20
3.9483800194
 30
0.0
 10
5.2520729824
 20
3.9488607199
 30
0.0
 10
5.2634680424
 20
3.9493605976
 30
0.0
 10
5.2715540612
 20
3.9497812196
 30
0.0
 10
5.2792711308
 20
3.9502510693
 30
0.0
 10
5.2865793525
 20
3.9507676628
 30
0.0
 10
5.293440956
 20
3.9513282148
 30
0.0
 10
5.2998204974
 20
3.9519296926
 30
0.0
 10
5.3056850892
 20
3.9525687554
 30
0.0
 10
5.3110044854
 20
3.9532419079
 30
0.0
 10
5.3150805256
 20
3.9538455489
 30
0.0
 10
5.3180467058
 20
3.9543483956
 30
0.0
 10
5.3194296537
 20
3.9546051362
 30
0.0
 10
5.3200954781
 20
3.954735212
 30
0.0
  0
SPLINE
  5
393
100
AcDbEntity
  8
ALL_ASSEMBLY_MEMBERS
100
AcDbSpline
 62
7
  6
CONTINUOUS
 70
0
 71
3
 72
21
 73
17
 74
0
 42
0.0000001
 43
0.0000001
 44
0.0000000001
 40
0.0
 40
0.0
 40
0.0
 40
0.0
 40
0.1566166934
 40
0.3100202103
 40
0.4570674709
 40
0.5272604941
 40
0.5947501362
 40
0.6591920546
 40
0.7202584129
 40
0.7776398407
 40
0.8310474137
 40
0.8802146987
 40
0.9249000136
 40
0.9648891305
 40
0.9830645811
 40
1.0
 40
1.0
 40
1.0
 40
1.0
 10
5.2002329193
 20
3.9479566344
 30
0.0
 10
5.1939590548
 20
3.9479566344
 30
0.0
 10
5.1815398906
 20
3.9480338377
 30
0.0
 10
5.1632331565
 20
3.9483800194
 30
0.0
 10
5.1483928561
 20
3.9488607199
 30
0.0
 10
5.1369977961
 20
3.9493605976
 30
0.0
 10
5.1289117773
 20
3.9497812196
 30
0.0
 10
5.1211947077
 20
3.9502510693
 30
0.0
 10
5.113886486
 20
3.9507676628
 30
0.0
 10
5.1070248825
 20
3.9513282148
 30
0.0
 10
5.1006453411
 20
3.9519296926
 30
0.0
 10
5.0947807493
 20
3.9525687554
 30
0.0
 10
5.0894613531
 20
3.9532419079
 30
0.0
 10
5.0853853129
 20
3.9538455489
 30
0.0
 10
5.0824191327
 20
3.9543483956
 30
0.0
 10
5.0810361848
 20
3.9546051362
 30
0.0
 10
5.0803703604
 20
3.954735212
 30
0.0
  0
SPLINE
  5
394
100
AcDbEntity
  8
ALL_ASSEMBLY_MEMBERS
100
AcDbSpline
 62
7
  6
CONTINUOUS
 70
0
 71
3
 72
39
 73
35
 74
0
 42
0.0000001
 43
0.0000001
 44
0.0000000001
 40
0.0
 40
0.0
 40
0.0
 40
0.0
 40
0.0077443318
 40
0.0161629964
 40
0.0252479308
 40
0.0349880673
 40
0.0563834056
 40
0.0802424716
 40
0.0930562505
 40
0.1064368363
 40
0.1348264083
 40
0.1652540049
 40
0.1975534576
 40
0.2315440085
 40
0.2670379121
 40
0.3417327959
 40
0.4199703667
 40
0.5
 40
0.5800296333
 40
0.6582672041
 40
0.7329620879
 40
0.7684559915
 40
0.8024465424
 40
0.8347459951
 40
0.8651735917
 40
0.8935631637
 40
0.9069437495
 40
0.9197575284
 40
0.9436165944
 40
0.9650119327
 40
0.9747520692
 40
0.9838370036
 40
0.9922556682
 40
1.0
 40
1.0
 40
1.0
 40
1.0
 10
5.3137291187
 20
3.9555832421
 30
0.0
 10
5.3131558521
 20
3.9554536122
 30
0.0
 10
5.3119560065
 20
3.9551979726
 30
0.0
 10
5.3100742138
 20
3.9548362742
 30
0.0
 10
5.308037293
 20
3.954480844
 30
0.0
 10
5.305022738
 20
3.9540008082
 30
0.0
 10
5.3008883291
 20
3.9534264356
 30
0.0
 10
5.2965116751
 20
3.9529084402
 30
0.0
 10
5.2927341025
 20
3.9525080406
 30
0.0
 10
5.2886113677
 20
3.9521031105
 30
0.0
 10
5.2831526798
 20
3.9516262757
 30
0.0
 10
5.2762569015
 20
3.9511077081
 30
0.0
 10
5.2689318018
 20
3.9506354185
 30
0.0
 10
5.2612186304
 20
3.9502119122
 30
0.0
 10
5.2502879613
 20
3.9497073275
 30
0.0
 10
5.235995358
 20
3.9492220922
 30
0.0
 10
5.2183181086
 20
3.9488726339
 30
0.0
 10
5.2002329193
 20
3.9487552446
 30
0.0
 10
5.1821477299
 20
3.9488726339
 30
0.0
 10
5.1644704805
 20
3.9492220922
 30
0.0
 10
5.1501778772
 20
3.9497073275
 30
0.0
 10
5.1392472081
 20
3.9502119122
 30
0.0
 10
5.1315340367
 20
3.9506354185
 30
0.0
 10
5.124208937
 20
3.9511077081
 30
0.0
 10
5.1173131587
 20
3.9516262757
 30
0.0
 10
5.1118544708
 20
3.9521031105
 30
0.0
 10
5.107731736
 20
3.9525080406
 30
0.0
 10
5.1039541634
 20
3.9529084402
 30
0.0
 10
5.0995775094
 20
3.9534264356
 30
0.0
 10
5.0954431005
 20
3.9540008082
 30
0.0
 10
5.0924285455
 20
3.954480844
 30
0.0
 10
5.0903916247
 20
3.9548362742
 30
0.0
 10
5.0885098321
 20
3.9551979726
 30
0.0
 10
5.0873099864
 20
3.9554536122
 30
0.0
 10
5.0867367198
 20
3.9555832421
 30
0.0
  0
SPLINE
  5
395
100
AcDbEntity
  8
ALL_ASSEMBLY_MEMBERS
100
AcDbSpline
 62
7
  6
CONTINUOUS
 70
0
 71
3
 72
19
 73
15
 74
0
 42
0.0000001
 43
0.0000001
 44
0.0000000001
 40
0.0
 40
0.0
 40
0.0
 40
0.0
 40
0.0559048042
 40
0.1144044532
 40
0.1751606724
 40
0.2378166359
 40
0.367357246
 40
0.5
 40
0.632642754
 40
0.7621833641
 40
0.8248393276
 40
0.8855955468
 40
0.9440951958
 40
1.0
 40
1.0
 40
1.0
 40
1.0
 10
5.1345474423
 20
3.9592075496
 30
0.0
 10
5.1369921975
 20
3.9590571399
 30
0.0
 10
5.1419967781
 20
3.9587748782
 30
0.0
 10
5.1496626463
 20
3.9584116969
 30
0.0
 10
5.1576268348
 20
3.9581006725
 30
0.0
 10
5.1687042162
 20
3.9577540384
 30
0.0
 10
5.1829341394
 20
3.9574666609
 30
0.0
 10
5.2002329193
 20
3.9573518733
 30
0.0
 10
5.2175316991
 20
3.9574666609
 30
0.0
 10
5.2317616223
 20
3.9577540384
 30
0.0
 10
5.2428390037
 20
3.9581006725
 30
0.0
 10
5.2508031922
 20
3.9584116969
 30
0.0
 10
5.2584690604
 20
3.9587748782
 30
0.0
 10
5.263473641
 20
3.9590571399
 30
0.0
 10
5.2659183962
 20
3.9592075496
 30
0.0
  0
SPLINE
  5
396
100
AcDbEntity
  8
ALL_ASSEMBLY_MEMBERS
100
AcDbSpline
 62
7
  6
CONTINUOUS
 70
0
 71
3
 72
11
 73
7
 74
0
 42
0.0000001
 43
0.0000001
 44
0.0000000001
 40
0.0
 40
0.0
 40
0.0
 40
0.0
 40
0.2730385444
 40
0.4996896654
 40
0.7263920674
 40
1.0
 40
1.0
 40
1.0
 40
1.0
 10
3.1917279193
 20
4.5670613354
 30
0.0
 10
3.1917275506
 20
4.5789567094
 30
0.0
 10
3.1982737188
 20
4.6007265023
 30
0.0
 10
3.2308996561
 20
4.6132087487
 30
0.0
 10
3.2634264908
 20
4.6007024552
 30
0.0
 10
3.2702275182
 20
4.5789546644
 30
0.0
 10
3.2702279193
 20
4.5670613354
 30
0.0
  0
SPLINE
  5
397
100
AcDbEntity
  8
ALL_ASSEMBLY_MEMBERS
100
AcDbSpline
 62
7
  6
CONTINUOUS
 70
0
 71
3
 72
11
 73
7
 74
0
 42
0.0000001
 43
0.0000001
 44
0.0000000001
 40
0.0
 40
0.0
 40
0.0
 40
0.0
 40
0.2911005069
 40
0.5007865867
 40
0.7104726666
 40
1.0
 40
1.0
 40
1.0
 40
1.0
 10
3.2523779193
 20
4.5670613354
 30
0.0
 10
3.2523779193
 20
4.575417252
 30
0.0
 10
3.250437299
 20
4.5897921187
 30
0.0
 10
3.2309150085
 20
4.6004544148
 30
0.0
 10
3.2111851654
 20
4.5898410723
 30
0.0
 10
3.2098779193
 20
4.5754232167
 30
0.0
 10
3.2098779193
 20
4.5670613354
 30
0.0
  0
SPLINE
  5
398
100
AcDbEntity
  8
ALL_ASSEMBLY_MEMBERS
100
AcDbSpline
 62
7
  6
CONTINUOUS
 70
0
 71
3
 72
11
 73
7
 74
0
 42
0.0000001
 43
0.0000001
 44
0.0000000001
 40
0.0
 40
0.0
 40
0.0
 40
0.0
 40
0.2736088651
 40
0.5002793729
 40
0.726960525
 40
1.0
 40
1.0
 40
1.0
 40
1.0
 10
3.2702279193
 20
4.5670613354
 30
0.0
 10
3.2702283203
 20
4.5551680064
 30
0.0
 10
3.2634292037
 20
4.5334217284
 30
0.0
 10
3.2308944405
 20
4.5209138883
 30
0.0
 10
3.1982762158
 20
4.5333948728
 30
0.0
 10
3.1917282879
 20
4.5551659614
 30
0.0
 10
3.1917279193
 20
4.5670613354
 30
0.0
  0
SPLINE
  5
399
100
AcDbEntity
  8
ALL_ASSEMBLY_MEMBERS
100
AcDbSpline
 62
7
  6
CONTINUOUS
 70
0
 71
3
 72
11
 73
7
 74
0
 42
0.0000001
 43
0.0000001
 44
0.0000000001
 40
0.0
 40
0.0
 40
0.0
 40
0.0
 40
0.2895273334
 40
0.4992134133
 40
0.7088994931
 40
1.0
 40
1.0
 40
1.0
 40
1.0
 10
3.2098779193
 20
4.5670613354
 30
0.0
 10
3.2098779193
 20
4.5586994541
 30
0.0
 10
3.2111851654
 20
4.5442815985
 30
0.0
 10
3.2309150085
 20
4.533668256
 30
0.0
 10
3.250437299
 20
4.5443305521
 30
0.0
 10
3.2523779193
 20
4.5587054188
 30
0.0
 10
3.2523779193
 20
4.5670613354
 30
0.0
  0
SPLINE
  5
39A
100
AcDbEntity
  8
ALL_ASSEMBLY_MEMBERS
100
AcDbSpline
 62
7
  6
CONTINUOUS
 70
0
 71
3
 72
11
 73
7
 74
0
 42
0.0000001
 43
0.0000001
 44
0.0000000001
 40
0.0
 40
0.0
 40
0.0
 40
0.0
 40
0.2893264667
 40
0.529018178
 40
0.7687211451
 40
1.0
 40
1.0
 40
1.0
 40
1.0
 10
7.1672379193
 20
4.5670613354
 30
0.0
 10
7.1672383203
 20
4.5551680064
 30
0.0
 10
7.1604392037
 20
4.5334217284
 30
0.0
 10
7.1279044405
 20
4.5209138883
 30
0.0
 10
7.0977256432
 20
4.5324614543
 30
0.0
 10
7.0903497508
 20
4.5505882939
 30
0.0
 10
7.089172169
 20
4.559992113
 30
0.0
  0
SPLINE
  5
39B
100
AcDbEntity
  8
ALL_ASSEMBLY_MEMBERS
100
AcDbSpline
 62
7
  6
CONTINUOUS
 70
0
 71
3
 72
11
 73
7
 74
0
 42
0.0000001
 43
0.0000001
 44
0.0000000001
 40
0.0
 40
0.0
 40
0.0
 40
0.0
 40
0.2895273334
 40
0.4992134133
 40
0.7088994931
 40
1.0
 40
1.0
 40
1.0
 40
1.0
 10
7.1068879193
 20
4.5670613354
 30
0.0
 10
7.1068879193
 20
4.5586994541
 30
0.0
 10
7.1081951654
 20
4.5442815985
 30
0.0
 10
7.1279250085
 20
4.533668256
 30
0.0
 10
7.147447299
 20
4.5443305521
 30
0.0
 10
7.1493879193
 20
4.5587054188
 30
0.0
 10
7.1493879193
 20
4.5670613354
 30
0.0
  0
SPLINE
  5
39C
100
AcDbEntity
  8
ALL_ASSEMBLY_MEMBERS
100
AcDbSpline
 62
7
  6
CONTINUOUS
 70
0
 71
3
 72
11
 73
7
 74
0
 42
0.0000001
 43
0.0000001
 44
0.0000000001
 40
0.0
 40
0.0
 40
0.0
 40
0.0
 40
0.2911005069
 40
0.5007865867
 40
0.7104726666
 40
1.0
 40
1.0
 40
1.0
 40
1.0
 10
7.1493879193
 20
4.5670613354
 30
0.0
 10
7.1493879193
 20
4.575417252
 30
0.0
 10
7.147447299
 20
4.5897921187
 30
0.0
 10
7.1279250085
 20
4.6004544148
 30
0.0
 10
7.1081951654
 20
4.5898410723
 30
0.0
 10
7.1068879193
 20
4.5754232167
 30
0.0
 10
7.1068879193
 20
4.5670613354
 30
0.0
  0
SPLINE
  5
39D
100
AcDbEntity
  8
ALL_ASSEMBLY_MEMBERS
100
AcDbSpline
 62
7
  6
CONTINUOUS
 70
0
 71
3
 72
11
 73
7
 74
0
 42
0.0000001
 43
0.0000001
 44
0.0000000001
 40
0.0
 40
0.0
 40
0.0
 40
0.0
 40
0.2782003197
 40
0.5091362648
 40
0.7401244605
 40
1.0
 40
1.0
 40
1.0
 40
1.0
 10
7.0887379193
 20
4.5670613354
 30
0.0
 10
7.0887375506
 20
4.5789567094
 30
0.0
 10
7.0952837188
 20
4.6007265023
 30
0.0
 10
7.1279096561
 20
4.6132087487
 30
0.0
 10
7.1596063115
 20
4.6010216522
 30
0.0
 10
7.1667116478
 20
4.5805496391
 30
0.0
 10
7.1671862384
 20
4.5694796762
 30
0.0
  0
SPLINE
  5
39E
100
AcDbEntity
  8
ALL_ASSEMBLY_MEMBERS
100
AcDbSpline
 62
7
  6
CONTINUOUS
 70
0
 71
3
 72
35
 73
31
 74
0
 42
0.0000001
 43
0.0000001
 44
0.0000000001
 40
0.0
 40
0.0
 40
0.0
 40
0.0
 40
0.0967753139
 40
0.1926724085
 40
0.2866973075
 40
0.3779840148
 40
0.4656678406
 40
0.5489046249
 40
0.6269061897
 40
0.6989375693
 40
0.7643185367
 40
0.7943253478
 40
0.822447122
 40
0.8486225823
 40
0.8727956566
 40
0.8949124171
 40
0.9149298005
 40
0.9328146504
 40
0.9485393446
 40
0.9620918526
 40
0.9680572883
 40
0.9734863219
 40
0.9783852776
 40
0.9827641534
 40
0.986639292
 40
0.990036533
 40
0.9929950516
 40
0.995574875
 40
0.9978668749
 40
1.0
 40
1.0
 40
1.0
 40
1.0
 10
5.2002329193
 20
3.960639488
 30
0.0
 10
5.2048061358
 20
3.960639488
 30
0.0
 10
5.213911116
 20
3.9606006186
 30
0.0
 10
5.2274583339
 20
3.9604264369
 30
0.0
 10
5.2407441887
 20
3.9601378344
 30
0.0
 10
5.2536388603
 20
3.959737804
 30
0.0
 10
5.2660195685
 20
3.9592304721
 30
0.0
 10
5.2777670823
 20
3.9586207041
 30
0.0
 10
5.2887681777
 20
3.9579147765
 30
0.0
 10
5.298917066
 20
3.9571199076
 30
0.0
 10
5.3067935783
 20
3.9563704257
 30
0.0
 10
5.3125944385
 20
3.9557247663
 30
0.0
 10
5.3165484637
 20
3.9552371281
 30
0.0
 10
5.3202224292
 20
3.954733494
 30
0.0
 10
5.3236075693
 20
3.9542152168
 30
0.0
 10
5.3266957665
 20
3.9536835302
 30
0.0
 10
5.3294797126
 20
3.9531398598
 30
0.0
 10
5.3319530589
 20
3.9525859252
 30
0.0
 10
5.3341100291
 20
3.9520231118
 30
0.0
 10
5.3357016161
 20
3.9515294756
 30
0.0
 10
5.3368092322
 20
3.9511250961
 30
0.0
 10
5.33752204
 20
3.9508333818
 30
0.0
 10
5.3381525938
 20
3.9505404073
 30
0.0
 10
5.3387006239
 20
3.9502462513
 30
0.0
 10
5.3391660487
 20
3.9499509483
 30
0.0
 10
5.3395490225
 20
3.9496543801
 30
0.0
 10
5.3398497508
 20
3.949356024
 30
0.0
 10
5.3400680292
 20
3.9490545543
 30
0.0
 10
5.3402021079
 20
3.9487485769
 30
0.0
 10
5.3402329193
 20
3.948538487
 30
0.0
 10
5.3402329193
 20
3.948437684
 30
0.0
  0
SPLINE
  5
39F
100
AcDbEntity
  8
ALL_ASSEMBLY_MEMBERS
100
AcDbSpline
 62
7
  6
CONTINUOUS
 70
0
 71
3
 72
44
 73
40
 74
0
 42
0.0000001
 43
0.0000001
 44
0.0000000001
 40
0.0
 40
0.0
 40
0.0
 40
0.0
 40
0.0877192247
 40
0.1746045078
 40
0.2597420461
 40
0.3423253278
 40
0.4215520501
 40
0.4966596069
 40
0.5669441303
 40
0.6317841841
 40
0.6619962606
 40
0.6906613747
 40
0.7177390956
 40
0.7431981328
 40
0.7670273686
 40
0.7892350972
 40
0.8098671564
 40
0.8290111857
 40
0.8380768386
 40
0.846839882
 40
0.8636506279
 40
0.8718214047
 40
0.8799642307
 40
0.8840635242
 40
0.8882031697
 40
0.8967073424
 40
0.9057163693
 40
0.9104915424
 40
0.9154930082
 40
0.9263342565
 40
0.9385317353
 40
0.9451695145
 40
0.9521855787
 40
0.9595620347
 40
0.9672279278
 40
0.975120164
 40
0.9832035298
 40
0.9914884176
 40
1.0
 40
1.0
 40
1.0
 40
1.0
 10
5.2002329193
 20
3.934558003
 30
0.0
 10
5.2055918366
 20
3.934558003
 30
0.0
 10
5.2162587841
 20
3.9346046853
 30
0.0
 10
5.2321256899
 20
3.9348140244
 30
0.0
 10
5.2476763727
 20
3.935160814
 30
0.0
 10
5.2627554071
 20
3.9356414738
 30
0.0
 10
5.2772165281
 20
3.9362513297
 30
0.0
 10
5.2909196075
 20
3.9369845493
 30
0.0
 10
5.3037352624
 20
3.9378345601
 30
0.0
 10
5.3138033407
 20
3.9386519794
 30
0.0
 10
5.3213276607
 20
3.9393668336
 30
0.0
 10
5.3265501252
 20
3.9399157443
 30
0.0
 10
5.3314776822
 20
3.9404897602
 30
0.0
 10
5.3361045473
 20
3.9410887464
 30
0.0
 10
5.3404276201
 20
3.9417135754
 30
0.0
 10
5.3444482456
 20
3.9423657293
 30
0.0
 10
5.3481729907
 20
3.9430495561
 30
0.0
 10
5.3510937773
 20
3.9436618418
 30
0.0
 10
5.3532926044
 20
3.9441790852
 30
0.0
 10
5.3553436973
 20
3.9447001291
 30
0.0
 10
5.3573260748
 20
3.9452692314
 30
0.0
 10
5.3592470241
 20
3.9459064469
 30
0.0
 10
5.3604172161
 20
3.9463383859
 30
0.0
 10
5.3613457173
 20
3.9467119977
 30
0.0
 10
5.3622869133
 20
3.9471126436
 30
0.0
 10
5.3634853648
 20
3.947674109
 30
0.0
 10
5.3646829838
 20
3.9483239846
 30
0.0
 10
5.3656644743
 20
3.948919192
 30
0.0
 10
5.3667148553
 20
3.9496149856
 30
0.0
 10
5.3680756097
 20
3.9506597991
 30
0.0
 10
5.3693969547
 20
3.9519076096
 30
0.0
 10
5.3704371046
 20
3.9530975048
 30
0.0
 10
5.3712123992
 20
3.9541234579
 30
0.0
 10
5.3719436177
 20
3.9552569099
 30
0.0
 10
5.3726116969
 20
3.9564901363
 30
0.0
 10
5.3731942949
 20
3.9578136339
 30
0.0
 10
5.3736703314
 20
3.9592193367
 30
0.0
 10
5.374027093
 20
3.9606988664
 30
0.0
 10
5.374175255
 20
3.961716004
 30
0.0
 10
5.3742264508
 20
3.9622334647
 30
0.0
  0
SPLINE
  5
3A0
100
AcDbEntity
  8
ALL_ASSEMBLY_MEMBERS
100
AcDbSpline
 62
7
  6
CONTINUOUS
 70
0
 71
3
 72
66
 73
62
 74
0
 42
0.0000001
 43
0.0000001
 44
0.0000000001
 40
0.0
 40
0.0
 40
0.0
 40
0.0
 40
0.0050182834
 40
0.0102409348
 40
0.0157130114
 40
0.0214802678
 40
0.0275744036
 40
0.0340223361
 40
0.0408573134
 40
0.0480936331
 40
0.0557049707
 40
0.0636699447
 40
0.0719593762
 40
0.0805228134
 40
0.0893168147
 40
0.0982985492
 40
0.1074245822
 40
0.1166585929
 40
0.1259692894
 40
0.1353273348
 40
0.1447066494
 40
0.1540805438
 40
0.1634209597
 40
0.1727004701
 40
0.1818882954
 40
0.190948238
 40
0.1998424338
 40
0.2085310921
 40
0.2169646794
 40
0.2250893507
 40
0.2402979212
 40
0.2473320567
 40
0.2539602401
 40
0.2602178426
 40
0.2661391081
 40
0.2717521586
 40
0.2770913073
 40
0.2822022604
 40
0.2871297839
 40
0.2919167583
 40
0.2966016125
 40
0.3012113931
 40
0.305770189
 40
0.3148287935
 40
0.3332225762
 40
0.342744399
 40
0.3525784884
 40
0.373331811
 40
0.3957209739
 40
0.4198555049
 40
0.4457833544
 40
0.4734977275
 40
0.5029646527
 40
0.5341201169
 40
0.5668883179
 40
0.6011694983
 40
0.6738382289
 40
0.7511673806
 40
0.832076777
 40
0.915430448
 40
1.0
 40
1.0
 40
1.0
 40
1.0
 10
5.4094893513
 20
4.3091604308
 30
0.0
 10
5.4099407083
 20
4.3093573682
 30
0.0
 10
5.4108563756
 20
4.3097718758
 30
0.0
 10
5.412240816
 20
4.3104513932
 30
0.0
 10
5.4136658576
 20
4.3112129422
 30
0.0
 10
5.4151367375
 20
4.3120680069
 30
0.0
 10
5.4166520956
 20
4.3130344463
 30
0.0
 10
5.4182057578
 20
4.3141320733
 30
0.0
 10
5.4197892101
 20
4.3153774485
 30
0.0
 10
5.4213880248
 20
4.316783155
 30
0.0
 10
5.4229788639
 20
4.3183602584
 30
0.0
 10
5.4245323192
 20
4.320115248
 30
0.0
 10
5.4260178537
 20
4.3220476374
 30
0.0
 10
5.4274067394
 20
4.3241492067
 30
0.0
 10
5.4286648276
 20
4.3264100246
 30
0.0
 10
5.4297664398
 20
4.32881204
 30
0.0
 10
5.4306904571
 20
4.3313340976
 30
0.0
 10
5.4314128262
 20
4.3339548181
 30
0.0
 10
5.4319220709
 20
4.3366483108
 30
0.0
 10
5.4322082304
 20
4.3393890412
 30
0.0
 10
5.4322624703
 20
4.3421503324
 30
0.0
 10
5.4320882125
 20
4.3449048284
 30
0.0
 10
5.4316869289
 20
4.3476257013
 30
0.0
 10
5.4310633639
 20
4.350285505
 30
0.0
 10
5.430235049
 20
4.3528596992
 30
0.0
 10
5.4292175053
 20
4.3553242858
 30
0.0
 10
5.4280275249
 20
4.3576553072
 30
0.0
 10
5.4266965697
 20
4.3598366275
 30
0.0
 10
5.4252547879
 20
4.3618541869
 30
0.0
 10
5.4232641919
 20
4.3642558943
 30
0.0
 10
5.4211386938
 20
4.366357675
 30
0.0
 10
5.4189573701
 20
4.368167009
 30
0.0
 10
5.4173883068
 20
4.3693344204
 30
0.0
 10
5.415854039
 20
4.3703613755
 30
0.0
 10
5.4143603477
 20
4.3712663554
 30
0.0
 10
5.4129121332
 20
4.3720697925
 30
0.0
 10
5.4115087102
 20
4.3727881338
 30
0.0
 10
5.4101434619
 20
4.3734315715
 30
0.0
 10
5.4088093622
 20
4.3740123441
 30
0.0
 10
5.407499347
 20
4.3745423157
 30
0.0
 10
5.4062074963
 20
4.3750331174
 30
0.0
 10
5.4049269654
 20
4.3754898516
 30
0.0
 10
5.4032309134
 20
4.3760582337
 30
0.0
 10
5.4002264284
 20
4.3769769852
 30
0.0
 10
5.39671358
 20
4.3778918069
 30
0.0
 10
5.3931010633
 20
4.3787123279
 30
0.0
 10
5.3892478762
 20
4.3795163254
 30
0.0
 10
5.3841338621
 20
4.3804548272
 30
0.0
 10
5.3776126923
 20
4.3814877316
 30
0.0
 10
5.3705691759
 20
4.3824589711
 30
0.0
 10
5.3629918961
 20
4.3833764261
 30
0.0
 10
5.3548821344
 20
4.384242164
 30
0.0
 10
5.3462517517
 20
4.3850572396
 30
0.0
 10
5.3371189176
 20
4.3858207527
 30
0.0
 10
5.3275080673
 20
4.3865315895
 30
0.0
 10
5.3138263055
 20
4.3874243455
 30
0.0
 10
5.2957675359
 20
4.3883843284
 30
0.0
 10
5.2731254633
 20
4.3892806189
 30
0.0
 10
5.2494260559
 20
4.389930145
 30
0.0
 10
5.2250104965
 20
4.3903235292
 30
0.0
 10
5.2085318372
 20
4.3904112188
 30
0.0
 10
5.2002329193
 20
4.3904112188
 30
0.0
  0
SPLINE
  5
3A1
100
AcDbEntity
  8
ALL_ASSEMBLY_MEMBERS
100
AcDbSpline
 62
7
  6
CONTINUOUS
 70
0
 71
3
 72
45
 73
41
 74
0
 42
0.0000001
 43
0.0000001
 44
0.0000000001
 40
0.0
 40
0.0
 40
0.0
 40
0.0
 40
0.0085623629
 40
0.01684751
 40
0.0249041026
 40
0.0327668878
 40
0.0404184962
 40
0.0478012924
 40
0.0548438838
 40
0.0614878207
 40
0.0677537253
 40
0.0736725461
 40
0.0792643343
 40
0.0845431168
 40
0.0895442574
 40
0.0943120829
 40
0.1033104081
 40
0.1118247144
 40
0.1200596758
 40
0.128197026
 40
0.1363736845
 40
0.1446750475
 40
0.153180147
 40
0.1710095112
 40
0.1901544896
 40
0.2107848265
 40
0.2329941993
 40
0.2568224112
 40
0.282282746
 40
0.3093600731
 40
0.3380261197
 40
0.3682385232
 40
0.4330811795
 40
0.5033669297
 40
0.5784718428
 40
0.6576944252
 40
0.7402731081
 40
0.8254058593
 40
0.9122865563
 40
1.0
 40
1.0
 40
1.0
 40
1.0
 10
5.0262393877
 20
3.9622334647
 30
0.0
 10
5.0262908894
 20
3.9617129121
 30
0.0
 10
5.0264390497
 20
3.9606926101
 30
0.0
 10
5.0267962533
 20
3.959211609
 30
0.0
 10
5.0272723053
 20
3.9578094898
 30
0.0
 10
5.0278546641
 20
3.9564905723
 30
0.0
 10
5.0285233943
 20
3.9552602856
 30
0.0
 10
5.0292560299
 20
3.954126449
 30
0.0
 10
5.0300308592
 20
3.9530972563
 30
0.0
 10
5.0308311202
 20
3.9521765244
 30
0.0
 10
5.031642432
 20
3.9513599871
 30
0.0
 10
5.0324538183
 20
3.9506372279
 30
0.0
 10
5.0332556894
 20
3.9499969992
 30
0.0
 10
5.0340396599
 20
3.9494259097
 30
0.0
 10
5.0348050108
 20
3.9489161646
 30
0.0
 10
5.035784282
 20
3.9483193367
 30
0.0
 10
5.0369843928
 20
3.947674983
 30
0.0
 10
5.0384081051
 20
3.9470048002
 30
0.0
 10
5.0398138451
 20
3.9464242684
 30
0.0
 10
5.0412216812
 20
3.9459064784
 30
0.0
 10
5.0426487175
 20
3.9454314389
 30
0.0
 10
5.0441101364
 20
3.9449906337
 30
0.0
 10
5.0461499799
 20
3.9444275524
 30
0.0
 10
5.0488504976
 20
3.9437712313
 30
0.0
 10
5.0522952194
 20
3.9430489889
 30
0.0
 10
5.0560201264
 20
3.9423653791
 30
0.0
 10
5.060040694
 20
3.9417131257
 30
0.0
 10
5.0643639477
 20
3.9410884252
 30
0.0
 10
5.0689908422
 20
3.9404894072
 30
0.0
 10
5.0739185633
 20
3.9399154365
 30
0.0
 10
5.0791411299
 20
3.9393665393
 30
0.0
 10
5.086665756
 20
3.9386516864
 30
0.0
 10
5.0967341841
 20
3.9378343077
 30
0.0
 10
5.1095500297
 20
3.9369843219
 30
0.0
 10
5.1232528965
 20
3.9362511564
 30
0.0
 10
5.1377134556
 20
3.9356413708
 30
0.0
 10
5.1527918011
 20
3.9351607513
 30
0.0
 10
5.1683417719
 20
3.9348139969
 30
0.0
 10
5.1842078958
 20
3.9346046832
 30
0.0
 10
5.1948743066
 20
3.934558003
 30
0.0
 10
5.2002329193
 20
3.934558003
 30
0.0
  0
SPLINE
  5
3A2
100
AcDbEntity
  8
ALL_ASSEMBLY_MEMBERS
100
AcDbSpline
 62
7
  6
CONTINUOUS
 70
0
 71
3
 72
65
 73
61
 74
0
 42
0.0000001
 43
0.0000001
 44
0.0000000001
 40
0.0
 40
0.0
 40
0.0
 40
0.0
 40
0.0845768111
 40
0.1679351564
 40
0.2488501242
 40
0.3261829094
 40
0.3988532049
 40
0.4331340421
 40
0.4658995546
 40
0.4970521494
 40
0.5265157116
 40
0.5542270052
 40
0.5801518954
 40
0.6042848658
 40
0.6266692982
 40
0.6474232431
 40
0.6667781125
 40
0.6760540286
 40
0.685169638
 40
0.689701284
 40
0.6942347707
 40
0.7034004686
 40
0.7080864915
 40
0.7128779559
 40
0.7178094367
 40
0.722922917
 40
0.7282625904
 40
0.7338732895
 40
0.7397908102
 40
0.7460496494
 40
0.752689231
 40
0.7597248975
 40
0.7671411906
 40
0.7749294215
 40
0.7830626564
 40
0.7914908397
 40
0.8090492595
 40
0.8181046922
 40
0.8272887401
 40
0.8365662264
 40
0.8459051122
 40
0.8552780103
 40
0.864657822
 40
0.8740177826
 40
0.8833317064
 40
0.8925696566
 40
0.9016989594
 40
0.910684987
 40
0.9194853021
 40
0.9280503981
 40
0.936339078
 40
0.9443150776
 40
0.9519308821
 40
0.9591489332
 40
0.96598178
 40
0.9724437251
 40
0.9785412283
 40
0.9842983527
 40
0.9897634341
 40
1.0
 40
1.0
 40
1.0
 40
1.0
 10
5.2002329193
 20
4.3904112188
 30
0.0
 10
5.1919326839
 20
4.3904112188
 30
0.0
 10
5.1754516518
 20
4.3903235114
 30
0.0
 10
5.1510325957
 20
4.3899299982
 30
0.0
 10
5.1273301011
 20
4.3892802979
 30
0.0
 10
5.1046853277
 20
4.388383739
 30
0.0
 10
5.0866247746
 20
4.3874234868
 30
0.0
 10
5.0729421698
 20
4.3865305099
 30
0.0
 10
5.0633312051
 20
4.3858195404
 30
0.0
 10
5.0541985957
 20
4.3850558345
 30
0.0
 10
5.0455685024
 20
4.3842406782
 30
0.0
 10
5.0374591022
 20
4.3833746718
 30
0.0
 10
5.0298820069
 20
4.3824571994
 30
0.0
 10
5.022838981
 20
4.3814854103
 30
0.0
 10
5.0163177864
 20
4.3804527417
 30
0.0
 10
5.0102850496
 20
4.3793444676
 30
0.0
 10
5.0055469354
 20
4.3783193568
 30
0.0
 10
5.0019523036
 20
4.3774232283
 30
0.0
 10
4.9997832324
 20
4.3768254129
 30
0.0
 10
4.998073787
 20
4.3763140399
 30
0.0
 10
4.9963675799
 20
4.3757754747
 30
0.0
 10
4.9946612506
 20
4.3751873616
 30
0.0
 10
4.99295121
 20
4.3745364468
 30
0.0
 10
4.9916409356
 20
4.3740043256
 30
0.0
 10
4.9903059547
 20
4.3734226443
 30
0.0
 10
4.9889400237
 20
4.3727787862
 30
0.0
 10
4.987536383
 20
4.3720604697
 30
0.0
 10
4.9860887353
 20
4.3712568528
 30
0.0
 10
4.984596474
 20
4.3703501671
 30
0.0
 10
4.9830625756
 20
4.3693208597
 30
0.0
 10
4.9814922317
 20
4.3681528151
 30
0.0
 10
4.9798973698
 20
4.3668317691
 30
0.0
 10
4.9782989474
 20
4.3653435588
 30
0.0
 10
4.9767234542
 20
4.3636790091
 30
0.0
 10
4.9751989277
 20
4.3618362703
 30
0.0
 10
4.9732479425
 20
4.3591122736
 30
0.0
 10
4.9715668121
 20
4.3560936966
 30
0.0
 10
4.9702238848
 20
4.3528442373
 30
0.0
 10
4.9693978925
 20
4.3502698608
 30
0.0
 10
4.9687766693
 20
4.3476101711
 30
0.0
 10
4.968375284
 20
4.3448895513
 30
0.0
 10
4.968202866
 20
4.3421348932
 30
0.0
 10
4.9682588058
 20
4.3393733315
 30
0.0
 10
4.968545948
 20
4.3366319232
 30
0.0
 10
4.9690576711
 20
4.3339377856
 30
0.0
 10
4.9697810341
 20
4.3313161187
 30
0.0
 10
4.9707064698
 20
4.328793084
 30
0.0
 10
4.9718124075
 20
4.3263913429
 30
0.0
 10
4.973071676
 20
4.3241297057
 30
0.0
 10
4.9744610116
 20
4.3220272436
 30
0.0
 10
4.9759514467
 20
4.3200968735
 30
0.0
 10
4.9775072672
 20
4.3183419684
 30
0.0
 10
4.9790968883
 20
4.3167638165
 30
0.0
 10
4.9806947354
 20
4.3153590428
 30
0.0
 10
4.9822801527
 20
4.314116866
 30
0.0
 10
4.9838373209
 20
4.3130214532
 30
0.0
 10
4.9853527769
 20
4.3120537335
 30
0.0
 10
4.9868214173
 20
4.3111971562
 30
0.0
 10
4.9886806098
 20
4.310207158
 30
0.0
 10
4.9900775358
 20
4.3095538385
 30
0.0
 10
4.9909981268
 20
4.3091516763
 30
0.0
  0
SPLINE
  5
3A3
100
AcDbEntity
  8
ALL_ASSEMBLY_MEMBERS
100
AcDbSpline
 62
7
  6
CONTINUOUS
 70
0
 71
3
 72
35
 73
31
 74
0
 42
0.0000001
 43
0.0000001
 44
0.0000000001
 40
0.0
 40
0.0
 40
0.0
 40
0.0
 40
0.0021331251
 40
0.004425125
 40
0.0070049484
 40
0.009963467
 40
0.013360708
 40
0.0172358466
 40
0.0216147224
 40
0.0265136781
 40
0.0319427117
 40
0.0379081474
 40
0.0514606554
 40
0.0671853496
 40
0.0850701995
 40
0.1050875829
 40
0.1272043434
 40
0.1513774177
 40
0.177552878
 40
0.2056746522
 40
0.2356814633
 40
0.3010624307
 40
0.3730938103
 40
0.4510953751
 40
0.5343321594
 40
0.6220159852
 40
0.7133026925
 40
0.8073275915
 40
0.9032246861
 40
1.0
 40
1.0
 40
1.0
 40
1.0
 10
5.0602329193
 20
3.948437684
 30
0.0
 10
5.0602329193
 20
3.948538487
 30
0.0
 10
5.0602637306
 20
3.9487485769
 30
0.0
 10
5.0603978093
 20
3.9490545543
 30
0.0
 10
5.0606160878
 20
3.949356024
 30
0.0
 10
5.060916816
 20
3.9496543801
 30
0.0
 10
5.0612997899
 20
3.9499509483
 30
0.0
 10
5.0617652146
 20
3.9502462513
 30
0.0
 10
5.0623132447
 20
3.9505404073
 30
0.0
 10
5.0629437985
 20
3.9508333818
 30
0.0
 10
5.0636566063
 20
3.9511250961
 30
0.0
 10
5.0647642224
 20
3.9515294756
 30
0.0
 10
5.0663558094
 20
3.9520231118
 30
0.0
 10
5.0685127797
 20
3.9525859252
 30
0.0
 10
5.0709861259
 20
3.9531398598
 30
0.0
 10
5.073770072
 20
3.9536835302
 30
0.0
 10
5.0768582692
 20
3.9542152168
 30
0.0
 10
5.0802434093
 20
3.954733494
 30
0.0
 10
5.0839173748
 20
3.9552371281
 30
0.0
 10
5.0878714
 20
3.9557247663
 30
0.0
 10
5.0936722602
 20
3.9563704257
 30
0.0
 10
5.1015487725
 20
3.9571199076
 30
0.0
 10
5.1116976608
 20
3.9579147765
 30
0.0
 10
5.1226987562
 20
3.9586207041
 30
0.0
 10
5.13444627
 20
3.9592304721
 30
0.0
 10
5.1468269782
 20
3.959737804
 30
0.0
 10
5.1597216498
 20
3.9601378344
 30
0.0
 10
5.1730075046
 20
3.9604264369
 30
0.0
 10
5.1865547225
 20
3.9606006186
 30
0.0
 10
5.1956597027
 20
3.960639488
 30
0.0
 10
5.2002329193
 20
3.960639488
 30
0.0
  0
SPLINE
  5
3A4
100
AcDbEntity
  8
ALL_ASSEMBLY_MEMBERS
100
AcDbSpline
 62
7
  6
CONTINUOUS
 70
0
 71
3
 72
35
 73
31
 74
0
 42
0.0000001
 43
0.0000001
 44
0.0000000001
 40
0.0
 40
0.0
 40
0.0
 40
0.0
 40
0.0967753139
 40
0.1926724085
 40
0.2866973075
 40
0.3779840148
 40
0.4656678406
 40
0.5489046249
 40
0.6269061897
 40
0.6989375693
 40
0.7643185367
 40
0.7943253478
 40
0.822447122
 40
0.8486225823
 40
0.8727956566
 40
0.8949124171
 40
0.9149298005
 40
0.9328146504
 40
0.9485393446
 40
0.9620918526
 40
0.9680572883
 40
0.9734863219
 40
0.9783852776
 40
0.9827641534
 40
0.986639292
 40
0.990036533
 40
0.9929950516
 40
0.995574875
 40
0.9978668749
 40
1.0
 40
1.0
 40
1.0
 40
1.0
 10
5.2002329193
 20
3.93623588
 30
0.0
 10
5.1956597027
 20
3.93623588
 30
0.0
 10
5.1865547225
 20
3.9362747494
 30
0.0
 10
5.1730075046
 20
3.9364489311
 30
0.0
 10
5.1597216498
 20
3.9367375336
 30
0.0
 10
5.1468269782
 20
3.937137564
 30
0.0
 10
5.13444627
 20
3.9376448959
 30
0.0
 10
5.1226987562
 20
3.9382546639
 30
0.0
 10
5.1116976608
 20
3.9389605915
 30
0.0
 10
5.1015487725
 20
3.9397554604
 30
0.0
 10
5.0936722602
 20
3.9405049423
 30
0.0
 10
5.0878714
 20
3.9411506017
 30
0.0
 10
5.0839173748
 20
3.9416382399
 30
0.0
 10
5.0802434093
 20
3.942141874
 30
0.0
 10
5.0768582692
 20
3.9426601512
 30
0.0
 10
5.073770072
 20
3.9431918378
 30
0.0
 10
5.0709861259
 20
3.9437355082
 30
0.0
 10
5.0685127797
 20
3.9442894428
 30
0.0
 10
5.0663558094
 20
3.9448522562
 30
0.0
 10
5.0647642224
 20
3.9453458924
 30
0.0
 10
5.0636566063
 20
3.9457502719
 30
0.0
 10
5.0629437985
 20
3.9460419862
 30
0.0
 10
5.0623132447
 20
3.9463349607
 30
0.0
 10
5.0617652146
 20
3.9466291167
 30
0.0
 10
5.0612997899
 20
3.9469244197
 30
0.0
 10
5.060916816
 20
3.9472209879
 30
0.0
 10
5.0606160878
 20
3.947519344
 30
0.0
 10
5.0603978093
 20
3.9478208137
 30
0.0
 10
5.0602637306
 20
3.9481267911
 30
0.0
 10
5.0602329193
 20
3.948336881
 30
0.0
 10
5.0602329193
 20
3.948437684
 30
0.0
  0
SPLINE
  5
3A5
100
AcDbEntity
  8
ALL_ASSEMBLY_MEMBERS
100
AcDbSpline
 62
7
  6
CONTINUOUS
 70
0
 71
3
 72
65
 73
61
 74
0
 42
0.0000001
 43
0.0000001
 44
0.0000000001
 40
0.0
 40
0.0
 40
0.0
 40
0.0
 40
0.049189523
 40
0.0979561248
 40
0.1458252727
 40
0.1923808897
 40
0.2372055599
 40
0.2798928543
 40
0.3200608189
 40
0.3573520239
 40
0.3914340205
 40
0.4071774626
 40
0.4220085427
 40
0.4358967763
 40
0.4488127059
 40
0.460728793
 40
0.4716230546
 40
0.481475732
 40
0.4902697651
 40
0.4979958268
 40
0.501457432
 40
0.5046514649
 40
0.5075788804
 40
0.5102420333
 40
0.5126450244
 40
0.5147938839
 40
0.516697532
 40
0.5183693607
 40
0.5198297797
 40
0.5211102443
 40
0.5222578805
 40
0.5233374184
 40
0.5244258058
 40
0.5255982497
 40
0.5269156399
 40
0.5284212723
 40
0.530143687
 40
0.5321014304
 40
0.5343067092
 40
0.5367676834
 40
0.5394898845
 40
0.54247704
 40
0.5457311113
 40
0.5492528645
 40
0.5570991122
 40
0.5660126428
 40
0.5759832173
 40
0.5869932318
 40
0.5990227713
 40
0.6120493337
 40
0.6260449183
 40
0.6568233738
 40
0.6910936787
 40
0.7285555219
 40
0.7688746863
 40
0.8116922366
 40
0.8566251379
 40
0.9032655189
 40
0.9511961622
 40
1.0
 40
1.0
 40
1.0
 40
1.0
 10
5.2002329193
 20
3.9346169852
 30
0.0
 10
5.2052650864
 20
3.9346169852
 30
0.0
 10
5.2152862055
 20
3.9346585382
 30
0.0
 10
5.2302033707
 20
3.9348448319
 30
0.0
 10
5.2448490132
 20
3.9351535882
 30
0.0
 10
5.259088219
 20
3.9355817976
 30
0.0
 10
5.2727930015
 20
3.9361253367
 30
0.0
 10
5.2858387454
 20
3.9367792361
 30
0.0
 10
5.2981068477
 20
3.9375372409
 30
0.0
 10
5.3094859875
 20
3.9383920399
 30
0.0
 10
5.3183621532
 20
3.9391979513
 30
0.0
 10
5.3249401705
 20
3.9398923786
 30
0.0
 10
5.3294583428
 20
3.9404185839
 30
0.0
 10
5.3336829279
 20
3.9409626167
 30
0.0
 10
5.337604353
 20
3.9415231995
 30
0.0
 10
5.3412137415
 20
3.9420991047
 30
0.0
 10
5.3445030213
 20
3.9426887762
 30
0.0
 10
5.3474649251
 20
3.9432906242
 30
0.0
 10
5.3500928195
 20
3.943903353
 30
0.0
 10
5.3520662201
 20
3.9444391833
 30
0.0
 10
5.3534709092
 20
3.944877309
 30
0.0
 10
5.3543983132
 20
3.9451956375
 30
0.0
 10
5.3552382895
 20
3.9455156658
 30
0.0
 10
5.3559904485
 20
3.945837233
 30
0.0
 10
5.3566545698
 20
3.9461601331
 30
0.0
 10
5.3572305388
 20
3.9464842407
 30
0.0
 10
5.3577183326
 20
3.9468095361
 30
0.0
 10
5.3581180179
 20
3.9471362316
 30
0.0
 10
5.358429624
 20
3.9474650325
 30
0.0
 10
5.3586526379
 20
3.9477973291
 30
0.0
 10
5.3587850074
 20
3.9481346217
 30
0.0
 10
5.3588226076
 20
3.9484761078
 30
0.0
 10
5.3587633721
 20
3.9488169605
 30
0.0
 10
5.3586103327
 20
3.9491530582
 30
0.0
 10
5.3583673254
 20
3.9494844258
 30
0.0
 10
5.3580359213
 20
3.949812653
 30
0.0
 10
5.3576164581
 20
3.9501389972
 30
0.0
 10
5.3571088641
 20
3.9504640178
 30
0.0
 10
5.3565130924
 20
3.9507878614
 30
0.0
 10
5.3558291862
 20
3.9511104752
 30
0.0
 10
5.355057281
 20
3.9514317179
 30
0.0
 10
5.3541976292
 20
3.9517513727
 30
0.0
 10
5.3532506577
 20
3.9520692951
 30
0.0
 10
5.3518199636
 20
3.9525065207
 30
0.0
 10
5.3498145489
 20
3.9530412993
 30
0.0
 10
5.3471488597
 20
3.953652893
 30
0.0
 10
5.3441498513
 20
3.9542534419
 30
0.0
 10
5.3408242501
 20
3.9548416494
 30
0.0
 10
5.337179405
 20
3.9554159019
 30
0.0
 10
5.333223482
 20
3.9559747061
 30
0.0
 10
5.327357568
 20
3.9567213821
 30
0.0
 10
5.3193178522
 20
3.9575951372
 30
0.0
 10
5.3088724951
 20
3.9585338209
 30
0.0
 10
5.2974405869
 20
3.9593833027
 30
0.0
 10
5.2851258174
 20
3.9601356676
 30
0.0
 10
5.272039856
 20
3.9607835299
 30
0.0
 10
5.2583017317
 20
3.9613207082
 30
0.0
 10
5.2440362806
 20
3.9617423117
 30
0.0
 10
5.2293717318
 20
3.9620442628
 30
0.0
 10
5.2194762144
 20
3.9621631657
 30
0.0
 10
5.2144836578
 20
3.9622024203
 30
0.0
  0
SPLINE
  5
3A6
100
AcDbEntity
  8
ALL_ASSEMBLY_MEMBERS
100
AcDbSpline
 62
7
  6
CONTINUOUS
 70
0
 71
3
 72
37
 73
33
 74
0
 42
0.0000001
 43
0.0000001
 44
0.0000000001
 40
0.0
 40
0.0
 40
0.0
 40
0.0
 40
0.0021243258
 40
0.0043558587
 40
0.0068381305
 40
0.009676222
 40
0.0129404568
 40
0.0166766723
 40
0.0209147848
 40
0.0256735658
 40
0.0309649012
 40
0.03679647
 40
0.0431731358
 40
0.0500978227
 40
0.0655926833
 40
0.0832707162
 40
0.1031084155
 40
0.1250729502
 40
0.1491181842
 40
0.1751939905
 40
0.2032441843
 40
0.2332028343
 40
0.2650020757
 40
0.29856853
 40
0.3706776278
 40
0.4488480808
 40
0.5323320557
 40
0.6203292235
 40
0.7119908097
 40
0.8064284007
 40
0.9027595989
 40
1.0
 40
1.0
 40
1.0
 40
1.0
 10
5.374226441
 20
3.9622334647
 30
0.0
 10
5.3742387514
 20
3.962357716
 30
0.0
 10
5.3742271811
 20
3.9626176234
 30
0.0
 10
5.3740967873
 20
3.9630023844
 30
0.0
 10
5.3738590554
 20
3.9633809569
 30
0.0
 10
5.3735173089
 20
3.9637548644
 30
0.0
 10
5.3730722274
 20
3.9641260994
 30
0.0
 10
5.372523615
 20
3.9644955779
 30
0.0
 10
5.3718712506
 20
3.9648635836
 30
0.0
 10
5.3711152052
 20
3.9652301691
 30
0.0
 10
5.3702557359
 20
3.9655952012
 30
0.0
 10
5.3692932129
 20
3.9659584607
 30
0.0
 10
5.3682280753
 20
3.9663197394
 30
0.0
 10
5.3666101221
 20
3.9668172512
 30
0.0
 10
5.3643321871
 20
3.9674249066
 30
0.0
 10
5.3612942194
 20
3.9681188622
 30
0.0
 10
5.3578647835
 20
3.9687999515
 30
0.0
 10
5.3540520298
 20
3.9694662185
 30
0.0
 10
5.3498650271
 20
3.9701160119
 30
0.0
 10
5.3453138608
 20
3.9707475051
 30
0.0
 10
5.3404095291
 20
3.9713589783
 30
0.0
 10
5.335163929
 20
3.9719490154
 30
0.0
 10
5.3295898052
 20
3.9725160339
 30
0.0
 10
5.3215435347
 20
3.9732571843
 30
0.0
 10
5.3107707937
 20
3.9741075213
 30
0.0
 10
5.2970593245
 20
3.9749937632
 30
0.0
 10
5.2824054279
 20
3.9757593786
 30
0.0
 10
5.2669517793
 20
3.9763966521
 30
0.0
 10
5.2508490512
 20
3.9768990712
 30
0.0
 10
5.2342526232
 20
3.9772616359
 30
0.0
 10
5.2173257756
 20
3.9774805269
 30
0.0
 10
5.2059483307
 20
3.9775293262
 30
0.0
 10
5.2002329193
 20
3.9775293262
 30
0.0
  0
SPLINE
  5
3A7
100
AcDbEntity
  8
ALL_ASSEMBLY_MEMBERS
100
AcDbSpline
 62
7
  6
CONTINUOUS
 70
0
 71
3
 72
28
 73
24
 74
0
 42
0.0000001
 43
0.0000001
 44
0.0000000001
 40
0.0
 40
0.0
 40
0.0
 40
0.0
 40
0.0077438979
 40
0.0157905641
 40
0.0245837199
 40
0.034466951
 40
0.0456818058
 40
0.0583905168
 40
0.0727020967
 40
0.0886906014
 40
0.1064070877
 40
0.1258871599
 40
0.1471534992
 40
0.1702184598
 40
0.2217640241
 40
0.280541261
 40
0.3465142949
 40
0.4195966942
 40
0.4996834145
 40
0.5866508263
 40
0.680341159
 40
0.780586832
 40
1.0
 40
1.0
 40
1.0
 40
1.0
 10
5.4087249844
 20
4.3109285447
 30
0.0
 10
5.4087382927
 20
4.3110631616
 30
0.0
 10
5.408729901
 20
4.3113425047
 30
0.0
 10
5.4086075312
 20
4.3117582649
 30
0.0
 10
5.4083793063
 20
4.3121690259
 30
0.0
 10
5.4080481008
 20
4.3125753564
 30
0.0
 10
5.4076149899
 20
4.3129788708
 30
0.0
 10
5.4070801593
 20
4.3133805329
 30
0.0
 10
5.4064435495
 20
4.3137807581
 30
0.0
 10
5.4057051386
 20
4.3141796284
 30
0.0
 10
5.4048649882
 20
4.3145770667
 30
0.0
 10
5.4039232689
 20
4.3149728814
 30
0.0
 10
5.4028803312
 20
4.3153669124
 30
0.0
 10
5.4012957769
 20
4.3159099635
 30
0.0
 10
5.3990617006
 20
4.3165751735
 30
0.0
 10
5.3960773407
 20
4.3173373261
 30
0.0
 10
5.3927035822
 20
4.3180880344
 30
0.0
 10
5.3889469868
 20
4.3188258615
 30
0.0
 10
5.3848147476
 20
4.3195490176
 30
0.0
 10
5.3803149498
 20
4.3202558011
 30
0.0
 10
5.3754564953
 20
4.3209448907
 30
0.0
 10
5.3682948104
 20
4.3218659673
 30
0.0
 10
5.3627443672
 20
4.3224812393
 30
0.0
 10
5.3589314768
 20
4.3228712411
 30
0.0
  0
LINE
  5
3A8
100
AcDbEntity
  8
ALL_ASSEMBLY_MEMBERS
100
AcDbLine
 62
7
  6
CONTINUOUS
 10
5.3464624015
 20
4.3240386801
 11
5.3459769113
 21
4.3240801747
  0
LINE
  5
3A9
100
AcDbEntity
  8
ALL_ASSEMBLY_MEMBERS
100
AcDbLine
 62
7
  6
CONTINUOUS
 10
5.3459769113
 20
4.3240801747
 11
5.3453973811
 21
4.3241293545
  0
SPLINE
  5
3AA
100
AcDbEntity
  8
ALL_ASSEMBLY_MEMBERS
100
AcDbSpline
 62
7
  6
CONTINUOUS
 70
0
 71
3
 72
15
 73
11
 74
0
 42
0.0000001
 43
0.0000001
 44
0.0000000001
 40
0.0
 40
0.0
 40
0.0
 40
0.0
 40
0.1039403328
 40
0.2160910445
 40
0.3354298917
 40
0.4608687446
 40
0.5912577488
 40
0.7253932654
 40
0.862081526
 40
1.0
 40
1.0
 40
1.0
 40
1.0
 10
5.3453973811
 20
4.3241293545
 30
0.0
 10
5.3403813259
 20
4.3245533763
 30
0.0
 10
5.3299455412
 20
4.3253479179
 30
0.0
 10
5.3137315932
 20
4.326362011
 30
0.0
 10
5.2964669557
 20
4.3272371976
 30
0.0
 10
5.2783114939
 20
4.327965006
 30
0.0
 10
5.2594335666
 20
4.3285383892
 30
0.0
 10
5.2400065332
 20
4.3289519606
 30
0.0
 10
5.2202120392
 20
4.3292015744
 30
0.0
 10
5.2069124634
 20
4.3292572062
 30
0.0
 10
5.2002329193
 20
4.3292572062
 30
0.0
  0
SPLINE
  5
3AB
100
AcDbEntity
  8
ALL_ASSEMBLY_MEMBERS
100
AcDbSpline
 62
7
  6
CONTINUOUS
 70
0
 71
3
 72
37
 73
33
 74
0
 42
0.0000001
 43
0.0000001
 44
0.0000000001
 40
0.0
 40
0.0
 40
0.0
 40
0.0
 40
0.0021243258
 40
0.0043558587
 40
0.0068381305
 40
0.009676222
 40
0.0129404568
 40
0.0166766723
 40
0.0209147848
 40
0.0256735658
 40
0.0309649012
 40
0.03679647
 40
0.0431731358
 40
0.0500978227
 40
0.0655926833
 40
0.0832707162
 40
0.1031084155
 40
0.1250729502
 40
0.1491181842
 40
0.1751939905
 40
0.2032441843
 40
0.2332028343
 40
0.2650020757
 40
0.29856853
 40
0.3706776278
 40
0.4488480808
 40
0.5323320557
 40
0.6203292235
 40
0.7119908097
 40
0.8064284007
 40
0.9027595989
 40
1.0
 40
1.0
 40
1.0
 40
1.0
 10
5.0262393975
 20
3.9622334647
 30
0.0
 10
5.0262270871
 20
3.962357716
 30
0.0
 10
5.0262386574
 20
3.9626176234
 30
0.0
 10
5.0263690512
 20
3.9630023844
 30
0.0
 10
5.0266067832
 20
3.9633809569
 30
0.0
 10
5.0269485296
 20
3.9637548644
 30
0.0
 10
5.0273936111
 20
3.9641260994
 30
0.0
 10
5.0279422235
 20
3.9644955779
 30
0.0
 10
5.0285945879
 20
3.9648635836
 30
0.0
 10
5.0293506333
 20
3.9652301691
 30
0.0
 10
5.0302101026
 20
3.9655952012
 30
0.0
 10
5.0311726256
 20
3.9659584607
 30
0.0
 10
5.0322377632
 20
3.9663197394
 30
0.0
 10
5.0338557164
 20
3.9668172512
 30
0.0
 10
5.0361336514
 20
3.9674249066
 30
0.0
 10
5.0391716192
 20
3.9681188622
 30
0.0
 10
5.042601055
 20
3.9687999515
 30
0.0
 10
5.0464138088
 20
3.9694662185
 30
0.0
 10
5.0506008114
 20
3.9701160119
 30
0.0
 10
5.0551519777
 20
3.9707475051
 30
0.0
 10
5.0600563094
 20
3.9713589783
 30
0.0
 10
5.0653019095
 20
3.9719490154
 30
0.0
 10
5.0708760333
 20
3.9725160339
 30
0.0
 10
5.0789223038
 20
3.9732571843
 30
0.0
 10
5.0896950448
 20
3.9741075213
 30
0.0
 10
5.103406514
 20
3.9749937632
 30
0.0
 10
5.1180604106
 20
3.9757593786
 30
0.0
 10
5.1335140592
 20
3.9763966521
 30
0.0
 10
5.1496167873
 20
3.9768990712
 30
0.0
 10
5.1662132153
 20
3.9772616359
 30
0.0
 10
5.1831400629
 20
3.9774805269
 30
0.0
 10
5.1945175078
 20
3.9775293262
 30
0.0
 10
5.2002329193
 20
3.9775293262
 30
0.0
  0
SPLINE
  5
3AC
100
AcDbEntity
  8
ALL_ASSEMBLY_MEMBERS
100
AcDbSpline
 62
7
  6
CONTINUOUS
 70
0
 71
3
 72
28
 73
24
 74
0
 42
0.0000001
 43
0.0000001
 44
0.0000000001
 40
0.0
 40
0.0
 40
0.0
 40
0.0
 40
0.0077438979
 40
0.0157905641
 40
0.0245837199
 40
0.034466951
 40
0.0456818058
 40
0.0583905168
 40
0.0727020967
 40
0.0886906014
 40
0.1064070877
 40
0.1258871599
 40
0.1471534992
 40
0.1702184598
 40
0.2217640241
 40
0.280541261
 40
0.3465142949
 40
0.4195966942
 40
0.4996834145
 40
0.5866508263
 40
0.680341159
 40
0.780586832
 40
1.0
 40
1.0
 40
1.0
 40
1.0
 10
4.9917408541
 20
4.3109285447
 30
0.0
 10
4.9917275458
 20
4.3110631616
 30
0.0
 10
4.9917359375
 20
4.3113425047
 30
0.0
 10
4.9918583074
 20
4.3117582649
 30
0.0
 10
4.9920865322
 20
4.3121690259
 30
0.0
 10
4.9924177377
 20
4.3125753564
 30
0.0
 10
4.9928508486
 20
4.3129788708
 30
0.0
 10
4.9933856792
 20
4.3133805329
 30
0.0
 10
4.994022289
 20
4.3137807581
 30
0.0
 10
4.9947606999
 20
4.3141796284
 30
0.0
 10
4.9956008503
 20
4.3145770667
 30
0.0
 10
4.9965425696
 20
4.3149728814
 30
0.0
 10
4.9975855074
 20
4.3153669124
 30
0.0
 10
4.9991700616
 20
4.3159099635
 30
0.0
 10
5.0014041379
 20
4.3165751735
 30
0.0
 10
5.0043884978
 20
4.3173373261
 30
0.0
 10
5.0077622563
 20
4.3180880344
 30
0.0
 10
5.0115188517
 20
4.3188258615
 30
0.0
 10
5.0156510909
 20
4.3195490176
 30
0.0
 10
5.0201508887
 20
4.3202558011
 30
0.0
 10
5.0250093432
 20
4.3209448907
 30
0.0
 10
5.0321710281
 20
4.3218659673
 30
0.0
 10
5.0377214713
 20
4.3224812393
 30
0.0
 10
5.0415343617
 20
4.3228712411
 30
0.0
  0
LINE
  5
3AD
100
AcDbEntity
  8
ALL_ASSEMBLY_MEMBERS
100
AcDbLine
 62
7
  6
CONTINUOUS
 10
5.0466847859
 20
4.3233785865
 11
5.0478536207
 21
4.3234885707
  0
LINE
  5
3AE
100
AcDbEntity
  8
ALL_ASSEMBLY_MEMBERS
100
AcDbLine
 62
7
  6
CONTINUOUS
 10
5.0535315785
 20
4.3239980901
 11
5.0544889272
 21
4.3240801747
  0
LINE
  5
3AF
100
AcDbEntity
  8
ALL_ASSEMBLY_MEMBERS
100
AcDbLine
 62
7
  6
CONTINUOUS
 10
5.0544889272
 20
4.3240801747
 11
5.0559870597
 21
4.3242065329
  0
SPLINE
  5
3B0
100
AcDbEntity
  8
ALL_ASSEMBLY_MEMBERS
100
AcDbSpline
 62
7
  6
CONTINUOUS
 70
0
 71
3
 72
15
 73
11
 74
0
 42
0.0000001
 43
0.0000001
 44
0.0000000001
 40
0.0
 40
0.0
 40
0.0
 40
0.0
 40
0.1042890147
 40
0.2166558038
 40
0.3360924334
 40
0.4615268228
 40
0.591826795
 40
0.7258091037
 40
0.8623008902
 40
1.0
 40
1.0
 40
1.0
 40
1.0
 10
5.0559870597
 20
4.3242065329
 30
0.0
 10
5.0609884397
 20
4.3246241711
 30
0.0
 10
5.0713857733
 20
4.3254068294
 30
0.0
 10
5.0875293063
 20
4.326406145
 30
0.0
 10
5.1046996855
 20
4.3272682761
 30
0.0
 10
5.1227404159
 20
4.3279850339
 30
0.0
 10
5.1414868451
 20
4.3285495981
 30
0.0
 10
5.1607695817
 20
4.3289567387
 30
0.0
 10
5.1804111272
 20
4.3292024449
 30
0.0
 10
5.1936063104
 20
4.3292572062
 30
0.0
 10
5.2002329193
 20
4.3292572062
 30
0.0
  0
SPLINE
  5
3B1
100
AcDbEntity
  8
ALL_ASSEMBLY_MEMBERS
100
AcDbSpline
 62
7
  6
CONTINUOUS
 70
0
 71
3
 72
65
 73
61
 74
0
 42
0.0000001
 43
0.0000001
 44
0.0000000001
 40
0.0
 40
0.0
 40
0.0
 40
0.0
 40
0.049189523
 40
0.0979561248
 40
0.1458252727
 40
0.1923808897
 40
0.2372055599
 40
0.2798928543
 40
0.3200608189
 40
0.3573520239
 40
0.3914340205
 40
0.4071774626
 40
0.4220085427
 40
0.4358967763
 40
0.4488127059
 40
0.460728793
 40
0.4716230546
 40
0.481475732
 40
0.4902697651
 40
0.4979958268
 40
0.501457432
 40
0.5046514649
 40
0.5075788804
 40
0.5102420333
 40
0.5126450244
 40
0.5147938839
 40
0.516697532
 40
0.5183693607
 40
0.5198297797
 40
0.5211102443
 40
0.5222578805
 40
0.5233374184
 40
0.5244258058
 40
0.5255982497
 40
0.5269156399
 40
0.5284212723
 40
0.530143687
 40
0.5321014304
 40
0.5343067092
 40
0.5367676834
 40
0.5394898845
 40
0.54247704
 40
0.5457311113
 40
0.5492528645
 40
0.5570991122
 40
0.5660126428
 40
0.5759832173
 40
0.5869932318
 40
0.5990227713
 40
0.6120493337
 40
0.6260449183
 40
0.6568233738
 40
0.6910936787
 40
0.7285555219
 40
0.7688746863
 40
0.8116922366
 40
0.8566251379
 40
0.9032655189
 40
0.9511961622
 40
1.0
 40
1.0
 40
1.0
 40
1.0
 10
5.2002329193
 20
3.9346169852
 30
0.0
 10
5.1952007521
 20
3.9346169852
 30
0.0
 10
5.185179633
 20
3.9346585382
 30
0.0
 10
5.1702624679
 20
3.9348448319
 30
0.0
 10
5.1556168253
 20
3.9351535882
 30
0.0
 10
5.1413776195
 20
3.9355817976
 30
0.0
 10
5.127672837
 20
3.9361253367
 30
0.0
 10
5.1146270931
 20
3.9367792361
 30
0.0
 10
5.1023589908
 20
3.9375372409
 30
0.0
 10
5.0909798511
 20
3.9383920399
 30
0.0
 10
5.0821036853
 20
3.9391979513
 30
0.0
 10
5.075525668
 20
3.9398923786
 30
0.0
 10
5.0710074957
 20
3.9404185839
 30
0.0
 10
5.0667829106
 20
3.9409626167
 30
0.0
 10
5.0628614855
 20
3.9415231995
 30
0.0
 10
5.059252097
 20
3.9420991047
 30
0.0
 10
5.0559628173
 20
3.9426887762
 30
0.0
 10
5.0530009134
 20
3.9432906242
 30
0.0
 10
5.050373019
 20
3.943903353
 30
0.0
 10
5.0483996184
 20
3.9444391833
 30
0.0
 10
5.0469949293
 20
3.944877309
 30
0.0
 10
5.0460675253
 20
3.9451956375
 30
0.0
 10
5.045227549
 20
3.9455156658
 30
0.0
 10
5.04447539
 20
3.945837233
 30
0.0
 10
5.0438112687
 20
3.9461601331
 30
0.0
 10
5.0432352997
 20
3.9464842407
 30
0.0
 10
5.0427475059
 20
3.9468095361
 30
0.0
 10
5.0423478206
 20
3.9471362316
 30
0.0
 10
5.0420362145
 20
3.9474650325
 30
0.0
 10
5.0418132006
 20
3.9477973291
 30
0.0
 10
5.0416808311
 20
3.9481346217
 30
0.0
 10
5.0416432309
 20
3.9484761078
 30
0.0
 10
5.0417024664
 20
3.9488169605
 30
0.0
 10
5.0418555058
 20
3.9491530582
 30
0.0
 10
5.0420985131
 20
3.9494844258
 30
0.0
 10
5.0424299172
 20
3.949812653
 30
0.0
 10
5.0428493804
 20
3.9501389972
 30
0.0
 10
5.0433569744
 20
3.9504640178
 30
0.0
 10
5.0439527461
 20
3.9507878614
 30
0.0
 10
5.0446366523
 20
3.9511104752
 30
0.0
 10
5.0454085575
 20
3.9514317179
 30
0.0
 10
5.0462682093
 20
3.9517513727
 30
0.0
 10
5.0472151808
 20
3.9520692951
 30
0.0
 10
5.0486458749
 20
3.9525065207
 30
0.0
 10
5.0506512896
 20
3.9530412993
 30
0.0
 10
5.0533169788
 20
3.953652893
 30
0.0
 10
5.0563159872
 20
3.9542534419
 30
0.0
 10
5.0596415884
 20
3.9548416494
 30
0.0
 10
5.0632864335
 20
3.9554159019
 30
0.0
 10
5.0672423565
 20
3.9559747061
 30
0.0
 10
5.0731082706
 20
3.9567213821
 30
0.0
 10
5.0811479863
 20
3.9575951372
 30
0.0
 10
5.0915933434
 20
3.9585338209
 30
0.0
 10
5.1030252516
 20
3.9593833027
 30
0.0
 10
5.1153400211
 20
3.9601356676
 30
0.0
 10
5.1284259825
 20
3.9607835299
 30
0.0
 10
5.1421641068
 20
3.9613207082
 30
0.0
 10
5.156429558
 20
3.9617423117
 30
0.0
 10
5.1710941067
 20
3.9620442628
 30
0.0
 10
5.1809896241
 20
3.9621631657
 30
0.0
 10
5.1859821808
 20
3.9622024203
 30
0.0
  0
SPLINE
  5
3B2
100
AcDbEntity
  8
ALL_ASSEMBLY_MEMBERS
100
AcDbSpline
 62
7
  6
CONTINUOUS
 70
0
 71
3
 72
35
 73
31
 74
0
 42
0.0000001
 43
0.0000001
 44
0.0000000001
 40
0.0
 40
0.0
 40
0.0
 40
0.0
 40
0.0021331251
 40
0.004425125
 40
0.0070049484
 40
0.009963467
 40
0.013360708
 40
0.0172358466
 40
0.0216147224
 40
0.0265136781
 40
0.0319427117
 40
0.0379081474
 40
0.0514606554
 40
0.0671853496
 40
0.0850701995
 40
0.1050875829
 40
0.1272043434
 40
0.1513774177
 40
0.177552878
 40
0.2056746522
 40
0.2356814633
 40
0.3010624307
 40
0.3730938103
 40
0.4510953751
 40
0.5343321594
 40
0.6220159852
 40
0.7133026925
 40
0.8073275915
 40
0.9032246861
 40
1.0
 40
1.0
 40
1.0
 40
1.0
 10
5.3402329193
 20
3.948437684
 30
0.0
 10
5.3402329193
 20
3.948336881
 30
0.0
 10
5.3402021079
 20
3.9481267911
 30
0.0
 10
5.3400680292
 20
3.9478208137
 30
0.0
 10
5.3398497508
 20
3.947519344
 30
0.0
 10
5.3395490225
 20
3.9472209879
 30
0.0
 10
5.3391660487
 20
3.9469244197
 30
0.0
 10
5.3387006239
 20
3.9466291167
 30
0.0
 10
5.3381525938
 20
3.9463349607
 30
0.0
 10
5.33752204
 20
3.9460419862
 30
0.0
 10
5.3368092322
 20
3.9457502719
 30
0.0
 10
5.3357016161
 20
3.9453458924
 30
0.0
 10
5.3341100291
 20
3.9448522562
 30
0.0
 10
5.3319530589
 20
3.9442894428
 30
0.0
 10
5.3294797126
 20
3.9437355082
 30
0.0
 10
5.3266957665
 20
3.9431918378
 30
0.0
 10
5.3236075693
 20
3.9426601512
 30
0.0
 10
5.3202224292
 20
3.942141874
 30
0.0
 10
5.3165484637
 20
3.9416382399
 30
0.0
 10
5.3125944385
 20
3.9411506017
 30
0.0
 10
5.3067935783
 20
3.9405049423
 30
0.0
 10
5.298917066
 20
3.9397554604
 30
0.0
 10
5.2887681777
 20
3.9389605915
 30
0.0
 10
5.2777670823
 20
3.9382546639
 30
0.0
 10
5.2660195685
 20
3.9376448959
 30
0.0
 10
5.2536388603
 20
3.937137564
 30
0.0
 10
5.2407441887
 20
3.9367375336
 30
0.0
 10
5.2274583339
 20
3.9364489311
 30
0.0
 10
5.213911116
 20
3.9362747494
 30
0.0
 10
5.2048061358
 20
3.93623588
 30
0.0
 10
5.2002329193
 20
3.93623588
 30
0.0
  0
ENDSEC
  0
SECTION
  2
OBJECTS
  0
DICTIONARY
  5
C
100
AcDbDictionary
280
0
281
1
  3
ACAD_GROUP
350
D
  3
ACAD_MLINESTYLE
350
17
  3
ACAD_LAYOUT
350
1A
  3
ACAD_PLOTSETTINGS
350
19
  3
ACAD_PLOTSTYLENAME
350
E
  0
DICTIONARY
  5
D
102
{ACAD_REACTORS
330
C
102
}
100
AcDbDictionary
280
0
281
1
  0
ACDBDICTIONARYWDFLT
  5
E
102
{ACAD_REACTORS
330
C
102
}
100
AcDbDictionary
281
1
  3
Normal
350
F
100
AcDbDictionaryWithDefault
340
F
  0
DICTIONARY
  5
17
102
{ACAD_REACTORS
330
C
102
}
100
AcDbDictionary
280
0
281
1
  3
Standard
350
18
  0
DICTIONARY
  5
19
102
{ACAD_REACTORS
330
C
102
}
100
AcDbDictionary
281
1
  0
DICTIONARY
  5
1A
102
{ACAD_REACTORS
330
C
102
}
100
AcDbDictionary
281
1
  3
Model
350
3B3
  3
Layout1
350
3B4
  0
ACDBPLACEHOLDER
  5
F
102
{ACAD_REACTORS
330
E
102
}
  0
MLINESTYLE
  5
18
102
{ACAD_REACTORS
330
17
102
}
100
AcDbMlineStyle
  2
STANDARD
 70
0
  3

 62
256
 51
90.0
 52
90.0
 71
2
 49
0.5
 62
256
  6
BYLAYER
 49
-0.5
 62
256
  6
BYLAYER
  0
LAYOUT
  5
3B3
102
{ACAD_REACTORS
330
1A
102
}
100
AcDbPlotSettings
  1

  2
none_device
  4
ANSI_A_(11.00_x_8.50_Inches)
  6

 40
0.0
 41
0.0
 42
0.0
 43
0.0
 44
279.4
 45
215.9
 46
0.0
 47
0.0
 48
0.0
 49
0.0
140
0.0
141
0.0
142
1.0
143
1.0
 70
1024
 72
0
 73
0
 74
0
  7

 75
0
147
1.0
148
0.0
149
0.0
100
AcDbLayout
  1
Model
 70
0
 71
0
 10
0.0
 20
0.0
 11
11.0
 21
8.5
 12
0.0
 22
0.0
 32
0.0
 14
0.0
 24
0.0
 34
0.0
 15
0.0
 25
0.0
 35
0.0
146
0.0
 13
0.0
 23
0.0
 33
0.0
 16
1.0
 26
0.0
 36
0.0
 17
0.0
 27
1.0
 37
0.0
 76
0
330
220
345
0
346
0
  0
LAYOUT
  5
3B4
102
{ACAD_REACTORS
330
1A
102
}
100
AcDbPlotSettings
  1

  2
none_device
  4
ANSI_A_(11.00_x_8.50_Inches)
  6

 40
0.0
 41
0.0
 42
0.0
 43
0.0
 44
279.4
 45
215.9
 46
0.0
 47
0.0
 48
0.0
 49
0.0
140
0.0
141
0.0
142
1.0
143
1.0
 70
0
 72
0
 73
0
 74
0
  7

 75
0
147
1.0
148
0.0
149
0.0
100
AcDbLayout
  1
Layout1
 70
0
 71
1
 10
0.0
 20
0.0
 11
11.0
 21
8.5
 12
0.0
 22
0.0
 32
0.0
 14
0.0
 24
0.0
 34
0.0
 15
0.0
 25
0.0
 35
0.0
146
0.0
 13
0.0
 23
0.0
 33
0.0
 16
1.0
 26
0.0
 36
0.0
 17
0.0
 27
1.0
 37
0.0
 76
0
330
221
345
0
346
0
  0
ENDSEC
  0
EOF
