999
DXF file: E:\BT Custom\CADOUTPUT\_RIGHT.dxf
999
Pro/ENGINEER 2018400 by Parametric Technology Corporation
  0
SECTION
  2
HEADER
  9
$ACADVER
  1
AC1018
  9
$DWGCODEPAGE
  3
ANSI_1252
  9
$EXTMAX
 10
22.0
 20
17.0
 30
0.0
  9
$EXTMIN
 10
0.0
 20
0.0
 30
0.0
  9
$LIMMIN
 10
0.0
 20
0.0
  9
$LIMMAX
 10
22.0
 20
17.0
  9
$VIEWCTR
 10
11.0
 20
8.5
  9
$VIEWSIZE
 40
17.0
  9
$CLAYER
  8
0
  9
$LTSCALE
 40
1.21
  9
$CELTYPE
  6
BYLAYER
  9
$DIMSCALE
 40
1.0
  9
$DIMASZ
 40
0.1
  9
$DIMEXO
 40
0.0625
  9
$DIMDLI
 40
0.836
  9
$DIMEXE
 40
0.125
  9
$DIMCEN
 40
0.198
  9
$DIMLFAC
 40
1.0
  9
$DIMBLK
  1
_FILLED
  9
$DIMALT
 70
1
  9
$DIMALTD
 70
2
  9
$DIMALTTD
 70
2
  9
$DIMALTF
 40
25.4
  9
$DIMTXT
 40
0.08
  9
$DIMTOL
 70
1
  9
$DIMLIM
 70
0
  9
$DIMTFAC
 40
1.0
  9
$DIMTP
 40
0.001
  9
$DIMTM
 40
0.001
  9
$DIMGAP
 40
0.09
  9
$DIMDSEP
 70
46
  9
$AUNITS
 70
0
  9
$PDMODE
 70
3
  9
$PDSIZE
 40
0.06
  9
$HANDSEED
  5
57B
  9
$TILEMODE
 70
1
  9
$MEASUREMENT
 70
0
  9
$INSUNITS
 70
1
  0
ENDSEC
  0
SECTION
  2
CLASSES
  0
CLASS
  1
ACDBDICTIONARYWDFLT
  2
AcDbDictionaryWithDefault
  3
AutoCAD 2000
 90
0
 91
1
280
0
281
0
  0
CLASS
  1
ACDBPLACEHOLDER
  2
AcDbPlaceHolder
  3
AutoCAD 2000
 90
0
 91
1
280
0
281
0
  0
CLASS
  1
LAYOUT
  2
AcDbLayout
  3
AutoCAD 2000
 90
0
 91
0
280
0
281
0
  0
ENDSEC
  0
SECTION
  2
TABLES
  0
TABLE
  2
VPORT
  5
8
100
AcDbSymbolTable
 70
2
  0
VPORT
  5
1F4
100
AcDbSymbolTableRecord
100
AcDbViewportTableRecord
  2
*ACTIVE
 70
0
 10
0.0
 20
0.0
 11
1.0
 21
1.0
 12
11.0
 22
8.5
 13
0.0
 23
0.0
 14
1.0
 24
1.0
 15
0.0
 25
0.0
 16
0.0
 26
0.0
 36
1.0
 17
0.0
 27
0.0
 37
0.0
 40
17.0
 41
1.2941176471
 42
50.0
 43
0.0
 44
0.0
 50
0.0
 51
0.0
 71
0
 72
100
 73
1
 74
1
 75
0
 76
0
 77
0
 78
0
  0
ENDTAB
  0
TABLE
  2
LTYPE
  5
5
100
AcDbSymbolTable
 70
6
  0
LTYPE
  5
14
100
AcDbSymbolTableRecord
100
AcDbLinetypeTableRecord
  2
BYBLOCK
 70
0
  3

 72
65
 73
0
 40
0.0
  0
LTYPE
  5
15
100
AcDbSymbolTableRecord
100
AcDbLinetypeTableRecord
  2
BYLAYER
 70
0
  3

 72
65
 73
0
 40
0.0
  0
LTYPE
  5
16
100
AcDbSymbolTableRecord
100
AcDbLinetypeTableRecord
  2
CONTINUOUS
 70
64
  3
Solid line
 72
65
 73
0
 40
0.0
  0
LTYPE
  5
1F5
100
AcDbSymbolTableRecord
100
AcDbLinetypeTableRecord
  2
CENTER
 70
64
  3
____ _ ____ _ ____ _ ____ _ ____ _ ____ _ ____
 72
65
 73
4
 40
0.6
 49
0.375
 74
0
 49
-0.075
 74
0
 49
0.075
 74
0
 49
-0.075
 74
0
  0
LTYPE
  5
1F6
100
AcDbSymbolTableRecord
100
AcDbLinetypeTableRecord
  2
HIDDEN
 70
64
  3
- - - - - - - - - - - - - - - - - - - -
 72
65
 73
2
 40
0.2
 49
0.1
 74
0
 49
-0.1
 74
0
  0
LTYPE
  5
1F7
100
AcDbSymbolTableRecord
100
AcDbLinetypeTableRecord
  2
PHANTOM
 70
64
  3
_____ _ _ _____ _ _ _____ _ _ _____
 72
65
 73
6
 40
0.8
 49
0.45
 74
0
 49
-0.05
 74
0
 49
0.1
 74
0
 49
-0.05
 74
0
 49
0.1
 74
0
 49
-0.05
 74
0
  0
LTYPE
  5
1F8
100
AcDbSymbolTableRecord
100
AcDbLinetypeTableRecord
  2
DOT
 70
64
  3
. . . . . . . . . . . . . . . . . . . .
 72
65
 73
2
 40
0.2
 49
0.1
 74
0
 49
-0.1
 74
0
  0
LTYPE
  5
1F9
100
AcDbSymbolTableRecord
100
AcDbLinetypeTableRecord
  2
DASHED
 70
64
  3
- - - - - - - - - - - - - - - - - - - -
 72
65
 73
2
 40
0.2
 49
0.1
 74
0
 49
-0.1
 74
0
  0
ENDTAB
  0
TABLE
  2
LAYER
  5
2
100
AcDbSymbolTable
 70
36
  0
LAYER
  5
10
100
AcDbSymbolTableRecord
100
AcDbLayerTableRecord
  2
0
 70
0
 62
7
  6
CONTINUOUS
370
-3
390
F
  0
LAYER
  5
1FA
100
AcDbSymbolTableRecord
100
AcDbLayerTableRecord
  2
DEFAULT_1
 70
0
 62
7
  6
CENTER
370
-3
390
F
  0
LAYER
  5
1FB
100
AcDbSymbolTableRecord
100
AcDbLayerTableRecord
  2
DEFAULT_2
 70
0
 62
8
  6
HIDDEN
370
-3
390
F
  0
LAYER
  5
1FC
100
AcDbSymbolTableRecord
100
AcDbLayerTableRecord
  2
DEFAULT_3
 70
0
 62
7
  6
PHANTOM
370
-3
390
F
  0
LAYER
  5
1FD
100
AcDbSymbolTableRecord
100
AcDbLayerTableRecord
  2
ALL_FEATURES
 70
0
 62
7
  6
CONTINUOUS
370
-3
390
F
  0
LAYER
  5
1FE
100
AcDbSymbolTableRecord
100
AcDbLayerTableRecord
  2
AXES_FEATURES
 70
0
 62
7
  6
CONTINUOUS
370
-3
390
F
  0
LAYER
  5
1FF
100
AcDbSymbolTableRecord
100
AcDbLayerTableRecord
  2
DIMENSIONS
 70
0
 62
7
  6
CONTINUOUS
370
-3
390
F
  0
ENDTAB
  0
TABLE
  2
STYLE
  5
3
100
AcDbSymbolTable
 70
1
  0
STYLE
  5
11
100
AcDbSymbolTableRecord
100
AcDbTextStyleTableRecord
  2
STANDARD
 70
0
 40
0.0
 41
0.8
 50
0.0
 71
0
 42
0.2
  3
txt
  4

  0
STYLE
  5
200
100
AcDbSymbolTableRecord
100
AcDbTextStyleTableRecord
  2
TEXTSTYLE_1
 70
0
 40
0.0
 41
0.8
 50
0.0
 71
0
 42
0.2
  3
gdt
  4

  0
ENDTAB
  0
TABLE
  2
VIEW
  5
6
100
AcDbSymbolTable
 70
0
  0
ENDTAB
  0
TABLE
  2
UCS
  5
7
100
AcDbSymbolTable
 70
0
  0
ENDTAB
  0
TABLE
  2
APPID
  5
9
100
AcDbSymbolTable
 70
1
  0
APPID
  5
201
100
AcDbSymbolTableRecord
100
AcDbRegAppTableRecord
  2
ACAD
 70
0
  0
ENDTAB
  0
TABLE
  2
BLOCK_RECORD
  5
1
100
AcDbSymbolTable
 70
0
  0
BLOCK_RECORD
  5
202
100
AcDbSymbolTableRecord
100
AcDbBlockTableRecord
  2
*Model_Space
  0
BLOCK_RECORD
  5
203
100
AcDbSymbolTableRecord
100
AcDbBlockTableRecord
  2
*Paper_Space
  0
BLOCK_RECORD
  5
204
100
AcDbSymbolTableRecord
100
AcDbBlockTableRecord
  2
_FILLED
  0
ENDTAB
  0
TABLE
  2
DIMSTYLE
  5
A
100
AcDbSymbolTable
 70
1
100
AcDbDimStyleTable
 71
0
  0
DIMSTYLE
105
205
100
AcDbSymbolTableRecord
100
AcDbDimStyleTableRecord
  2
STANDARD
 70
0
  3

  4

 40
1.0
 41
0.1
 42
0.0625
 43
0.38
 44
0.125
 45
0.0
 46
0.0
 47
0.001
 48
0.001
140
0.08
141
0.09
142
0.0
143
25.4
144
1.0
145
0.0
146
1.0
147
0.09
 71
1.0
 72
0.0
 73
1
 74
1
 75
0
 76
0
 77
0
 78
4
 79
1
170
1
171
2
172
0
173
0
174
0
175
0
176
0
177
0
178
0
270
2
179
3
271
3
272
3
273
2
274
2
275
0
280
0
281
0
282
0
283
1
284
4
285
0
286
0
287
3
288
0
340
11
278
46
341
204
342
204
343
204
344
204
  0
ENDTAB
  0
ENDSEC
  0
SECTION
  2
BLOCKS
  0
BLOCK
  5
20
100
AcDbEntity
  8
0
100
AcDbBlockBegin
  2
*Model_Space
 70
0
 10
0.0
 20
0.0
 30
0.0
  3
*Model_Space
  1

  0
ENDBLK
  5
21
100
AcDbEntity
  8
0
100
AcDbBlockEnd
  0
BLOCK
  5
1C
100
AcDbEntity
  8
0
100
AcDbBlockBegin
  2
*Paper_Space
 70
0
 10
0.0
 20
0.0
 30
0.0
  3
*Paper_Space
  1

  0
ENDBLK
  5
1D
100
AcDbEntity
  8
0
100
AcDbBlockEnd
  0
BLOCK
  5
206
100
AcDbEntity
  8
0
100
AcDbBlockBegin
  2
_FILLED
 70
64
 10
0.0
 20
0.0
  3
_FILLED
  1

  0
SOLID
  5
207
100
AcDbEntity
  8
0
  6
BYBLOCK
 62
0
100
AcDbTrace
 10
0.0
 20
0.0
 11
-1.0
 21
0.2
 12
-1.0
 22
-0.2
 13
-1.0
 23
-0.2
  0
ENDBLK
  5
208
100
AcDbEntity
  8
0
  6
BYBLOCK
 62
0
100
AcDbBlockEnd
  0
ENDSEC
  0
SECTION
  2
ENTITIES
  0
LINE
  5
209
100
AcDbEntity
  8
0
100
AcDbLine
 62
7
  6
CONTINUOUS
 10
4.0124933115
 20
10.2833726129
 11
4.0698741166
 21
10.943189618
  0
LINE
  5
20A
100
AcDbEntity
  8
0
100
AcDbLine
 62
7
  6
CONTINUOUS
 10
4.2291861673
 20
11.0909928999
 11
4.3081259761
 21
11.3856002769
  0
LINE
  5
20B
100
AcDbEntity
  8
0
100
AcDbLine
 62
7
  6
CONTINUOUS
 10
4.953630537
 20
10.896878616
 11
5.0325703458
 21
11.1914859931
  0
LINE
  5
20C
100
AcDbEntity
  8
0
100
AcDbLine
 62
7
  6
CONTINUOUS
 10
4.7374819115
 20
10.089112503
 11
5.0176971791
 21
10.6892211938
  0
LINE
  5
20D
100
AcDbEntity
  8
0
100
AcDbLine
 62
7
  6
CONTINUOUS
 10
14.4724764218
 20
4.1420859997
 11
17.3124709117
 21
4.1420859997
  0
LINE
  5
20E
100
AcDbEntity
  8
0
100
AcDbLine
 62
9
  6
CONTINUOUS
 10
16.8692915212
 20
4.165397652
 11
14.9156558123
 21
4.165397652
  0
LINE
  5
20F
100
AcDbEntity
  8
0
100
AcDbLine
 62
7
  6
CONTINUOUS
 10
16.8924736668
 20
4.3290859997
 11
16.8661420944
 21
4.3290859997
  0
LINE
  5
210
100
AcDbEntity
  8
0
100
AcDbLine
 62
7
  6
CONTINUOUS
 10
14.8924736668
 20
4.3290859997
 11
14.9188052391
 21
4.3290859997
  0
LINE
  5
211
100
AcDbEntity
  8
0
100
AcDbLine
 62
9
  6
CONTINUOUS
 10
17.3124736668
 20
4.3292367998
 11
16.8924736668
 21
4.3292367998
  0
LINE
  5
212
100
AcDbEntity
  8
0
100
AcDbLine
 62
9
  6
CONTINUOUS
 10
14.8924736668
 20
4.3292367998
 11
14.4724736668
 21
4.3292367998
  0
LINE
  5
213
100
AcDbEntity
  8
0
100
AcDbLine
 62
9
  6
CONTINUOUS
 10
17.2538300497
 20
4.3920859997
 11
16.8806497947
 21
4.3920859997
  0
LINE
  5
214
100
AcDbEntity
  8
0
100
AcDbLine
 62
9
  6
CONTINUOUS
 10
14.5311172838
 20
4.3920859997
 11
14.9042975388
 21
4.3920859997
  0
LINE
  5
215
100
AcDbEntity
  8
0
100
AcDbLine
 62
9
  6
CONTINUOUS
 10
14.5599736668
 20
4.4230117964
 11
14.9184342336
 21
4.4230117964
  0
LINE
  5
216
100
AcDbEntity
  8
0
100
AcDbLine
 62
9
  6
CONTINUOUS
 10
16.8665131
 20
4.4230117964
 11
17.2249736668
 21
4.4230117964
  0
LINE
  5
217
100
AcDbEntity
  8
0
100
AcDbLine
 62
7
  6
CONTINUOUS
 10
17.2249711146
 20
4.4670859997
 11
16.8452335687
 21
4.4670859997
  0
LINE
  5
218
100
AcDbEntity
  8
0
100
AcDbLine
 62
7
  6
CONTINUOUS
 10
14.9397137648
 20
4.4670859997
 11
14.5599762189
 21
4.4670859997
  0
LINE
  5
219
100
AcDbEntity
  8
0
100
AcDbLine
 62
7
  6
CONTINUOUS
 10
17.1524736668
 20
4.5140859997
 11
16.8360538609
 21
4.5140859997
  0
LINE
  5
21A
100
AcDbEntity
  8
0
100
AcDbLine
 62
7
  6
CONTINUOUS
 10
14.9488934726
 20
4.5140859997
 11
14.6324736668
 21
4.5140859997
  0
LINE
  5
21B
100
AcDbEntity
  8
0
100
AcDbLine
 62
7
  6
CONTINUOUS
 10
14.6324736668
 20
4.7200859997
 11
15.0197295959
 21
4.7200859997
  0
LINE
  5
21C
100
AcDbEntity
  8
0
100
AcDbLine
 62
7
  6
CONTINUOUS
 10
16.7652177376
 20
4.7200859997
 11
17.1524736668
 21
4.7200859997
  0
LINE
  5
21D
100
AcDbEntity
  8
0
100
AcDbLine
 62
7
  6
CONTINUOUS
 10
14.5959761367
 20
4.7670859997
 11
15.0430344308
 21
4.7670859997
  0
LINE
  5
21E
100
AcDbEntity
  8
0
100
AcDbLine
 62
7
  6
CONTINUOUS
 10
16.7419129027
 20
4.7670859997
 11
17.1889711968
 21
4.7670859997
  0
LINE
  5
21F
100
AcDbEntity
  8
0
100
AcDbLine
 62
9
  6
CONTINUOUS
 10
15.1302679546
 20
4.9125547701
 11
16.6546793789
 21
4.9125547701
  0
LINE
  5
220
100
AcDbEntity
  8
0
100
AcDbLine
 62
7
  6
CONTINUOUS
 10
16.6222860283
 20
4.9290859997
 11
15.1626613052
 21
4.9290859997
  0
LINE
  5
221
100
AcDbEntity
  8
0
100
AcDbLine
 62
9
  6
CONTINUOUS
 10
15.6590056186
 20
4.9413753216
 11
16.1259417149
 21
4.9413749712
  0
LINE
  5
222
100
AcDbEntity
  8
0
100
AcDbLine
 62
9
  6
CONTINUOUS
 10
16.5336371064
 20
4.9455859997
 11
16.4399736668
 21
4.9455859997
  0
LINE
  5
223
100
AcDbEntity
  8
0
100
AcDbLine
 62
9
  6
CONTINUOUS
 10
15.3449736668
 20
4.9455859997
 11
15.2513102271
 21
4.9455859997
  0
LINE
  5
224
100
AcDbEntity
  8
0
100
AcDbLine
 62
9
  6
CONTINUOUS
 10
15.7591020209
 20
4.9767306606
 11
16.0258453127
 21
4.9767306606
  0
LINE
  5
225
100
AcDbEntity
  8
0
100
AcDbLine
 62
9
  6
CONTINUOUS
 10
16.4399736668
 20
5.0642574311
 11
15.3449736668
 21
5.0642574311
  0
LINE
  5
226
100
AcDbEntity
  8
0
100
AcDbLine
 62
9
  6
CONTINUOUS
 10
15.3749736668
 20
5.1356717154
 11
16.4099736668
 21
5.1356717154
  0
LINE
  5
227
100
AcDbEntity
  8
0
100
AcDbLine
 62
9
  6
CONTINUOUS
 10
16.5109736668
 20
5.1605859997
 11
16.391994027
 21
5.1605859997
  0
LINE
  5
228
100
AcDbEntity
  8
0
100
AcDbLine
 62
9
  6
CONTINUOUS
 10
15.2739736668
 20
5.1605859997
 11
15.3929533066
 21
5.1605859997
  0
LINE
  5
229
100
AcDbEntity
  8
0
100
AcDbLine
 62
7
  6
CONTINUOUS
 10
15.0824736668
 20
5.1820472845
 11
15.2628595984
 21
5.1820472845
  0
LINE
  5
22A
100
AcDbEntity
  8
0
100
AcDbLine
 62
7
  6
CONTINUOUS
 10
16.5220877351
 20
5.1820472845
 11
16.7024736668
 21
5.1820472845
  0
LINE
  5
22B
100
AcDbEntity
  8
0
100
AcDbLine
 62
9
  6
CONTINUOUS
 10
15.4049736668
 20
5.2070859997
 11
16.3799736668
 21
5.2070859997
  0
LINE
  5
22C
100
AcDbEntity
  8
0
100
AcDbLine
 62
9
  6
CONTINUOUS
 10
15.2778396726
 20
5.3887848112
 11
15.3021389455
 21
5.3887848112
  0
LINE
  5
22D
100
AcDbEntity
  8
0
100
AcDbLine
 62
9
  6
CONTINUOUS
 10
16.3640770806
 20
5.3887848112
 11
16.507107661
 21
5.3887848112
  0
LINE
  5
22E
100
AcDbEntity
  8
0
100
AcDbLine
 62
7
  6
CONTINUOUS
 10
16.702471201
 20
5.4290859997
 11
16.4789000042
 21
5.4290859997
  0
LINE
  5
22F
100
AcDbEntity
  8
0
100
AcDbLine
 62
7
  6
CONTINUOUS
 10
15.2683222332
 20
5.4290859997
 11
15.0824761325
 21
5.4290859997
  0
LINE
  5
230
100
AcDbEntity
  8
0
100
AcDbLine
 62
7
  6
CONTINUOUS
 10
16.6061400247
 20
5.4790859997
 11
16.4439039435
 21
5.4790859997
  0
LINE
  5
231
100
AcDbEntity
  8
0
100
AcDbLine
 62
7
  6
CONTINUOUS
 10
15.2244687812
 20
5.4790859997
 11
15.1788073088
 21
5.4790859997
  0
LINE
  5
232
100
AcDbEntity
  8
0
100
AcDbLine
 62
9
  6
CONTINUOUS
 10
16.4329736668
 20
5.4947024385
 11
16.3385525045
 21
5.4947024385
  0
LINE
  5
233
100
AcDbEntity
  8
0
100
AcDbLine
 62
7
  6
CONTINUOUS
 10
16.6024283067
 20
5.7220859997
 11
16.3340753115
 21
5.7220859997
  0
LINE
  5
234
100
AcDbEntity
  8
0
100
AcDbLine
 62
9
  6
CONTINUOUS
 10
10.1063392018
 20
12.7365178179
 11
9.5422917436
 21
12.242199636
  0
LINE
  5
235
100
AcDbEntity
  8
0
100
AcDbLine
 62
9
  6
CONTINUOUS
 10
16.3222133943
 20
5.8006852423
 11
16.2101779365
 21
5.8006852423
  0
LINE
  5
236
100
AcDbEntity
  8
0
100
AcDbLine
 62
7
  6
CONTINUOUS
 10
16.2913124814
 20
5.8290859997
 11
16.1902915122
 21
5.8290859997
  0
LINE
  5
237
100
AcDbEntity
  8
0
100
AcDbLine
 62
7
  6
CONTINUOUS
 10
15.9116767366
 20
6.1830859997
 11
16.2629735164
 21
6.1830859997
  0
LINE
  5
238
100
AcDbEntity
  8
0
100
AcDbLine
 62
7
  6
CONTINUOUS
 10
16.4199736668
 20
6.2340859997
 11
15.8688826554
 21
6.2340859997
  0
LINE
  5
239
100
AcDbEntity
  8
0
100
AcDbLine
 62
7
  6
CONTINUOUS
 10
15.8025937845
 20
6.3130859997
 11
16.4499736668
 21
6.3130859997
  0
LINE
  5
23A
100
AcDbEntity
  8
0
100
AcDbLine
 62
7
  6
CONTINUOUS
 10
16.2431312764
 20
6.3220859997
 11
16.2523952442
 21
6.3220859997
  0
LINE
  5
23B
100
AcDbEntity
  8
0
100
AcDbLine
 62
7
  6
CONTINUOUS
 10
15.5418199091
 20
6.7140859997
 11
15.5325520894
 21
6.7140859997
  0
LINE
  5
23C
100
AcDbEntity
  8
0
100
AcDbLine
 62
7
  6
CONTINUOUS
 10
16.2429016026
 20
6.7140859997
 11
16.2523952442
 21
6.7140859997
  0
LINE
  5
23D
100
AcDbEntity
  8
0
100
AcDbLine
 62
7
  6
CONTINUOUS
 10
16.4499736668
 20
6.7230859997
 11
15.4574751651
 21
6.7230859997
  0
LINE
  5
23E
100
AcDbEntity
  8
0
100
AcDbLine
 62
7
  6
CONTINUOUS
 10
15.3903471947
 20
6.8030859997
 11
16.4199736668
 21
6.8030859997
  0
LINE
  5
23F
100
AcDbEntity
  8
0
100
AcDbLine
 62
7
  6
CONTINUOUS
 10
15.3918204543
 20
6.8185859997
 11
16.3931268792
 21
6.8185859997
  0
LINE
  5
240
100
AcDbEntity
  8
0
100
AcDbLine
 62
7
  6
CONTINUOUS
 10
15.3649736668
 20
6.8340859997
 11
16.4199736668
 21
6.8340859997
  0
LINE
  5
241
100
AcDbEntity
  8
0
100
AcDbLine
 62
7
  6
CONTINUOUS
 10
15.8903530603
 20
7.0190830978
 11
15.8881588555
 21
7.0190799966
  0
LINE
  5
242
100
AcDbEntity
  8
0
100
AcDbLine
 62
7
  6
CONTINUOUS
 10
16.4199736668
 20
6.9053700968
 11
15.3649736668
 21
6.9053700968
  0
LINE
  5
243
100
AcDbEntity
  8
0
100
AcDbLine
 62
7
  6
CONTINUOUS
 10
15.3792395145
 20
6.9250053517
 11
16.405707819
 21
6.9250053517
  0
LINE
  5
244
100
AcDbEntity
  8
0
100
AcDbLine
 62
7
  6
CONTINUOUS
 10
16.3469635894
 20
6.9440859997
 11
15.4379837441
 21
6.9440859997
  0
LINE
  5
245
100
AcDbEntity
  8
0
100
AcDbLine
 62
9
  6
CONTINUOUS
 10
16.2876209486
 20
6.9678945998
 11
15.4973487358
 21
6.9679004909
  0
LINE
  5
246
100
AcDbEntity
  8
0
100
AcDbLine
 62
7
  6
CONTINUOUS
 10
15.9370243403
 20
7.0184549705
 11
15.937537126
 21
7.0184309891
  0
LINE
  5
247
100
AcDbEntity
  8
0
100
AcDbLine
 62
7
  6
CONTINUOUS
 10
9.8828358942
 20
10.2945237733
 11
9.8848785899
 21
10.2990874772
  0
LINE
  5
248
100
AcDbEntity
  8
0
100
AcDbLine
 62
7
  6
CONTINUOUS
 10
9.9555104722
 20
10.2451602111
 11
9.9577025817
 21
10.2500577288
  0
LINE
  5
249
100
AcDbEntity
  8
0
100
AcDbLine
 62
7
  6
CONTINUOUS
 10
16.5749715951
 20
7.7820859997
 11
15.2099757384
 21
7.7820859997
  0
LINE
  5
24A
100
AcDbEntity
  8
0
100
AcDbLine
 62
7
  6
CONTINUOUS
 10
10.1094916185
 20
10.1118679041
 11
10.1125917141
 21
10.1187940059
  0
LINE
  5
24B
100
AcDbEntity
  8
0
100
AcDbLine
 62
7
  6
CONTINUOUS
 10
10.2466586783
 20
9.9899651967
 11
10.2497587739
 21
9.9968912985
  0
LINE
  5
24C
100
AcDbEntity
  8
0
100
AcDbLine
 62
7
  6
CONTINUOUS
 10
10.396436303
 20
9.8595202897
 11
10.3995363986
 21
9.8664463914
  0
LINE
  5
24D
100
AcDbEntity
  8
0
100
AcDbLine
 62
7
  6
CONTINUOUS
 10
4.0471520909
 20
10.2339021258
 11
4.6827312846
 21
10.0635991941
  0
LINE
  5
24E
100
AcDbEntity
  8
0
100
AcDbLine
 62
9
  6
CONTINUOUS
 10
4.0124933115
 20
10.2833726129
 11
4.7374819115
 21
10.089112503
  0
LINE
  5
24F
100
AcDbEntity
  8
0
100
AcDbLine
 62
7
  6
CONTINUOUS
 10
10.6079069674
 20
9.7445200574
 11
10.6049318868
 21
9.7378732587
  0
LINE
  5
250
100
AcDbEntity
  8
0
100
AcDbLine
 62
7
  6
CONTINUOUS
 10
10.6535440073
 20
9.7240930999
 11
10.6505689266
 21
9.7174463012
  0
LINE
  5
251
100
AcDbEntity
  8
0
100
AcDbLine
 62
7
  6
CONTINUOUS
 10
10.8801889255
 20
9.6429945402
 11
10.8832890211
 21
9.6499206419
  0
LINE
  5
252
100
AcDbEntity
  8
0
100
AcDbLine
 62
9
  6
CONTINUOUS
 10
11.0254131739
 20
10.6160155034
 11
10.7168448912
 21
9.9267106135
  0
LINE
  5
253
100
AcDbEntity
  8
0
100
AcDbLine
 62
7
  6
CONTINUOUS
 10
15.2099757384
 20
8.5570859997
 11
16.5749715951
 21
8.5570859997
  0
LINE
  5
254
100
AcDbEntity
  8
0
100
AcDbLine
 62
7
  6
CONTINUOUS
 10
16.3469836229
 20
6.9440859997
 11
16.405707819
 21
6.9250053517
  0
LINE
  5
255
100
AcDbEntity
  8
0
100
AcDbLine
 62
7
  6
CONTINUOUS
 10
11.0772528038
 20
9.6181945703
 11
11.0803528994
 21
9.625120672
  0
LINE
  5
256
100
AcDbEntity
  8
0
100
AcDbLine
 62
7
  6
CONTINUOUS
 10
11.259545023
 20
9.5971085752
 11
11.2626451186
 21
9.6040346769
  0
LINE
  5
257
100
AcDbEntity
  8
0
100
AcDbLine
 62
7
  6
CONTINUOUS
 10
11.4615327877
 20
9.5710706137
 11
11.4637248971
 21
9.5759681314
  0
LINE
  5
258
100
AcDbEntity
  8
0
100
AcDbLine
 62
7
  6
CONTINUOUS
 10
11.5467623676
 20
9.5497569029
 11
11.5488050633
 21
9.5543206069
  0
LINE
  5
259
100
AcDbEntity
  8
0
100
AcDbLine
 62
9
  6
CONTINUOUS
 10
12.544241222
 20
9.9066879076
 11
12.2435195837
 21
9.6543541551
  0
LINE
  5
25A
100
AcDbEntity
  8
0
100
AcDbLine
 62
7
  6
CONTINUOUS
 10
12.2435189475
 20
9.6543547807
 11
11.9428003011
 21
9.4020176824
  0
LWPOLYLINE
  5
25B
100
AcDbEntity
  8
0
100
AcDbPolyline
 62
7
  6
CONTINUOUS
 90
3
 70
0
 10
11.6270652714
 20
9.5262890106
 10
11.7082586158
 20
9.5214180999
 10
11.7290830687
 20
9.5201153077
  0
LWPOLYLINE
  5
25C
100
AcDbEntity
  8
0
100
AcDbPolyline
 62
7
  6
CONTINUOUS
 90
3
 70
0
 10
11.7291492652
 20
9.5201111493
 10
11.7522264328
 20
9.5175301658
 10
11.7945570981
 20
9.5072617168
  0
LINE
  5
25D
100
AcDbEntity
  8
0
100
AcDbLine
 62
7
  6
CONTINUOUS
 10
5.0176971791
 20
10.6892211938
 11
4.0698741166
 21
10.943189618
  0
LINE
  5
25E
100
AcDbEntity
  8
0
100
AcDbLine
 62
7
  6
CONTINUOUS
 10
5.0391149727
 20
10.8739731306
 11
4.1437017317
 21
11.1138983854
  0
LINE
  5
25F
100
AcDbEntity
  8
0
100
AcDbLine
 62
7
  6
CONTINUOUS
 10
15.3918204543
 20
6.8185859997
 11
15.3649736668
 21
6.8340859997
  0
LINE
  5
260
100
AcDbEntity
  8
0
100
AcDbLine
 62
7
  6
CONTINUOUS
 10
10.4408225595
 20
9.8194728202
 11
10.399955428
 21
9.8471555768
  0
LINE
  5
261
100
AcDbEntity
  8
0
100
AcDbLine
 62
7
  6
CONTINUOUS
 10
10.3960172736
 20
9.8788111043
 11
10.3698170189
 21
9.8965587476
  0
LINE
  5
262
100
AcDbEntity
  8
0
100
AcDbLine
 62
7
  6
CONTINUOUS
 10
10.3315690344
 20
9.9224673351
 11
10.2501778033
 21
9.9776004839
  0
LINE
  5
263
100
AcDbEntity
  8
0
100
AcDbLine
 62
7
  6
CONTINUOUS
 10
10.2462396489
 20
10.0092560113
 11
10.2299295222
 21
10.0203042365
  0
LINE
  5
264
100
AcDbEntity
  8
0
100
AcDbLine
 62
7
  6
CONTINUOUS
 10
10.1912737379
 20
10.0464890611
 11
10.1130107435
 21
10.0995031913
  0
LINE
  5
265
100
AcDbEntity
  8
0
100
AcDbLine
 62
7
  6
CONTINUOUS
 10
10.1090725891
 20
10.1311587187
 11
10.0693606747
 21
10.1580589494
  0
LINE
  5
266
100
AcDbEntity
  8
0
100
AcDbLine
 62
7
  6
CONTINUOUS
 10
10.0306882759
 20
10.1842550284
 11
9.9590295972
 21
10.2327954983
  0
LINE
  5
267
100
AcDbEntity
  8
0
100
AcDbLine
 62
9
  6
CONTINUOUS
 10
11.7044736668
 20
12.0120859997
 11
11.7044736668
 21
11.2620859997
  0
LINE
  5
268
100
AcDbEntity
  8
0
100
AcDbLine
 62
7
  6
CONTINUOUS
 10
11.6270658953
 20
9.5262889674
 11
11.6022019535
 21
9.5304206167
  0
LINE
  5
269
100
AcDbEntity
  8
0
100
AcDbLine
 62
7
  6
CONTINUOUS
 10
10.2305997102
 20
10.0212936128
 11
10.230307048
 21
10.0213592584
  0
LINE
  5
26A
100
AcDbEntity
  8
0
100
AcDbLine
 62
7
  6
CONTINUOUS
 10
10.3705850187
 20
9.8976925201
 11
10.3700847451
 21
9.89780508
  0
LINE
  5
26B
100
AcDbEntity
  8
0
100
AcDbLine
 62
7
  6
CONTINUOUS
 10
10.191880099
 20
10.0473842119
 11
10.1921712378
 21
10.0473151625
  0
LINE
  5
26C
100
AcDbEntity
  8
0
100
AcDbLine
 62
7
  6
CONTINUOUS
 10
10.0914560692
 20
10.1483311568
 11
10.0906803337
 21
10.1485163548
  0
LINE
  5
26D
100
AcDbEntity
  8
0
100
AcDbLine
 62
7
  6
CONTINUOUS
 10
10.0526658833
 20
10.1742640811
 11
10.0534385758
 21
10.1740720847
  0
LINE
  5
26E
100
AcDbEntity
  8
0
100
AcDbLine
 62
7
  6
CONTINUOUS
 10
10.3318347099
 20
9.9237145361
 11
10.3323298428
 21
9.9235904912
  0
LINE
  5
26F
100
AcDbEntity
  8
0
100
AcDbLine
 62
7
  6
CONTINUOUS
 10
10.8207525478
 20
9.6494176687
 11
10.8686231501
 21
9.6373817688
  0
LINE
  5
270
100
AcDbEntity
  8
0
100
AcDbLine
 62
7
  6
CONTINUOUS
 10
10.8948547966
 20
9.6555334134
 11
10.9294092471
 21
9.6468455362
  0
LINE
  5
271
100
AcDbEntity
  8
0
100
AcDbLine
 62
7
  6
CONTINUOUS
 10
10.9744860789
 20
9.635512062
 11
11.0656870284
 21
9.6125817989
  0
LINE
  5
272
100
AcDbEntity
  8
0
100
AcDbLine
 62
7
  6
CONTINUOUS
 10
11.0919186748
 20
9.6307334435
 11
11.11666871
 21
9.6245106484
  0
LINE
  5
273
100
AcDbEntity
  8
0
100
AcDbLine
 62
7
  6
CONTINUOUS
 10
11.1619399653
 20
9.6131282911
 11
11.2479792476
 21
9.5914958038
  0
LINE
  5
274
100
AcDbEntity
  8
0
100
AcDbLine
 62
7
  6
CONTINUOUS
 10
11.2742108941
 20
9.6096474484
 11
11.3207283077
 21
9.5979517748
  0
LINE
  5
275
100
AcDbEntity
  8
0
100
AcDbLine
 62
7
  6
CONTINUOUS
 10
11.3660280622
 20
9.586562252
 11
11.4499670122
 21
9.5654578423
  0
LINE
  5
276
100
AcDbEntity
  8
0
100
AcDbLine
 62
9
  6
CONTINUOUS
 10
5.0325703458
 20
11.1914859931
 11
4.3081259761
 21
11.3856002769
  0
LINE
  5
277
100
AcDbEntity
  8
0
100
AcDbLine
 62
7
  6
CONTINUOUS
 10
11.7945570991
 20
9.5072617164
 11
11.8382958807
 21
9.488975678
  0
LINE
  5
278
100
AcDbEntity
  8
0
100
AcDbLine
 62
7
  6
CONTINUOUS
 10
10.448764345
 20
9.8157516621
 11
10.8126866297
 21
9.6528614952
  0
LINE
  5
279
100
AcDbEntity
  8
0
100
AcDbLine
 62
9
  6
CONTINUOUS
 10
10.4408225595
 20
9.8194728202
 11
10.8207525478
 21
9.6494176687
  0
LINE
  5
27A
100
AcDbEntity
  8
0
100
AcDbLine
 62
9
  6
CONTINUOUS
 10
10.8686231501
 20
9.6373817688
 11
10.3999867946
 21
9.8471415372
  0
LINE
  5
27B
100
AcDbEntity
  8
0
100
AcDbLine
 62
9
  6
CONTINUOUS
 10
10.396436303
 20
9.8595202897
 11
10.8801889255
 21
9.6429945402
  0
LINE
  5
27C
100
AcDbEntity
  8
0
100
AcDbLine
 62
9
  6
CONTINUOUS
 10
10.8832742394
 20
9.6499272582
 11
10.3995363986
 21
9.8664463914
  0
LINE
  5
27D
100
AcDbEntity
  8
0
100
AcDbLine
 62
9
  6
CONTINUOUS
 10
10.3960172736
 20
9.8788111043
 11
10.8948395539
 21
9.6555402359
  0
LINE
  5
27E
100
AcDbEntity
  8
0
100
AcDbLine
 62
9
  6
CONTINUOUS
 10
11.0656870284
 20
9.6125817989
 11
10.2502008418
 21
9.977590172
  0
LINE
  5
27F
100
AcDbEntity
  8
0
100
AcDbLine
 62
9
  6
CONTINUOUS
 10
10.2466586783
 20
9.9899651967
 11
11.0772528038
 21
9.6181945703
  0
LINE
  5
280
100
AcDbEntity
  8
0
100
AcDbLine
 62
9
  6
CONTINUOUS
 10
11.0803528994
 20
9.625120672
 11
10.2497587739
 21
9.9968912985
  0
LINE
  5
281
100
AcDbEntity
  8
0
100
AcDbLine
 62
9
  6
CONTINUOUS
 10
10.2462396489
 20
10.0092560113
 11
11.0919186748
 21
9.6307334435
  0
LINE
  5
282
100
AcDbEntity
  8
0
100
AcDbLine
 62
9
  6
CONTINUOUS
 10
11.2479792476
 20
9.5914958038
 11
10.1130248629
 21
10.0994968715
  0
LINE
  5
283
100
AcDbEntity
  8
0
100
AcDbLine
 62
9
  6
CONTINUOUS
 10
10.1094916185
 20
10.1118679041
 11
11.259545023
 21
9.5971085752
  0
LINE
  5
284
100
AcDbEntity
  8
0
100
AcDbLine
 62
9
  6
CONTINUOUS
 10
11.2626451186
 20
9.6040346769
 11
10.1125917141
 21
10.1187940059
  0
LINE
  5
285
100
AcDbEntity
  8
0
100
AcDbLine
 62
9
  6
CONTINUOUS
 10
10.1090725891
 20
10.1311587187
 11
11.2742108941
 21
9.6096474484
  0
LINE
  5
286
100
AcDbEntity
  8
0
100
AcDbLine
 62
9
  6
CONTINUOUS
 10
11.4499670122
 20
9.5654578423
 11
9.9590399112
 21
10.2327908818
  0
LINE
  5
287
100
AcDbEntity
  8
0
100
AcDbLine
 62
9
  6
CONTINUOUS
 10
9.9555104722
 20
10.2451602111
 11
11.4615327877
 21
9.5710706137
  0
LINE
  5
288
100
AcDbEntity
  8
0
100
AcDbLine
 62
9
  6
CONTINUOUS
 10
11.4637248971
 20
9.5759681314
 11
9.9577025817
 21
10.2500577288
  0
LINE
  5
289
100
AcDbEntity
  8
0
100
AcDbLine
 62
7
  6
CONTINUOUS
 10
9.8828358942
 20
10.2945237733
 11
11.5467623676
 21
9.5497569029
  0
LINE
  5
28A
100
AcDbEntity
  8
0
100
AcDbLine
 62
7
  6
CONTINUOUS
 10
9.8314831389
 20
10.3229870687
 11
11.6022007044
 21
9.5304209303
  0
LINE
  5
28B
100
AcDbEntity
  8
0
100
AcDbLine
 62
7
  6
CONTINUOUS
 10
16.3931268792
 20
6.8185859997
 11
16.4199736668
 21
6.8030859997
  0
LINE
  5
28C
100
AcDbEntity
  8
0
100
AcDbLine
 62
7
  6
CONTINUOUS
 10
11.8382958807
 20
9.488975678
 11
11.8813908517
 21
9.4620635232
  0
LINE
  5
28D
100
AcDbEntity
  8
0
100
AcDbLine
 62
7
  6
CONTINUOUS
 10
11.1209333086
 20
9.6316049542
 11
11.122587096
 21
9.6305002593
  0
LINE
  5
28E
100
AcDbEntity
  8
0
100
AcDbLine
 62
7
  6
CONTINUOUS
 10
11.3432777623
 20
9.5967451958
 11
11.3439356582
 21
9.5962967258
  0
LINE
  5
28F
100
AcDbEntity
  8
0
100
AcDbLine
 62
7
  6
CONTINUOUS
 10
11.0792129408
 20
9.6413923578
 11
11.0775718438
 21
9.6425254051
  0
LINE
  5
290
100
AcDbEntity
  8
0
100
AcDbLine
 62
7
  6
CONTINUOUS
 10
10.9746333931
 20
9.6360979772
 11
10.9748202305
 21
9.6359675117
  0
LINE
  5
291
100
AcDbEntity
  8
0
100
AcDbLine
 62
7
  6
CONTINUOUS
 10
11.2994086487
 20
9.6074943694
 11
11.2987555925
 21
9.6079536522
  0
LINE
  5
292
100
AcDbEntity
  8
0
100
AcDbLine
 62
7
  6
CONTINUOUS
 10
10.9297422442
 20
9.6473046097
 11
10.9295601198
 21
9.647445605
  0
LINE
  5
293
100
AcDbEntity
  8
0
100
AcDbLine
 62
7
  6
CONTINUOUS
 10
11.1619675922
 20
9.6132381721
 11
11.1619902484
 21
9.6132201297
  0
LINE
  5
294
100
AcDbEntity
  8
0
100
AcDbLine
 62
7
  6
CONTINUOUS
 10
11.8813908517
 20
9.4620635232
 11
11.9010588549
 21
9.4461894719
  0
LINE
  5
295
100
AcDbEntity
  8
0
100
AcDbLine
 62
7
  6
CONTINUOUS
 10
11.9010588548
 20
9.446189472
 11
11.9013453636
 21
9.4459386181
  0
LINE
  5
296
100
AcDbEntity
  8
0
100
AcDbLine
 62
7
  6
CONTINUOUS
 10
11.1167190429
 20
9.6246047756
 11
11.116697586
 21
9.6246254974
  0
LWPOLYLINE
  5
297
100
AcDbEntity
  8
0
100
AcDbPolyline
 62
7
  6
CONTINUOUS
 90
4
 70
0
 10
14.7420592401
 20
6.0536873213
 10
14.7790284782
 20
6.0178621668
 10
14.8371689625
 20
5.9835599298
 10
14.8828509957
 20
5.9694875016
  0
LWPOLYLINE
  5
298
100
AcDbEntity
  8
0
100
AcDbPolyline
 62
7
  6
CONTINUOUS
 90
4
 70
0
 10
14.7569714552
 20
6.0662001555
 10
14.793762399
 20
6.0302068364
 10
14.8510993248
 20
5.9952304976
 10
14.8960037422
 20
5.9805239663
  0
LWPOLYLINE
  5
299
100
AcDbEntity
  8
0
100
AcDbPolyline
 62
7
  6
CONTINUOUS
 90
4
 70
0
 10
14.7909199017
 20
6.0946862844
 10
14.8272548056
 20
6.0583456243
 10
14.8827396228
 20
6.0218127153
 10
14.9255201678
 20
6.0052911882
  0
LWPOLYLINE
  5
29A
100
AcDbEntity
  8
0
100
AcDbPolyline
 62
7
  6
CONTINUOUS
 90
4
 70
0
 10
14.8417006094
 20
6.1372963575
 10
14.8704583114
 20
6.1067775701
 10
14.9127666918
 20
6.0726145434
 10
14.939399168
 20
6.0563125256
  0
LINE
  5
29B
100
AcDbEntity
  8
0
100
AcDbLine
 62
7
  6
CONTINUOUS
 10
12.510802794
 20
8.6720419356
 11
13.3003656501
 21
9.3345638369
  0
LINE
  5
29C
100
AcDbEntity
  8
0
100
AcDbLine
 62
9
  6
CONTINUOUS
 10
13.3702979307
 20
9.2104869672
 11
12.6208510364
 21
8.5816263547
  0
LINE
  5
29D
100
AcDbEntity
  8
0
100
AcDbLine
 62
7
  6
CONTINUOUS
 10
16.4742947364
 20
10.5610859997
 11
15.3106525972
 21
10.5610859997
  0
LINE
  5
29E
100
AcDbEntity
  8
0
100
AcDbLine
 62
7
  6
CONTINUOUS
 10
13.1581980699
 20
9.2152710728
 11
13.1728559173
 21
9.2079228614
  0
LINE
  5
29F
100
AcDbEntity
  8
0
100
AcDbLine
 62
7
  6
CONTINUOUS
 10
16.5336371064
 20
4.9455859997
 11
16.5489736668
 21
4.930293618
  0
LINE
  5
2A0
100
AcDbEntity
  8
0
100
AcDbLine
 62
7
  6
CONTINUOUS
 10
15.2202885876
 20
5.4824409598
 11
14.9310341632
 21
5.8271609592
  0
LINE
  5
2A1
100
AcDbEntity
  8
0
100
AcDbLine
 62
7
  6
CONTINUOUS
 10
14.7420501483
 20
6.0536796924
 11
12.6208510364
 21
8.5816263547
  0
LINE
  5
2A2
100
AcDbEntity
  8
0
100
AcDbLine
 62
7
  6
CONTINUOUS
 10
15.3669558888
 20
5.3115389862
 11
15.2350594509
 21
5.46872704
  0
LINE
  5
2A3
100
AcDbEntity
  8
0
100
AcDbLine
 62
7
  6
CONTINUOUS
 10
14.7569823754
 20
6.0662093186
 11
12.6357832634
 21
8.5941559809
  0
LINE
  5
2A4
100
AcDbEntity
  8
0
100
AcDbLine
 62
7
  6
CONTINUOUS
 10
14.7909122956
 20
6.0946799021
 11
12.6697131836
 21
8.6226265644
  0
LINE
  5
2A5
100
AcDbEntity
  8
0
100
AcDbLine
 62
7
  6
CONTINUOUS
 10
14.8417079673
 20
6.1373025315
 11
12.7205088554
 21
8.6652491938
  0
LINE
  5
2A6
100
AcDbEntity
  8
0
100
AcDbLine
 62
7
  6
CONTINUOUS
 10
12.7858548986
 20
8.7200810346
 11
14.9070540106
 21
6.1921343723
  0
LINE
  5
2A7
100
AcDbEntity
  8
0
100
AcDbLine
 62
7
  6
CONTINUOUS
 10
12.864225786
 20
8.7858420173
 11
14.9854248979
 21
6.257895355
  0
LINE
  5
2A8
100
AcDbEntity
  8
0
100
AcDbLine
 62
7
  6
CONTINUOUS
 10
15.2002497086
 20
6.0530596241
 11
15.4059417437
 21
5.8079254023
  0
LINE
  5
2A9
100
AcDbEntity
  8
0
100
AcDbLine
 62
7
  6
CONTINUOUS
 10
12.9508497951
 20
8.8585281914
 11
15.0720489071
 21
6.3305815291
  0
LINE
  5
2AA
100
AcDbEntity
  8
0
100
AcDbLine
 62
7
  6
CONTINUOUS
 10
12.5108028818
 20
8.6720419941
 11
11.942800519
 21
9.4020174023
  0
LWPOLYLINE
  5
2AB
100
AcDbEntity
  8
0
100
AcDbPolyline
 62
7
  6
CONTINUOUS
 90
4
 70
0
 10
12.6576659561
 20
8.7756104945
 10
12.6721296412
 20
8.7400087129
 10
12.6978421862
 20
8.6952792492
 10
12.7205014975
 20
8.6652430198
  0
LINE
  5
2AC
100
AcDbEntity
  8
0
100
AcDbLine
 62
7
  6
CONTINUOUS
 10
16.4742947364
 20
10.8124438605
 11
15.3106525972
 21
10.8124438605
  0
LINE
  5
2AD
100
AcDbEntity
  8
0
100
AcDbLine
 62
9
  6
CONTINUOUS
 10
15.3694365315
 20
10.9384716927
 11
16.4155156473
 21
10.9384753217
  0
LINE
  5
2AE
100
AcDbEntity
  8
0
100
AcDbLine
 62
7
  6
CONTINUOUS
 10
15.0235402915
 20
11.1420859997
 11
14.5563110741
 21
11.1420859997
  0
LINE
  5
2AF
100
AcDbEntity
  8
0
100
AcDbLine
 62
7
  6
CONTINUOUS
 10
15.1495402915
 20
11.1995859997
 11
15.1101644799
 21
11.1995859997
  0
LINE
  5
2B0
100
AcDbEntity
  8
0
100
AcDbLine
 62
7
  6
CONTINUOUS
 10
11.7044736668
 20
11.2620859997
 11
14.3245402915
 21
11.2620859997
  0
LINE
  5
2B1
100
AcDbEntity
  8
0
100
AcDbLine
 62
7
  6
CONTINUOUS
 10
13.3003656034
 20
9.3345637312
 11
12.0454255657
 21
10.2841186707
  0
LINE
  5
2B2
100
AcDbEntity
  8
0
100
AcDbLine
 62
7
  6
CONTINUOUS
 10
12.0454255657
 20
10.2841186707
 11
12.0454298386
 21
10.284115298
  0
LWPOLYLINE
  5
2B3
100
AcDbEntity
  8
0
100
AcDbPolyline
 62
7
  6
CONTINUOUS
 90
4
 70
0
 10
13.3702888389
 20
9.2104793384
 10
13.338865476
 20
9.2417974552
 10
13.2882862537
 20
9.2746851877
 10
13.2475704092
 20
9.2902633698
  0
LWPOLYLINE
  5
2B4
100
AcDbEntity
  8
0
100
AcDbPolyline
 62
7
  6
CONTINUOUS
 90
4
 70
0
 10
13.3553766241
 20
9.1979665044
 10
13.3240850496
 20
9.2294109501
 10
13.2741355677
 20
9.2628265017
 10
13.2341901997
 20
9.2790360409
  0
LWPOLYLINE
  5
2B5
100
AcDbEntity
  8
0
100
AcDbPolyline
 62
7
  6
CONTINUOUS
 90
4
 70
0
 10
13.3214281781
 20
9.1694803759
 10
13.29047864
 20
9.2011803827
 10
13.241980148
 20
9.2358146982
 10
13.2037513218
 20
9.2534947897
  0
LWPOLYLINE
  5
2B6
100
AcDbEntity
  8
0
100
AcDbPolyline
 62
7
  6
CONTINUOUS
 90
4
 70
0
 10
13.2706474695
 20
9.1268703021
 10
13.2451965402
 20
9.1542131853
 10
13.2058657684
 20
9.1871675297
 10
13.1728559173
 20
9.2079228614
  0
LINE
  5
2B7
100
AcDbEntity
  8
0
100
AcDbLine
 62
7
  6
CONTINUOUS
 10
13.0402840209
 20
8.9335724173
 11
15.1614831328
 21
6.405625755
  0
LINE
  5
2B8
100
AcDbEntity
  8
0
100
AcDbLine
 62
7
  6
CONTINUOUS
 10
15.6182342072
 20
5.98605993
 11
15.4125421721
 21
6.2311941518
  0
LINE
  5
2B9
100
AcDbEntity
  8
0
100
AcDbLine
 62
7
  6
CONTINUOUS
 10
13.126908982
 20
9.0062593902
 11
15.248108094
 21
6.4783127279
  0
LINE
  5
2BA
100
AcDbEntity
  8
0
100
AcDbLine
 62
7
  6
CONTINUOUS
 10
13.2052817135
 20
9.0720219203
 11
15.3264808255
 21
6.544075258
  0
LINE
  5
2BB
100
AcDbEntity
  8
0
100
AcDbLine
 62
7
  6
CONTINUOUS
 10
15.3918392237
 20
6.5989174658
 11
13.2706401117
 21
9.1268641281
  0
LINE
  5
2BC
100
AcDbEntity
  8
0
100
AcDbLine
 62
7
  6
CONTINUOUS
 10
15.4426348954
 20
6.6415400952
 11
13.3214357834
 21
9.1694867575
  0
LINE
  5
2BD
100
AcDbEntity
  8
0
100
AcDbLine
 62
7
  6
CONTINUOUS
 10
15.4765648156
 20
6.6700106787
 11
13.3553657036
 21
9.197957341
  0
LINE
  5
2BE
100
AcDbEntity
  8
0
100
AcDbLine
 62
7
  6
CONTINUOUS
 10
16.1138492208
 20
5.9382569057
 11
15.9819527829
 21
6.0954449594
  0
LINE
  5
2BF
100
AcDbEntity
  8
0
100
AcDbLine
 62
7
  6
CONTINUOUS
 10
15.4914970426
 20
6.682540305
 11
13.3702979307
 21
9.2104869672
  0
LINE
  5
2C0
100
AcDbEntity
  8
0
100
AcDbLine
 62
7
  6
CONTINUOUS
 10
15.9710121418
 20
6.1123728173
 11
15.6817577175
 21
6.4570928167
  0
LINE
  5
2C1
100
AcDbEntity
  8
0
100
AcDbLine
 62
7
  6
CONTINUOUS
 10
12.6529703665
 20
8.7913346932
 11
12.6576659561
 21
8.7756104945
  0
LWPOLYLINE
  5
2C2
100
AcDbEntity
  8
0
100
AcDbPolyline
 62
7
  6
CONTINUOUS
 90
4
 70
0
 10
12.6074171145
 20
8.7531109763
 10
12.6181902397
 20
8.7123928162
 10
12.6438767074
 20
8.6586169395
 10
12.669720789
 20
8.622632946
  0
LWPOLYLINE
  5
2C3
100
AcDbEntity
  8
0
100
AcDbPolyline
 62
7
  6
CONTINUOUS
 90
4
 70
0
 10
12.5769782367
 20
8.7275697251
 10
12.5860050761
 20
8.6854164601
 10
12.6102393339
 20
8.6304232733
 10
12.635772343
 20
8.5941468175
  0
LWPOLYLINE
  5
2C4
100
AcDbEntity
  8
0
100
AcDbPolyline
 62
7
  6
CONTINUOUS
 90
4
 70
0
 10
12.5635980271
 20
8.7163423962
 10
12.5718693094
 20
8.673539994
 10
12.5954744135
 20
8.6180182889
 10
12.6208601281
 20
8.5816339836
  0
LINE
  5
2C5
100
AcDbEntity
  8
0
100
AcDbLine
 62
7
  6
CONTINUOUS
 10
17.2604736668
 20
11.3560859997
 11
17.2244736668
 21
11.3560859997
  0
LINE
  5
2C6
100
AcDbEntity
  8
0
100
AcDbLine
 62
7
  6
CONTINUOUS
 10
16.9114736668
 20
11.4345859997
 11
16.7574736668
 21
11.4345859997
  0
LINE
  5
2C7
100
AcDbEntity
  8
0
100
AcDbLine
 62
7
  6
CONTINUOUS
 10
17.1644736668
 20
11.4585859997
 11
17.1334736668
 21
11.4585859997
  0
LINE
  5
2C8
100
AcDbEntity
  8
0
100
AcDbLine
 62
7
  6
CONTINUOUS
 10
17.1644736668
 20
11.8155859997
 11
17.1334736668
 21
11.8155859997
  0
LINE
  5
2C9
100
AcDbEntity
  8
0
100
AcDbLine
 62
7
  6
CONTINUOUS
 10
16.9114736668
 20
11.8395859997
 11
16.7574736668
 21
11.8395859997
  0
LINE
  5
2CA
100
AcDbEntity
  8
0
100
AcDbLine
 62
7
  6
CONTINUOUS
 10
16.4329736668
 20
5.4947024385
 11
16.507107661
 21
5.3887848112
  0
LINE
  5
2CB
100
AcDbEntity
  8
0
100
AcDbLine
 62
7
  6
CONTINUOUS
 10
17.2604736668
 20
11.9180859997
 11
17.2244736668
 21
11.9180859997
  0
LINE
  5
2CC
100
AcDbEntity
  8
0
100
AcDbLine
 62
7
  6
CONTINUOUS
 10
11.7044736668
 20
12.0120859997
 11
14.3245402915
 21
12.0120859997
  0
LINE
  5
2CD
100
AcDbEntity
  8
0
100
AcDbLine
 62
7
  6
CONTINUOUS
 10
15.1101644799
 20
12.0745859997
 11
15.1495402915
 21
12.0745859997
  0
LINE
  5
2CE
100
AcDbEntity
  8
0
100
AcDbLine
 62
7
  6
CONTINUOUS
 10
15.0235402915
 20
12.1320859997
 11
14.5563110741
 21
12.1320859997
  0
LINE
  5
2CF
100
AcDbEntity
  8
0
100
AcDbLine
 62
7
  6
CONTINUOUS
 10
16.405707819
 20
6.9250053517
 11
16.4199736668
 21
6.9053700968
  0
LINE
  5
2D0
100
AcDbEntity
  8
0
100
AcDbLine
 62
7
  6
CONTINUOUS
 10
16.4759720264
 20
6.398296046
 11
16.5055585523
 21
6.357259157
  0
LINE
  5
2D1
100
AcDbEntity
  8
0
100
AcDbLine
 62
7
  6
CONTINUOUS
 10
14.3245402915
 20
12.0670859997
 11
14.3245402915
 21
11.2070859997
  0
LINE
  5
2D2
100
AcDbEntity
  8
0
100
AcDbLine
 62
7
  6
CONTINUOUS
 10
14.4724736668
 20
4.3292367998
 11
14.4724736668
 21
4.1420859997
  0
LINE
  5
2D3
100
AcDbEntity
  8
0
100
AcDbLine
 62
7
  6
CONTINUOUS
 10
14.5563110741
 20
12.1320859997
 11
14.5563110741
 21
11.1420859997
  0
LINE
  5
2D4
100
AcDbEntity
  8
0
100
AcDbLine
 62
7
  6
CONTINUOUS
 10
14.5599736668
 20
4.4670859997
 11
14.5599736668
 21
4.4230117964
  0
LINE
  5
2D5
100
AcDbEntity
  8
0
100
AcDbLine
 62
7
  6
CONTINUOUS
 10
14.6324736668
 20
4.7670859997
 11
14.6324736668
 21
4.7200859997
  0
LINE
  5
2D6
100
AcDbEntity
  8
0
100
AcDbLine
 62
7
  6
CONTINUOUS
 10
14.6324736668
 20
4.5140859997
 11
14.6324736668
 21
4.4670859997
  0
LINE
  5
2D7
100
AcDbEntity
  8
0
100
AcDbLine
 62
7
  6
CONTINUOUS
 10
15.4379637106
 20
6.9440859997
 11
15.3792395145
 21
6.9250053517
  0
LINE
  5
2D8
100
AcDbEntity
  8
0
100
AcDbLine
 62
7
  6
CONTINUOUS
 10
15.5870144896
 20
12.4540859997
 11
16.1978212938
 21
12.4540859997
  0
LINE
  5
2D9
100
AcDbEntity
  8
0
100
AcDbLine
 62
7
  6
CONTINUOUS
 10
16.1424736668
 20
12.4690859997
 11
15.6424736668
 21
12.4690859997
  0
LINE
  5
2DA
100
AcDbEntity
  8
0
100
AcDbLine
 62
7
  6
CONTINUOUS
 10
15.6424736668
 20
12.8440859997
 11
16.1424736668
 21
12.8440859997
  0
LINE
  5
2DB
100
AcDbEntity
  8
0
100
AcDbLine
 62
7
  6
CONTINUOUS
 10
15.5464736668
 20
12.9070859997
 11
16.2384716839
 21
12.9070859997
  0
LWPOLYLINE
  5
2DC
100
AcDbEntity
  8
0
100
AcDbPolyline
 62
7
  6
CONTINUOUS
 90
4
 70
0
 10
15.454641676
 20
6.4886263185
 10
15.442789232
 20
6.5186183263
 10
15.4166418525
 20
6.5657071539
 10
15.3918465815
 20
6.5989236398
  0
LINE
  5
2DD
100
AcDbEntity
  8
0
100
AcDbLine
 62
9
  6
CONTINUOUS
 10
15.0235402915
 20
11.1420859997
 11
15.0235402915
 21
12.1320859997
  0
LINE
  5
2DE
100
AcDbEntity
  8
0
100
AcDbLine
 62
9
  6
CONTINUOUS
 10
15.0668523857
 20
11.1708359997
 11
15.0668523857
 21
12.1033359997
  0
LINE
  5
2DF
100
AcDbEntity
  8
0
100
AcDbLine
 62
7
  6
CONTINUOUS
 10
15.0824736668
 20
5.4290859997
 11
15.0824736668
 21
5.1820472845
  0
LINE
  5
2E0
100
AcDbEntity
  8
0
100
AcDbLine
 62
9
  6
CONTINUOUS
 10
15.1101644799
 20
12.0745859997
 11
15.1101644799
 21
11.1995859997
  0
LINE
  5
2E1
100
AcDbEntity
  8
0
100
AcDbLine
 62
7
  6
CONTINUOUS
 10
15.1495402915
 20
12.0943186016
 11
15.1495402915
 21
11.1793186016
  0
LINE
  5
2E2
100
AcDbEntity
  8
0
100
AcDbLine
 62
7
  6
CONTINUOUS
 10
15.1788073088
 20
5.4790859997
 11
15.1788073088
 21
5.4290859997
  0
LINE
  5
2E3
100
AcDbEntity
  8
0
100
AcDbLine
 62
7
  6
CONTINUOUS
 10
15.3918204543
 20
6.8185859997
 11
15.3820664976
 21
6.8129545502
  0
LINE
  5
2E4
100
AcDbEntity
  8
0
100
AcDbLine
 62
7
  6
CONTINUOUS
 10
16.2629736668
 20
6.1830859997
 11
16.4199736668
 21
6.2340859997
  0
LINE
  5
2E5
100
AcDbEntity
  8
0
100
AcDbLine
 62
7
  6
CONTINUOUS
 10
16.2384716839
 20
13.1420859997
 11
15.5464756496
 21
13.1420859997
  0
LINE
  5
2E6
100
AcDbEntity
  8
0
100
AcDbLine
 62
7
  6
CONTINUOUS
 10
16.0204042716
 20
13.2940859997
 11
15.7645430619
 21
13.2940859997
  0
LWPOLYLINE
  5
2E7
100
AcDbEntity
  8
0
100
AcDbPolyline
 62
7
  6
CONTINUOUS
 90
4
 70
0
 10
15.5072911822
 20
6.4934550318
 10
15.4984494178
 20
6.5384545773
 10
15.4721063632
 20
6.5994403285
 10
15.4426272893
 20
6.6415337129
  0
LWPOLYLINE
  5
2E8
100
AcDbEntity
  8
0
100
AcDbPolyline
 62
7
  6
CONTINUOUS
 90
4
 70
0
 10
15.5368105932
 20
6.5182247587
 10
15.5303284786
 20
6.564153985
 10
15.5066505921
 20
6.6256617688
 10
15.4765757361
 20
6.6700198421
  0
LINE
  5
2E9
100
AcDbEntity
  8
0
100
AcDbLine
 62
7
  6
CONTINUOUS
 10
15.2359736668
 20
4.9290859997
 11
15.2359736668
 21
4.9302933935
  0
LINE
  5
2EA
100
AcDbEntity
  8
0
100
AcDbLine
 62
7
  6
CONTINUOUS
 10
15.3449736668
 20
5.0642574311
 11
15.3449736668
 21
4.9290859997
  0
LINE
  5
2EB
100
AcDbEntity
  8
0
100
AcDbLine
 62
7
  6
CONTINUOUS
 10
15.3649736668
 20
6.9053700968
 11
15.3649736668
 21
6.8340859997
  0
LINE
  5
2EC
100
AcDbEntity
  8
0
100
AcDbLine
 62
9
  6
CONTINUOUS
 10
15.6349377228
 20
6.9909609128
 11
15.6349377228
 21
6.9899424282
  0
LINE
  5
2ED
100
AcDbEntity
  8
0
100
AcDbLine
 62
7
  6
CONTINUOUS
 10
15.6424736668
 20
12.9070859997
 11
15.6424736668
 21
12.8440859997
  0
LINE
  5
2EE
100
AcDbEntity
  8
0
100
AcDbLine
 62
7
  6
CONTINUOUS
 10
15.6424736668
 20
12.4690859997
 11
15.6424736668
 21
12.4540859997
  0
LINE
  5
2EF
100
AcDbEntity
  8
0
100
AcDbLine
 62
9
  6
CONTINUOUS
 10
15.65634084
 20
6.9890528422
 11
15.65634084
 21
6.9880330786
  0
LINE
  5
2F0
100
AcDbEntity
  8
0
100
AcDbLine
 62
9
  6
CONTINUOUS
 10
15.6590056186
 20
4.9290859997
 11
15.6590056186
 21
4.9413753216
  0
LINE
  5
2F1
100
AcDbEntity
  8
0
100
AcDbLine
 62
9
  6
CONTINUOUS
 10
15.6795596524
 20
7.0009952169
 11
15.6795596524
 21
6.9999835926
  0
LINE
  5
2F2
100
AcDbEntity
  8
0
100
AcDbLine
 62
9
  6
CONTINUOUS
 10
15.6803269015
 20
4.9413753216
 11
15.6803269015
 21
4.9290859997
  0
LINE
  5
2F3
100
AcDbEntity
  8
0
100
AcDbLine
 62
7
  6
CONTINUOUS
 10
15.6828060985
 20
7.000777615
 11
15.6828060985
 21
7.0017889029
  0
LINE
  5
2F4
100
AcDbEntity
  8
0
100
AcDbLine
 62
7
  6
CONTINUOUS
 10
15.6937766612
 20
7.00422603
 11
15.6937766612
 21
7.003216348
  0
LINE
  5
2F5
100
AcDbEntity
  8
0
100
AcDbLine
 62
9
  6
CONTINUOUS
 10
15.7005924797
 20
6.9890784211
 11
15.7005924797
 21
6.9880587112
  0
LINE
  5
2F6
100
AcDbEntity
  8
0
100
AcDbLine
 62
9
  6
CONTINUOUS
 10
15.7446432045
 20
6.9944609709
 11
15.7446432045
 21
6.9934448237
  0
LINE
  5
2F7
100
AcDbEntity
  8
0
100
AcDbLine
 62
7
  6
CONTINUOUS
 10
15.3792395145
 20
6.9250053517
 11
15.3649736668
 21
6.9053700968
  0
LINE
  5
2F8
100
AcDbEntity
  8
0
100
AcDbLine
 62
9
  6
CONTINUOUS
 10
15.4914970426
 20
6.682540305
 11
14.7420501483
 21
6.0536796924
  0
LINE
  5
2F9
100
AcDbEntity
  8
0
100
AcDbLine
 62
7
  6
CONTINUOUS
 10
15.5764454686
 20
6.551482368
 11
14.8563658814
 21
5.947263852
  0
LINE
  5
2FA
100
AcDbEntity
  8
0
100
AcDbLine
 62
7
  6
CONTINUOUS
 10
16.3931268792
 20
6.8185859997
 11
16.4199736668
 21
6.8340859997
  0
LINE
  5
2FB
100
AcDbEntity
  8
0
100
AcDbLine
 62
7
  6
CONTINUOUS
 10
16.4199736668
 20
6.8030859997
 11
16.4499736668
 21
6.7230859997
  0
LWPOLYLINE
  5
2FC
100
AcDbEntity
  8
0
100
AcDbPolyline
 62
7
  6
CONTINUOUS
 90
4
 70
0
 10
15.5499603542
 20
6.5292587183
 10
15.5440343198
 20
6.5766903903
 10
15.5203491999
 20
6.639904111
 10
15.4914879509
 20
6.6825326761
  0
LINE
  5
2FD
100
AcDbEntity
  8
0
100
AcDbLine
 62
7
  6
CONTINUOUS
 10
15.7807895503
 20
7.0144492196
 11
15.7807895503
 21
7.0134462185
  0
LINE
  5
2FE
100
AcDbEntity
  8
0
100
AcDbLine
 62
7
  6
CONTINUOUS
 10
15.7864625902
 20
7.0071655849
 11
15.7864625902
 21
7.0081726772
  0
LINE
  5
2FF
100
AcDbEntity
  8
0
100
AcDbLine
 62
9
  6
CONTINUOUS
 10
15.8050045579
 20
7.014144229
 11
15.8050045579
 21
7.0131410299
  0
LINE
  5
300
100
AcDbEntity
  8
0
100
AcDbLine
 62
7
  6
CONTINUOUS
 10
15.8885843661
 20
7.0164145338
 11
15.8885843661
 21
7.0174156129
  0
LINE
  5
301
100
AcDbEntity
  8
0
100
AcDbLine
 62
9
  6
CONTINUOUS
 10
15.8903523464
 20
7.0190830977
 11
15.8903523464
 21
7.0180830958
  0
LINE
  5
302
100
AcDbEntity
  8
0
100
AcDbLine
 62
9
  6
CONTINUOUS
 10
15.8924736697
 20
5.0302966778
 11
15.8924736641
 21
4.9949413387
  0
LINE
  5
303
100
AcDbEntity
  8
0
100
AcDbLine
 62
9
  6
CONTINUOUS
 10
15.9629929701
 20
7.01627973
 11
15.9629929701
 21
7.0172808962
  0
LINE
  5
304
100
AcDbEntity
  8
0
100
AcDbLine
 62
9
  6
CONTINUOUS
 10
16.104620432
 20
4.9290859997
 11
16.104620432
 21
4.9413753216
  0
LINE
  5
305
100
AcDbEntity
  8
0
100
AcDbLine
 62
9
  6
CONTINUOUS
 10
16.1259417149
 20
4.9413749712
 11
16.1259417149
 21
4.9290859997
  0
LINE
  5
306
100
AcDbEntity
  8
0
100
AcDbLine
 62
7
  6
CONTINUOUS
 10
16.1424736668
 20
12.9070859997
 11
16.1424736668
 21
12.8440859997
  0
LINE
  5
307
100
AcDbEntity
  8
0
100
AcDbLine
 62
7
  6
CONTINUOUS
 10
16.1424736668
 20
12.4690859997
 11
16.1424736668
 21
12.4540859997
  0
LINE
  5
308
100
AcDbEntity
  8
0
100
AcDbLine
 62
7
  6
CONTINUOUS
 10
16.2359736668
 20
6.1830859997
 11
16.2359736668
 21
5.8290859997
  0
LINE
  5
309
100
AcDbEntity
  8
0
100
AcDbLine
 62
7
  6
CONTINUOUS
 10
15.2935401882
 20
6.1574477768
 11
14.933499217
 21
5.8553375307
  0
LINE
  5
30A
100
AcDbEntity
  8
0
100
AcDbLine
 62
7
  6
CONTINUOUS
 10
15.2949540368
 20
6.1586341366
 11
15.6535800046
 21
6.459557054
  0
LINE
  5
30B
100
AcDbEntity
  8
0
100
AcDbLine
 62
9
  6
CONTINUOUS
 10
15.6817577175
 20
6.4570928167
 11
15.4125421721
 21
6.2311941518
  0
LINE
  5
30C
100
AcDbEntity
  8
0
100
AcDbLine
 62
9
  6
CONTINUOUS
 10
15.2002497086
 20
6.0530596241
 11
14.9310341632
 21
5.8271609592
  0
LINE
  5
30D
100
AcDbEntity
  8
0
100
AcDbLine
 62
7
  6
CONTINUOUS
 10
15.6182342072
 20
5.98605993
 11
15.4059417437
 21
5.8079254023
  0
LINE
  5
30E
100
AcDbEntity
  8
0
100
AcDbLine
 62
7
  6
CONTINUOUS
 10
16.4199736668
 20
6.9053700968
 11
16.4199736668
 21
6.8340859997
  0
LINE
  5
30F
100
AcDbEntity
  8
0
100
AcDbLine
 62
7
  6
CONTINUOUS
 10
16.4399736668
 20
5.0642574311
 11
16.4399736668
 21
4.9290859997
  0
LINE
  5
310
100
AcDbEntity
  8
0
100
AcDbLine
 62
7
  6
CONTINUOUS
 10
16.5489736668
 20
4.9302933935
 11
16.5489736668
 21
4.9290859997
  0
LINE
  5
311
100
AcDbEntity
  8
0
100
AcDbLine
 62
7
  6
CONTINUOUS
 10
16.6061400247
 20
5.4790859997
 11
16.6061400247
 21
5.4290859997
  0
LINE
  5
312
100
AcDbEntity
  8
0
100
AcDbLine
 62
7
  6
CONTINUOUS
 10
16.7024736668
 20
5.4290859997
 11
16.7024736668
 21
5.1820472845
  0
LINE
  5
313
100
AcDbEntity
  8
0
100
AcDbLine
 62
7
  6
CONTINUOUS
 10
16.7574736668
 20
11.8395835796
 11
16.7574736668
 21
11.4345884198
  0
LINE
  5
314
100
AcDbEntity
  8
0
100
AcDbLine
 62
7
  6
CONTINUOUS
 10
15.2888905798
 20
5.4045735986
 11
15.2778396726
 21
5.3887848112
  0
LINE
  5
315
100
AcDbEntity
  8
0
100
AcDbLine
 62
7
  6
CONTINUOUS
 10
16.4759720264
 20
6.6378759534
 11
16.5055585523
 21
6.6789128424
  0
LINE
  5
316
100
AcDbEntity
  8
0
100
AcDbLine
 62
7
  6
CONTINUOUS
 10
15.2513102271
 20
4.9455859997
 11
15.2359736668
 21
4.930293618
  0
LINE
  5
317
100
AcDbEntity
  8
0
100
AcDbLine
 62
9
  6
CONTINUOUS
 10
15.2202885876
 20
5.4824409598
 11
15.9710121418
 21
6.1123728173
  0
LINE
  5
318
100
AcDbEntity
  8
0
100
AcDbLine
 62
7
  6
CONTINUOUS
 10
15.9819527829
 20
6.0954449594
 11
15.2350594509
 21
5.46872704
  0
LINE
  5
319
100
AcDbEntity
  8
0
100
AcDbLine
 62
9
  6
CONTINUOUS
 10
15.3669558888
 20
5.3115389862
 11
16.1138492208
 21
5.9382569057
  0
LINE
  5
31A
100
AcDbEntity
  8
0
100
AcDbLine
 62
9
  6
CONTINUOUS
 10
16.9114736668
 20
11.4345859997
 11
16.9114736668
 21
11.8395859997
  0
LINE
  5
31B
100
AcDbEntity
  8
0
100
AcDbLine
 62
9
  6
CONTINUOUS
 10
16.9496773287
 20
11.4549641298
 11
16.9496773287
 21
11.8192078695
  0
LINE
  5
31C
100
AcDbEntity
  8
0
100
AcDbLine
 62
9
  6
CONTINUOUS
 10
17.1183740454
 20
11.4654710679
 11
17.1183740454
 21
11.8087009314
  0
LINE
  5
31D
100
AcDbEntity
  8
0
100
AcDbLine
 62
9
  6
CONTINUOUS
 10
17.1334736668
 20
11.8155859997
 11
17.1334736668
 21
11.4585859997
  0
LINE
  5
31E
100
AcDbEntity
  8
0
100
AcDbLine
 62
7
  6
CONTINUOUS
 10
17.1524736668
 20
4.7670859997
 11
17.1524736668
 21
4.7200859997
  0
LINE
  5
31F
100
AcDbEntity
  8
0
100
AcDbLine
 62
7
  6
CONTINUOUS
 10
17.1524736668
 20
4.5140859997
 11
17.1524736668
 21
4.4670859997
  0
LINE
  5
320
100
AcDbEntity
  8
0
100
AcDbLine
 62
7
  6
CONTINUOUS
 10
17.1644736668
 20
11.8580841998
 11
17.1644736668
 21
11.4160877995
  0
LINE
  5
321
100
AcDbEntity
  8
0
100
AcDbLine
 62
9
  6
CONTINUOUS
 10
17.2244736668
 20
11.9180859997
 11
17.2244736668
 21
11.3560859997
  0
LINE
  5
322
100
AcDbEntity
  8
0
100
AcDbLine
 62
7
  6
CONTINUOUS
 10
17.2249736668
 20
4.4670859997
 11
17.2249736668
 21
4.4230117964
  0
LINE
  5
323
100
AcDbEntity
  8
0
100
AcDbLine
 62
9
  6
CONTINUOUS
 10
17.2604736668
 20
11.3560859997
 11
17.2604736668
 21
11.9180859997
  0
LINE
  5
324
100
AcDbEntity
  8
0
100
AcDbLine
 62
7
  6
CONTINUOUS
 10
17.3124736668
 20
4.3292367998
 11
17.3124736668
 21
4.1420859997
  0
LINE
  5
325
100
AcDbEntity
  8
0
100
AcDbLine
 62
7
  6
CONTINUOUS
 10
17.3204736668
 20
11.4160877995
 11
17.3204736668
 21
11.8580841998
  0
LINE
  5
326
100
AcDbEntity
  8
0
100
AcDbLine
 62
7
  6
CONTINUOUS
 10
17.4074736668
 20
11.5240853084
 11
17.4074736668
 21
11.750086691
  0
LINE
  5
327
100
AcDbEntity
  8
0
100
AcDbLine
 62
7
  6
CONTINUOUS
 10
16.4499736668
 20
6.3130859997
 11
16.4199736668
 21
6.2340859997
  0
ARC
  5
328
100
AcDbEntity
  8
0
100
AcDbCircle
 62
7
  6
CONTINUOUS
 10
7.5681256398
 20
10.5120859997
 40
3.375
100
AcDbArc
 50
41.2305771549
 51
165.0
  0
ARC
  5
329
100
AcDbEntity
  8
0
100
AcDbCircle
 62
7
  6
CONTINUOUS
 10
7.5681256398
 20
10.5120859997
 40
2.625
100
AcDbArc
 50
41.2305771549
 51
165.0
  0
ARC
  5
32A
100
AcDbEntity
  8
0
100
AcDbCircle
 62
7
  6
CONTINUOUS
 10
5.0147859824
 20
10.7831761029
 40
0.094
100
AcDbArc
 50
271.7747442641
 51
75.0
  0
ARC
  5
32B
100
AcDbEntity
  8
0
100
AcDbCircle
 62
7
  6
CONTINUOUS
 10
4.1193727415
 20
11.0231013577
 40
0.094
100
AcDbArc
 50
75.0
 51
238.2252557359
  0
ARC
  5
32C
100
AcDbEntity
  8
0
100
AcDbCircle
 62
7
  6
CONTINUOUS
 10
4.6948957797
 20
10.108997708
 40
0.047
100
AcDbArc
 50
255.0
 51
334.9702072738
  0
ARC
  5
32D
100
AcDbEntity
  8
0
100
AcDbCircle
 62
7
  6
CONTINUOUS
 10
4.059316586
 20
10.2793006396
 40
0.047
100
AcDbArc
 50
175.0297927262
 51
255.0
  0
ARC
  5
32E
100
AcDbEntity
  8
0
100
AcDbCircle
 62
7
  6
CONTINUOUS
 10
10.2560268455
 20
7.9188124895
 40
2.965914913
100
AcDbArc
 50
80.1955390651
 51
86.7593400244
  0
ARC
  5
32F
100
AcDbEntity
  8
0
100
AcDbCircle
 62
7
  6
CONTINUOUS
 10
10.2563019851
 20
7.9187649567
 40
2.9659149122
100
AcDbArc
 50
73.6371313642
 51
80.2009329682
  0
ARC
  5
330
100
AcDbEntity
  8
0
100
AcDbCircle
 62
7
  6
CONTINUOUS
 10
10.2560013264
 20
7.9191656843
 40
2.9656435036
100
AcDbArc
 50
53.125217471
 51
56.0166432507
  0
ARC
  5
331
100
AcDbEntity
  8
0
100
AcDbCircle
 62
7
  6
CONTINUOUS
 10
10.2561528321
 20
7.9193468094
 40
2.9654086303
100
AcDbArc
 50
56.017114467
 51
60.5095636073
  0
ARC
  5
332
100
AcDbEntity
  8
0
100
AcDbCircle
 62
7
  6
CONTINUOUS
 10
10.2563026907
 20
7.9195891045
 40
2.9651239554
100
AcDbArc
 50
60.5098056782
 51
73.6326579125
  0
ARC
  5
333
100
AcDbEntity
  8
0
100
AcDbCircle
 62
7
  6
CONTINUOUS
 10
10.2566492808
 20
7.9200469714
 40
2.9645497022
100
AcDbArc
 50
52.8869015886
 51
53.1250145003
  0
ARC
  5
334
100
AcDbEntity
  8
0
100
AcDbCircle
 62
7
  6
CONTINUOUS
 10
10.8068443241
 20
8.2991543298
 40
1.3612932141
100
AcDbArc
 50
75.2897242895
 51
75.6955475814
  0
ARC
  5
335
100
AcDbEntity
  8
0
100
AcDbCircle
 62
7
  6
CONTINUOUS
 10
10.8407550907
 20
8.4365676227
 40
1.2197622189
100
AcDbArc
 50
75.6442588055
 51
76.5514070233
  0
ARC
  5
336
100
AcDbEntity
  8
0
100
AcDbCircle
 62
7
  6
CONTINUOUS
 10
11.4010212284
 20
8.7959615776
 40
1.2030098005
100
AcDbArc
 50
65.6801952233
 51
71.1948989023
  0
ARC
  5
337
100
AcDbEntity
  8
0
100
AcDbCircle
 62
9
  6
CONTINUOUS
 10
11.4017473396
 20
8.7981894834
 40
1.2006449603
100
AcDbArc
 50
54.4852807657
 51
57.829372037
  0
ARC
  5
338
100
AcDbEntity
  8
0
100
AcDbCircle
 62
7
  6
CONTINUOUS
 10
11.4020838126
 20
8.7986627205
 40
1.2000870111
100
AcDbArc
 50
45.4813092954
 51
54.4852383713
  0
ARC
  5
339
100
AcDbEntity
  8
0
100
AcDbCircle
 62
7
  6
CONTINUOUS
 10
11.0198625257
 20
9.3385394367
 40
0.3102588592
100
AcDbArc
 50
73.822791072
 51
75.7441244282
  0
ARC
  5
33A
100
AcDbEntity
  8
0
100
AcDbCircle
 62
7
  6
CONTINUOUS
 10
9.9975482761
 20
9.915941694
 40
0.2593416041
100
AcDbArc
 50
55.9157097356
 51
58.1757199353
  0
ARC
  5
33B
100
AcDbEntity
  8
0
100
AcDbCircle
 62
7
  6
CONTINUOUS
 10
10.1318976927
 20
9.7954943537
 40
0.2553121275
100
AcDbArc
 50
55.950387328
 51
58.2433132124
  0
ARC
  5
33C
100
AcDbEntity
  8
0
100
AcDbCircle
 62
7
  6
CONTINUOUS
 10
10.3367091393
 20
9.7205556999
 40
0.1836977441
100
AcDbArc
 50
58.396331666
 51
61.5217664228
  0
ARC
  5
33D
100
AcDbEntity
  8
0
100
AcDbCircle
 62
7
  6
CONTINUOUS
 10
10.1478278556
 20
9.9350732611
 40
0.1797542966
100
AcDbArc
 50
58.2003426231
 51
61.407145794
  0
ARC
  5
33E
100
AcDbEntity
  8
0
100
AcDbCircle
 62
7
  6
CONTINUOUS
 10
10.5146369897
 20
9.6868660252
 40
0.1415884998
100
AcDbArc
 50
61.7766523979
 51
65.8503566006
  0
ARC
  5
33F
100
AcDbEntity
  8
0
100
AcDbCircle
 62
7
  6
CONTINUOUS
 10
10.467966302
 20
9.7719741714
 40
0.1386419374
100
AcDbArc
 50
61.6852860804
 51
65.8323687809
  0
ARC
  5
340
100
AcDbEntity
  8
0
100
AcDbCircle
 62
7
  6
CONTINUOUS
 10
10.4688556652
 20
9.8364689121
 40
0.1384301326
100
AcDbArc
 50
61.2308342775
 51
65.8221786865
  0
ARC
  5
341
100
AcDbEntity
  8
0
100
AcDbCircle
 62
7
  6
CONTINUOUS
 10
10.6462953034
 20
9.6966544813
 40
0.1345348503
100
AcDbArc
 50
65.8906268456
 51
67.1197314526
  0
ARC
  5
342
100
AcDbEntity
  8
0
100
AcDbCircle
 62
7
  6
CONTINUOUS
 10
10.4705807128
 20
9.776629525
 40
0.1333035513
100
AcDbArc
 50
60.2901886433
 51
61.7254781583
  0
ARC
  5
343
100
AcDbEntity
  8
0
100
AcDbCircle
 62
7
  6
CONTINUOUS
 10
10.5205184287
 20
9.697873081
 40
0.1291086756
100
AcDbArc
 50
60.8646417358
 51
61.7663808541
  0
ARC
  5
344
100
AcDbEntity
  8
0
100
AcDbCircle
 62
7
  6
CONTINUOUS
 10
10.6309173975
 20
9.9187903346
 40
0.1257145564
100
AcDbArc
 50
240.2489385356
 51
245.811700925
  0
ARC
  5
345
100
AcDbEntity
  8
0
100
AcDbCircle
 62
7
  6
CONTINUOUS
 10
10.3173419513
 20
9.9232347989
 40
0.1209021013
100
AcDbArc
 50
56.8521526607
 51
57.7717653779
  0
ARC
  5
346
100
AcDbEntity
  8
0
100
AcDbCircle
 62
7
  6
CONTINUOUS
 10
10.405563711
 20
9.8554348982
 40
0.01
100
AcDbArc
 50
155.8869005304
 51
235.8869005301
  0
ARC
  5
347
100
AcDbEntity
  8
0
100
AcDbCircle
 62
7
  6
CONTINUOUS
 10
10.3904089906
 20
9.8705317829
 40
0.01
100
AcDbArc
 50
335.8869005304
 51
55.8869005324
  0
ARC
  5
348
100
AcDbEntity
  8
0
100
AcDbCircle
 62
7
  6
CONTINUOUS
 10
10.3954643803
 20
10.3807813494
 40
0.5
100
AcDbArc
 50
86.7639810873
 51
142.3730464455
  0
ARC
  5
349
100
AcDbEntity
  8
0
100
AcDbCircle
 62
7
  6
CONTINUOUS
 10
10.3305891298
 20
10.2350365646
 40
0.1771936564
100
AcDbArc
 50
237.7647760191
 51
241.0672773913
  0
ARC
  5
34A
100
AcDbEntity
  8
0
100
AcDbCircle
 62
7
  6
CONTINUOUS
 10
10.1186190265
 20
10.1077825126
 40
0.01
100
AcDbArc
 50
155.8869005304
 51
235.8869005301
  0
ARC
  5
34B
100
AcDbEntity
  8
0
100
AcDbCircle
 62
7
  6
CONTINUOUS
 10
10.2406313659
 20
10.00097669
 40
0.01
100
AcDbArc
 50
335.8869005304
 51
55.8869005301
  0
ARC
  5
34C
100
AcDbEntity
  8
0
100
AcDbCircle
 62
7
  6
CONTINUOUS
 10
10.2557860863
 20
9.9858798052
 40
0.01
100
AcDbArc
 50
155.8869005304
 51
235.8869005302
  0
ARC
  5
34D
100
AcDbEntity
  8
0
100
AcDbCircle
 62
7
  6
CONTINUOUS
 10
10.1034643061
 20
10.1228793974
 40
0.01
100
AcDbArc
 50
335.8869005304
 51
55.886900531
  0
ARC
  5
34E
100
AcDbEntity
  8
0
100
AcDbCircle
 62
7
  6
CONTINUOUS
 10
9.9646378802
 20
10.2410748196
 40
0.01
100
AcDbArc
 50
155.8869005304
 51
235.886900531
  0
ARC
  5
34F
100
AcDbEntity
  8
0
100
AcDbCircle
 62
7
  6
CONTINUOUS
 10
9.9485751737
 20
10.2541431203
 40
0.01
100
AcDbArc
 50
335.8869005304
 51
65.8869005304
  0
ARC
  5
350
100
AcDbEntity
  8
0
100
AcDbCircle
 62
7
  6
CONTINUOUS
 10
10.9501279601
 20
9.5043518919
 40
0.1861264186
100
AcDbArc
 50
70.4325973409
 51
73.6214755875
  0
ARC
  5
351
100
AcDbEntity
  8
0
100
AcDbCircle
 62
7
  6
CONTINUOUS
 10
10.9737621188
 20
9.6035964573
 40
0.1447025074
100
AcDbArc
 50
70.0775233875
 51
74.1526265744
  0
ARC
  5
352
100
AcDbEntity
  8
0
100
AcDbCircle
 62
7
  6
CONTINUOUS
 10
10.8146291389
 20
9.6813541429
 40
0.1387477176
100
AcDbArc
 50
65.9543670032
 51
70.198356943
  0
ARC
  5
353
100
AcDbEntity
  8
0
100
AcDbCircle
 62
7
  6
CONTINUOUS
 10
10.8186726625
 20
9.6188229964
 40
0.1351160542
100
AcDbArc
 50
70.028958993
 51
73.4309527681
  0
ARC
  5
354
100
AcDbEntity
  8
0
100
AcDbCircle
 62
7
  6
CONTINUOUS
 10
10.7458482079
 20
9.9253448316
 40
0.1229824632
100
AcDbArc
 50
245.8917799342
 51
247.2468822584
  0
ARC
  5
355
100
AcDbEntity
  8
0
100
AcDbCircle
 62
7
  6
CONTINUOUS
 10
11.250417615
 20
9.6011939667
 40
0.01
100
AcDbArc
 50
255.8869005307
 51
335.8869005304
  0
ARC
  5
356
100
AcDbEntity
  8
0
100
AcDbCircle
 62
7
  6
CONTINUOUS
 10
11.0681253958
 20
9.6222799618
 40
0.01
100
AcDbArc
 50
255.8869005307
 51
335.8869005304
  0
ARC
  5
357
100
AcDbEntity
  8
0
100
AcDbCircle
 62
7
  6
CONTINUOUS
 10
11.0894803074
 20
9.6210352805
 40
0.01
100
AcDbArc
 50
75.8869005307
 51
155.8869005304
  0
ARC
  5
358
100
AcDbEntity
  8
0
100
AcDbCircle
 62
7
  6
CONTINUOUS
 10
10.8924164291
 20
9.6458352504
 40
0.01
100
AcDbArc
 50
75.8869005311
 51
155.8869005304
  0
ARC
  5
359
100
AcDbEntity
  8
0
100
AcDbCircle
 62
7
  6
CONTINUOUS
 10
10.8710615176
 20
9.6470799317
 40
0.01
100
AcDbArc
 50
255.8869005307
 51
335.8869005304
  0
ARC
  5
35A
100
AcDbEntity
  8
0
100
AcDbCircle
 62
7
  6
CONTINUOUS
 10
11.2717725266
 20
9.5999492854
 40
0.01
100
AcDbArc
 50
75.8869005298
 51
155.8869005304
  0
ARC
  5
35B
100
AcDbEntity
  8
0
100
AcDbCircle
 62
7
  6
CONTINUOUS
 10
11.4524053797
 20
9.5751560052
 40
0.01
100
AcDbArc
 50
255.8869005298
 51
335.8869005304
  0
ARC
  5
35C
100
AcDbEntity
  8
0
100
AcDbCircle
 62
7
  6
CONTINUOUS
 10
11.4728523051
 20
9.5718827399
 40
0.01
100
AcDbArc
 50
65.8869005304
 51
155.8869005304
  0
ARC
  5
35D
100
AcDbEntity
  8
0
100
AcDbCircle
 62
7
  6
CONTINUOUS
 10
10.7146192583
 20
10.1347610364
 40
0.9029695368
100
AcDbArc
 50
142.3731117439
 51
167.9678955891
  0
ARC
  5
35E
100
AcDbEntity
  8
0
100
AcDbCircle
 62
7
  6
CONTINUOUS
 10
11.1917482632
 20
9.9844940933
 40
0.3614082849
100
AcDbArc
 50
254.2836861391
 51
255.9451810292
  0
ARC
  5
35F
100
AcDbEntity
  8
0
100
AcDbCircle
 62
7
  6
CONTINUOUS
 10
10.7598721411
 20
10.0228405409
 40
0.3243652792
100
AcDbArc
 50
250.3072763711
 51
258.8191778028
  0
ARC
  5
360
100
AcDbEntity
  8
0
100
AcDbCircle
 62
7
  6
CONTINUOUS
 10
10.7598721411
 20
10.0228405409
 40
0.3243652792
100
AcDbArc
 50
233.0199554439
 51
241.4665246899
  0
ARC
  5
361
100
AcDbEntity
  8
0
100
AcDbCircle
 62
7
  6
CONTINUOUS
 10
12.6574736668
 20
6.7859214801
 40
2.74
100
AcDbArc
 50
2.9933385643
 51
21.3192166349
  0
ARC
  5
362
100
AcDbEntity
  8
0
100
AcDbCircle
 62
7
  6
CONTINUOUS
 10
15.2424736668
 20
5.2070859997
 40
1.1375
100
AcDbArc
 50
0.0
 51
40.0
  0
ARC
  5
363
100
AcDbEntity
  8
0
100
AcDbCircle
 62
7
  6
CONTINUOUS
 10
15.0886956979
 20
4.6820859997
 40
0.5
100
AcDbArc
 50
90.713010655
 51
170.2121809433
  0
ARC
  5
364
100
AcDbEntity
  8
0
100
AcDbCircle
 62
7
  6
CONTINUOUS
 10
15.0677159957
 20
6.2933900645
 40
0.2695755326
100
AcDbArc
 50
241.5757921605
 51
248.6794539014
  0
ARC
  5
365
100
AcDbEntity
  8
0
100
AcDbCircle
 62
7
  6
CONTINUOUS
 10
15.19888161
 20
6.4034484686
 40
0.2695709136
100
AcDbArc
 50
11.3205057932
 51
18.4197241053
  0
ARC
  5
366
100
AcDbEntity
  8
0
100
AcDbCircle
 62
9
  6
CONTINUOUS
 10
15.408581577
 20
6.5140476835
 40
0.2399158105
100
AcDbArc
 50
343.6206278284
 51
346.995931869
  0
ARC
  5
367
100
AcDbEntity
  8
0
100
AcDbCircle
 62
7
  6
CONTINUOUS
 10
15.0282688076
 20
6.0915075339
 40
0.2244047619
100
AcDbArc
 50
220.0
 51
252.3268237287
  0
ARC
  5
368
100
AcDbEntity
  8
0
100
AcDbCircle
 62
7
  6
CONTINUOUS
 10
15.4045425424
 20
6.407238686
 40
0.2244047619
100
AcDbArc
 50
7.6731762712
 51
40.0
  0
ARC
  5
369
100
AcDbEntity
  8
0
100
AcDbCircle
 62
7
  6
CONTINUOUS
 10
14.8994736208
 20
4.1422170599
 40
0.187
100
AcDbArc
 50
92.1452489224
 51
180.0401561489
  0
ARC
  5
36A
100
AcDbEntity
  8
0
100
AcDbCircle
 62
7
  6
CONTINUOUS
 10
15.0794709929
 20
4.3300859997
 40
0.187
100
AcDbArc
 50
140.1258832631
 51
180.3063960032
  0
ARC
  5
36B
100
AcDbEntity
  8
0
100
AcDbCircle
 62
7
  6
CONTINUOUS
 10
15.1301991331
 20
5.0670469751
 40
0.1715245336
100
AcDbArc
 50
314.9173576842
 51
33.0478355063
  0
ARC
  5
36C
100
AcDbEntity
  8
0
100
AcDbCircle
 62
7
  6
CONTINUOUS
 10
15.2424736668
 20
5.2070859997
 40
0.1625
100
AcDbArc
 50
0.0
 51
40.0
  0
ARC
  5
36D
100
AcDbEntity
  8
0
100
AcDbCircle
 62
7
  6
CONTINUOUS
 10
15.2099736668
 20
5.6001382947
 40
0.125
100
AcDbArc
 50
163.1359246805
 51
255.5620803141
  0
ARC
  5
36E
100
AcDbEntity
  8
0
100
AcDbCircle
 62
7
  6
CONTINUOUS
 10
14.669389184
 20
4.6170859997
 40
0.1094155172
100
AcDbArc
 50
109.7178358941
 51
250.2821641059
  0
ARC
  5
36F
100
AcDbEntity
  8
0
100
AcDbCircle
 62
7
  6
CONTINUOUS
 10
15.3049736668
 20
5.2070859997
 40
0.1
100
AcDbArc
 50
314.4270040008
 51
360.0
  0
ARC
  5
370
100
AcDbEntity
  8
0
100
AcDbCircle
 62
7
  6
CONTINUOUS
 10
14.5354736668
 20
4.3292367998
 40
0.063
100
AcDbArc
 50
93.9651064013
 51
180.0
  0
ARC
  5
371
100
AcDbEntity
  8
0
100
AcDbCircle
 62
7
  6
CONTINUOUS
 10
15.1626595711
 20
4.8890859997
 40
0.04
100
AcDbArc
 50
90.0
 51
144.0754589751
  0
ARC
  5
372
100
AcDbEntity
  8
0
100
AcDbCircle
 62
7
  6
CONTINUOUS
 10
14.5289736668
 20
4.4230117964
 40
0.031
100
AcDbArc
 50
273.9651064011
 51
360.0
  0
ARC
  5
373
100
AcDbEntity
  8
0
100
AcDbCircle
 62
7
  6
CONTINUOUS
 10
14.9405987368
 20
4.1670859997
 40
0.025
100
AcDbArc
 50
183.8723551757
 51
270.0
  0
ARC
  5
374
100
AcDbEntity
  8
0
100
AcDbCircle
 62
7
  6
CONTINUOUS
 10
15.2356094764
 20
5.495296712
 40
0.02
100
AcDbArc
 50
220.0
 51
287.5000000003
  0
ARC
  5
375
100
AcDbEntity
  8
0
100
AcDbCircle
 62
7
  6
CONTINUOUS
 10
14.9463550521
 20
5.8400167114
 40
0.02
100
AcDbArc
 50
130.0
 51
220.0
  0
ARC
  5
376
100
AcDbEntity
  8
0
100
AcDbCircle
 62
7
  6
CONTINUOUS
 10
13.0039736668
 20
9.6923943278
 40
2.481
100
AcDbArc
 50
332.7675811476
 51
20.4957386309
  0
ARC
  5
377
100
AcDbEntity
  8
0
100
AcDbCircle
 62
7
  6
CONTINUOUS
 10
11.6916908915
 20
9.2065313339
 40
0.3182308094
100
AcDbArc
 50
37.9004271509
 51
48.7921406475
  0
ARC
  5
378
100
AcDbEntity
  8
0
100
AcDbCircle
 62
7
  6
CONTINUOUS
 10
15.3106525972
 20
10.6867649301
 40
0.1256789304
100
AcDbArc
 50
90.0
 51
270.0
  0
ARC
  5
379
100
AcDbEntity
  8
0
100
AcDbCircle
 62
7
  6
CONTINUOUS
 10
14.4495402915
 20
11.2070859997
 40
0.125
100
AcDbArc
 50
180.0
 51
328.6677485023
  0
ARC
  5
37A
100
AcDbEntity
  8
0
100
AcDbCircle
 62
7
  6
CONTINUOUS
 10
15.3274736668
 20
10.8824438605
 40
0.07
100
AcDbArc
 50
270.0
 51
53.1680874618
  0
ARC
  5
37B
100
AcDbEntity
  8
0
100
AcDbCircle
 62
7
  6
CONTINUOUS
 10
15.0235402915
 20
11.1890859997
 40
0.047
100
AcDbArc
 50
270.0
 51
337.1513705671
  0
ARC
  5
37C
100
AcDbEntity
  8
0
100
AcDbCircle
 62
7
  6
CONTINUOUS
 10
15.1101644799
 20
11.1525859997
 40
0.047
100
AcDbArc
 50
90.0
 51
157.151370567
  0
ARC
  5
37D
100
AcDbEntity
  8
0
100
AcDbCircle
 62
7
  6
CONTINUOUS
 10
15.7298987305
 20
4.2425213737
 40
1.142
100
AcDbArc
 50
356.1276448243
 51
35.9245410249
  0
ARC
  5
37E
100
AcDbEntity
  8
0
100
AcDbCircle
 62
7
  6
CONTINUOUS
 10
16.0550486031
 20
4.2425213737
 40
1.142
100
AcDbArc
 50
144.0754589751
 51
183.8723551757
  0
ARC
  5
37F
100
AcDbEntity
  8
0
100
AcDbCircle
 62
9
  6
CONTINUOUS
 10
15.8922945692
 20
4.4311372461
 40
0.5991594585
100
AcDbArc
 50
89.9828734518
 51
104.1623709824
  0
ARC
  5
380
100
AcDbEntity
  8
0
100
AcDbCircle
 62
9
  6
CONTINUOUS
 10
15.8926535712
 20
4.4311437494
 40
0.5991529554
100
AcDbArc
 50
75.8375516717
 51
90.0172038941
  0
ARC
  5
381
100
AcDbEntity
  8
0
100
AcDbCircle
 62
9
  6
CONTINUOUS
 10
15.8919924292
 20
4.4939215353
 40
0.5010198709
100
AcDbArc
 50
74.5046306723
 51
89.9449664877
  0
ARC
  5
382
100
AcDbEntity
  8
0
100
AcDbCircle
 62
9
  6
CONTINUOUS
 10
15.8929537802
 20
4.4939311839
 40
0.5010102809
100
AcDbArc
 50
90.0549060127
 51
105.4955404644
  0
ARC
  5
383
100
AcDbEntity
  8
0
100
AcDbCircle
 62
7
  6
CONTINUOUS
 10
15.892477966
 20
5.4683687905
 40
1.550717391
100
AcDbArc
 50
95.228594589
 51
96.4516507396
  0
ARC
  5
384
100
AcDbEntity
  8
0
100
AcDbCircle
 62
7
  6
CONTINUOUS
 10
15.8924769417
 20
5.4683920086
 40
1.5506942093
100
AcDbArc
 50
96.6859612569
 51
97.7909632722
  0
ARC
  5
385
100
AcDbEntity
  8
0
100
AcDbCircle
 62
7
  6
CONTINUOUS
 10
15.8924738377
 20
5.4684181978
 40
1.5506677929
100
AcDbArc
 50
75.2369537327
 51
85.5524411074
  0
ARC
  5
386
100
AcDbEntity
  8
0
100
AcDbCircle
 62
7
  6
CONTINUOUS
 10
15.8924741452
 20
5.4684276425
 40
1.5506583484
100
AcDbArc
 50
88.3536814717
 51
89.0501887523
  0
ARC
  5
387
100
AcDbEntity
  8
0
100
AcDbCircle
 62
7
  6
CONTINUOUS
 10
15.8924603496
 20
5.4685038843
 40
1.5505811124
100
AcDbArc
 50
97.850204339
 51
104.7630243351
  0
ARC
  5
388
100
AcDbEntity
  8
0
100
AcDbCircle
 62
7
  6
CONTINUOUS
 10
15.8924590231
 20
5.4685380424
 40
1.5505470824
100
AcDbArc
 50
96.4516579445
 51
96.6859319032
  0
ARC
  5
389
100
AcDbEntity
  8
0
100
AcDbCircle
 62
7
  6
CONTINUOUS
 10
15.8924736668
 20
5.4684159842
 40
1.5496700155
100
AcDbArc
 50
94.132434799
 51
94.4202255492
  0
ARC
  5
38A
100
AcDbEntity
  8
0
100
AcDbCircle
 62
7
  6
CONTINUOUS
 10
15.9298468355
 20
5.6792516004
 40
1.3366339327
100
AcDbArc
 50
96.1581187077
 51
96.6372804437
  0
ARC
  5
38B
100
AcDbEntity
  8
0
100
AcDbCircle
 62
7
  6
CONTINUOUS
 10
15.9298638302
 20
5.6789563742
 40
1.3359280035
100
AcDbArc
 50
96.4480181285
 51
96.6429198363
  0
ARC
  5
38C
100
AcDbEntity
  8
0
100
AcDbCircle
 62
7
  6
CONTINUOUS
 10
15.9298349882
 20
5.6792120989
 40
1.3356706575
100
AcDbArc
 50
96.1620659315
 51
96.4480206505
  0
ARC
  5
38D
100
AcDbEntity
  8
0
100
AcDbCircle
 62
7
  6
CONTINUOUS
 10
15.8118582822
 20
5.828751602
 40
1.1813904521
100
AcDbArc
 50
94.9105327827
 51
95.73637146
  0
ARC
  5
38E
100
AcDbEntity
  8
0
100
AcDbCircle
 62
7
  6
CONTINUOUS
 10
15.8118551834
 20
5.8285420914
 40
1.1805939805
100
AcDbArc
 50
94.9129742771
 51
95.7401032736
  0
ARC
  5
38F
100
AcDbEntity
  8
0
100
AcDbCircle
 62
7
  6
CONTINUOUS
 10
15.8117601504
 20
5.8298836962
 40
1.180254113
100
AcDbArc
 50
94.0833303176
 51
94.9104908263
  0
ARC
  5
390
100
AcDbEntity
  8
0
100
AcDbCircle
 62
7
  6
CONTINUOUS
 10
15.8117656581
 20
5.8295788635
 40
1.1795533503
100
AcDbArc
 50
94.0853367197
 51
94.9129546219
  0
ARC
  5
391
100
AcDbEntity
  8
0
100
AcDbCircle
 62
7
  6
CONTINUOUS
 10
15.8117066213
 20
5.8306275873
 40
1.1795082986
100
AcDbArc
 50
93.2551718956
 51
94.0833097801
  0
ARC
  5
392
100
AcDbEntity
  8
0
100
AcDbCircle
 62
7
  6
CONTINUOUS
 10
15.8117178011
 20
5.8302341728
 40
1.1788962967
100
AcDbArc
 50
93.6848341228
 51
94.0852857001
  0
ARC
  5
393
100
AcDbEntity
  8
0
100
AcDbCircle
 62
7
  6
CONTINUOUS
 10
16.3399985457
 20
5.2718215965
 40
0.2039751211
100
AcDbArc
 50
326.9521644937
 51
34.9889904702
  0
ARC
  5
394
100
AcDbEntity
  8
0
100
AcDbCircle
 62
7
  6
CONTINUOUS
 10
15.4449487878
 20
5.2718215965
 40
0.2039751211
100
AcDbArc
 50
145.0110095298
 51
213.0478355063
  0
ARC
  5
395
100
AcDbEntity
  8
0
100
AcDbCircle
 62
7
  6
CONTINUOUS
 10
16.3399736668
 20
5.0642574311
 40
0.1
100
AcDbArc
 50
0.0
 51
45.5729959992
  0
ARC
  5
396
100
AcDbEntity
  8
0
100
AcDbCircle
 62
7
  6
CONTINUOUS
 10
15.4449736668
 20
5.0642574311
 40
0.1
100
AcDbArc
 50
134.4270040008
 51
180.0
  0
ARC
  5
397
100
AcDbEntity
  8
0
100
AcDbCircle
 62
7
  6
CONTINUOUS
 10
16.2913225553
 20
5.7980859997
 40
0.031
100
AcDbArc
 50
4.8096995456
 51
90.0
  0
ARC
  5
398
100
AcDbEntity
  8
0
100
AcDbCircle
 62
7
  6
CONTINUOUS
 10
16.6962516356
 20
4.6820859997
 40
0.5
100
AcDbArc
 50
9.7878190567
 51
89.286989345
  0
ARC
  5
399
100
AcDbEntity
  8
0
100
AcDbCircle
 62
7
  6
CONTINUOUS
 10
16.8854737127
 20
4.1422170599
 40
0.187
100
AcDbArc
 50
359.9598438511
 51
87.8547510776
  0
ARC
  5
39A
100
AcDbEntity
  8
0
100
AcDbCircle
 62
7
  6
CONTINUOUS
 10
16.7054763406
 20
4.3300859997
 40
0.187
100
AcDbArc
 50
359.6936039968
 51
39.8741167369
  0
ARC
  5
39B
100
AcDbEntity
  8
0
100
AcDbCircle
 62
7
  6
CONTINUOUS
 10
17.1155581495
 20
4.6170859997
 40
0.1094155172
100
AcDbArc
 50
289.7178358941
 51
70.2821641059
  0
ARC
  5
39C
100
AcDbEntity
  8
0
100
AcDbCircle
 62
7
  6
CONTINUOUS
 10
17.2494736668
 20
4.3292367998
 40
0.063
100
AcDbArc
 50
0.0
 51
86.0348935987
  0
ARC
  5
39D
100
AcDbEntity
  8
0
100
AcDbCircle
 62
7
  6
CONTINUOUS
 10
16.6222877625
 20
4.8890859997
 40
0.04
100
AcDbArc
 50
35.9245410249
 51
90.0
  0
ARC
  5
39E
100
AcDbEntity
  8
0
100
AcDbCircle
 62
7
  6
CONTINUOUS
 10
17.2559736668
 20
4.4230117964
 40
0.031
100
AcDbArc
 50
180.0
 51
266.0348935989
  0
ARC
  5
39F
100
AcDbEntity
  8
0
100
AcDbCircle
 62
7
  6
CONTINUOUS
 10
16.8443485967
 20
4.1670859997
 40
0.025
100
AcDbArc
 50
270.0
 51
356.1276448243
  0
ARC
  5
3A0
100
AcDbEntity
  8
0
100
AcDbCircle
 62
7
  6
CONTINUOUS
 10
16.9450125688
 20
5.8530893282
 40
0.625
100
AcDbArc
 50
184.8096995456
 51
214.9889904701
  0
ARC
  5
3A1
100
AcDbEntity
  8
0
100
AcDbCircle
 62
7
  6
CONTINUOUS
 10
16.6547482004
 20
5.0670469751
 40
0.1715245336
100
AcDbArc
 50
146.9521644937
 51
225.0826423158
  0
ARC
  5
3A2
100
AcDbEntity
  8
0
100
AcDbCircle
 62
7
  6
CONTINUOUS
 10
16.5749736668
 20
5.6001382947
 40
0.125
100
AcDbArc
 50
284.4379196859
 51
77.3122798359
  0
ARC
  5
3A3
100
AcDbEntity
  8
0
100
AcDbCircle
 62
7
  6
CONTINUOUS
 10
16.4799736668
 20
5.2070859997
 40
0.1
100
AcDbArc
 50
180.0
 51
225.5729959992
  0
ARC
  5
3A4
100
AcDbEntity
  8
0
100
AcDbCircle
 62
7
  6
CONTINUOUS
 10
15.8498400488
 20
6.0066924532
 40
1.0107107145
100
AcDbArc
 50
93.7482706423
 51
94.2515279919
  0
ARC
  5
3A5
100
AcDbEntity
  8
0
100
AcDbCircle
 62
7
  6
CONTINUOUS
 10
15.8908321784
 20
6.0994524237
 40
0.9196314524
100
AcDbArc
 50
90.1663086184
 51
90.7116951538
  0
ARC
  5
3A6
100
AcDbEntity
  8
0
100
AcDbCircle
 62
7
  6
CONTINUOUS
 10
15.8355713385
 20
6.2225807189
 40
0.7944023684
100
AcDbArc
 50
100.2819507512
 51
101.1062242582
  0
ARC
  5
3A7
100
AcDbEntity
  8
0
100
AcDbCircle
 62
7
  6
CONTINUOUS
 10
15.8355647117
 20
6.2221199462
 40
0.7938610963
100
AcDbArc
 50
100.2885514337
 51
101.0994028506
  0
ARC
  5
3A8
100
AcDbEntity
  8
0
100
AcDbCircle
 62
7
  6
CONTINUOUS
 10
15.8903668954
 20
6.2340341325
 40
0.7840489635
100
AcDbArc
 50
90.0010631925
 51
90.1311906939
  0
ARC
  5
3A9
100
AcDbEntity
  8
0
100
AcDbCircle
 62
7
  6
CONTINUOUS
 10
15.8994100244
 20
6.2408522047
 40
0.7782050764
100
AcDbArc
 50
85.5604448853
 51
86.3959544088
  0
ARC
  5
3AA
100
AcDbEntity
  8
0
100
AcDbCircle
 62
7
  6
CONTINUOUS
 10
15.8994654988
 20
6.2417170317
 40
0.7773384718
100
AcDbArc
 50
86.544070788
 51
86.8132476992
  0
ARC
  5
3AB
100
AcDbEntity
  8
0
100
AcDbCircle
 62
7
  6
CONTINUOUS
 10
15.9524700498
 20
6.2401360307
 40
0.7766215358
100
AcDbArc
 50
85.5503349634
 51
86.629561045
  0
ARC
  5
3AC
100
AcDbEntity
  8
0
100
AcDbCircle
 62
7
  6
CONTINUOUS
 10
15.9525711439
 20
6.2418803
 40
0.7748743401
100
AcDbArc
 50
86.6294406196
 51
89.4766556743
  0
ARC
  5
3AD
100
AcDbEntity
  8
0
100
AcDbCircle
 62
7
  6
CONTINUOUS
 10
15.8322992006
 20
6.2470690293
 40
0.7696952821
100
AcDbArc
 50
94.2759261933
 51
94.4155032499
  0
ARC
  5
3AE
100
AcDbEntity
  8
0
100
AcDbCircle
 62
7
  6
CONTINUOUS
 10
15.8903577763
 20
6.2848451343
 40
0.7332379616
100
AcDbArc
 50
89.8570503768
 51
90.0004242968
  0
ARC
  5
3AF
100
AcDbEntity
  8
0
100
AcDbCircle
 62
7
  6
CONTINUOUS
 10
15.8903601843
 20
6.2911714375
 40
0.7279116602
100
AcDbArc
 50
89.8245621781
 51
90.0006050107
  0
ARC
  5
3B0
100
AcDbEntity
  8
0
100
AcDbCircle
 62
7
  6
CONTINUOUS
 10
15.8652272149
 20
6.3347685133
 40
0.6838345043
100
AcDbArc
 50
90.0099353926
 51
90.6715830078
  0
ARC
  5
3B1
100
AcDbEntity
  8
0
100
AcDbCircle
 62
7
  6
CONTINUOUS
 10
15.8905803236
 20
6.3669616157
 40
0.6511211807
100
AcDbArc
 50
89.4868212858
 51
89.8586053485
  0
ARC
  5
3B2
100
AcDbEntity
  8
0
100
AcDbCircle
 62
7
  6
CONTINUOUS
 10
15.8905995939
 20
6.3692470143
 40
0.6498357163
100
AcDbArc
 50
89.5174756418
 51
89.8245924982
  0
ARC
  5
3B3
100
AcDbEntity
  8
0
100
AcDbCircle
 62
7
  6
CONTINUOUS
 10
15.836495758
 20
6.4174718573
 40
0.5999360926
100
AcDbArc
 50
93.7216101006
 51
94.2787120516
  0
ARC
  5
3B4
100
AcDbEntity
  8
0
100
AcDbCircle
 62
7
  6
CONTINUOUS
 10
15.8167283997
 20
6.4443266371
 40
0.5708244212
100
AcDbArc
 50
94.389571908
 51
95.0101180037
  0
ARC
  5
3B5
100
AcDbEntity
  8
0
100
AcDbCircle
 62
7
  6
CONTINUOUS
 10
15.7768598418
 20
6.438587019
 40
0.5707629174
100
AcDbArc
 50
99.8153746475
 51
101.5910104138
  0
ARC
  5
3B6
100
AcDbEntity
  8
0
100
AcDbCircle
 62
7
  6
CONTINUOUS
 10
15.8914436353
 20
6.4730701666
 40
0.5460091385
100
AcDbArc
 50
89.1383099842
 51
89.5142919791
  0
ARC
  5
3B7
100
AcDbEntity
  8
0
100
AcDbCircle
 62
7
  6
CONTINUOUS
 10
15.7713615462
 20
6.4670640701
 40
0.5407687169
100
AcDbArc
 50
99.7739723793
 51
101.6708638583
  0
ARC
  5
3B8
100
AcDbEntity
  8
0
100
AcDbCircle
 62
7
  6
CONTINUOUS
 10
15.8919089542
 20
6.5147861557
 40
0.5032906701
100
AcDbArc
 50
88.8076653967
 51
89.4873428048
  0
ARC
  5
3B9
100
AcDbEntity
  8
0
100
AcDbCircle
 62
7
  6
CONTINUOUS
 10
15.7650453048
 20
6.5163697052
 40
0.4906801515
100
AcDbArc
 50
95.4241064137
 51
97.4314306623
  0
ARC
  5
3BA
100
AcDbEntity
  8
0
100
AcDbCircle
 62
7
  6
CONTINUOUS
 10
15.892628654
 20
6.5565626414
 40
0.46250829
100
AcDbArc
 50
88.9150514288
 51
89.1295468378
  0
ARC
  5
3BB
100
AcDbEntity
  8
0
100
AcDbCircle
 62
7
  6
CONTINUOUS
 10
15.7463542899
 20
6.5892345965
 40
0.4170584018
100
AcDbArc
 50
101.6439435002
 51
103.2859211221
  0
ARC
  5
3BC
100
AcDbEntity
  8
0
100
AcDbCircle
 62
7
  6
CONTINUOUS
 10
15.742004594
 20
6.6081109996
 40
0.3966992811
100
AcDbArc
 50
101.6394161979
 51
103.3050278594
  0
ARC
  5
3BD
100
AcDbEntity
  8
0
100
AcDbCircle
 62
7
  6
CONTINUOUS
 10
15.8292002436
 20
6.6284558645
 40
0.3890573587
100
AcDbArc
 50
102.539540681
 51
103.8625397041
  0
ARC
  5
3BE
100
AcDbEntity
  8
0
100
AcDbCircle
 62
7
  6
CONTINUOUS
 10
15.8185105224
 20
6.6570184612
 40
0.3597152826
100
AcDbArc
 50
94.2686832444
 51
94.7486096743
  0
ARC
  5
3BF
100
AcDbEntity
  8
0
100
AcDbCircle
 62
7
  6
CONTINUOUS
 10
15.8955812956
 20
6.6942497861
 40
0.3237894874
100
AcDbArc
 50
87.7714763652
 51
88.7965435123
  0
ARC
  5
3C0
100
AcDbEntity
  8
0
100
AcDbCircle
 62
7
  6
CONTINUOUS
 10
15.4770263872
 20
6.533377982
 40
0.1928791999
100
AcDbArc
 50
64.1097246635
 51
67.7334413561
  0
ARC
  5
3C1
100
AcDbEntity
  8
0
100
AcDbCircle
 62
7
  6
CONTINUOUS
 10
15.5369660225
 20
6.5869879327
 40
0.1278760925
100
AcDbArc
 50
115.2107148916
 51
117.858696678
  0
ARC
  5
3C2
100
AcDbEntity
  8
0
100
AcDbCircle
 62
7
  6
CONTINUOUS
 10
15.5566432109
 20
6.6040305607
 40
0.1200007163
100
AcDbArc
 50
115.9521432919
 51
116.9481742916
  0
ARC
  5
3C3
100
AcDbEntity
  8
0
100
AcDbCircle
 62
9
  6
CONTINUOUS
 10
15.5192651139
 20
6.6019452265
 40
0.1031496789
100
AcDbArc
 50
110.3447564041
 51
112.5588632758
  0
ARC
  5
3C4
100
AcDbEntity
  8
0
100
AcDbCircle
 62
9
  6
CONTINUOUS
 10
15.5183700277
 20
6.6043980202
 40
0.1005387042
100
AcDbArc
 50
107.345165077
 51
110.3524554338
  0
ARC
  5
3C5
100
AcDbEntity
  8
0
100
AcDbCircle
 62
9
  6
CONTINUOUS
 10
15.5325313954
 20
6.6157054892
 40
0.0983805126
100
AcDbArc
 50
80.4287065635
 51
89.9879480686
  0
ARC
  5
3C6
100
AcDbEntity
  8
0
100
AcDbCircle
 62
7
  6
CONTINUOUS
 10
15.532552122
 20
6.6160788698
 40
0.0980071299
100
AcDbArc
 50
90.0000190795
 51
90.874215727
  0
ARC
  5
3C7
100
AcDbEntity
  8
0
100
AcDbCircle
 62
9
  6
CONTINUOUS
 10
15.5168826103
 20
6.6114181769
 40
0.0933457587
100
AcDbArc
 50
90.0000190548
 51
90.874215702
  0
ARC
  5
3C8
100
AcDbEntity
  8
0
100
AcDbCircle
 62
7
  6
CONTINUOUS
 10
15.955691253
 20
6.0995170651
 40
0.02
100
AcDbArc
 50
332.5
 51
40.0
  0
ARC
  5
3C9
100
AcDbEntity
  8
0
100
AcDbCircle
 62
7
  6
CONTINUOUS
 10
15.6664368286
 20
6.4442370645
 40
0.02
100
AcDbArc
 50
40.0
 51
130.0
  0
ARC
  5
3CA
100
AcDbEntity
  8
0
100
AcDbCircle
 62
7
  6
CONTINUOUS
 10
15.8378397734
 20
7.769662094
 40
0.7571566142
100
AcDbArc
 50
273.8559981753
 51
274.5173763271
  0
ARC
  5
3CB
100
AcDbEntity
  8
0
100
AcDbCircle
 62
7
  6
CONTINUOUS
 10
15.6469429474
 20
7.5154967202
 40
0.5348769393
100
AcDbArc
 50
280.6076480011
 51
280.8267972506
  0
ARC
  5
3CC
100
AcDbEntity
  8
0
100
AcDbCircle
 62
7
  6
CONTINUOUS
 10
15.8555265429
 20
7.3098438939
 40
0.2959111397
100
AcDbArc
 50
273.5382096016
 51
274.4090084698
  0
ARC
  5
3CD
100
AcDbEntity
  8
0
100
AcDbCircle
 62
7
  6
CONTINUOUS
 10
15.5049736668
 20
6.9388856527
 40
0.03
100
AcDbArc
 50
104.7630312683
 51
169.9867574249
  0
ARC
  5
3CE
100
AcDbEntity
  8
0
100
AcDbCircle
 62
9
  6
CONTINUOUS
 10
16.3909811146
 20
6.5180859881
 40
0.2771787996
100
AcDbArc
 50
179.9999976145
 51
180.4371261495
  0
ARC
  5
3CF
100
AcDbEntity
  8
0
100
AcDbCircle
 62
7
  6
CONTINUOUS
 10
16.7286273395
 20
6.5180853808
 40
0.2750000428
100
AcDbArc
 50
215.7908133293
 51
144.2092639667
  0
ARC
  5
3D0
100
AcDbEntity
  8
0
100
AcDbCircle
 62
7
  6
CONTINUOUS
 10
16.7285137143
 20
6.5179256085
 40
0.2748041338
100
AcDbArc
 50
239.0325325156
 51
243.5505255438
  0
ARC
  5
3D1
100
AcDbEntity
  8
0
100
AcDbCircle
 62
7
  6
CONTINUOUS
 10
16.7286041217
 20
6.5178766417
 40
0.2747890875
100
AcDbArc
 50
259.986438857
 51
266.8103943274
  0
ARC
  5
3D2
100
AcDbEntity
  8
0
100
AcDbCircle
 62
7
  6
CONTINUOUS
 10
16.7285144431
 20
6.5177080797
 40
0.2746053598
100
AcDbArc
 50
250.6337611606
 51
255.5234637988
  0
ARC
  5
3D3
100
AcDbEntity
  8
0
100
AcDbCircle
 62
7
  6
CONTINUOUS
 10
16.7285095183
 20
6.5184801278
 40
0.2745884356
100
AcDbArc
 50
104.5756958134
 51
109.366390869
  0
ARC
  5
3D4
100
AcDbEntity
  8
0
100
AcDbCircle
 62
7
  6
CONTINUOUS
 10
16.727939783
 20
6.5188746152
 40
0.2739540587
100
AcDbArc
 50
132.3382269741
 51
132.969150276
  0
ARC
  5
3D5
100
AcDbEntity
  8
0
100
AcDbCircle
 62
9
  6
CONTINUOUS
 10
16.4000592661
 20
6.5180859885
 40
0.2639957463
100
AcDbArc
 50
179.9999975765
 51
180.437126111
  0
ARC
  5
3D6
100
AcDbEntity
  8
0
100
AcDbCircle
 62
7
  6
CONTINUOUS
 10
16.1291014504
 20
6.576237779
 40
0.2538179822
100
AcDbArc
 50
12.832651475
 51
14.7596558695
  0
ARC
  5
3D7
100
AcDbEntity
  8
0
100
AcDbCircle
 62
7
  6
CONTINUOUS
 10
16.1333759168
 20
6.4588880197
 40
0.2494179859
100
AcDbArc
 50
345.2871109411
 51
347.2548490028
  0
ARC
  5
3D8
100
AcDbEntity
  8
0
100
AcDbCircle
 62
7
  6
CONTINUOUS
 10
16.1971770123
 20
6.5383940969
 40
0.1991100512
100
AcDbArc
 50
28.8649941747
 51
30.5669416173
  0
ARC
  5
3D9
100
AcDbEntity
  8
0
100
AcDbCircle
 62
7
  6
CONTINUOUS
 10
16.1978023626
 20
6.4974204027
 40
0.1983898312
100
AcDbArc
 50
329.5613821444
 51
331.1173686163
  0
ARC
  5
3DA
100
AcDbEntity
  8
0
100
AcDbCircle
 62
7
  6
CONTINUOUS
 10
16.5902856988
 20
6.5413283061
 40
0.1972153115
100
AcDbArc
 50
149.6562503093
 51
150.1321750428
  0
ARC
  5
3DB
100
AcDbEntity
  8
0
100
AcDbCircle
 62
7
  6
CONTINUOUS
 10
16.5901158733
 20
6.4947466803
 40
0.197019754
100
AcDbArc
 50
209.9858172867
 51
210.3179701789
  0
ARC
  5
3DC
100
AcDbEntity
  8
0
100
AcDbCircle
 62
7
  6
CONTINUOUS
 10
16.2004836601
 20
6.4958493341
 40
0.1952821636
100
AcDbArc
 50
328.9408315347
 51
329.5602515189
  0
ARC
  5
3DD
100
AcDbEntity
  8
0
100
AcDbCircle
 62
7
  6
CONTINUOUS
 10
16.2007716054
 20
6.5404953896
 40
0.1949463783
100
AcDbArc
 50
30.5724445351
 51
31.1487009267
  0
ARC
  5
3DE
100
AcDbEntity
  8
0
100
AcDbCircle
 62
7
  6
CONTINUOUS
 10
16.3078806491
 20
6.5027032387
 40
0.192779908
100
AcDbArc
 50
244.1449756661
 51
247.7330736795
  0
ARC
  5
3DF
100
AcDbEntity
  8
0
100
AcDbCircle
 62
9
  6
CONTINUOUS
 10
16.2054299105
 20
6.5409671733
 40
0.1903846975
100
AcDbArc
 50
29.2405658442
 51
29.4172915266
  0
ARC
  5
3E0
100
AcDbEntity
  8
0
100
AcDbCircle
 62
9
  6
CONTINUOUS
 10
16.2062735896
 20
6.4947309412
 40
0.1894170502
100
AcDbArc
 50
330.0177845114
 51
330.6994444602
  0
ARC
  5
3E1
100
AcDbEntity
  8
0
100
AcDbCircle
 62
9
  6
CONTINUOUS
 10
16.2065993893
 20
6.5416286181
 40
0.1890411252
100
AcDbArc
 50
29.4167602449
 51
30.0803027356
  0
ARC
  5
3E2
100
AcDbEntity
  8
0
100
AcDbCircle
 62
7
  6
CONTINUOUS
 10
16.305691899
 20
6.5385107216
 40
0.1872847249
100
AcDbArc
 50
112.2837256741
 51
114.5097877256
  0
ARC
  5
3E3
100
AcDbEntity
  8
0
100
AcDbCircle
 62
9
  6
CONTINUOUS
 10
16.2090077933
 20
6.5430263849
 40
0.1862564966
100
AcDbArc
 50
30.0795654458
 51
31.473948848
  0
ARC
  5
3E4
100
AcDbEntity
  8
0
100
AcDbCircle
 62
9
  6
CONTINUOUS
 10
16.209239373
 20
6.4930083863
 40
0.1859873321
100
AcDbArc
 50
328.679580005
 51
330.0208494823
  0
ARC
  5
3E5
100
AcDbEntity
  8
0
100
AcDbCircle
 62
9
  6
CONTINUOUS
 10
16.2356760057
 20
6.4738306322
 40
0.1532833056
100
AcDbArc
 50
318.4624579152
 51
319.3474544185
  0
ARC
  5
3E6
100
AcDbEntity
  8
0
100
AcDbCircle
 62
9
  6
CONTINUOUS
 10
16.2361387157
 20
6.5627515892
 40
0.1526649397
100
AcDbArc
 50
41.1231496704
 51
41.6515557768
  0
ARC
  5
3E7
100
AcDbEntity
  8
0
100
AcDbCircle
 62
7
  6
CONTINUOUS
 10
16.228289361
 20
6.6040000536
 40
0.1200346439
100
AcDbArc
 50
63.0168060209
 51
64.0315660452
  0
ARC
  5
3E8
100
AcDbEntity
  8
0
100
AcDbCircle
 62
7
  6
CONTINUOUS
 10
16.2283094894
 20
6.4321305776
 40
0.1199886013
100
AcDbArc
 50
295.9520902193
 51
296.931011359
  0
ARC
  5
3E9
100
AcDbEntity
  8
0
100
AcDbCircle
 62
9
  6
CONTINUOUS
 10
16.2524341725
 20
6.6153225892
 40
0.0987634067
100
AcDbArc
 50
90.0225835635
 51
100.5250063944
  0
ARC
  5
3EA
100
AcDbEntity
  8
0
100
AcDbCircle
 62
9
  6
CONTINUOUS
 10
16.2524122008
 20
6.4205284172
 40
0.0984424075
100
AcDbArc
 50
260.6034184856
 51
269.9901308583
  0
ARC
  5
3EB
100
AcDbEntity
  8
0
100
AcDbCircle
 62
7
  6
CONTINUOUS
 10
16.2799736668
 20
6.9388856527
 40
0.03
100
AcDbArc
 50
10.0132425751
 51
75.2369687317
  0
ARC
  5
3EC
100
AcDbEntity
  8
0
100
AcDbCircle
 62
7
  6
CONTINUOUS
 10
19.1274736668
 20
6.7859214801
 40
2.74
100
AcDbArc
 50
190.4763287739
 51
202.8463446634
  0
ARC
  5
3ED
100
AcDbEntity
  8
0
100
AcDbCircle
 62
7
  6
CONTINUOUS
 10
19.1274736668
 20
6.7859214801
 40
2.74
100
AcDbArc
 50
158.6807833651
 51
177.0066614357
  0
ARC
  5
3EE
100
AcDbEntity
  8
0
100
AcDbCircle
 62
7
  6
CONTINUOUS
 10
17.3726125556
 20
6.5180859997
 40
0.9451388889
100
AcDbArc
 50
189.3556020554
 51
192.5269812287
  0
ARC
  5
3EF
100
AcDbEntity
  8
0
100
AcDbCircle
 62
7
  6
CONTINUOUS
 10
17.3726125556
 20
6.5180859997
 40
0.9451388889
100
AcDbArc
 50
167.4730187713
 51
170.6558033147
  0
ARC
  5
3F0
100
AcDbEntity
  8
0
100
AcDbCircle
 62
7
  6
CONTINUOUS
 10
18.7809736668
 20
9.6923943278
 40
2.481
100
AcDbArc
 50
159.5042613691
 51
207.2324188524
  0
ARC
  5
3F1
100
AcDbEntity
  8
0
100
AcDbCircle
 62
7
  6
CONTINUOUS
 10
15.7793119558
 20
9.2693546127
 40
2.2585451974
100
AcDbArc
 50
270.0006207261
 51
270.2245738042
  0
ARC
  5
3F2
100
AcDbEntity
  8
0
100
AcDbCircle
 62
7
  6
CONTINUOUS
 10
15.7799010514
 20
9.1498615356
 40
2.1390507325
100
AcDbArc
 50
270.2213398998
 51
270.4905862341
  0
ARC
  5
3F3
100
AcDbEntity
  8
0
100
AcDbCircle
 62
7
  6
CONTINUOUS
 10
15.7820367532
 20
8.9172340366
 40
1.90641348
100
AcDbArc
 50
270.4862641074
 51
270.8085307218
  0
ARC
  5
3F4
100
AcDbEntity
  8
0
100
AcDbCircle
 62
7
  6
CONTINUOUS
 10
15.7899852889
 20
8.5029515301
 40
1.4920105824
100
AcDbArc
 50
273.0840988762
 51
273.4668204411
  0
ARC
  5
3F5
100
AcDbEntity
  8
0
100
AcDbCircle
 62
7
  6
CONTINUOUS
 10
15.789400179
 20
8.4823316216
 40
1.4714506655
100
AcDbArc
 50
270.7608016926
 51
273.150046568
  0
ARC
  5
3F6
100
AcDbEntity
  8
0
100
AcDbCircle
 62
7
  6
CONTINUOUS
 10
15.8117671204
 20
8.1481168192
 40
1.1365081019
100
AcDbArc
 50
273.4524559133
 51
273.8843761983
  0
ARC
  5
3F7
100
AcDbEntity
  8
0
100
AcDbCircle
 62
7
  6
CONTINUOUS
 10
15.8911972976
 20
11.63703806
 40
0.8737906844
100
AcDbArc
 50
346.8183473333
 51
352.4787737051
  0
ARC
  5
3F8
100
AcDbEntity
  8
0
100
AcDbCircle
 62
7
  6
CONTINUOUS
 10
15.8921151695
 20
11.6367144026
 40
0.872869037
100
AcDbArc
 50
7.5216121823
 51
13.1906029583
  0
ARC
  5
3F9
100
AcDbEntity
  8
0
100
AcDbCircle
 62
7
  6
CONTINUOUS
 10
15.8924389905
 20
11.6368392678
 40
0.8725362134
100
AcDbArc
 50
306.8329195513
 51
346.812463671
  0
ARC
  5
3FA
100
AcDbEntity
  8
0
100
AcDbCircle
 62
7
  6
CONTINUOUS
 10
15.8924736668
 20
11.6368186016
 40
0.8725
100
AcDbArc
 50
110.4960781802
 51
148.3751474419
  0
ARC
  5
3FB
100
AcDbEntity
  8
0
100
AcDbCircle
 62
7
  6
CONTINUOUS
 10
15.8924736668
 20
11.6368186016
 40
0.8725
100
AcDbArc
 50
211.6248525581
 51
233.1680874621
  0
ARC
  5
3FC
100
AcDbEntity
  8
0
100
AcDbCircle
 62
7
  6
CONTINUOUS
 10
15.8924812314
 20
11.6368291437
 40
0.8724864507
100
AcDbArc
 50
13.1887522774
 51
69.5041472067
  0
ARC
  5
3FD
100
AcDbEntity
  8
0
100
AcDbCircle
 62
7
  6
CONTINUOUS
 10
15.8805562648
 20
8.1695859997
 40
0.738
100
AcDbArc
 50
148.3271956925
 51
211.6728043075
  0
ARC
  5
3FE
100
AcDbEntity
  8
0
100
AcDbCircle
 62
7
  6
CONTINUOUS
 10
15.9043910687
 20
8.1695859997
 40
0.738
100
AcDbArc
 50
328.3271956925
 51
31.6728043075
  0
ARC
  5
3FF
100
AcDbEntity
  8
0
100
AcDbCircle
 62
7
  6
CONTINUOUS
 10
16.4742947364
 20
10.6867649301
 40
0.1256789304
100
AcDbArc
 50
270.0
 51
90.0
  0
ARC
  5
400
100
AcDbEntity
  8
0
100
AcDbCircle
 62
7
  6
CONTINUOUS
 10
17.0380440598
 20
11.3956996309
 40
0.1064
100
AcDbArc
 50
40.9762844862
 51
146.1516146285
  0
ARC
  5
401
100
AcDbEntity
  8
0
100
AcDbCircle
 62
7
  6
CONTINUOUS
 10
17.0380440598
 20
11.8784723684
 40
0.1064
100
AcDbArc
 50
213.8483853716
 51
319.0237155138
  0
ARC
  5
402
100
AcDbEntity
  8
0
100
AcDbCircle
 62
7
  6
CONTINUOUS
 10
17.3204736668
 20
11.5470859997
 40
0.09
100
AcDbArc
 50
270.0000000001
 51
345.1648884179
  0
ARC
  5
403
100
AcDbEntity
  8
0
100
AcDbCircle
 62
7
  6
CONTINUOUS
 10
17.3204736668
 20
11.7270859997
 40
0.09
100
AcDbArc
 50
14.8351115821
 51
89.9999999999
  0
ARC
  5
404
100
AcDbEntity
  8
0
100
AcDbCircle
 62
7
  6
CONTINUOUS
 10
16.4574736668
 20
10.8824438605
 40
0.07
100
AcDbArc
 50
126.8319125382
 51
270.0
  0
ARC
  5
405
100
AcDbEntity
  8
0
100
AcDbCircle
 62
7
  6
CONTINUOUS
 10
17.2604736668
 20
11.4160859997
 40
0.06
100
AcDbArc
 50
270.0
 51
360.0
  0
ARC
  5
406
100
AcDbEntity
  8
0
100
AcDbCircle
 62
7
  6
CONTINUOUS
 10
17.2604736668
 20
11.8580859997
 40
0.06
100
AcDbArc
 50
0.0
 51
90.0
  0
ARC
  5
407
100
AcDbEntity
  8
0
100
AcDbCircle
 62
7
  6
CONTINUOUS
 10
17.2244736668
 20
11.4160859997
 40
0.06
100
AcDbArc
 50
180.0
 51
270.0
  0
ARC
  5
408
100
AcDbEntity
  8
0
100
AcDbCircle
 62
7
  6
CONTINUOUS
 10
17.2244736668
 20
11.8580859997
 40
0.06
100
AcDbArc
 50
90.0
 51
180.0
  0
ARC
  5
409
100
AcDbEntity
  8
0
100
AcDbCircle
 62
7
  6
CONTINUOUS
 10
16.9114736668
 20
11.7935859997
 40
0.046
100
AcDbArc
 50
33.8483853714
 51
90.0
  0
ARC
  5
40A
100
AcDbEntity
  8
0
100
AcDbCircle
 62
7
  6
CONTINUOUS
 10
16.9114736668
 20
11.4805859997
 40
0.046
100
AcDbArc
 50
270.0
 51
326.1516146286
  0
ARC
  5
40B
100
AcDbEntity
  8
0
100
AcDbCircle
 62
7
  6
CONTINUOUS
 10
17.1334736668
 20
11.7955859997
 40
0.02
100
AcDbArc
 50
90.0
 51
139.0237155138
  0
ARC
  5
40C
100
AcDbEntity
  8
0
100
AcDbCircle
 62
7
  6
CONTINUOUS
 10
17.1334736668
 20
11.4785859997
 40
0.02
100
AcDbArc
 50
220.9762844862
 51
270.0
  0
ARC
  5
40D
100
AcDbEntity
  8
0
100
AcDbCircle
 62
7
  6
CONTINUOUS
 10
15.1862879025
 20
19.9159226906
 40
10.5435766761
100
AcDbArc
 50
250.3743295946
 51
251.2020062713
  0
ARC
  5
40E
100
AcDbEntity
  8
0
100
AcDbCircle
 62
9
  6
CONTINUOUS
 10
15.1825353536
 20
19.903001972
 40
10.5300661951
100
AcDbArc
 50
249.8955615151
 51
250.1327241842
  0
ARC
  5
40F
100
AcDbEntity
  8
0
100
AcDbCircle
 62
9
  6
CONTINUOUS
 10
15.1805859883
 20
19.8997461832
 40
10.5264478903
100
AcDbArc
 50
245.8876450957
 51
249.899494068
  0
ARC
  5
410
100
AcDbEntity
  8
0
100
AcDbCircle
 62
9
  6
CONTINUOUS
 10
15.1803152509
 20
19.8987384992
 40
10.5253856288
100
AcDbArc
 50
250.1362404535
 51
250.3735344519
  0
ARC
  5
411
100
AcDbEntity
  8
0
100
AcDbCircle
 62
7
  6
CONTINUOUS
 10
11.7044736668
 20
14.1370859997
 40
2.875
100
AcDbArc
 50
221.2305771549
 51
270.0
  0
ARC
  5
412
100
AcDbEntity
  8
0
100
AcDbCircle
 62
7
  6
CONTINUOUS
 10
11.7044736668
 20
14.1370859997
 40
2.125
100
AcDbArc
 50
221.2305771549
 51
270.0
  0
ARC
  5
413
100
AcDbEntity
  8
0
100
AcDbCircle
 62
7
  6
CONTINUOUS
 10
15.4323757647
 20
12.6565859997
 40
0.2815979021
100
AcDbArc
 50
318.2529672045
 51
41.7470327955
  0
ARC
  5
414
100
AcDbEntity
  8
0
100
AcDbCircle
 62
7
  6
CONTINUOUS
 10
16.3525715689
 20
12.6565859997
 40
0.2815979021
100
AcDbArc
 50
138.2529672045
 51
221.7470327955
  0
ARC
  5
415
100
AcDbEntity
  8
0
100
AcDbCircle
 62
7
  6
CONTINUOUS
 10
16.0204526652
 20
13.1060859997
 40
0.188
100
AcDbArc
 50
11.0397144141
 51
90.0
  0
ARC
  5
416
100
AcDbEntity
  8
0
100
AcDbCircle
 62
7
  6
CONTINUOUS
 10
15.7644946683
 20
13.1060859997
 40
0.188
100
AcDbArc
 50
90.0
 51
168.9602855859
  0
ARC
  5
417
100
AcDbEntity
  8
0
100
AcDbCircle
 62
7
  6
CONTINUOUS
 10
14.4495402915
 20
12.0670859997
 40
0.125
100
AcDbArc
 50
31.3322514977
 51
180.0
  0
ARC
  5
418
100
AcDbEntity
  8
0
100
AcDbCircle
 62
7
  6
CONTINUOUS
 10
16.2384736668
 20
13.0245859997
 40
0.1175
100
AcDbArc
 50
270.0
 51
90.0
  0
ARC
  5
419
100
AcDbEntity
  8
0
100
AcDbCircle
 62
7
  6
CONTINUOUS
 10
15.5464736668
 20
13.0245859997
 40
0.1175
100
AcDbArc
 50
90.0
 51
270.0
  0
ARC
  5
41A
100
AcDbEntity
  8
0
100
AcDbCircle
 62
7
  6
CONTINUOUS
 10
15.0235402915
 20
12.0850859997
 40
0.047
100
AcDbArc
 50
22.8486294329
 51
90.0
  0
ARC
  5
41B
100
AcDbEntity
  8
0
100
AcDbCircle
 62
7
  6
CONTINUOUS
 10
15.1101644799
 20
12.1215859997
 40
0.047
100
AcDbArc
 50
202.848629433
 51
270.0
  0
SPLINE
  5
41C
100
AcDbEntity
  8
0
100
AcDbSpline
 62
7
  6
CONTINUOUS
 70
0
 71
3
 72
14
 73
10
 74
0
 42
0.0000001
 43
0.0000001
 44
0.0000000001
 40
0.0
 40
0.0
 40
0.0
 40
0.0
 40
0.0626312361
 40
0.1369301255
 40
0.2282420603
 40
0.3393278502
 40
0.4715821965
 40
0.6256792661
 40
1.0
 40
1.0
 40
1.0
 40
1.0
 10
15.651903851
 20
6.9908965174
 30
0.0
 10
15.6519038618
 20
6.9909936191
 30
0.0
 10
15.6519524269
 20
6.9912065594
 30
0.0
 10
15.6521409653
 20
6.9915104035
 30
0.0
 10
15.6524393896
 20
6.9918213728
 30
0.0
 10
15.6528483421
 20
6.9921424761
 30
0.0
 10
15.6533680423
 20
6.9924747798
 30
0.0
 10
15.6542683738
 20
6.9929644111
 30
0.0
 10
15.6550191912
 20
6.9932957014
 30
0.0
 10
15.6555563426
 20
6.993515379
 30
0.0
  0
SPLINE
  5
41D
100
AcDbEntity
  8
0
100
AcDbSpline
 62
7
  6
CONTINUOUS
 70
0
 71
3
 72
11
 73
7
 74
0
 42
0.0000001
 43
0.0000001
 44
0.0000000001
 40
0.0
 40
0.0
 40
0.0
 40
0.0
 40
0.1882309921
 40
0.4196718036
 40
0.6914476836
 40
1.0
 40
1.0
 40
1.0
 40
1.0
 10
15.6555563426
 20
6.993515379
 30
0.0
 10
15.656441869
 20
6.9938775308
 30
0.0
 10
15.6584534231
 20
6.9945932601
 30
0.0
 10
15.661820914
 20
6.9956012013
 30
0.0
 10
15.6658149337
 20
6.9966393826
 30
0.0
 10
15.6686894035
 20
6.99730237
 30
0.0
 10
15.6702211849
 20
6.9976387173
 30
0.0
  0
SPLINE
  5
41E
100
AcDbEntity
  8
0
100
AcDbSpline
 62
7
  6
CONTINUOUS
 70
0
 71
3
 72
10
 73
6
 74
0
 42
0.0000001
 43
0.0000001
 44
0.0000000001
 40
0.0
 40
0.0
 40
0.0
 40
0.0
 40
0.2220902054
 40
0.4668476898
 40
1.0
 40
1.0
 40
1.0
 40
1.0
 10
15.6702211849
 20
6.9976387173
 30
0.0
 10
15.6725213322
 20
6.9981437818
 30
0.0
 10
15.6773731834
 20
6.9991295662
 30
0.0
 10
15.6878119028
 20
7.0009951325
 30
0.0
 10
15.6959750902
 20
7.0021973393
 30
0.0
 10
15.7015809417
 20
7.0029283201
 30
0.0
  0
LINE
  5
41F
100
AcDbEntity
  8
0
100
AcDbLine
 62
7
  6
CONTINUOUS
 10
15.7807891384
 20
7.0144491901
 11
15.7828829436
 21
7.0149141132
  0
LINE
  5
420
100
AcDbEntity
  8
0
100
AcDbLine
 62
7
  6
CONTINUOUS
 10
15.7828829436
 20
7.0149141132
 11
15.7887318434
 21
7.0154990253
  0
SPLINE
  5
421
100
AcDbEntity
  8
0
100
AcDbSpline
 62
7
  6
CONTINUOUS
 70
0
 71
3
 72
11
 73
7
 74
0
 42
0.0000001
 43
0.0000001
 44
0.0000000001
 40
0.0
 40
0.0
 40
0.0
 40
0.0
 40
0.2531816425
 40
0.524711833
 40
0.7785425838
 40
1.0
 40
1.0
 40
1.0
 40
1.0
 10
15.7975546952
 20
7.0161428094
 30
0.0
 10
15.8025831645
 20
7.016473155
 30
0.0
 10
15.8130102748
 20
7.0170703415
 30
0.0
 10
15.8284899473
 20
7.0177882453
 30
0.0
 10
15.8433458499
 20
7.018307962
 30
0.0
 10
15.8528043727
 20
7.0185046698
 30
0.0
 10
15.8572119453
 20
7.0185560423
 30
0.0
  0
SPLINE
  5
422
100
AcDbEntity
  8
0
100
AcDbSpline
 62
7
  6
CONTINUOUS
 70
0
 71
3
 72
12
 73
8
 74
0
 42
0.0000001
 43
0.0000001
 44
0.0000000001
 40
0.0
 40
0.0
 40
0.0
 40
0.0
 40
0.1028199828
 40
0.2143734914
 40
0.4588031442
 40
0.7240586449
 40
1.0
 40
1.0
 40
1.0
 40
1.0
 10
15.6449862933
 20
6.9790706426
 30
0.0
 10
15.6469736667
 20
6.9790706426
 30
0.0
 10
15.6511173009
 20
6.9791228406
 30
0.0
 10
15.6599810957
 20
6.979410875
 30
0.0
 10
15.6719701849
 20
6.9801182891
 30
0.0
 10
15.6871000228
 20
6.9814295063
 30
0.0
 10
15.697497827
 20
6.9825848317
 30
0.0
 10
15.7027916294
 20
6.9832350024
 30
0.0
  0
SPLINE
  5
423
100
AcDbEntity
  8
0
100
AcDbSpline
 62
7
  6
CONTINUOUS
 70
0
 71
3
 72
9
 73
5
 74
0
 42
0.0000001
 43
0.0000001
 44
0.0000000001
 40
0.0
 40
0.0
 40
0.0
 40
0.0
 40
0.5145880418
 40
1.0
 40
1.0
 40
1.0
 40
1.0
 10
15.7027916294
 20
6.9832350024
 30
0.0
 10
15.7101319132
 20
6.9841365167
 30
0.0
 10
15.7243716742
 20
6.9860946037
 30
0.0
 10
15.7385475541
 20
6.9884761784
 30
0.0
 10
15.7454044604
 20
6.9897604074
 30
0.0
  0
SPLINE
  5
424
100
AcDbEntity
  8
0
100
AcDbSpline
 62
7
  6
CONTINUOUS
 70
0
 71
3
 72
9
 73
5
 74
0
 42
0.0000001
 43
0.0000001
 44
0.0000000001
 40
0.0
 40
0.0
 40
0.0
 40
0.0
 40
0.5243381656
 40
1.0
 40
1.0
 40
1.0
 40
1.0
 10
15.7474146114
 20
6.9901408552
 30
0.0
 10
15.7507835085
 20
6.9907852101
 30
0.0
 10
15.7571967899
 20
6.9920767498
 30
0.0
 10
15.7635782163
 20
6.9935192713
 30
0.0
 10
15.766601997
 20
6.9942530852
 30
0.0
  0
SPLINE
  5
425
100
AcDbEntity
  8
0
100
AcDbSpline
 62
7
  6
CONTINUOUS
 70
0
 71
3
 72
13
 73
9
 74
0
 42
0.0000001
 43
0.0000001
 44
0.0000000001
 40
0.0
 40
0.0
 40
0.0
 40
0.0
 40
0.3260504851
 40
0.6040244258
 40
0.7235592309
 40
0.8295554845
 40
0.9217570668
 40
1.0
 40
1.0
 40
1.0
 40
1.0
 10
15.766601997
 20
6.9942530852
 30
0.0
 10
15.769189429
 20
6.9948810057
 30
0.0
 10
15.7739673483
 20
6.9961092581
 30
0.0
 10
15.7796339234
 20
6.997791463
 30
0.0
 10
15.7835225737
 20
6.999128956
 30
0.0
 10
15.7859460424
 20
7.0000576768
 30
0.0
 10
15.7880167735
 20
7.0009584794
 30
0.0
 10
15.7892591794
 20
7.0015893124
 30
0.0
 10
15.7898146766
 20
7.0019049997
 30
0.0
  0
SPLINE
  5
426
100
AcDbEntity
  8
0
100
AcDbSpline
 62
7
  6
CONTINUOUS
 70
0
 71
3
 72
11
 73
7
 74
0
 42
0.0000001
 43
0.0000001
 44
0.0000000001
 40
0.0
 40
0.0
 40
0.0
 40
0.0
 40
0.3497979932
 40
0.4974674459
 40
0.6277832567
 40
1.0
 40
1.0
 40
1.0
 40
1.0
 10
15.7898146766
 20
7.0019049997
 30
0.0
 10
15.7902674645
 20
7.0021623176
 30
0.0
 10
15.7908981174
 20
7.0025516418
 30
0.0
 10
15.7916416005
 20
7.0031255198
 30
0.0
 10
15.7923472939
 20
7.0037683496
 30
0.0
 10
15.79284425
 20
7.0044658085
 30
0.0
 10
15.7928440975
 20
7.0050199835
 30
0.0
  0
SPLINE
  5
427
100
AcDbEntity
  8
0
100
AcDbSpline
 62
7
  6
CONTINUOUS
 70
0
 71
3
 72
12
 73
8
 74
0
 42
0.0000001
 43
0.0000001
 44
0.0000000001
 40
0.0
 40
0.0
 40
0.0
 40
0.0
 40
0.3565303058
 40
0.6385048403
 40
0.7525016983
 40
0.8495923907
 40
1.0
 40
1.0
 40
1.0
 40
1.0
 10
15.769755206
 20
7.0062636523
 30
0.0
 10
15.7703114905
 20
7.0061666907
 30
0.0
 10
15.7713032042
 20
7.0059642783
 30
0.0
 10
15.7724469153
 20
7.0056184024
 30
0.0
 10
15.7731615198
 20
7.0052975614
 30
0.0
 10
15.7736528418
 20
7.0050074268
 30
0.0
 10
15.7739543886
 20
7.0047304048
 30
0.0
 10
15.7740686175
 20
7.0045213637
 30
0.0
  0
LINE
  5
428
100
AcDbEntity
  8
0
100
AcDbLine
 62
7
  6
CONTINUOUS
 10
15.7740686175
 20
7.0045213637
 11
15.774179356
 21
7.004102593
  0
LINE
  5
429
100
AcDbEntity
  8
0
100
AcDbLine
 62
7
  6
CONTINUOUS
 10
15.937537126
 20
7.018430995
 11
15.9460015624
 21
7.0180648158
  0
LINE
  5
42A
100
AcDbEntity
  8
0
100
AcDbLine
 62
7
  6
CONTINUOUS
 10
15.9460015624
 20
7.0180648158
 11
15.946323571
 21
7.0179983604
  0
LINE
  5
42B
100
AcDbEntity
  8
0
100
AcDbLine
 62
7
  6
CONTINUOUS
 10
15.946324065
 20
7.0176418828
 11
15.9483287651
 21
7.017518219
  0
SPLINE
  5
42C
100
AcDbEntity
  8
0
100
AcDbSpline
 62
7
  6
CONTINUOUS
 70
0
 71
3
 72
18
 73
14
 74
0
 42
0.0000001
 43
0.0000001
 44
0.0000000001
 40
0.0
 40
0.0
 40
0.0
 40
0.0
 40
0.0270920831
 40
0.0505882272
 40
0.0814865144
 40
0.1198388702
 40
0.1655637331
 40
0.2185362332
 40
0.2786364017
 40
0.419686889
 40
0.5876035008
 40
0.7813563267
 40
1.0
 40
1.0
 40
1.0
 40
1.0
 10
15.9181626662
 20
7.0176155545
 30
0.0
 10
15.918163014
 20
7.0175407971
 30
0.0
 10
15.9180304795
 20
7.0174320499
 30
0.0
 10
15.9178380266
 20
7.0173374018
 30
0.0
 10
15.9175950989
 20
7.0172448427
 30
0.0
 10
15.9172926658
 20
7.017153125
 30
0.0
 10
15.9169259896
 20
7.0170583461
 30
0.0
 10
15.9164985916
 20
7.0169621726
 30
0.0
 10
15.9158109582
 20
7.016824188
 30
0.0
 10
15.914807089
 20
7.0166519248
 30
0.0
 10
15.9134348051
 20
7.0164484359
 30
0.0
 10
15.9118470798
 20
7.0162397927
 30
0.0
 10
15.9107170268
 20
7.0161055672
 30
0.0
 10
15.9101175885
 20
7.0160371734
 30
0.0
  0
LINE
  5
42D
100
AcDbEntity
  8
0
100
AcDbLine
 62
7
  6
CONTINUOUS
 10
15.9101175885
 20
7.0160371734
 11
15.8974745121
 21
7.0148575919
  0
SPLINE
  5
42E
100
AcDbEntity
  8
0
100
AcDbSpline
 62
7
  6
CONTINUOUS
 70
0
 71
3
 72
11
 73
7
 74
0
 42
0.0000001
 43
0.0000001
 44
0.0000000001
 40
0.0
 40
0.0
 40
0.0
 40
0.0
 40
0.2554387347
 40
0.5249177204
 40
0.7816542115
 40
1.0
 40
1.0
 40
1.0
 40
1.0
 10
15.99817656
 20
7.0153548899
 30
0.0
 10
15.9951845315
 20
7.0155792927
 30
0.0
 10
15.9890331616
 20
7.0160025657
 30
0.0
 10
15.9798678021
 20
7.0165482036
 30
0.0
 10
15.9711329183
 20
7.016986159
 30
0.0
 10
15.9655565914
 20
7.0172057146
 30
0.0
 10
15.9629929701
 20
7.0172811556
 30
0.0
  0
LINE
  5
42F
100
AcDbEntity
  8
0
100
AcDbLine
 62
7
  6
CONTINUOUS
 10
15.9629929701
 20
7.0172808962
 11
15.955401713
 21
7.0175230436
  0
LINE
  5
430
100
AcDbEntity
  8
0
100
AcDbLine
 62
7
  6
CONTINUOUS
 10
15.955401713
 20
7.0175230436
 11
15.9482474444
 21
7.0175213023
  0
SPLINE
  5
431
100
AcDbEntity
  8
0
100
AcDbSpline
 62
7
  6
CONTINUOUS
 70
0
 71
3
 72
20
 73
16
 74
0
 42
0.0000001
 43
0.0000001
 44
0.0000000001
 40
0.0
 40
0.0
 40
0.0
 40
0.0
 40
0.0099063993
 40
0.0167090692
 40
0.0251653079
 40
0.047531272
 40
0.0775300573
 40
0.115237286
 40
0.1605911748
 40
0.2134808463
 40
0.2737680896
 40
0.4158280841
 40
0.5852697879
 40
0.780524706
 40
1.0
 40
1.0
 40
1.0
 40
1.0
 10
15.7512482346
 20
7.0117365557
 30
0.0
 10
15.7512482756
 20
7.0117111246
 30
0.0
 10
15.7512729954
 20
7.0116697903
 30
0.0
 10
15.7513238501
 20
7.0116308185
 30
0.0
 10
15.7514085508
 20
7.0115832213
 30
0.0
 10
15.7515560065
 20
7.0115302555
 30
0.0
 10
15.7517800853
 20
7.0114727212
 30
0.0
 10
15.7520652831
 20
7.011418047
 30
0.0
 10
15.7524104203
 20
7.0113659138
 30
0.0
 10
15.7528144391
 20
7.0113166035
 30
0.0
 10
15.7534664099
 20
7.0112509945
 30
0.0
 10
15.7544182627
 20
7.0111791183
 30
0.0
 10
15.7557172052
 20
7.0111067065
 30
0.0
 10
15.7572155873
 20
7.0110440277
 30
0.0
 10
15.7582797347
 20
7.0110101581
 30
0.0
 10
15.7588429348
 20
7.0109942404
 30
0.0
  0
LINE
  5
432
100
AcDbEntity
  8
0
100
AcDbLine
 62
7
  6
CONTINUOUS
 10
15.7588429348
 20
7.0109942404
 11
15.7640182705
 21
7.0108907394
  0
LINE
  5
433
100
AcDbEntity
  8
0
100
AcDbLine
 62
7
  6
CONTINUOUS
 10
15.7640182705
 20
7.0108907394
 11
15.7793369133
 21
7.0108094086
  0
LINE
  5
434
100
AcDbEntity
  8
0
100
AcDbLine
 62
7
  6
CONTINUOUS
 10
15.7186626967
 20
7.0048527206
 11
15.7359846949
 21
7.0061813027
  0
LINE
  5
435
100
AcDbEntity
  8
0
100
AcDbLine
 62
7
  6
CONTINUOUS
 10
15.6810487392
 20
7.0018097682
 11
15.682517592
 21
7.0018644427
  0
LINE
  5
436
100
AcDbEntity
  8
0
100
AcDbLine
 62
7
  6
CONTINUOUS
 10
15.682517592
 20
7.0018644427
 11
15.6828056601
 21
7.0017888515
  0
LINE
  5
437
100
AcDbEntity
  8
0
100
AcDbLine
 62
7
  6
CONTINUOUS
 10
15.6822659057
 20
7.0047721214
 11
15.6806772714
 21
7.0045539241
  0
LINE
  5
438
100
AcDbEntity
  8
0
100
AcDbLine
 62
7
  6
CONTINUOUS
 10
15.8903509551
 20
7.0190845463
 11
15.8881627681
 21
7.0190800057
  0
SPLINE
  5
439
100
AcDbEntity
  8
0
100
AcDbSpline
 62
7
  6
CONTINUOUS
 70
0
 71
3
 72
12
 73
8
 74
0
 42
0.0000001
 43
0.0000001
 44
0.0000000001
 40
0.0
 40
0.0
 40
0.0
 40
0.0
 40
0.0912987237
 40
0.1851282377
 40
0.397444608
 40
0.6645612272
 40
1.0
 40
1.0
 40
1.0
 40
1.0
 10
15.6205818686
 20
6.9833728776
 30
0.0
 10
15.6205821078
 20
6.9832718562
 30
0.0
 10
15.6206072713
 20
6.9830661894
 30
0.0
 10
15.620765186
 20
6.9826516428
 30
0.0
 10
15.6211833517
 20
6.9821543061
 30
0.0
 10
15.621935023
 20
6.9816468475
 30
0.0
 10
15.6225444671
 20
6.9813701879
 30
0.0
 10
15.6228897774
 20
6.9812340938
 30
0.0
  0
SPLINE
  5
43A
100
AcDbEntity
  8
0
100
AcDbSpline
 62
7
  6
CONTINUOUS
 70
0
 71
3
 72
14
 73
10
 74
0
 42
0.0000001
 43
0.0000001
 44
0.0000000001
 40
0.0
 40
0.0
 40
0.0
 40
0.0
 40
0.0718754093
 40
0.1592567448
 40
0.262245826
 40
0.3807558505
 40
0.5145188414
 40
0.6628584152
 40
1.0
 40
1.0
 40
1.0
 40
1.0
 10
15.6228897774
 20
6.9812340938
 30
0.0
 10
15.6233865787
 20
6.981038294
 30
0.0
 10
15.6245185025
 20
6.9806840935
 30
0.0
 10
15.6264213692
 20
6.9802603728
 30
0.0
 10
15.6286883309
 20
6.979896662
 30
0.0
 10
15.6313111687
 20
6.9795959333
 30
0.0
 10
15.6342787101
 20
6.9793609325
 30
0.0
 10
15.6388737707
 20
6.9791263133
 30
0.0
 10
15.6424815225
 20
6.9790706426
 30
0.0
 10
15.6449862933
 20
6.9790706426
 30
0.0
  0
LINE
  5
43B
100
AcDbEntity
  8
0
100
AcDbLine
 62
7
  6
CONTINUOUS
 10
15.8651086343
 20
7.0186030074
 11
15.8788958718
 21
7.018414257
  0
SPLINE
  5
43C
100
AcDbEntity
  8
0
100
AcDbSpline
 62
7
  6
CONTINUOUS
 70
0
 71
3
 72
17
 73
13
 74
0
 42
0.0000001
 43
0.0000001
 44
0.0000000001
 40
0.0
 40
0.0
 40
0.0
 40
0.0
 40
0.2001675079
 40
0.3839975058
 40
0.5489235876
 40
0.6921942456
 40
0.8110181904
 40
0.9028677178
 40
0.9380276777
 40
0.9657751707
 40
0.9862395902
 40
1.0
 40
1.0
 40
1.0
 40
1.0
 10
15.8788958718
 20
7.018414257
 30
0.0
 10
15.8795456754
 20
7.0183931417
 30
0.0
 10
15.8807920958
 20
7.018347774
 30
0.0
 10
15.8825731343
 20
7.0182651371
 30
0.0
 10
15.8841684714
 20
7.0181704766
 30
0.0
 10
15.8855515369
 20
7.018064309
 30
0.0
 10
15.8866951233
 20
7.0179467721
 30
0.0
 10
15.8874863503
 20
7.017834179
 30
0.0
 10
15.8879784684
 20
7.0177318969
 30
0.0
 10
15.8882402195
 20
7.0176597689
 30
0.0
 10
15.8884271979
 20
7.0175865173
 30
0.0
 10
15.8885235514
 20
7.0175252041
 30
0.0
 10
15.8885526882
 20
7.0174913131
 30
0.0
  0
SPLINE
  5
43D
100
AcDbEntity
  8
0
100
AcDbSpline
 62
7
  6
CONTINUOUS
 70
0
 71
3
 72
10
 73
6
 74
0
 42
0.0000001
 43
0.0000001
 44
0.0000000001
 40
0.0
 40
0.0
 40
0.0
 40
0.0
 40
0.5621597834
 40
0.7971643395
 40
1.0
 40
1.0
 40
1.0
 40
1.0
 10
15.6349377228
 20
6.9899424282
 30
0.0
 10
15.6329883437
 20
6.9893444775
 30
0.0
 10
15.6302399367
 20
6.9884376989
 30
0.0
 10
15.6268674933
 20
6.9871003176
 30
0.0
 10
15.6254210522
 20
6.98644184
 30
0.0
 10
15.6247633218
 20
6.9861122021
 30
0.0
  0
SPLINE
  5
43E
100
AcDbEntity
  8
0
100
AcDbSpline
 62
7
  6
CONTINUOUS
 70
0
 71
3
 72
11
 73
7
 74
0
 42
0.0000001
 43
0.0000001
 44
0.0000000001
 40
0.0
 40
0.0
 40
0.0
 40
0.0
 40
0.3335195925
 40
0.6089800898
 40
0.8290381039
 40
1.0
 40
1.0
 40
1.0
 40
1.0
 10
15.6247633218
 20
6.9861122021
 30
0.0
 10
15.6242509761
 20
6.9858554273
 30
0.0
 10
15.6233285923
 20
6.9853592789
 30
0.0
 10
15.6221367992
 20
6.984573005
 30
0.0
 10
15.6212696114
 20
6.9838202281
 30
0.0
 10
15.6208614005
 20
6.9832715131
 30
0.0
 10
15.6207376655
 20
6.983005078
 30
0.0
  0
LINE
  5
43F
100
AcDbEntity
  8
0
100
AcDbLine
 62
7
  6
CONTINUOUS
 10
15.6825467487
 20
7.0021053162
 11
15.6810487392
 21
7.0018097682
  0
SPLINE
  5
440
100
AcDbEntity
  8
0
100
AcDbSpline
 62
7
  6
CONTINUOUS
 70
0
 71
3
 72
16
 73
12
 74
0
 42
0.0000001
 43
0.0000001
 44
0.0000000001
 40
0.0
 40
0.0
 40
0.0
 40
0.0
 40
0.0093014906
 40
0.0250030777
 40
0.0797347105
 40
0.1659247293
 40
0.2822838207
 40
0.4271909098
 40
0.5978624763
 40
0.7901970037
 40
1.0
 40
1.0
 40
1.0
 40
1.0
 10
15.6828056601
 20
7.0017888515
 30
0.0
 10
15.682805708
 20
7.0017784241
 30
0.0
 10
15.6827878865
 20
7.0017528548
 30
0.0
 10
15.6827136239
 20
7.0017049801
 30
0.0
 10
15.6825482936
 20
7.001639434
 30
0.0
 10
15.6822734029
 20
7.0015551746
 30
0.0
 10
15.6818956825
 20
7.0014579132
 30
0.0
 10
15.6814236273
 20
7.0013505913
 30
0.0
 10
15.6808659167
 20
7.0012354037
 30
0.0
 10
15.6802351986
 20
7.0011147854
 30
0.0
 10
15.6797913957
 20
7.0010354784
 30
0.0
 10
15.6795596524
 20
7.0009953016
 30
0.0
  0
SPLINE
  5
441
100
AcDbEntity
  8
0
100
AcDbSpline
 62
7
  6
CONTINUOUS
 70
0
 71
3
 72
9
 73
5
 74
0
 42
0.0000001
 43
0.0000001
 44
0.0000000001
 40
0.0
 40
0.0
 40
0.0
 40
0.0
 40
0.4716648219
 40
1.0
 40
1.0
 40
1.0
 40
1.0
 10
15.6349377228
 20
6.9899426238
 30
0.0
 10
15.6373921596
 20
6.9906954954
 30
0.0
 10
15.6426304027
 20
6.9921797836
 30
0.0
 10
15.6479118239
 20
6.9934994621
 30
0.0
 10
15.6507101512
 20
6.9941623489
 30
0.0
  0
LINE
  5
442
100
AcDbEntity
  8
0
100
AcDbLine
 62
7
  6
CONTINUOUS
 10
15.6795596524
 20
6.9999834898
 11
15.6827419166
 21
7.0007132644
  0
LINE
  5
443
100
AcDbEntity
  8
0
100
AcDbLine
 62
7
  6
CONTINUOUS
 10
15.7753540334
 20
7.0069271045
 11
15.773747329
 21
7.006739161
  0
LINE
  5
444
100
AcDbEntity
  8
0
100
AcDbLine
 62
7
  6
CONTINUOUS
 10
15.773747329
 20
7.006739161
 11
15.769755206
 21
7.0062636523
  0
SPLINE
  5
445
100
AcDbEntity
  8
0
100
AcDbSpline
 62
7
  6
CONTINUOUS
 70
0
 71
3
 72
15
 73
11
 74
0
 42
0.0000001
 43
0.0000001
 44
0.0000000001
 40
0.0
 40
0.0
 40
0.0
 40
0.0
 40
0.0245356316
 40
0.045911165
 40
0.0743987434
 40
0.1537042722
 40
0.263610945
 40
0.4043824184
 40
0.5749892318
 40
1.0
 40
1.0
 40
1.0
 40
1.0
 10
15.780789243
 20
7.0134461965
 30
0.0
 10
15.7807897816
 20
7.0134250257
 30
0.0
 10
15.7808286792
 20
7.0133953304
 30
0.0
 10
15.7808853705
 20
7.0133720268
 30
0.0
 10
15.780993609
 20
7.0133392564
 30
0.0
 10
15.7811778633
 20
7.013305865
 30
0.0
 10
15.7814609456
 20
7.013270425
 30
0.0
 10
15.7818231597
 20
7.0132394117
 30
0.0
 10
15.7824576136
 20
7.0131996069
 30
0.0
 10
15.7829713978
 20
7.0131803271
 30
0.0
 10
15.7833380659
 20
7.0131690317
 30
0.0
  0
LINE
  5
446
100
AcDbEntity
  8
0
100
AcDbLine
 62
7
  6
CONTINUOUS
 10
15.7833380659
 20
7.0131690317
 11
15.7866170274
 21
7.013115482
  0
LINE
  5
447
100
AcDbEntity
  8
0
100
AcDbLine
 62
7
  6
CONTINUOUS
 10
15.7866170274
 20
7.013115482
 11
15.7913419354
 21
7.0131070249
  0
LINE
  5
448
100
AcDbEntity
  8
0
100
AcDbLine
 62
7
  6
CONTINUOUS
 10
15.7913419354
 20
7.0131070249
 11
15.8050045579
 21
7.0131410299
  0
SPLINE
  5
449
100
AcDbEntity
  8
0
100
AcDbSpline
 62
7
  6
CONTINUOUS
 70
0
 71
3
 72
11
 73
7
 74
0
 42
0.0000001
 43
0.0000001
 44
0.0000000001
 40
0.0
 40
0.0
 40
0.0
 40
0.0
 40
0.2488511199
 40
0.5082470824
 40
0.7633576909
 40
1.0
 40
1.0
 40
1.0
 40
1.0
 10
15.7005924797
 20
6.9880586373
 30
0.0
 10
15.7042693982
 20
6.9882765808
 30
0.0
 10
15.7117711981
 20
6.9888592513
 30
0.0
 10
15.7230067078
 20
6.9900681111
 30
0.0
 10
15.734023087
 20
6.9915799285
 30
0.0
 10
15.7412019537
 20
6.9927917981
 30
0.0
 10
15.7446432045
 20
6.9934448237
 30
0.0
  0
SPLINE
  5
44A
100
AcDbEntity
  8
0
100
AcDbSpline
 62
7
  6
CONTINUOUS
 70
0
 71
3
 72
19
 73
15
 74
0
 42
0.0000001
 43
0.0000001
 44
0.0000000001
 40
0.0
 40
0.0
 40
0.0
 40
0.0
 40
0.2075312576
 40
0.3962539923
 40
0.5626733199
 40
0.704239125
 40
0.765115866
 40
0.8191016808
 40
0.866069478
 40
0.9059786138
 40
0.9388753213
 40
0.9527629901
 40
0.9650115218
 40
1.0
 40
1.0
 40
1.0
 40
1.0
 10
15.7446432045
 20
6.9934448237
 30
0.0
 10
15.7467903389
 20
6.9938522726
 30
0.0
 10
15.7508827754
 20
6.9946692158
 30
0.0
 10
15.7566662084
 20
6.9959613197
 30
0.0
 10
15.7617370543
 20
6.9972475763
 30
0.0
 10
15.7654655275
 20
6.998342695
 30
0.0
 10
15.7680221123
 20
6.9992133544
 30
0.0
 10
15.769615635
 20
6.9998187692
 30
0.0
 10
15.7709780136
 20
7.000406934
 30
0.0
 10
15.7721051146
 20
7.0009760324
 30
0.0
 10
15.7728839125
 20
7.0014536366
 30
0.0
 10
15.773379604
 20
7.0018337345
 30
0.0
 10
15.7738500955
 20
7.0022599352
 30
0.0
 10
15.7741794367
 20
7.0027243916
 30
0.0
 10
15.7741794555
 20
7.0030928453
 30
0.0
  0
SPLINE
  5
44B
100
AcDbEntity
  8
0
100
AcDbSpline
 62
7
  6
CONTINUOUS
 70
0
 71
3
 72
13
 73
9
 74
0
 42
0.0000001
 43
0.0000001
 44
0.0000000001
 40
0.0
 40
0.0
 40
0.0
 40
0.0
 40
0.3541711369
 40
0.5039794779
 40
0.6358189934
 40
0.7501347022
 40
0.8477863572
 40
1.0
 40
1.0
 40
1.0
 40
1.0
 10
15.7864625902
 20
7.0071655849
 30
0.0
 10
15.7872575771
 20
7.0070270981
 30
0.0
 10
15.7883845256
 20
7.0067979107
 30
0.0
 10
15.7897786025
 20
7.0064008588
 30
0.0
 10
15.7906293845
 20
7.0060996608
 30
0.0
 10
15.7913460862
 20
7.0057774838
 30
0.0
 10
15.7920587628
 20
7.0053574823
 30
0.0
 10
15.7924969615
 20
7.0049575197
 30
0.0
 10
15.7926678078
 20
7.0046557104
 30
0.0
  0
SPLINE
  5
44C
100
AcDbEntity
  8
0
100
AcDbSpline
 62
7
  6
CONTINUOUS
 70
0
 71
3
 72
9
 73
5
 74
0
 42
0.0000001
 43
0.0000001
 44
0.0000000001
 40
0.0
 40
0.0
 40
0.0
 40
0.0
 40
0.5280826902
 40
1.0
 40
1.0
 40
1.0
 40
1.0
 10
15.6505098491
 20
6.9951305852
 30
0.0
 10
15.647748526
 20
6.9944751456
 30
0.0
 10
15.6425343963
 20
6.9931701839
 30
0.0
 10
15.6373625633
 20
6.9917041942
 30
0.0
 10
15.6349377228
 20
6.9909609196
 30
0.0
  0
SPLINE
  5
44D
100
AcDbEntity
  8
0
100
AcDbSpline
 62
7
  6
CONTINUOUS
 70
0
 71
3
 72
17
 73
13
 74
0
 42
0.0000001
 43
0.0000001
 44
0.0000000001
 40
0.0
 40
0.0
 40
0.0
 40
0.0
 40
0.2057115972
 40
0.3889921527
 40
0.5489036763
 40
0.6846521303
 40
0.7959472221
 40
0.8834959824
 40
0.9189987868
 40
0.9495936238
 40
0.9761421722
 40
1.0
 40
1.0
 40
1.0
 40
1.0
 10
15.6349377228
 20
6.9909609128
 30
0.0
 10
15.6338419803
 20
6.9906250402
 30
0.0
 10
15.6317778731
 20
6.9899635548
 30
0.0
 10
15.6288972028
 20
6.9889350455
 30
0.0
 10
15.6264232647
 20
6.9879330588
 30
0.0
 10
15.6243711162
 20
6.9869643873
 30
0.0
 10
15.6227537112
 20
6.9860341156
 30
0.0
 10
15.6217024155
 20
6.985247863
 30
0.0
 10
15.6211102414
 20
6.9846267727
 30
0.0
 10
15.6208107854
 20
6.9842033415
 30
0.0
 10
15.620625677
 20
6.9837877647
 30
0.0
 10
15.6205815538
 20
6.9835057943
 30
0.0
 10
15.6205818686
 20
6.9833728776
 30
0.0
  0
SPLINE
  5
44E
100
AcDbEntity
  8
0
100
AcDbSpline
 62
7
  6
CONTINUOUS
 70
0
 71
3
 72
11
 73
7
 74
0
 42
0.0000001
 43
0.0000001
 44
0.0000000001
 40
0.0
 40
0.0
 40
0.0
 40
0.0
 40
0.2366380729
 40
0.4917444006
 40
0.7511448768
 40
1.0
 40
1.0
 40
1.0
 40
1.0
 10
15.7446432045
 20
6.9944609709
 30
0.0
 10
15.7412019721
 20
6.9938083836
 30
0.0
 10
15.7340231762
 20
6.9925973291
 30
0.0
 10
15.7230068384
 20
6.9910865251
 30
0.0
 10
15.7117713007
 20
6.9898784763
 30
0.0
 10
15.7042694268
 20
6.9892961877
 30
0.0
 10
15.7005924797
 20
6.9890783837
 30
0.0
  0
SPLINE
  5
44F
100
AcDbEntity
  8
0
100
AcDbSpline
 62
7
  6
CONTINUOUS
 70
0
 71
3
 72
9
 73
5
 74
0
 42
0.0000001
 43
0.0000001
 44
0.0000000001
 40
0.0
 40
0.0
 40
0.0
 40
0.0
 40
0.5312911321
 40
1.0
 40
1.0
 40
1.0
 40
1.0
 10
15.7005924797
 20
6.9890784211
 30
0.0
 10
15.696009633
 20
6.9888069562
 30
0.0
 10
15.6873780351
 20
6.9883873328
 30
0.0
 10
15.67873735
 20
6.9881989996
 30
0.0
 10
15.6746872516
 20
6.9881905705
 30
0.0
  0
LINE
  5
450
100
AcDbEntity
  8
0
100
AcDbLine
 62
7
  6
CONTINUOUS
 10
15.8881752549
 20
7.0180800383
 11
15.8885716526
 21
7.0180810407
  0
SPLINE
  5
451
100
AcDbEntity
  8
0
100
AcDbSpline
 62
7
  6
CONTINUOUS
 70
0
 71
3
 72
29
 73
25
 74
0
 42
0.0000001
 43
0.0000001
 44
0.0000000001
 40
0.0
 40
0.0
 40
0.0
 40
0.0
 40
0.0010936089
 40
0.0027537698
 40
0.0051500184
 40
0.0083316174
 40
0.0123182435
 40
0.0171180291
 40
0.0291803654
 40
0.0445768375
 40
0.0633602953
 40
0.0855838674
 40
0.1112827569
 40
0.140448718
 40
0.1727899077
 40
0.2450272771
 40
0.3242653868
 40
0.4076656633
 40
0.4929036179
 40
0.5775287909
 40
0.6589725479
 40
0.7357117241
 40
0.8748557904
 40
1.0
 40
1.0
 40
1.0
 40
1.0
 10
15.8885847822
 20
7.0174156133
 30
0.0
 10
15.8885848506
 20
7.0173850541
 30
0.0
 10
15.888543056
 20
7.0173116667
 30
0.0
 10
15.8884230794
 20
7.0172315327
 30
0.0
 10
15.8882394889
 20
7.0171450106
 30
0.0
 10
15.8879865955
 20
7.0170578202
 30
0.0
 10
15.8876644646
 20
7.0169674933
 30
0.0
 10
15.8870971384
 20
7.0168344642
 30
0.0
 10
15.8862104256
 20
7.0166701319
 30
0.0
 10
15.8849323553
 20
7.0164789604
 30
0.0
 10
15.8833681592
 20
7.0162844042
 30
0.0
 10
15.8815143942
 20
7.0160886457
 30
0.0
 10
15.8793689817
 20
7.0158943601
 30
0.0
 10
15.876939395
 20
7.0157057533
 30
0.0
 10
15.8732105231
 20
7.0154543212
 30
0.0
 10
15.8680817107
 20
7.0151707611
 30
0.0
 10
15.8615251514
 20
7.0148730554
 30
0.0
 10
15.8546034303
 20
7.0146131181
 30
0.0
 10
15.8475295646
 20
7.0143980973
 30
0.0
 10
15.8405088084
 20
7.0142421878
 30
0.0
 10
15.8337244386
 20
7.0141508404
 30
0.0
 10
15.8254161784
 20
7.0140991127
 30
0.0
 10
15.8158866188
 20
7.0141165404
 30
0.0
 10
15.8085015261
 20
7.014144229
 30
0.0
 10
15.8050045579
 20
7.014144229
 30
0.0
  0
LINE
  5
452
100
AcDbEntity
  8
0
100
AcDbLine
 62
7
  6
CONTINUOUS
 10
15.7528565289
 20
7.0113106636
 11
15.7605930559
 21
7.0123661533
  0
LINE
  5
453
100
AcDbEntity
  8
0
100
AcDbLine
 62
7
  6
CONTINUOUS
 10
15.7605930559
 20
7.0123661533
 11
15.7668773544
 21
7.0129701046
  0
SPLINE
  5
454
100
AcDbEntity
  8
0
100
AcDbSpline
 62
7
  6
CONTINUOUS
 70
0
 71
3
 72
19
 73
15
 74
0
 42
0.0000001
 43
0.0000001
 44
0.0000000001
 40
0.0
 40
0.0
 40
0.0
 40
0.0
 40
0.0349883711
 40
0.0472281594
 40
0.0611032328
 40
0.0939783965
 40
0.1338930114
 40
0.1808918219
 40
0.2349040553
 40
0.2957919873
 40
0.4373692617
 40
0.6036318696
 40
0.7921429587
 40
1.0
 40
1.0
 40
1.0
 40
1.0
 10
15.774179356
 20
7.004102593
 30
0.0
 10
15.7741793703
 20
7.0037341677
 30
0.0
 10
15.7738495965
 20
7.0032700981
 30
0.0
 10
15.7733794937
 20
7.0028439172
 30
0.0
 10
15.7728842751
 20
7.0024640071
 30
0.0
 10
15.7721057754
 20
7.0019866058
 30
0.0
 10
15.7709783408
 20
7.0014180005
 30
0.0
 10
15.7696151268
 20
7.0008303858
 30
0.0
 10
15.7680208427
 20
7.0002253094
 30
0.0
 10
15.7654638001
 20
6.9993550112
 30
0.0
 10
15.7617366902
 20
6.9982612794
 30
0.0
 10
15.7566697523
 20
6.9969765179
 30
0.0
 10
15.750887112
 20
6.995684898
 30
0.0
 10
15.7467936005
 20
6.994868767
 30
0.0
 10
15.7446432045
 20
6.9944609709
 30
0.0
  0
SPLINE
  5
455
100
AcDbEntity
  8
0
100
AcDbSpline
 62
7
  6
CONTINUOUS
 70
0
 71
3
 72
15
 73
11
 74
0
 42
0.0000001
 43
0.0000001
 44
0.0000000001
 40
0.0
 40
0.0
 40
0.0
 40
0.0
 40
0.0666940143
 40
0.1404914218
 40
0.2292420651
 40
0.3375874182
 40
0.4679942153
 40
0.62158813
 40
0.7988657979
 40
1.0
 40
1.0
 40
1.0
 40
1.0
 10
15.7928440975
 20
7.0050199835
 30
0.0
 10
15.7928440516
 20
7.005186968
 30
0.0
 10
15.792768393
 20
7.0055423307
 30
0.0
 10
15.7924369171
 20
7.0060234704
 30
0.0
 10
15.7919120286
 20
7.0064613329
 30
0.0
 10
15.7911957597
 20
7.0068664117
 30
0.0
 10
15.7902862781
 20
7.0072420681
 30
0.0
 10
15.7891836181
 20
7.0075890388
 30
0.0
 10
15.7878892921
 20
7.0079064477
 30
0.0
 10
15.7869587164
 20
7.0080863085
 30
0.0
 10
15.7864625902
 20
7.0081726772
 30
0.0
  0
SPLINE
  5
456
100
AcDbEntity
  8
0
100
AcDbSpline
 62
7
  6
CONTINUOUS
 70
0
 71
3
 72
22
 73
18
 74
0
 42
0.0000001
 43
0.0000001
 44
0.0000000001
 40
0.0
 40
0.0
 40
0.0
 40
0.0
 40
0.2157891941
 40
0.4085355264
 40
0.577048121
 40
0.7199795713
 40
0.7813483088
 40
0.8356761685
 40
0.8826952965
 40
0.9221364895
 40
0.9537030681
 40
0.966448263
 40
0.9771306593
 40
0.9857348698
 40
0.992279134
 40
0.9968796106
 40
1.0
 40
1.0
 40
1.0
 40
1.0
 10
15.7730412763
 20
7.0144798226
 30
0.0
 10
15.7714595468
 20
7.0143576343
 30
0.0
 10
15.7684657247
 20
7.014116611
 30
0.0
 10
15.7642399791
 20
7.0137408952
 30
0.0
 10
15.7605514484
 20
7.013373459
 30
0.0
 10
15.7578279906
 20
7.0130637681
 30
0.0
 10
15.7559424564
 20
7.012818423
 30
0.0
 10
15.7547583113
 20
7.012648359
 30
0.0
 10
15.7537363713
 20
7.012483633
 30
0.0
 10
15.7528831916
 20
7.0123250931
 30
0.0
 10
15.7522817889
 20
7.012191747
 30
0.0
 10
15.7518916176
 20
7.0120854059
 30
0.0
 10
15.7516672787
 20
7.0120135141
 30
0.0
 10
15.7514900997
 20
7.0119445878
 30
0.0
 10
15.7513609762
 20
7.0118772633
 30
0.0
 10
15.7512763251
 20
7.0118143625
 30
0.0
 10
15.7512481976
 20
7.0117594962
 30
0.0
 10
15.7512482346
 20
7.0117365557
 30
0.0
  0
LINE
  5
457
100
AcDbEntity
  8
0
100
AcDbLine
 62
7
  6
CONTINUOUS
 10
15.6746872516
 20
6.9881905705
 11
15.6742459271
 21
6.9881899944
  0
SPLINE
  5
458
100
AcDbEntity
  8
0
100
AcDbSpline
 62
7
  6
CONTINUOUS
 70
0
 71
3
 72
11
 73
7
 74
0
 42
0.0000001
 43
0.0000001
 44
0.0000000001
 40
0.0
 40
0.0
 40
0.0
 40
0.0
 40
0.300589656
 40
0.5688809311
 40
0.802606458
 40
1.0
 40
1.0
 40
1.0
 40
1.0
 10
15.6742459271
 20
6.9881899944
 30
0.0
 10
15.6724487025
 20
6.9881889564
 30
0.0
 10
15.6690472113
 20
6.9882182087
 30
0.0
 10
15.6642503074
 20
6.9883723446
 30
0.0
 10
15.6600759825
 20
6.988632193
 30
0.0
 10
15.6575104496
 20
6.9888950245
 30
0.0
 10
15.65634084
 20
6.989052892
 30
0.0
  0
SPLINE
  5
459
100
AcDbEntity
  8
0
100
AcDbSpline
 62
7
  6
CONTINUOUS
 70
0
 71
3
 72
16
 73
12
 74
0
 42
0.0000001
 43
0.0000001
 44
0.0000000001
 40
0.0
 40
0.0
 40
0.0
 40
0.0
 40
0.206459639
 40
0.3878550938
 40
0.5441637466
 40
0.613041023
 40
0.6758454345
 40
0.7838239189
 40
0.8702455354
 40
0.9394990575
 40
1.0
 40
1.0
 40
1.0
 40
1.0
 10
15.65634084
 20
6.9890528422
 30
0.0
 10
15.6559963841
 20
6.9890993349
 30
0.0
 10
15.6553506112
 20
6.989197336
 30
0.0
 10
15.6544515256
 20
6.9893748416
 30
0.0
 10
15.6537881933
 20
6.9895461604
 30
0.0
 10
15.6533270528
 20
6.9896965014
 30
0.0
 10
15.6529499615
 20
6.9898401964
 30
0.0
 10
15.6525578625
 20
6.9900272924
 30
0.0
 10
15.6521931685
 20
6.9902855691
 30
0.0
 10
15.6519589782
 20
6.9905737512
 30
0.0
 10
15.6519038397
 20
6.9907946627
 30
0.0
 10
15.651903851
 20
6.9908965174
 30
0.0
  0
LINE
  5
45A
100
AcDbEntity
  8
0
100
AcDbLine
 62
7
  6
CONTINUOUS
 10
15.946323571
 20
7.0179983604
 11
15.9426782482
 21
7.0178534562
  0
LINE
  5
45B
100
AcDbEntity
  8
0
100
AcDbLine
 62
7
  6
CONTINUOUS
 10
15.7753220139
 20
7.0059154759
 11
15.7738648948
 21
7.0057449645
  0
LINE
  5
45C
100
AcDbEntity
  8
0
100
AcDbLine
 62
7
  6
CONTINUOUS
 10
15.7738648948
 20
7.0057449645
 11
15.7724840794
 21
7.005581885
  0
LINE
  5
45D
100
AcDbEntity
  8
0
100
AcDbLine
 62
7
  6
CONTINUOUS
 10
15.738689868
 20
7.0068663994
 11
15.7359523014
 21
7.0066932955
  0
SPLINE
  5
45E
100
AcDbEntity
  8
0
100
AcDbSpline
 62
7
  6
CONTINUOUS
 70
0
 71
3
 72
11
 73
7
 74
0
 42
0.0000001
 43
0.0000001
 44
0.0000000001
 40
0.0
 40
0.0
 40
0.0
 40
0.0
 40
0.3005910252
 40
0.5688840542
 40
0.8026066798
 40
1.0
 40
1.0
 40
1.0
 40
1.0
 10
15.6742459271
 20
6.9871697629
 30
0.0
 10
15.6724486883
 20
6.9871687242
 30
0.0
 10
15.6690471677
 20
6.9871979326
 30
0.0
 10
15.6642502398
 20
6.9873518324
 30
0.0
 10
15.6600759068
 20
6.9876118173
 30
0.0
 10
15.6575104384
 20
6.9878751651
 30
0.0
 10
15.65634084
 20
6.9880331351
 30
0.0
  0
LINE
  5
45F
100
AcDbEntity
  8
0
100
AcDbLine
 62
7
  6
CONTINUOUS
 10
15.6746863781
 20
6.9871703484
 11
15.6742459271
 21
6.9871697629
  0
SPLINE
  5
460
100
AcDbEntity
  8
0
100
AcDbSpline
 62
7
  6
CONTINUOUS
 70
0
 71
3
 72
9
 73
5
 74
0
 42
0.0000001
 43
0.0000001
 44
0.0000000001
 40
0.0
 40
0.0
 40
0.0
 40
0.0
 40
0.5312939097
 40
1.0
 40
1.0
 40
1.0
 40
1.0
 10
15.7005924797
 20
6.9880587112
 30
0.0
 10
15.6960094603
 20
6.9877870601
 30
0.0
 10
15.6873775903
 20
6.9873667349
 30
0.0
 10
15.6787365932
 20
6.9871787685
 30
0.0
 10
15.6746863781
 20
6.9871703484
 30
0.0
  0
SPLINE
  5
461
100
AcDbEntity
  8
0
100
AcDbSpline
 62
7
  6
CONTINUOUS
 70
0
 71
3
 72
11
 73
7
 74
0
 42
0.0000001
 43
0.0000001
 44
0.0000000001
 40
0.0
 40
0.0
 40
0.0
 40
0.0
 40
0.3301202542
 40
0.6101451685
 40
0.8350756525
 40
1.0
 40
1.0
 40
1.0
 40
1.0
 10
15.9081719368
 20
7.0177943857
 30
0.0
 10
15.9091511227
 20
7.0177549097
 30
0.0
 10
15.9109604423
 20
7.0176705188
 30
0.0
 10
15.9134345963
 20
7.0175104616
 30
0.0
 10
15.9154147028
 20
7.0173278665
 30
0.0
 10
15.9165629394
 20
7.017173033
 30
0.0
 10
15.9170435285
 20
7.0170795976
 30
0.0
  0
LINE
  5
462
100
AcDbEntity
  8
0
100
AcDbLine
 62
7
  6
CONTINUOUS
 10
15.8050045579
 20
7.014144229
 11
15.7867137575
 21
7.0141180135
  0
SPLINE
  5
463
100
AcDbEntity
  8
0
100
AcDbSpline
 62
7
  6
CONTINUOUS
 70
0
 71
3
 72
16
 73
12
 74
0
 42
0.0000001
 43
0.0000001
 44
0.0000000001
 40
0.0
 40
0.0
 40
0.0
 40
0.0
 40
0.2182368258
 40
0.4145007822
 40
0.5861347343
 40
0.7305450472
 40
0.8452707454
 40
0.928077603
 40
0.9785767914
 40
0.9923338364
 40
1.0
 40
1.0
 40
1.0
 40
1.0
 10
15.7867137575
 20
7.0141180135
 30
0.0
 10
15.7862797545
 20
7.0141210193
 30
0.0
 10
15.7854554463
 20
7.0141285299
 30
0.0
 10
15.7842899507
 20
7.0141466735
 30
0.0
 10
15.7832712985
 20
7.0141721251
 30
0.0
 10
15.7824155299
 20
7.0142053523
 30
0.0
 10
15.7817358705
 20
7.0142471664
 30
0.0
 10
15.7812466999
 20
7.0142953999
 30
0.0
 10
15.780955129
 20
7.014349286
 30
0.0
 10
15.7808232053
 20
7.0143981154
 30
0.0
 10
15.7807895325
 20
7.0144339492
 30
0.0
 10
15.7807891384
 20
7.0144491901
 30
0.0
  0
SPLINE
  5
464
100
AcDbEntity
  8
0
100
AcDbSpline
 62
7
  6
CONTINUOUS
 70
0
 71
3
 72
13
 73
9
 74
0
 42
0.0000001
 43
0.0000001
 44
0.0000000001
 40
0.0
 40
0.0
 40
0.0
 40
0.0
 40
0.2116004593
 40
0.4597845439
 40
0.5987023258
 40
0.7401344106
 40
0.8764819492
 40
1.0
 40
1.0
 40
1.0
 40
1.0
 10
15.8050045579
 20
7.0131410299
 30
0.0
 10
15.8098579685
 20
7.0131410299
 30
0.0
 10
15.8204037132
 20
7.0130866977
 30
0.0
 10
15.8341365254
 20
7.0131226709
 30
0.0
 10
15.8462574423
 20
7.013353888
 30
0.0
 10
15.8558108382
 20
7.0136451446
 30
0.0
 10
15.8650079734
 20
7.0140140124
 30
0.0
 10
15.8709608183
 20
7.014321003
 30
0.0
 10
15.8737884519
 20
7.014496801
 30
0.0
  0
SPLINE
  5
465
100
AcDbEntity
  8
0
100
AcDbSpline
 62
7
  6
CONTINUOUS
 70
0
 71
3
 72
20
 73
16
 74
0
 42
0.0000001
 43
0.0000001
 44
0.0000000001
 40
0.0
 40
0.0
 40
0.0
 40
0.0
 40
0.2314425054
 40
0.4316281613
 40
0.6007032341
 40
0.7391435716
 40
0.797035954
 40
0.8474654912
 40
0.8905053932
 40
0.9262060603
 40
0.9546398414
 40
0.9759720852
 40
0.9840921383
 40
0.9906360496
 40
1.0
 40
1.0
 40
1.0
 40
1.0
 10
15.8782749459
 20
7.0148084507
 30
0.0
 10
15.879084326
 20
7.0148718756
 30
0.0
 10
15.8805931076
 20
7.0149990251
 30
0.0
 10
15.8826901194
 20
7.015206619
 30
0.0
 10
15.8844590223
 20
7.0154140832
 30
0.0
 10
15.88572845
 20
7.0155932105
 30
0.0
 10
15.886581967
 20
7.0157376548
 30
0.0
 10
15.887103423
 20
7.0158379409
 30
0.0
 10
15.8875457711
 20
7.0159364248
 30
0.0
 10
15.8879093886
 20
7.0160325762
 30
0.0
 10
15.8881942758
 20
7.0161266079
 30
0.0
 10
15.8883811473
 20
7.0162073498
 30
0.0
 10
15.8884886964
 20
7.0162749592
 30
0.0
 10
15.8885528022
 20
7.0163282706
 30
0.0
 10
15.8885850035
 20
7.0163816876
 30
0.0
 10
15.8885848779
 20
7.0164145345
 30
0.0
  0
LINE
  5
466
100
AcDbEntity
  8
0
100
AcDbLine
 62
7
  6
CONTINUOUS
 10
15.6519036356
 20
6.9898779676
 11
15.6522188903
 21
6.9892676176
  0
SPLINE
  5
467
100
AcDbEntity
  8
0
100
AcDbSpline
 62
7
  6
CONTINUOUS
 70
0
 71
3
 72
11
 73
7
 74
0
 42
0.0000001
 43
0.0000001
 44
0.0000000001
 40
0.0
 40
0.0
 40
0.0
 40
0.0
 40
0.160720093
 40
0.3789231436
 40
0.6583911377
 40
1.0
 40
1.0
 40
1.0
 40
1.0
 10
15.6522188903
 20
6.9892676176
 30
0.0
 10
15.6523917942
 20
6.9891117729
 30
0.0
 10
15.6528756604
 20
6.9888339387
 30
0.0
 10
15.6537758699
 20
6.9885174927
 30
0.0
 10
15.6549617738
 20
6.9882404177
 30
0.0
 10
15.655850535
 20
6.9880993009
 30
0.0
 10
15.65634084
 20
6.9880330786
 30
0.0
  0
SPLINE
  5
468
100
AcDbEntity
  8
0
100
AcDbSpline
 62
7
  6
CONTINUOUS
 70
0
 71
3
 72
21
 73
17
 74
0
 42
0.0000001
 43
0.0000001
 44
0.0000000001
 40
0.0
 40
0.0
 40
0.0
 40
0.0
 40
0.2128617547
 40
0.4049880967
 40
0.5743004031
 40
0.7184344028
 40
0.7803024221
 40
0.834957204
 40
0.8820983503
 40
0.92145535
 40
0.9528021696
 40
0.9654243924
 40
0.9760058366
 40
0.9845842097
 40
0.9912610085
 40
1.0
 40
1.0
 40
1.0
 40
1.0
 10
15.9013861528
 20
7.0189880132
 30
0.0
 10
15.9025883092
 20
7.0189651818
 30
0.0
 10
15.9048753558
 20
7.0189123274
 30
0.0
 10
15.9081176086
 20
7.01880354
 30
0.0
 10
15.9109703496
 20
7.0186699034
 30
0.0
 10
15.913086155
 20
7.0185333407
 30
0.0
 10
15.9145531949
 20
7.0184077499
 30
0.0
 10
15.9154728413
 20
7.0183128542
 30
0.0
 10
15.9162639729
 20
7.0182128832
 30
0.0
 10
15.9169214568
 20
7.0181080182
 30
0.0
 10
15.9173825958
 20
7.0180122142
 30
0.0
 10
15.9176796929
 20
7.0179294151
 30
0.0
 10
15.9178493558
 20
7.0178714162
 30
0.0
 10
15.9179836668
 20
7.017810945
 30
0.0
 10
15.9180974414
 20
7.0177429331
 30
0.0
 10
15.9181624366
 20
7.0176649171
 30
0.0
 10
15.9181626662
 20
7.0176155545
 30
0.0
  0
SPLINE
  5
469
100
AcDbEntity
  8
0
100
AcDbSpline
 62
7
  6
CONTINUOUS
 70
0
 71
3
 72
17
 73
13
 74
0
 42
0.0000001
 43
0.0000001
 44
0.0000000001
 40
0.0
 40
0.0
 40
0.0
 40
0.0
 40
0.0585152786
 40
0.1170900794
 40
0.1758453621
 40
0.2348930156
 40
0.3542230487
 40
0.4760612145
 40
0.6011102976
 40
0.7299353623
 40
0.8628630702
 40
1.0
 40
1.0
 40
1.0
 40
1.0
 10
16.5365360884
 20
6.7139856386
 30
0.0
 10
16.5337207306
 20
6.7141084804
 30
0.0
 10
16.528074647
 20
6.7141281786
 30
0.0
 10
16.5196225293
 20
6.7134797479
 30
0.0
 10
16.5112219305
 20
6.7121619393
 30
0.0
 10
16.500102619
 20
6.7095154564
 30
0.0
 10
16.4864665133
 20
6.7045307771
 30
0.0
 10
16.4709140851
 20
6.6960914967
 30
0.0
 10
16.4563069964
 20
6.6853226012
 30
0.0
 10
16.4428088202
 20
6.6724167309
 30
0.0
 10
16.4305657875
 20
6.6575617031
 30
0.0
 10
16.4234233799
 20
6.6466584896
 30
0.0
 10
16.4200869022
 20
6.6409588674
 30
0.0
  0
SPLINE
  5
46A
100
AcDbEntity
  8
0
100
AcDbSpline
 62
7
  6
CONTINUOUS
 70
0
 71
3
 72
12
 73
8
 74
0
 42
0.0000001
 43
0.0000001
 44
0.0000000001
 40
0.0
 40
0.0
 40
0.0
 40
0.0
 40
0.2395996905
 40
0.4877464946
 40
0.7422553078
 40
0.8710115938
 40
1.0
 40
1.0
 40
1.0
 40
1.0
 10
16.4192652067
 20
6.6395416982
 30
0.0
 10
16.4142307426
 20
6.630775231
 30
0.0
 10
16.405331703
 20
6.6121268552
 30
0.0
 10
16.395777311
 20
6.5822164156
 30
0.0
 10
16.3909428644
 20
6.55594039
 30
0.0
 10
16.3889853715
 20
6.5344064264
 30
0.0
 10
16.3886548232
 20
6.5235283065
 30
0.0
 10
16.3886548232
 20
6.5180859997
 30
0.0
  0
SPLINE
  5
46B
100
AcDbEntity
  8
0
100
AcDbSpline
 62
7
  6
CONTINUOUS
 70
0
 71
3
 72
12
 73
8
 74
0
 42
0.0000001
 43
0.0000001
 44
0.0000000001
 40
0.0
 40
0.0
 40
0.0
 40
0.0
 40
0.1290177266
 40
0.2577999851
 40
0.5123352332
 40
0.7604672173
 40
1.0
 40
1.0
 40
1.0
 40
1.0
 10
16.3886548232
 20
6.5180859997
 30
0.0
 10
16.3886548232
 20
6.512625062
 30
0.0
 10
16.3889876298
 20
6.5017098189
 30
0.0
 10
16.3909583793
 20
6.4801041465
 30
0.0
 10
16.3958252111
 20
6.4537450855
 30
0.0
 10
16.405442852
 20
6.4237513614
 30
0.0
 10
16.4144001749
 20
6.4050606646
 30
0.0
 10
16.4194673819
 20
6.3962790418
 30
0.0
  0
SPLINE
  5
46C
100
AcDbEntity
  8
0
100
AcDbSpline
 62
7
  6
CONTINUOUS
 70
0
 71
3
 72
18
 73
14
 74
0
 42
0.0000001
 43
0.0000001
 44
0.0000000001
 40
0.0
 40
0.0
 40
0.0
 40
0.0
 40
0.1371195755
 40
0.20412954
 40
0.2700939963
 40
0.3989197164
 40
0.5239750536
 40
0.6458184674
 40
0.7057862289
 40
0.765234226
 40
0.8829373571
 40
0.9415001873
 40
1.0
 40
1.0
 40
1.0
 40
1.0
 10
16.420041079
 20
6.3952914251
 30
0.0
 10
16.423368204
 20
6.389601867
 30
0.0
 10
16.4287533084
 20
6.381370903
 30
0.0
 10
16.4367353788
 20
6.3711251452
 30
0.0
 10
16.4450238046
 20
6.3616485927
 30
0.0
 10
16.45615299
 20
6.3509817055
 30
0.0
 10
16.4707126722
 20
6.3402109294
 30
0.0
 10
16.4837113007
 20
6.3331244268
 30
0.0
 10
16.4944503664
 20
6.3287218231
 30
0.0
 10
16.5052994646
 20
6.3252010453
 30
0.0
 10
16.5164615361
 20
6.3229577305
 30
0.0
 10
16.5277187662
 20
6.3220576096
 30
0.0
 10
16.5333532052
 20
6.3220582676
 30
0.0
 10
16.5361628704
 20
6.3221710347
 30
0.0
  0
SPLINE
  5
46D
100
AcDbEntity
  8
0
100
AcDbSpline
 62
7
  6
CONTINUOUS
 70
0
 71
3
 72
23
 73
19
 74
0
 42
0.0000001
 43
0.0000001
 44
0.0000000001
 40
0.0
 40
0.0
 40
0.0
 40
0.0
 40
0.0593594475
 40
0.1247401319
 40
0.1948111279
 40
0.2683575105
 40
0.3442366517
 40
0.4213061657
 40
0.4984442681
 40
0.5745658583
 40
0.6485510874
 40
0.7192149181
 40
0.7853360263
 40
0.8456687762
 40
0.8988421701
 40
0.9433457801
 40
0.9775787734
 40
1.0
 40
1.0
 40
1.0
 40
1.0
 10
16.4172345236
 20
6.4025342778
 30
0.0
 10
16.4162279281
 20
6.4029228117
 30
0.0
 10
16.4140865341
 20
6.4036727957
 30
0.0
 10
16.4106806149
 20
6.4046489001
 30
0.0
 10
16.4069688743
 20
6.4054705129
 30
0.0
 10
16.4030235995
 20
6.4060817572
 30
0.0
 10
16.3989227816
 20
6.4064716227
 30
0.0
 10
16.3947408231
 20
6.406623597
 30
0.0
 10
16.3905525323
 20
6.4065221431
 30
0.0
 10
16.3864354744
 20
6.4061554125
 30
0.0
 10
16.382464417
 20
6.4055614778
 30
0.0
 10
16.3787126237
 20
6.404775201
 30
0.0
 10
16.3752530775
 20
6.4038335738
 30
0.0
 10
16.3721632182
 20
6.4027713992
 30
0.0
 10
16.369506618
 20
6.4016755707
 30
0.0
 10
16.3673438554
 20
6.4006374905
 30
0.0
 10
16.3657344861
 20
6.3997455256
 30
0.0
 10
16.3648687433
 20
6.3991862988
 30
0.0
 10
16.364535009
 20
6.3989523773
 30
0.0
  0
SPLINE
  5
46E
100
AcDbEntity
  8
0
100
AcDbSpline
 62
7
  6
CONTINUOUS
 70
0
 71
3
 72
37
 73
33
 74
0
 42
0.0000001
 43
0.0000001
 44
0.0000000001
 40
0.0
 40
0.0
 40
0.0
 40
0.0
 40
0.0005965757
 40
0.0009085209
 40
0.0009588175
 40
0.0009787648
 40
0.0012266156
 40
0.0025447249
 40
0.0049397795
 40
0.008386041
 40
0.0128484467
 40
0.0182903767
 40
0.0246757326
 40
0.0319689946
 40
0.040135271
 40
0.0589501556
 40
0.0808561474
 40
0.1056020416
 40
0.1329504195
 40
0.1626672828
 40
0.1945196776
 40
0.2282786083
 40
0.3006194467
 40
0.3780078967
 40
0.458916953
 40
0.5418610098
 40
0.6253667723
 40
0.7080100857
 40
0.788353074
 40
0.8648639786
 40
0.9359562245
 40
1.0
 40
1.0
 40
1.0
 40
1.0
 10
16.3641611393
 20
6.6374790698
 30
0.0
 10
16.364152639
 20
6.6374860459
 30
0.0
 10
16.3641369791
 20
6.637498759
 30
0.0
 10
16.3641288708
 20
6.6375050829
 30
0.0
 10
16.3641189025
 20
6.6375128115
 30
0.0
 10
16.3641242527
 20
6.6375073613
 30
0.0
 10
16.3641447903
 20
6.6374931558
 30
0.0
 10
16.3642056952
 20
6.637443753
 30
0.0
 10
16.3643103481
 20
6.6373690775
 30
0.0
 10
16.364466658
 20
6.6372584452
 30
0.0
 10
16.3646699944
 20
6.6371209073
 30
0.0
 10
16.3649211786
 20
6.6369559755
 30
0.0
 10
16.3652186718
 20
6.6367671106
 30
0.0
 10
16.365561787
 20
6.6365563073
 30
0.0
 10
16.3661050224
 20
6.6362337547
 30
0.0
 10
16.3668908143
 20
6.6357923351
 30
0.0
 10
16.36796154
 20
6.6352353397
 30
0.0
 10
16.36919277
 20
6.6346476005
 30
0.0
 10
16.3705768497
 20
6.6340481486
 30
0.0
 10
16.3721022751
 20
6.6334478989
 30
0.0
 10
16.3737576933
 20
6.6328577334
 30
0.0
 10
16.3761793371
 20
6.6320809998
 30
0.0
 10
16.3794492466
 20
6.6312060292
 30
0.0
 10
16.3836257865
 20
6.6303944335
 30
0.0
 10
16.3880414063
 20
6.6298429603
 30
0.0
 10
16.3925955556
 20
6.629567125
 30
0.0
 10
16.3971905548
 20
6.629587098
 30
0.0
 10
16.4017249917
 20
6.629927303
 30
0.0
 10
16.4060985529
 20
6.6305495797
 30
0.0
 10
16.4102151797
 20
6.6314045637
 30
0.0
 10
16.413978116
 20
6.6324453681
 30
0.0
 10
16.4163274693
 20
6.6332802087
 30
0.0
 10
16.4174254812
 20
6.6337137285
 30
0.0
  0
SPLINE
  5
46F
100
AcDbEntity
  8
0
100
AcDbSpline
 62
7
  6
CONTINUOUS
 70
0
 71
3
 72
15
 73
11
 74
0
 42
0.0000001
 43
0.0000001
 44
0.0000000001
 40
0.0
 40
0.0
 40
0.0
 40
0.0
 40
0.1337281524
 40
0.2642909066
 40
0.3918798841
 40
0.5168126581
 40
0.6395857292
 40
0.7606335584
 40
0.8805211035
 40
1.0
 40
1.0
 40
1.0
 40
1.0
 10
16.367612121
 20
6.6413335408
 30
0.0
 10
16.3643274607
 20
6.6467680361
 30
0.0
 10
16.3573031653
 20
6.6571987396
 30
0.0
 10
16.345315352
 20
6.6714778364
 30
0.0
 10
16.3320834383
 20
6.6840217814
 30
0.0
 10
16.3177201722
 20
6.6946504155
 30
0.0
 10
16.3023603667
 20
6.7031659378
 30
0.0
 10
16.2861972678
 20
6.7094147152
 30
0.0
 10
16.2694526272
 20
6.7132260617
 30
0.0
 10
16.2580686433
 20
6.7140859997
 30
0.0
 10
16.2523952442
 20
6.7140859997
 30
0.0
  0
SPLINE
  5
470
100
AcDbEntity
  8
0
100
AcDbSpline
 62
7
  6
CONTINUOUS
 70
0
 71
3
 72
15
 73
11
 74
0
 42
0.0000001
 43
0.0000001
 44
0.0000000001
 40
0.0
 40
0.0
 40
0.0
 40
0.0
 40
0.1194589323
 40
0.2393238818
 40
0.3603590683
 40
0.4831273597
 40
0.6080628532
 40
0.7356633943
 40
0.8662458324
 40
1.0
 40
1.0
 40
1.0
 40
1.0
 10
16.2523952442
 20
6.3220859997
 30
0.0
 10
16.2580797814
 20
6.3220859997
 30
0.0
 10
16.269486085
 20
6.3229491032
 30
0.0
 10
16.2862623354
 20
6.326775613
 30
0.0
 10
16.3024538885
 20
6.33304838
 30
0.0
 10
16.3178381434
 20
6.3415958668
 30
0.0
 10
16.3322205018
 20
6.3522636788
 30
0.0
 10
16.3454657622
 20
6.3648524885
 30
0.0
 10
16.3574607363
 20
6.3791810825
 30
0.0
 10
16.3644854007
 20
6.3896465098
 30
0.0
 10
16.3677691908
 20
6.3950987776
 30
0.0
  0
SPLINE
  5
471
100
AcDbEntity
  8
0
100
AcDbSpline
 62
7
  6
CONTINUOUS
 70
0
 71
3
 72
9
 73
5
 74
0
 42
0.0000001
 43
0.0000001
 44
0.0000000001
 40
0.0
 40
0.0
 40
0.0
 40
0.0
 40
0.4831409909
 40
1.0
 40
1.0
 40
1.0
 40
1.0
 10
16.2866857047
 20
6.7230859997
 30
0.0
 10
16.2809372977
 20
6.7230859997
 30
0.0
 10
16.2690285619
 20
6.7220812145
 30
0.0
 10
16.2573928243
 20
6.7194295099
 30
0.0
 10
16.2514885187
 20
6.7177100464
 30
0.0
  0
SPLINE
  5
472
100
AcDbEntity
  8
0
100
AcDbSpline
 62
7
  6
CONTINUOUS
 70
0
 71
3
 72
9
 73
5
 74
0
 42
0.0000001
 43
0.0000001
 44
0.0000000001
 40
0.0
 40
0.0
 40
0.0
 40
0.0
 40
0.2453076019
 40
1.0
 40
1.0
 40
1.0
 40
1.0
 10
16.2514885187
 20
6.7177100464
 30
0.0
 10
16.2500891905
 20
6.7173025312
 30
0.0
 10
16.2444083723
 20
6.7155609873
 30
0.0
 10
16.238823955
 20
6.7135084422
 30
0.0
 10
16.2346747773
 20
6.7118085479
 30
0.0
  0
SPLINE
  5
473
100
AcDbEntity
  8
0
100
AcDbSpline
 62
7
  6
CONTINUOUS
 70
0
 71
3
 72
20
 73
16
 74
0
 42
0.0000001
 43
0.0000001
 44
0.0000000001
 40
0.0
 40
0.0
 40
0.0
 40
0.0
 40
0.1148590964
 40
0.2349313042
 40
0.2964504134
 40
0.3587165387
 40
0.4848786386
 40
0.5486288725
 40
0.6126690397
 40
0.6769310146
 40
0.7413723183
 40
0.8059350783
 40
0.8706098498
 40
0.9353419876
 40
1.0
 40
1.0
 40
1.0
 40
1.0
 10
16.2279970774
 20
6.7089192979
 30
0.0
 10
16.2195071418
 20
6.7050510884
 30
0.0
 10
16.2026963128
 20
6.6958836865
 30
0.0
 10
16.1831121679
 20
6.6817700413
 30
0.0
 10
16.1681391598
 20
6.6687856386
 30
0.0
 10
16.1536281591
 20
6.6545729736
 30
0.0
 10
16.1403429933
 20
6.6388948266
 30
0.0
 10
16.1286114504
 20
6.6219129873
 30
0.0
 10
16.120643636
 20
6.6084855961
 30
0.0
 10
16.1136479689
 20
6.5944634164
 30
0.0
 10
16.1077316734
 20
6.5799051635
 30
0.0
 10
16.1029888496
 20
6.5648865818
 30
0.0
 10
16.09953005
 20
6.5494949453
 30
0.0
 10
16.0974244165
 20
6.5338536336
 30
0.0
 10
16.0969448808
 20
6.5233379609
 30
0.0
 10
16.0969448808
 20
6.5180859997
 30
0.0
  0
SPLINE
  5
474
100
AcDbEntity
  8
0
100
AcDbSpline
 62
7
  6
CONTINUOUS
 70
0
 71
3
 72
18
 73
14
 74
0
 42
0.0000001
 43
0.0000001
 44
0.0000000001
 40
0.0
 40
0.0
 40
0.0
 40
0.0
 40
0.0645219159
 40
0.1291041406
 40
0.1936274816
 40
0.2580550879
 40
0.3223693131
 40
0.3865188805
 40
0.5140647927
 40
0.6401528163
 40
0.7639807044
 40
0.8844167456
 40
1.0
 40
1.0
 40
1.0
 40
1.0
 10
16.0969448808
 20
6.5180859997
 30
0.0
 10
16.0969448808
 20
6.5129451229
 30
0.0
 10
16.0974030736
 20
6.502653181
 30
0.0
 10
16.0994197157
 20
6.4873397646
 30
0.0
 10
16.1027388136
 20
6.4722619487
 30
0.0
 10
16.1072884083
 20
6.4575333919
 30
0.0
 10
16.1129719046
 20
6.4432369747
 30
0.0
 10
16.1219262187
 20
6.4248918
 30
0.0
 10
16.1354446245
 20
6.403380155
 30
0.0
 10
16.1546581792
 20
6.3801457963
 30
0.0
 10
16.1761177673
 20
6.3597883584
 30
0.0
 10
16.1991463499
 20
6.3426032279
 30
0.0
 10
16.2155219036
 20
6.3332348458
 30
0.0
 10
16.2238101939
 20
6.3292205263
 30
0.0
  0
SPLINE
  5
475
100
AcDbEntity
  8
0
100
AcDbSpline
 62
7
  6
CONTINUOUS
 70
0
 71
3
 72
9
 73
5
 74
0
 42
0.0000001
 43
0.0000001
 44
0.0000000001
 40
0.0
 40
0.0
 40
0.0
 40
0.0
 40
0.2546049204
 40
1.0
 40
1.0
 40
1.0
 40
1.0
 10
16.2348320961
 20
6.3242991977
 30
0.0
 10
16.2362098374
 20
6.3237361942
 30
0.0
 10
16.2416478003
 20
6.3215910968
 30
0.0
 10
16.2471933
 20
6.3197158586
 30
0.0
 10
16.2513759599
 20
6.318494505
 30
0.0
  0
SPLINE
  5
476
100
AcDbEntity
  8
0
100
AcDbSpline
 62
7
  6
CONTINUOUS
 70
0
 71
3
 72
9
 73
5
 74
0
 42
0.0000001
 43
0.0000001
 44
0.0000000001
 40
0.0
 40
0.0
 40
0.0
 40
0.0
 40
0.5169444783
 40
1.0
 40
1.0
 40
1.0
 40
1.0
 10
16.2513759599
 20
6.318494505
 30
0.0
 10
16.2572993126
 20
6.3167648621
 30
0.0
 10
16.2689719364
 20
6.3140989743
 30
0.0
 10
16.2809194647
 20
6.3130860022
 30
0.0
 10
16.2866856542
 20
6.3130859997
 30
0.0
  0
SPLINE
  5
477
100
AcDbEntity
  8
0
100
AcDbSpline
 62
7
  6
CONTINUOUS
 70
0
 71
3
 72
11
 73
7
 74
0
 42
0.0000001
 43
0.0000001
 44
0.0000000001
 40
0.0
 40
0.0
 40
0.0
 40
0.0
 40
0.2496961673
 40
0.4997947202
 40
0.7500443448
 40
1.0
 40
1.0
 40
1.0
 40
1.0
 10
15.6783886308
 20
6.4602723543
 30
0.0
 10
15.6799503368
 20
6.464914941
 30
0.0
 10
15.682725244
 20
6.474330551
 30
0.0
 10
15.6857461128
 20
6.4887465279
 30
0.0
 10
15.6875846547
 20
6.5033656363
 30
0.0
 10
15.6880024527
 20
6.5131826916
 30
0.0
 10
15.6880024527
 20
6.5180859997
 30
0.0
  0
SPLINE
  5
478
100
AcDbEntity
  8
0
100
AcDbSpline
 62
7
  6
CONTINUOUS
 70
0
 71
3
 72
18
 73
14
 74
0
 42
0.0000001
 43
0.0000001
 44
0.0000000001
 40
0.0
 40
0.0
 40
0.0
 40
0.0
 40
0.0645188385
 40
0.1290988158
 40
0.1936200987
 40
0.2580446242
 40
0.3223557334
 40
0.3865020983
 40
0.5140423497
 40
0.640127318
 40
0.7639561588
 40
0.8843996518
 40
1.0
 40
1.0
 40
1.0
 40
1.0
 10
15.6880024527
 20
6.5180859997
 30
0.0
 10
15.6880024527
 20
6.5232240118
 30
0.0
 10
15.6875446918
 20
6.5335102796
 30
0.0
 10
15.6855301879
 20
6.5488154161
 30
0.0
 10
15.6822149329
 20
6.563885402
 30
0.0
 10
15.6776700455
 20
6.5786064941
 30
0.0
 10
15.6719924576
 20
6.5928959964
 30
0.0
 10
15.663047332
 20
6.6112330064
 30
0.0
 10
15.6495419882
 20
6.6327363678
 30
0.0
 10
15.6303460422
 20
6.655964467
 30
0.0
 10
15.6089045513
 20
6.6763196017
 30
0.0
 10
15.5858936007
 20
6.6935071414
 30
0.0
 10
15.5695297556
 20
6.702880335
 30
0.0
 10
15.5612469168
 20
6.7068982637
 30
0.0
  0
SPLINE
  5
479
100
AcDbEntity
  8
0
100
AcDbSpline
 62
7
  6
CONTINUOUS
 70
0
 71
3
 72
9
 73
5
 74
0
 42
0.0000001
 43
0.0000001
 44
0.0000000001
 40
0.0
 40
0.0
 40
0.0
 40
0.0
 40
0.254601574
 40
1.0
 40
1.0
 40
1.0
 40
1.0
 10
15.5501114186
 20
6.7118743796
 30
0.0
 10
15.548734462
 20
6.7124370292
 30
0.0
 10
15.5432995405
 20
6.7145808386
 30
0.0
 10
15.5377572033
 20
6.7164550798
 30
0.0
 10
15.5335769283
 20
6.71767589
 30
0.0
  0
SPLINE
  5
47A
100
AcDbEntity
  8
0
100
AcDbSpline
 62
7
  6
CONTINUOUS
 70
0
 71
3
 72
9
 73
5
 74
0
 42
0.0000001
 43
0.0000001
 44
0.0000000001
 40
0.0
 40
0.0
 40
0.0
 40
0.0
 40
0.5169477423
 40
1.0
 40
1.0
 40
1.0
 40
1.0
 10
15.5335769283
 20
6.71767589
 30
0.0
 10
15.5276526362
 20
6.7194060241
 30
0.0
 10
15.5159781799
 20
6.7220726185
 30
0.0
 10
15.5040287217
 20
6.7230859997
 30
0.0
 10
15.4982616362
 20
6.7230859997
 30
0.0
  0
SPLINE
  5
47B
100
AcDbEntity
  8
0
100
AcDbSpline
 62
7
  6
CONTINUOUS
 70
0
 71
3
 72
11
 73
7
 74
0
 42
0.0000001
 43
0.0000001
 44
0.0000000001
 40
0.0
 40
0.0
 40
0.0
 40
0.0
 40
0.2485438293
 40
0.4974806194
 40
0.7477032036
 40
1.0
 40
1.0
 40
1.0
 40
1.0
 10
15.5308572119
 20
6.7140732924
 30
0.0
 10
15.5267121363
 20
6.7140111493
 30
0.0
 10
15.518415368
 20
6.7134295081
 30
0.0
 10
15.5061195089
 20
6.7112105838
 30
0.0
 10
15.4940721484
 20
6.7076707455
 30
0.0
 10
15.4863047712
 20
6.7044757859
 30
0.0
 10
15.4824973932
 20
6.7026834964
 30
0.0
  0
SPLINE
  5
47C
100
AcDbEntity
  8
0
100
AcDbSpline
 62
9
  6
CONTINUOUS
 70
0
 71
3
 72
14
 73
10
 74
0
 42
0.0000001
 43
0.0000001
 44
0.0000000001
 40
0.0
 40
0.0
 40
0.0
 40
0.0
 40
0.2339280142
 40
0.3561114484
 40
0.4811805221
 40
0.6086647213
 40
0.7380661543
 40
0.8687886704
 40
1.0
 40
1.0
 40
1.0
 40
1.0
 10
16.5055587504
 20
6.3572594425
 30
0.0
 10
16.4977910632
 20
6.3680347379
 30
0.0
 10
16.4875317217
 20
6.3856206366
 30
0.0
 10
16.4767561592
 20
6.4107460438
 30
0.0
 10
16.4699274332
 20
6.4309249396
 30
0.0
 10
16.4645501121
 20
6.4519562488
 30
0.0
 10
16.4606687708
 20
6.473641042
 30
0.0
 10
16.4583300847
 20
6.4957567075
 30
0.0
 10
16.4578053034
 20
6.5106353783
 30
0.0
 10
16.4578053034
 20
6.5180859997
 30
0.0
  0
SPLINE
  5
47D
100
AcDbEntity
  8
0
100
AcDbSpline
 62
9
  6
CONTINUOUS
 70
0
 71
3
 72
13
 73
9
 74
0
 42
0.0000001
 43
0.0000001
 44
0.0000000001
 40
0.0
 40
0.0
 40
0.0
 40
0.0
 40
0.2339716229
 40
0.3561721072
 40
0.4812554119
 40
0.738034608
 40
0.8687870564
 40
1.0
 40
1.0
 40
1.0
 40
1.0
 10
16.4759724939
 20
6.6378752793
 30
0.0
 10
16.4701863801
 20
6.6298496286
 30
0.0
 10
16.4625464081
 20
6.6167506567
 30
0.0
 10
16.4545181551
 20
6.5980365497
 30
0.0
 10
16.4476804646
 20
6.5778269432
 30
0.0
 10
16.4431030657
 20
6.556543336
 30
0.0
 10
16.4407949175
 20
6.5347171012
 30
0.0
 10
16.4404035891
 20
6.5236345951
 30
0.0
 10
16.4404035891
 20
6.5180859997
 30
0.0
  0
SPLINE
  5
47E
100
AcDbEntity
  8
0
100
AcDbSpline
 62
9
  6
CONTINUOUS
 70
0
 71
3
 72
9
 73
5
 74
0
 42
0.0000001
 43
0.0000001
 44
0.0000000001
 40
0.0
 40
0.0
 40
0.0
 40
0.0
 40
0.4967915147
 40
1.0
 40
1.0
 40
1.0
 40
1.0
 10
15.5154584014
 20
6.7047530702
 30
0.0
 10
15.5109072866
 20
6.7046836246
 30
0.0
 10
15.5017448954
 20
6.7038654636
 30
0.0
 10
15.4927975304
 20
6.7017391344
 30
0.0
 10
15.4883966853
 20
6.7003648363
 30
0.0
  0
SPLINE
  5
47F
100
AcDbEntity
  8
0
100
AcDbSpline
 62
7
  6
CONTINUOUS
 70
0
 71
3
 72
19
 73
15
 74
0
 42
0.0000001
 43
0.0000001
 44
0.0000000001
 40
0.0
 40
0.0
 40
0.0
 40
0.0
 40
0.1272494902
 40
0.1881236963
 40
0.2474984781
 40
0.305830257
 40
0.3636040902
 40
0.4212888299
 40
0.4793674988
 40
0.5382908523
 40
0.598437466
 40
0.7235966336
 40
0.8570389112
 40
1.0
 40
1.0
 40
1.0
 40
1.0
 10
16.2866856492
 20
6.3130859997
 30
0.0
 10
16.2922495696
 20
6.3130859972
 30
0.0
 10
16.3005067381
 20
6.3137656777
 30
0.0
 10
16.3110642761
 20
6.3162029522
 30
0.0
 10
16.3184712216
 20
6.3187192373
 30
0.0
 10
16.3254563501
 20
6.3219264514
 30
0.0
 10
16.3320098023
 20
6.3257996463
 30
0.0
 10
16.3381225183
 20
6.3303170526
 30
0.0
 10
16.3437943011
 20
6.3354504818
 30
0.0
 10
16.3490330053
 20
6.3411705688
 30
0.0
 10
16.3555375637
 20
6.3496543648
 30
0.0
 10
16.362631809
 20
6.3617162011
 30
0.0
 10
16.3694908442
 20
6.3779184568
 30
0.0
 10
16.3730268728
 20
6.3894963299
 30
0.0
 10
16.3746156475
 20
6.3955419542
 30
0.0
  0
SPLINE
  5
480
100
AcDbEntity
  8
0
100
AcDbSpline
 62
7
  6
CONTINUOUS
 70
0
 71
3
 72
18
 73
14
 74
0
 42
0.0000001
 43
0.0000001
 44
0.0000000001
 40
0.0
 40
0.0
 40
0.0
 40
0.0
 40
0.1428655463
 40
0.2762506046
 40
0.4013899523
 40
0.5203517597
 40
0.5784425582
 40
0.6361585622
 40
0.6939636382
 40
0.7523314061
 40
0.8117599694
 40
0.8726873088
 40
1.0
 40
1.0
 40
1.0
 40
1.0
 10
16.3745442052
 20
6.6409016964
 30
0.0
 10
16.3729528198
 20
6.6469277529
 30
0.0
 10
16.3694123169
 20
6.6584680282
 30
0.0
 10
16.3625479505
 20
6.6746201804
 30
0.0
 10
16.3541516359
 20
6.6888521509
 30
0.0
 10
16.3456661552
 20
6.6990396824
 30
0.0
 10
16.3380527698
 20
6.7059120612
 30
0.0
 10
16.331945171
 20
6.7104134209
 30
0.0
 10
16.3253997927
 20
6.7142746263
 30
0.0
 10
16.3184234575
 20
6.7174722769
 30
0.0
 10
16.3110252173
 20
6.7199787255
 30
0.0
 10
16.3004832358
 20
6.7224071371
 30
0.0
 10
16.2922398343
 20
6.7230859997
 30
0.0
 10
16.2866856973
 20
6.7230859997
 30
0.0
  0
SPLINE
  5
481
100
AcDbEntity
  8
0
100
AcDbSpline
 62
7
  6
CONTINUOUS
 70
0
 71
3
 72
9
 73
5
 74
0
 42
0.0000001
 43
0.0000001
 44
0.0000000001
 40
0.0
 40
0.0
 40
0.0
 40
0.0
 40
0.5045153351
 40
1.0
 40
1.0
 40
1.0
 40
1.0
 10
15.504128465
 20
6.711930391
 30
0.0
 10
15.507854262
 20
6.7137436544
 30
0.0
 10
15.5154324884
 20
6.7169556957
 30
0.0
 10
15.5233209721
 20
6.7193113564
 30
0.0
 10
15.5272804363
 20
6.7202510239
 30
0.0
  0
SPLINE
  5
482
100
AcDbEntity
  8
0
100
AcDbSpline
 62
7
  6
CONTINUOUS
 70
0
 71
3
 72
9
 73
5
 74
0
 42
0.0000001
 43
0.0000001
 44
0.0000000001
 40
0.0
 40
0.0
 40
0.0
 40
0.0
 40
0.4955087869
 40
1.0
 40
1.0
 40
1.0
 40
1.0
 10
16.2578875002
 20
6.7201984861
 30
0.0
 10
16.2618142762
 20
6.7192577846
 30
0.0
 10
16.2696370185
 20
6.716907662
 30
0.0
 10
16.2771536019
 20
6.7137155276
 30
0.0
 10
16.2808496395
 20
6.7119154504
 30
0.0
  0
SPLINE
  5
483
100
AcDbEntity
  8
0
100
AcDbSpline
 62
7
  6
CONTINUOUS
 70
0
 71
3
 72
9
 73
5
 74
0
 42
0.0000001
 43
0.0000001
 44
0.0000000001
 40
0.0
 40
0.0
 40
0.0
 40
0.0
 40
0.5045207446
 40
1.0
 40
1.0
 40
1.0
 40
1.0
 10
16.2808188335
 20
6.324241592
 30
0.0
 10
16.2770869882
 20
6.3224253865
 30
0.0
 10
16.2694962142
 20
6.3192087859
 30
0.0
 10
16.261594297
 20
6.316851481
 30
0.0
 10
16.2576281417
 20
6.3159117843
 30
0.0
  0
SPLINE
  5
484
100
AcDbEntity
  8
0
100
AcDbSpline
 62
9
  6
CONTINUOUS
 70
0
 71
3
 72
28
 73
24
 74
0
 42
0.0000001
 43
0.0000001
 44
0.0000000001
 40
0.0
 40
0.0
 40
0.0
 40
0.0
 40
0.0754035227
 40
0.1500960797
 40
0.2232682448
 40
0.2943559701
 40
0.3628699422
 40
0.3960582748
 40
0.4284880212
 40
0.4909934129
 40
0.5505096122
 40
0.6073799263
 40
0.6350361786
 40
0.6622824233
 40
0.6892330092
 40
0.7160100586
 40
0.7427412927
 40
0.769557474
 40
0.7965847306
 40
0.8239430638
 40
0.8800231178
 40
0.9385614136
 40
1.0
 40
1.0
 40
1.0
 40
1.0
 10
16.1360712029
 20
6.516071908
 30
0.0
 10
16.1361372887
 20
6.5074100361
 30
0.0
 10
16.1371203872
 20
6.4901623304
 30
0.0
 10
16.1411120952
 20
6.4647848417
 30
0.0
 10
16.1475591166
 20
6.4404235471
 30
0.0
 10
16.1563337658
 20
6.4175584508
 30
0.0
 10
16.1655442497
 20
6.3999158342
 30
0.0
 10
16.1739438971
 20
6.3869860452
 30
0.0
 10
16.1827544744
 20
6.3751854909
 30
0.0
 10
16.1948034952
 20
6.3620714449
 30
0.0
 10
16.2108894174
 20
6.34914987
 30
0.0
 10
16.2254178839
 20
6.3410362965
 30
0.0
 10
16.2373934962
 20
6.3363607096
 30
0.0
 10
16.2464491712
 20
6.3337744368
 30
0.0
 10
16.2556120476
 20
6.3320894783
 30
0.0
 10
16.2648371491
 20
6.3313116006
 30
0.0
 10
16.2740787117
 20
6.3314498587
 30
0.0
 10
16.2832896617
 20
6.3325024643
 30
0.0
 10
16.2924254262
 20
6.3344603015
 30
0.0
 10
16.3045384887
 20
6.3382974842
 30
0.0
 10
16.3193296591
 20
6.3453989407
 30
0.0
 10
16.335857754
 20
6.3572017883
 30
0.0
 10
16.3457316293
 20
6.3669039204
 30
0.0
 10
16.3504118385
 20
6.3721868404
 30
0.0
  0
SPLINE
  5
485
100
AcDbEntity
  8
0
100
AcDbSpline
 62
9
  6
CONTINUOUS
 70
0
 71
3
 72
9
 73
5
 74
0
 42
0.0000001
 43
0.0000001
 44
0.0000000001
 40
0.0
 40
0.0
 40
0.0
 40
0.0
 40
0.2446960774
 40
1.0
 40
1.0
 40
1.0
 40
1.0
 10
16.3519680899
 20
6.3739711163
 30
0.0
 10
16.3534347539
 20
6.3756790135
 30
0.0
 10
16.3592760277
 20
6.3827888753
 30
0.0
 10
16.3645111325
 20
6.3903916299
 30
0.0
 10
16.3681234448
 20
6.3963277809
 30
0.0
  0
SPLINE
  5
486
100
AcDbEntity
  8
0
100
AcDbSpline
 62
9
  6
CONTINUOUS
 70
0
 71
3
 72
12
 73
8
 74
0
 42
0.0000001
 43
0.0000001
 44
0.0000000001
 40
0.0
 40
0.0
 40
0.0
 40
0.0
 40
0.1302906852
 40
0.2602233031
 40
0.5161211428
 40
0.7637266545
 40
1.0
 40
1.0
 40
1.0
 40
1.0
 10
16.113802315
 20
6.5180859997
 30
0.0
 10
16.113802315
 20
6.5240520834
 30
0.0
 10
16.1141898708
 20
6.5359720061
 30
0.0
 10
16.1164793376
 20
6.5595063772
 30
0.0
 10
16.122113257
 20
6.5880575385
 30
0.0
 10
16.1331914977
 20
6.6201794454
 30
0.0
 10
16.14348617
 20
6.639923854
 30
0.0
 10
16.1492871845
 20
6.6490562646
 30
0.0
  0
SPLINE
  5
487
100
AcDbEntity
  8
0
100
AcDbSpline
 62
9
  6
CONTINUOUS
 70
0
 71
3
 72
9
 73
5
 74
0
 42
0.0000001
 43
0.0000001
 44
0.0000000001
 40
0.0
 40
0.0
 40
0.0
 40
0.0
 40
0.2556482064
 40
1.0
 40
1.0
 40
1.0
 40
1.0
 10
16.3678617955
 20
6.6402729197
 30
0.0
 10
16.3665998546
 20
6.6423339958
 30
0.0
 10
16.3615054575
 20
6.6502975583
 30
0.0
 10
16.355768725
 20
6.6578556122
 30
0.0
 10
16.3511408676
 20
6.6631562149
 30
0.0
  0
SPLINE
  5
488
100
AcDbEntity
  8
0
100
AcDbSpline
 62
9
  6
CONTINUOUS
 70
0
 71
3
 72
28
 73
24
 74
0
 42
0.0000001
 43
0.0000001
 44
0.0000000001
 40
0.0
 40
0.0
 40
0.0
 40
0.0
 40
0.061328603
 40
0.1197540653
 40
0.1757268421
 40
0.2030372275
 40
0.2300220027
 40
0.2568025201
 40
0.2835060819
 40
0.3102643931
 40
0.3372057743
 40
0.3644525938
 40
0.3921191336
 40
0.4490368476
 40
0.5086300134
 40
0.5712313284
 40
0.603712329
 40
0.6369519463
 40
0.7055621185
 40
0.7767269292
 40
0.8499451102
 40
0.9246423877
 40
1.0
 40
1.0
 40
1.0
 40
1.0
 10
16.3502100159
 20
6.6642125289
 30
0.0
 10
16.3455045102
 20
6.6695027867
 30
0.0
 10
16.3355767191
 20
6.6792119655
 30
0.0
 10
16.3189586844
 20
6.6909977831
 30
0.0
 10
16.3040908799
 20
6.6980578476
 30
0.0
 10
16.2919200618
 20
6.7018456007
 30
0.0
 10
16.2827422976
 20
6.7037589046
 30
0.0
 10
16.2734914898
 20
6.7047593166
 30
0.0
 10
16.2642127875
 20
6.704837965
 30
0.0
 10
16.2549538494
 20
6.7039932311
 30
0.0
 10
16.2457609438
 20
6.702234683
 30
0.0
 10
16.2366795403
 20
6.6995685806
 30
0.0
 10
16.2246739304
 20
6.6947769861
 30
0.0
 10
16.2101225678
 20
6.6865040842
 30
0.0
 10
16.1940362335
 20
6.6733801574
 30
0.0
 10
16.1820083382
 20
6.6600924567
 30
0.0
 10
16.1732272957
 20
6.6481506776
 30
0.0
 10
16.1648676592
 20
6.6350769094
 30
0.0
 10
16.1557259877
 20
6.6172584606
 30
0.0
 10
16.1470608332
 20
6.5941948454
 30
0.0
 10
16.1407510363
 20
6.5696533368
 30
0.0
 10
16.1369226366
 20
6.5441212467
 30
0.0
 10
16.1360635198
 20
6.5267857521
 30
0.0
 10
16.1360635198
 20
6.5180859997
 30
0.0
  0
SPLINE
  5
489
100
AcDbEntity
  8
0
100
AcDbSpline
 62
9
  6
CONTINUOUS
 70
0
 71
3
 72
12
 73
8
 74
0
 42
0.0000001
 43
0.0000001
 44
0.0000000001
 40
0.0
 40
0.0
 40
0.0
 40
0.0
 40
0.2364622541
 40
0.4840363454
 40
0.7398244611
 40
0.8697126307
 40
1.0
 40
1.0
 40
1.0
 40
1.0
 10
16.1489596362
 20
6.3876329712
 30
0.0
 10
16.1432978735
 20
6.3966098955
 30
0.0
 10
16.1332319786
 20
6.4159791194
 30
0.0
 10
16.1223251603
 20
6.4474464257
 30
0.0
 10
16.1166933625
 20
6.475398166
 30
0.0
 10
16.1143164426
 20
6.4984454479
 30
0.0
 10
16.1138549958
 20
6.5101237591
 30
0.0
 10
16.1138103817
 20
6.5159713311
 30
0.0
  0
SPLINE
  5
48A
100
AcDbEntity
  8
0
100
AcDbSpline
 62
7
  6
CONTINUOUS
 70
0
 71
3
 72
19
 73
15
 74
0
 42
0.0000001
 43
0.0000001
 44
0.0000000001
 40
0.0
 40
0.0
 40
0.0
 40
0.0
 40
0.0513403925
 40
0.1035156485
 40
0.156883791
 40
0.2117366929
 40
0.3265718631
 40
0.3869235852
 40
0.449211961
 40
0.5792118588
 40
0.7155629283
 40
0.8565669386
 40
0.9281828019
 40
1.0
 40
1.0
 40
1.0
 40
1.0
 10
16.5288118841
 20
6.3298160962
 30
0.0
 10
16.5246935563
 20
6.3303602028
 30
0.0
 10
16.516451889
 20
6.3319993557
 30
0.0
 10
16.5043862412
 20
6.3360419974
 30
0.0
 10
16.4926430748
 20
6.3416419026
 30
0.0
 10
16.4773276637
 20
6.351251636
 30
0.0
 10
16.4632948491
 20
6.3637162122
 30
0.0
 10
16.4508566342
 20
6.3783844458
 30
0.0
 10
16.4390667249
 20
6.3951153155
 30
0.0
 10
16.4265929533
 20
6.4187403129
 30
0.0
 10
16.4157058299
 20
6.4499640402
 30
0.0
 10
16.410168809
 20
6.4777488675
 30
0.0
 10
16.4079178131
 20
6.5006653085
 30
0.0
 10
16.4075366881
 20
6.5122750402
 30
0.0
 10
16.4075366881
 20
6.5180859997
 30
0.0
  0
SPLINE
  5
48B
100
AcDbEntity
  8
0
100
AcDbSpline
 62
7
  6
CONTINUOUS
 70
0
 71
3
 72
19
 73
15
 74
0
 42
0.0000001
 43
0.0000001
 44
0.0000000001
 40
0.0
 40
0.0
 40
0.0
 40
0.0
 40
0.0718367486
 40
0.1434702226
 40
0.2845000719
 40
0.4208650639
 40
0.550861665
 40
0.6131430208
 40
0.6734842415
 40
0.7882928969
 40
0.8431326578
 40
0.8964902506
 40
0.9486591023
 40
1.0
 40
1.0
 40
1.0
 40
1.0
 10
16.4075366881
 20
6.5180859997
 30
0.0
 10
16.4075366881
 20
6.5239053431
 30
0.0
 10
16.4079188837
 20
6.5355316843
 30
0.0
 10
16.4101762188
 20
6.5584797466
 30
0.0
 10
16.4157286431
 20
6.5863003433
 30
0.0
 10
16.4266451843
 20
6.617558336
 30
0.0
 10
16.4391525292
 20
6.6412018054
 30
0.0
 10
16.4509725533
 20
6.6579388367
 30
0.0
 10
16.4634417388
 20
6.6726056944
 30
0.0
 10
16.4775078635
 20
6.6850608322
 30
0.0
 10
16.4928574274
 20
6.6946485082
 30
0.0
 10
16.5046248909
 20
6.7002274506
 30
0.0
 10
16.516714125
 20
6.7042427155
 30
0.0
 10
16.5249696715
 20
6.7058603083
 30
0.0
 10
16.5290944535
 20
6.7063928513
 30
0.0
  0
SPLINE
  5
48C
100
AcDbEntity
  8
0
100
AcDbSpline
 62
9
  6
CONTINUOUS
 70
0
 71
3
 72
9
 73
5
 74
0
 42
0.0000001
 43
0.0000001
 44
0.0000000001
 40
0.0
 40
0.0
 40
0.0
 40
0.0
 40
0.4955656761
 40
1.0
 40
1.0
 40
1.0
 40
1.0
 10
16.5205140585
 20
6.6965869638
 30
0.0
 10
16.5171110512
 20
6.6957969868
 30
0.0
 10
16.5103283465
 20
6.6938178386
 30
0.0
 10
16.5037997463
 20
6.6911199855
 30
0.0
 10
16.5005866094
 20
6.6895965003
 30
0.0
  0
SPLINE
  5
48D
100
AcDbEntity
  8
0
100
AcDbSpline
 62
9
  6
CONTINUOUS
 70
0
 71
3
 72
18
 73
14
 74
0
 42
0.0000001
 43
0.0000001
 44
0.0000000001
 40
0.0
 40
0.0
 40
0.0
 40
0.0
 40
0.0523246412
 40
0.1059352929
 40
0.1609750072
 40
0.2175355245
 40
0.3353143115
 40
0.4593349412
 40
0.5235536794
 40
0.5890607524
 40
0.7233032321
 40
0.8608688697
 40
1.0
 40
1.0
 40
1.0
 40
1.0
 10
16.5005866094
 20
6.6895965003
 30
0.0
 10
16.4974009102
 20
6.6880860245
 30
0.0
 10
16.4911017565
 20
6.6847000147
 30
0.0
 10
16.4820708874
 20
6.6786656395
 30
0.0
 10
16.4734042012
 20
6.6716552909
 30
0.0
 10
16.4622533007
 20
6.6609300044
 30
0.0
 10
16.4495419337
 20
6.6452419054
 30
0.0
 10
16.4389901135
 20
6.6274479434
 30
0.0
 10
16.4317504589
 20
6.6119480755
 30
0.0
 10
16.4252555961
 20
6.5953787935
 30
0.0
 10
16.4189368936
 20
6.5734844577
 30
0.0
 10
16.4143598798
 20
6.5461214358
 30
0.0
 10
16.4133329565
 20
6.5274607001
 30
0.0
 10
16.4133329565
 20
6.5180859997
 30
0.0
  0
SPLINE
  5
48E
100
AcDbEntity
  8
0
100
AcDbSpline
 62
9
  6
CONTINUOUS
 70
0
 71
3
 72
18
 73
14
 74
0
 42
0.0000001
 43
0.0000001
 44
0.0000000001
 40
0.0
 40
0.0
 40
0.0
 40
0.0
 40
0.1391220869
 40
0.2766770272
 40
0.4109118599
 40
0.4764169625
 40
0.5406346495
 40
0.6646566265
 40
0.782442112
 40
0.8390079022
 40
0.894053338
 40
0.9476696639
 40
1.0
 40
1.0
 40
1.0
 40
1.0
 10
16.4133329565
 20
6.5180859997
 30
0.0
 10
16.4133329565
 20
6.5087152393
 30
0.0
 10
16.4143589663
 20
6.490062478
 30
0.0
 10
16.4189320899
 20
6.4627107185
 30
0.0
 10
16.4252454349
 20
6.4408247599
 30
0.0
 10
16.4317347043
 20
6.4242608654
 30
0.0
 10
16.4389683275
 20
6.4087650245
 30
0.0
 10
16.4495118724
 20
6.3909742347
 30
0.0
 10
16.462213564
 20
6.3752865424
 30
0.0
 10
16.4733563677
 20
6.364559096
 30
0.0
 10
16.482017109
 20
6.3575459275
 30
0.0
 10
16.4910423596
 20
6.3515080584
 30
0.0
 10
16.4973376541
 20
6.348118679
 30
0.0
 10
16.5005215091
 20
6.3466063443
 30
0.0
  0
SPLINE
  5
48F
100
AcDbEntity
  8
0
100
AcDbSpline
 62
9
  6
CONTINUOUS
 70
0
 71
3
 72
9
 73
5
 74
0
 42
0.0000001
 43
0.0000001
 44
0.0000000001
 40
0.0
 40
0.0
 40
0.0
 40
0.0
 40
0.5044183551
 40
1.0
 40
1.0
 40
1.0
 40
1.0
 10
16.5005215091
 20
6.3466063443
 30
0.0
 10
16.503709826
 20
6.3450918902
 30
0.0
 10
16.5101872133
 20
6.3424068893
 30
0.0
 10
16.5169158909
 20
6.3404292932
 30
0.0
 10
16.5202920384
 20
6.339636916
 30
0.0
  0
SPLINE
  5
490
100
AcDbEntity
  8
0
100
AcDbSpline
 62
9
  6
CONTINUOUS
 70
0
 71
3
 72
13
 73
9
 74
0
 42
0.0000001
 43
0.0000001
 44
0.0000000001
 40
0.0
 40
0.0
 40
0.0
 40
0.0
 40
0.1312129435
 40
0.261965392
 40
0.5187445881
 40
0.6438278927
 40
0.7660283771
 40
1.0
 40
1.0
 40
1.0
 40
1.0
 10
16.4404035891
 20
6.5180859997
 30
0.0
 10
16.4404035891
 20
6.5125374042
 30
0.0
 10
16.4407949175
 20
6.5014548982
 30
0.0
 10
16.4431030657
 20
6.4796286634
 30
0.0
 10
16.4476804646
 20
6.4583450562
 30
0.0
 10
16.4545181551
 20
6.4381354497
 30
0.0
 10
16.462546408
 20
6.4194213427
 30
0.0
 10
16.4701863801
 20
6.4063223709
 30
0.0
 10
16.4759724939
 20
6.3982967201
 30
0.0
  0
SPLINE
  5
491
100
AcDbEntity
  8
0
100
AcDbSpline
 62
9
  6
CONTINUOUS
 70
0
 71
3
 72
10
 73
6
 74
0
 42
0.0000001
 43
0.0000001
 44
0.0000000001
 40
0.0
 40
0.0
 40
0.0
 40
0.0
 40
0.2559334653
 40
0.5096544517
 40
1.0
 40
1.0
 40
1.0
 40
1.0
 10
16.4578053034
 20
6.5180859997
 30
0.0
 10
16.4578053034
 20
6.5284029322
 30
0.0
 10
16.4588067826
 20
6.5489666654
 30
0.0
 10
16.4646844639
 20
6.5888798679
 30
0.0
 10
16.4734938815
 20
6.6178616313
 30
0.0
 10
16.4813677432
 20
6.635991981
 30
0.0
  0
SPLINE
  5
492
100
AcDbEntity
  8
0
100
AcDbSpline
 62
9
  6
CONTINUOUS
 70
0
 71
3
 72
9
 73
5
 74
0
 42
0.0000001
 43
0.0000001
 44
0.0000000001
 40
0.0
 40
0.0
 40
0.0
 40
0.0
 40
0.2569919022
 40
1.0
 40
1.0
 40
1.0
 40
1.0
 10
16.4813677432
 20
6.635991981
 30
0.0
 10
16.4830507653
 20
6.6398673068
 30
0.0
 10
16.4899704834
 20
6.6547809775
 30
0.0
 10
16.4984155928
 20
6.6690036056
 30
0.0
 10
16.5055587504
 20
6.6789125568
 30
0.0
  0
SPLINE
  5
493
100
AcDbEntity
  8
0
100
AcDbSpline
 62
7
  6
CONTINUOUS
 70
0
 71
3
 72
11
 73
7
 74
0
 42
0.0000001
 43
0.0000001
 44
0.0000000001
 40
0.0
 40
0.0
 40
0.0
 40
0.0
 40
0.2621886255
 40
0.5153853584
 40
0.7607552066
 40
1.0
 40
1.0
 40
1.0
 40
1.0
 10
15.4982616278
 20
6.7230859997
 30
0.0
 10
15.4951449255
 20
6.7230859997
 30
0.0
 10
15.4890137575
 20
6.7228036283
 30
0.0
 10
15.4800510314
 20
6.7214873732
 30
0.0
 10
15.4715414518
 20
6.7192950569
 30
0.0
 10
15.4661457535
 20
6.7172356789
 30
0.0
 10
15.4635512884
 20
6.7160708284
 30
0.0
  0
SPLINE
  5
494
100
AcDbEntity
  8
0
100
AcDbSpline
 62
9
  6
CONTINUOUS
 70
0
 71
3
 72
15
 73
11
 74
0
 42
0.0000001
 43
0.0000001
 44
0.0000000001
 40
0.0
 40
0.0
 40
0.0
 40
0.0
 40
0.1159991478
 40
0.2361775128
 40
0.3598920709
 40
0.4863337072
 40
0.6145796312
 40
0.7436257277
 40
0.8724416646
 40
1.0
 40
1.0
 40
1.0
 40
1.0
 10
15.6355745129
 20
6.6491909785
 30
0.0
 10
15.6395701921
 20
6.6429123462
 30
0.0
 10
15.6469568561
 20
6.6296396204
 30
0.0
 10
15.655991242
 20
6.6083489682
 30
0.0
 10
15.6630502826
 20
6.585622028
 30
0.0
 10
15.668030554
 20
6.5618252436
 30
0.0
 10
15.6708455688
 20
6.5373334154
 30
0.0
 10
15.6714600019
 20
6.5125357821
 30
0.0
 10
15.6698573496
 20
6.48782857
 30
0.0
 10
15.6673112801
 20
6.4715507291
 30
0.0
 10
15.6656680168
 20
6.4635335732
 30
0.0
  0
SPLINE
  5
495
100
AcDbEntity
  8
0
100
AcDbSpline
 62
9
  6
CONTINUOUS
 70
0
 71
3
 72
23
 73
19
 74
0
 42
0.0000001
 43
0.0000001
 44
0.0000000001
 40
0.0
 40
0.0
 40
0.0
 40
0.0
 40
0.1401287335
 40
0.210996706
 40
0.2817081686
 40
0.4206081765
 40
0.4880415888
 40
0.5535837174
 40
0.6169451577
 40
0.6779397873
 40
0.7075341175
 40
0.7365192903
 40
0.7649084199
 40
0.7927213839
 40
0.8467119822
 40
0.898907237
 40
0.9498256483
 40
1.0
 40
1.0
 40
1.0
 40
1.0
 10
15.6423445283
 20
6.4600617712
 30
0.0
 10
15.6456116022
 20
6.4741887666
 30
0.0
 10
15.6486579182
 20
6.4959476235
 30
0.0
 10
15.6490950948
 20
6.5251178554
 30
0.0
 10
15.6471137046
 20
6.5540990741
 30
0.0
 10
15.6415786129
 20
6.582401425
 30
0.0
 10
15.632496465
 20
6.6090612394
 30
0.0
 10
15.6241488529
 20
6.6276201163
 30
0.0
 10
15.6143147916
 20
6.6446710484
 30
0.0
 10
15.6048933251
 20
6.6575626513
 30
0.0
 10
15.5967324859
 20
6.6668713277
 30
0.0
 10
15.590392679
 20
6.6732664183
 30
0.0
 10
15.5837969509
 20
6.6791240407
 30
0.0
 10
15.574784505
 20
6.6861196768
 30
0.0
 10
15.5629727753
 20
6.6934785335
 30
0.0
 10
15.5479922271
 20
6.6999562031
 30
0.0
 10
15.5325546992
 20
6.7038788605
 30
0.0
 10
15.5220743823
 20
6.7047639356
 30
0.0
 10
15.5168825793
 20
6.7047639356
 30
0.0
  0
SPLINE
  5
496
100
AcDbEntity
  8
0
100
AcDbSpline
 62
7
  6
CONTINUOUS
 70
0
 71
3
 72
10
 73
6
 74
0
 42
0.0000001
 43
0.0000001
 44
0.0000000001
 40
0.0
 40
0.0
 40
0.0
 40
0.0
 40
0.1857618341
 40
0.4228861109
 40
1.0
 40
1.0
 40
1.0
 40
1.0
 10
10.2520787535
 20
10.0205007968
 30
0.0
 10
10.2529977201
 20
10.020089471
 30
0.0
 10
10.255052453
 20
10.0190707503
 30
0.0
 10
10.2598194371
 20
10.0164910831
 30
0.0
 10
10.2636120825
 20
10.014230032
 30
0.0
 10
10.2662718257
 20
10.0125839085
 30
0.0
  0
LINE
  5
497
100
AcDbEntity
  8
0
100
AcDbLine
 62
7
  6
CONTINUOUS
 10
10.2748496493
 20
10.0070339967
 11
10.2833081507
 21
10.0009430161
  0
LINE
  5
498
100
AcDbEntity
  8
0
100
AcDbLine
 62
7
  6
CONTINUOUS
 10
10.2833081507
 20
10.0009430161
 11
10.2856997058
 21
9.9989847088
  0
SPLINE
  5
499
100
AcDbEntity
  8
0
100
AcDbSpline
 62
7
  6
CONTINUOUS
 70
0
 71
3
 72
13
 73
9
 74
0
 42
0.0000001
 43
0.0000001
 44
0.0000000001
 40
0.0
 40
0.0
 40
0.0
 40
0.0
 40
0.3996856104
 40
0.6990089446
 40
0.8100379272
 40
0.8956354424
 40
0.9572767708
 40
1.0
 40
1.0
 40
1.0
 40
1.0
 10
10.2856997058
 20
9.9989847088
 30
0.0
 10
10.2860881735
 20
9.9986475806
 30
0.0
 10
10.2867567866
 20
9.9980456785
 30
0.0
 10
10.2874884768
 20
9.9973003811
 30
0.0
 10
10.2878874307
 20
9.9968014717
 30
0.0
 10
10.2880663447
 20
9.9965199084
 30
0.0
 10
10.2881629283
 20
9.9962944028
 30
0.0
 10
10.2881642504
 20
9.9961508914
 30
0.0
 10
10.288141949
 20
9.9961006368
 30
0.0
  0
LINE
  5
49A
100
AcDbEntity
  8
0
100
AcDbLine
 62
7
  6
CONTINUOUS
 10
11.1166963962
 20
9.6246207693
 11
11.1244386522
 21
9.6228827189
  0
LINE
  5
49B
100
AcDbEntity
  8
0
100
AcDbLine
 62
7
  6
CONTINUOUS
 10
11.1525194364
 20
9.615827384
 11
11.1592612114
 21
9.6140235823
  0
LINE
  5
49C
100
AcDbEntity
  8
0
100
AcDbLine
 62
7
  6
CONTINUOUS
 10
11.1592612114
 20
9.6140235823
 11
11.1619675922
 21
9.6132381721
  0
SPLINE
  5
49D
100
AcDbEntity
  8
0
100
AcDbSpline
 62
7
  6
CONTINUOUS
 70
0
 71
3
 72
15
 73
11
 74
0
 42
0.0000001
 43
0.0000001
 44
0.0000000001
 40
0.0
 40
0.0
 40
0.0
 40
0.0
 40
0.0116319364
 40
0.028811817
 40
0.0844156434
 40
0.1696532265
 40
0.2839907969
 40
0.4263118391
 40
0.5946463603
 40
1.0
 40
1.0
 40
1.0
 40
1.0
 10
11.0775719139
 20
9.6425229006
 30
0.0
 10
11.0775863337
 20
9.6425571204
 30
0.0
 10
11.0776608045
 20
9.6426222374
 30
0.0
 10
11.0779182311
 20
9.6427044981
 30
0.0
 10
11.078427259
 20
9.6427360898
 30
0.0
 10
11.0792398477
 20
9.6427041438
 30
0.0
 10
11.0803270759
 20
9.6425941348
 30
0.0
 10
11.0816707599
 20
9.6424072728
 30
0.0
 10
11.0839259826
 20
9.6420326944
 30
0.0
 10
11.0857230809
 20
9.6416776632
 30
0.0
 10
11.0869896441
 20
9.6414123553
 30
0.0
  0
LINE
  5
49E
100
AcDbEntity
  8
0
100
AcDbLine
 62
7
  6
CONTINUOUS
 10
11.0869896441
 20
9.6414123553
 11
11.0962646027
 21
9.6392440797
  0
SPLINE
  5
49F
100
AcDbEntity
  8
0
100
AcDbSpline
 62
7
  6
CONTINUOUS
 70
0
 71
3
 72
11
 73
7
 74
0
 42
0.0000001
 43
0.0000001
 44
0.0000000001
 40
0.0
 40
0.0
 40
0.0
 40
0.0
 40
0.3158230411
 40
0.5973661817
 40
0.8296405483
 40
1.0
 40
1.0
 40
1.0
 40
1.0
 10
11.1063034669
 20
9.6365134681
 30
0.0
 10
11.1078643828
 20
9.636060363
 30
0.0
 10
11.1108096211
 20
9.6351785749
 30
0.0
 10
11.1148765559
 20
9.6338767311
 30
0.0
 10
11.1182004822
 20
9.6327153381
 30
0.0
 10
11.120133075
 20
9.6319631356
 30
0.0
 10
11.1209333086
 20
9.6316049542
 30
0.0
  0
SPLINE
  5
4A0
100
AcDbEntity
  8
0
100
AcDbSpline
 62
7
  6
CONTINUOUS
 70
0
 71
3
 72
15
 73
11
 74
0
 42
0.0000001
 43
0.0000001
 44
0.0000000001
 40
0.0
 40
0.0
 40
0.0
 40
0.0
 40
0.0393132658
 40
0.066659636
 40
0.1002645634
 40
0.1872313879
 40
0.3008591988
 40
0.4405793031
 40
0.6051324609
 40
1.0
 40
1.0
 40
1.0
 40
1.0
 10
10.9818678198
 20
9.6863070121
 30
0.0
 10
10.9819209617
 20
9.6864263471
 30
0.0
 10
10.9821165192
 20
9.6865722499
 30
0.0
 10
10.9824276003
 20
9.6866820864
 30
0.0
 10
10.9829109914
 20
9.6867852075
 30
0.0
 10
10.983689624
 20
9.6868337914
 30
0.0
 10
10.9848208507
 20
9.686801007
 30
0.0
 10
10.9862042332
 20
9.6866725362
 30
0.0
 10
10.9885061095
 20
9.6863555464
 30
0.0
 10
10.9903335546
 20
9.6860080912
 30
0.0
 10
10.991617752
 20
9.6857389781
 30
0.0
  0
SPLINE
  5
4A1
100
AcDbEntity
  8
0
100
AcDbSpline
 62
7
  6
CONTINUOUS
 70
0
 71
3
 72
9
 73
5
 74
0
 42
0.0000001
 43
0.0000001
 44
0.0000000001
 40
0.0
 40
0.0
 40
0.0
 40
0.0
 40
0.4742125693
 40
1.0
 40
1.0
 40
1.0
 40
1.0
 10
10.991617752
 20
9.6857389781
 30
0.0
 10
10.9933738559
 20
9.6853709733
 30
0.0
 10
10.9970560854
 20
9.6844947182
 30
0.0
 10
11.0007035564
 20
9.6834861564
 30
0.0
 10
11.0026122352
 20
9.6829252509
 30
0.0
  0
LINE
  5
4A2
100
AcDbEntity
  8
0
100
AcDbLine
 62
7
  6
CONTINUOUS
 10
11.012464592
 20
9.6797291653
 11
11.020561571
 21
9.6765309447
  0
SPLINE
  5
4A3
100
AcDbEntity
  8
0
100
AcDbSpline
 62
7
  6
CONTINUOUS
 70
0
 71
3
 72
17
 73
13
 74
0
 42
0.0000001
 43
0.0000001
 44
0.0000000001
 40
0.0
 40
0.0
 40
0.0
 40
0.0
 40
0.0187971454
 40
0.0411787359
 40
0.0690585692
 40
0.1033494836
 40
0.1921329467
 40
0.3078749543
 40
0.4494080239
 40
0.6141824219
 40
0.7988715427
 40
1.0
 40
1.0
 40
1.0
 40
1.0
 10
10.8422956535
 20
9.7501442673
 30
0.0
 10
10.8423349029
 20
9.7502323958
 30
0.0
 10
10.8424692692
 20
9.7504048871
 30
0.0
 10
10.8427769595
 20
9.7505899295
 30
0.0
 10
10.8431918035
 20
9.7507248971
 30
0.0
 10
10.8439578684
 20
9.750852304
 30
0.0
 10
10.8451888834
 20
9.7508646579
 30
0.0
 10
10.846958689
 20
9.7507051358
 30
0.0
 10
10.8490990041
 20
9.7503619315
 30
0.0
 10
10.8515657396
 20
9.7498439123
 30
0.0
 10
10.854308315
 20
9.7491606918
 30
0.0
 10
10.8562141676
 20
9.748622212
 30
0.0
 10
10.8572037905
 20
9.7483285958
 30
0.0
  0
LINE
  5
4A4
100
AcDbEntity
  8
0
100
AcDbLine
 62
7
  6
CONTINUOUS
 10
10.8648208956
 20
9.7458138964
 11
10.8741856752
 21
9.7420482134
  0
SPLINE
  5
4A5
100
AcDbEntity
  8
0
100
AcDbSpline
 62
7
  6
CONTINUOUS
 70
0
 71
3
 72
10
 73
6
 74
0
 42
0.0000001
 43
0.0000001
 44
0.0000000001
 40
0.0
 40
0.0
 40
0.0
 40
0.0
 40
0.1967536383
 40
0.5436627767
 40
1.0
 40
1.0
 40
1.0
 40
1.0
 10
10.6773864654
 20
9.8255454233
 30
0.0
 10
10.6774245296
 20
9.8256300898
 30
0.0
 10
10.6775786068
 20
9.8258438215
 30
0.0
 10
10.6780025051
 20
9.8260804783
 30
0.0
 10
10.6783748655
 20
9.8261628757
 30
0.0
 10
10.6785878263
 20
9.8261945433
 30
0.0
  0
SPLINE
  5
4A6
100
AcDbEntity
  8
0
100
AcDbSpline
 62
7
  6
CONTINUOUS
 70
0
 71
3
 72
14
 73
10
 74
0
 42
0.0000001
 43
0.0000001
 44
0.0000000001
 40
0.0
 40
0.0
 40
0.0
 40
0.0
 40
0.0635100441
 40
0.1480890344
 40
0.2528907481
 40
0.3763623008
 40
0.5159473908
 40
0.6688151215
 40
1.0
 40
1.0
 40
1.0
 40
1.0
 10
10.6785878263
 20
9.8261945433
 30
0.0
 10
10.6790258222
 20
9.826259674
 30
0.0
 10
10.6800661454
 20
9.8262640963
 30
0.0
 10
10.6818179152
 20
9.8260583788
 30
0.0
 10
10.6839595233
 20
9.8256320657
 30
0.0
 10
10.6864435559
 20
9.8249905659
 30
0.0
 10
10.689219187
 20
9.8241478206
 30
0.0
 10
10.6933337675
 20
9.8227399737
 30
0.0
 10
10.6964759698
 20
9.8215019832
 30
0.0
 10
10.6986033533
 20
9.820604043
 30
0.0
  0
SPLINE
  5
4A7
100
AcDbEntity
  8
0
100
AcDbSpline
 62
7
  6
CONTINUOUS
 70
0
 71
3
 72
18
 73
14
 74
0
 42
0.0000001
 43
0.0000001
 44
0.0000000001
 40
0.0
 40
0.0
 40
0.0
 40
0.0
 40
0.0181010129
 40
0.0392874828
 40
0.0658303762
 40
0.0988727612
 40
0.1389679922
 40
0.1862840407
 40
0.3020796144
 40
0.4447298867
 40
0.6118395684
 40
0.7987753928
 40
1.0
 40
1.0
 40
1.0
 40
1.0
 10
10.5090473051
 20
9.9024890157
 30
0.0
 10
10.5090888136
 20
9.9025804583
 30
0.0
 10
10.5092317082
 20
9.9027568788
 30
0.0
 10
10.5095628313
 20
9.9029256116
 30
0.0
 10
10.5100030372
 20
9.9030229492
 30
0.0
 10
10.5105568586
 20
9.9030531703
 30
0.0
 10
10.5112249972
 20
9.9030162519
 30
0.0
 10
10.5123431754
 20
9.9028663831
 30
0.0
 10
10.5140007224
 20
9.9024932327
 30
0.0
 10
10.516264763
 20
9.901820615
 30
0.0
 10
10.5188645967
 20
9.900904271
 30
0.0
 10
10.5217304913
 20
9.899773036
 30
0.0
 10
10.5237084146
 20
9.898920441
 30
0.0
 10
10.5247273751
 20
9.8984643584
 30
0.0
  0
SPLINE
  5
4A8
100
AcDbEntity
  8
0
100
AcDbSpline
 62
7
  6
CONTINUOUS
 70
0
 71
3
 72
17
 73
13
 74
0
 42
0.0000001
 43
0.0000001
 44
0.0000000001
 40
0.0
 40
0.0
 40
0.0
 40
0.0
 40
0.0189587896
 40
0.040208778
 40
0.0660360403
 40
0.0977122283
 40
0.1808584176
 40
0.2921386083
 40
0.4317776962
 40
0.5979415853
 40
0.7881980456
 40
1.0
 40
1.0
 40
1.0
 40
1.0
 10
10.3596404843
 20
9.9707582254
 30
0.0
 10
10.3596635944
 20
9.9708100056
 30
0.0
 10
10.3597381502
 20
9.9709097693
 30
0.0
 10
10.3599121588
 20
9.9710105591
 30
0.0
 10
10.3601416616
 20
9.9710708084
 30
0.0
 10
10.360562396
 20
9.9711044114
 30
0.0
 10
10.3612390362
 20
9.9710329836
 30
0.0
 10
10.3622146376
 20
9.9708151597
 30
0.0
 10
10.3634093632
 20
9.9704526785
 30
0.0
 10
10.3648066193
 20
9.9699529086
 30
0.0
 10
10.3663851101
 20
9.96932226
 30
0.0
 10
10.3674885168
 20
9.9688438458
 30
0.0
 10
10.3680667132
 20
9.9685850474
 30
0.0
  0
SPLINE
  5
4A9
100
AcDbEntity
  8
0
100
AcDbSpline
 62
7
  6
CONTINUOUS
 70
0
 71
3
 72
15
 73
11
 74
0
 42
0.0000001
 43
0.0000001
 44
0.0000000001
 40
0.0
 40
0.0
 40
0.0
 40
0.0
 40
0.0209771481
 40
0.050619744
 40
0.1340137264
 40
0.2458640638
 40
0.380147326
 40
0.5302157827
 40
0.688615176
 40
1.0
 40
1.0
 40
1.0
 40
1.0
 10
10.3323298428
 20
9.9235904912
 30
0.0
 10
10.3325362481
 20
9.923498105
 30
0.0
 10
10.3330236365
 20
9.9232518196
 30
0.0
 10
10.3342919303
 20
9.9225601344
 30
0.0
 10
10.3363828945
 20
9.9213321395
 30
0.0
 10
10.339413464
 20
9.919478835
 30
0.0
 10
10.3430270233
 20
9.917201515
 30
0.0
 10
10.3470373206
 20
9.9146132256
 30
0.0
 10
10.3526153962
 20
9.9109339944
 30
0.0
 10
10.3568027251
 20
9.9080845252
 30
0.0
 10
10.3595541604
 20
9.9061615974
 30
0.0
  0
SPLINE
  5
4AA
100
AcDbEntity
  8
0
100
AcDbSpline
 62
7
  6
CONTINUOUS
 70
0
 71
3
 72
18
 73
14
 74
0
 42
0.0000001
 43
0.0000001
 44
0.0000000001
 40
0.0
 40
0.0
 40
0.0
 40
0.0
 40
0.2101749902
 40
0.4027224225
 40
0.5737823593
 40
0.7196185668
 40
0.8373272924
 40
0.8848446024
 40
0.9243900901
 40
0.955668439
 40
0.9785143818
 40
0.9930535266
 40
1.0
 40
1.0
 40
1.0
 40
1.0
 10
10.3595541604
 20
9.9061615974
 30
0.0
 10
10.3603547754
 20
9.9056020622
 30
0.0
 10
10.3618846846
 20
9.904523922
 30
0.0
 10
10.3640507109
 20
9.9029685771
 30
0.0
 10
10.3659595306
 20
9.9015677469
 30
0.0
 10
10.3675714865
 20
9.9003508736
 30
0.0
 10
10.3687097744
 20
9.8994589705
 30
0.0
 10
10.3694447554
 20
9.8988551566
 30
0.0
 10
10.3698630352
 20
9.8984963291
 30
0.0
 10
10.3701831684
 20
9.898205431
 30
0.0
 10
10.3704121134
 20
9.8979732229
 30
0.0
 10
10.3705353536
 20
9.8978242896
 30
0.0
 10
10.3705906352
 20
9.897719447
 30
0.0
 10
10.3705777776
 20
9.8976898351
 30
0.0
  0
LINE
  5
4AB
100
AcDbEntity
  8
0
100
AcDbLine
 62
7
  6
CONTINUOUS
 10
10.4167800794
 20
9.8857909013
 11
10.4243007916
 21
9.8820257083
  0
SPLINE
  5
4AC
100
AcDbEntity
  8
0
100
AcDbSpline
 62
7
  6
CONTINUOUS
 70
0
 71
3
 72
9
 73
5
 74
0
 42
0.0000001
 43
0.0000001
 44
0.0000000001
 40
0.0
 40
0.0
 40
0.0
 40
0.0
 40
0.5282979127
 40
1.0
 40
1.0
 40
1.0
 40
1.0
 10
10.4329741852
 20
9.8770098533
 30
0.0
 10
10.4348754668
 20
9.8758419286
 30
0.0
 10
10.4384360645
 20
9.8735683646
 30
0.0
 10
10.4419037373
 20
9.8711534395
 30
0.0
 10
10.4435021489
 20
9.869964166
 30
0.0
  0
LINE
  5
4AD
100
AcDbEntity
  8
0
100
AcDbLine
 62
7
  6
CONTINUOUS
 10
10.4435021489
 20
9.869964166
 11
10.4473950764
 21
9.8668443528
  0
SPLINE
  5
4AE
100
AcDbEntity
  8
0
100
AcDbSpline
 62
7
  6
CONTINUOUS
 70
0
 71
3
 72
13
 73
9
 74
0
 42
0.0000001
 43
0.0000001
 44
0.0000000001
 40
0.0
 40
0.0
 40
0.0
 40
0.0
 40
0.3879845182
 40
0.5473042586
 40
0.6829321573
 40
0.7947632178
 40
0.8832881918
 40
1.0
 40
1.0
 40
1.0
 40
1.0
 10
10.4473950764
 20
9.8668443528
 30
0.0
 10
10.4478326999
 20
9.8664561796
 30
0.0
 10
10.4484376835
 20
9.8658938521
 30
0.0
 10
10.4491422628
 20
9.8651417331
 30
0.0
 10
10.4495347041
 20
9.86467137
 30
0.0
 10
10.4498271284
 20
9.864252429
 30
0.0
 10
10.4500495509
 20
9.863840273
 30
0.0
 10
10.4501260405
 20
9.8634963561
 30
0.0
 10
10.45005375
 20
9.8633359219
 30
0.0
  0
LINE
  5
4AF
100
AcDbEntity
  8
0
100
AcDbLine
 62
7
  6
CONTINUOUS
 10
10.5833781516
 20
9.810645885
 11
10.5895721754
 21
9.8069172158
  0
SPLINE
  5
4B0
100
AcDbEntity
  8
0
100
AcDbSpline
 62
7
  6
CONTINUOUS
 70
0
 71
3
 72
15
 73
11
 74
0
 42
0.0000001
 43
0.0000001
 44
0.0000000001
 40
0.0
 40
0.0
 40
0.0
 40
0.0
 40
0.2045706899
 40
0.3889179124
 40
0.5510403817
 40
0.6890922104
 40
0.8019101986
 40
0.8489237885
 40
0.889839173
 40
1.0
 40
1.0
 40
1.0
 40
1.0
 10
10.5895721754
 20
9.8069172158
 30
0.0
 10
10.5901555315
 20
9.8065335916
 30
0.0
 10
10.5912542687
 20
9.8057883847
 30
0.0
 10
10.5927727566
 20
9.804677905
 30
0.0
 10
10.5940637375
 20
9.8036437652
 30
0.0
 10
10.5951108623
 20
9.8026974714
 30
0.0
 10
10.5958062304
 20
9.8019560132
 30
0.0
 10
10.5962221033
 20
9.8014054255
 30
0.0
 10
10.5965759222
 20
9.8008471331
 30
0.0
 10
10.5967866621
 20
9.8002605309
 30
0.0
 10
10.5966322293
 20
9.7999177373
 30
0.0
  0
SPLINE
  5
4B1
100
AcDbEntity
  8
0
100
AcDbSpline
 62
7
  6
CONTINUOUS
 70
0
 71
3
 72
11
 73
7
 74
0
 42
0.0000001
 43
0.0000001
 44
0.0000000001
 40
0.0
 40
0.0
 40
0.0
 40
0.0
 40
0.3099556897
 40
0.5879253092
 40
0.820528691
 40
1.0
 40
1.0
 40
1.0
 40
1.0
 10
10.7523378736
 20
9.7355965674
 30
0.0
 10
10.7536323575
 20
9.7350171616
 30
0.0
 10
10.7560690091
 20
9.7338758459
 30
0.0
 10
10.7594045201
 20
9.732148673
 30
0.0
 10
10.7621254723
 20
9.7305452827
 30
0.0
 10
10.7636746585
 20
9.729461189
 30
0.0
 10
10.7643047757
 20
9.7289345884
 30
0.0
  0
SPLINE
  5
4B2
100
AcDbEntity
  8
0
100
AcDbSpline
 62
7
  6
CONTINUOUS
 70
0
 71
3
 72
12
 73
8
 74
0
 42
0.0000001
 43
0.0000001
 44
0.0000000001
 40
0.0
 40
0.0
 40
0.0
 40
0.0
 40
0.3637513866
 40
0.6427529867
 40
0.7531120533
 40
0.846739994
 40
1.0
 40
1.0
 40
1.0
 40
1.0
 10
10.7643047757
 20
9.7289345884
 30
0.0
 10
10.764568179
 20
9.7287144573
 30
0.0
 10
10.7650186657
 20
9.7283072599
 30
0.0
 10
10.7654818943
 20
9.7277618172
 30
0.0
 10
10.7657035619
 20
9.7273609447
 30
0.0
 10
10.7658154086
 20
9.7270427873
 30
0.0
 10
10.7658070559
 20
9.7267911952
 30
0.0
 10
10.7657485648
 20
9.7266589166
 30
0.0
  0
SPLINE
  5
4B3
100
AcDbEntity
  8
0
100
AcDbSpline
 62
7
  6
CONTINUOUS
 70
0
 71
3
 72
16
 73
12
 74
0
 42
0.0000001
 43
0.0000001
 44
0.0000000001
 40
0.0
 40
0.0
 40
0.0
 40
0.0
 40
0.2162032486
 40
0.4078435739
 40
0.5735469818
 40
0.7120518706
 40
0.8223414138
 40
0.9042490191
 40
0.9353180731
 40
0.9606791658
 40
1.0
 40
1.0
 40
1.0
 40
1.0
 10
10.9014681399
 20
9.6688464535
 30
0.0
 10
10.9018379635
 20
9.6686809219
 30
0.0
 10
10.9025322801
 20
9.6683611606
 30
0.0
 10
10.9034959412
 20
9.6678846002
 30
0.0
 10
10.9043138284
 20
9.667443121
 30
0.0
 10
10.9049793605
 20
9.6670412874
 30
0.0
 10
10.9054852434
 20
9.6666827843
 30
0.0
 10
10.9057988391
 20
9.6664019458
 30
0.0
 10
10.9059552204
 20
9.6661934133
 30
0.0
 10
10.9060374679
 20
9.6660341784
 30
0.0
 10
10.9060438623
 20
9.6658994447
 30
0.0
 10
10.906013753
 20
9.6658321868
 30
0.0
  0
LINE
  5
4B4
100
AcDbEntity
  8
0
100
AcDbLine
 62
7
  6
CONTINUOUS
 10
11.3207283077
 20
9.5979517748
 11
11.3229243801
 21
9.5974123326
  0
LINE
  5
4B5
100
AcDbEntity
  8
0
100
AcDbLine
 62
7
  6
CONTINUOUS
 10
11.3229243801
 20
9.5974123326
 11
11.3293122562
 21
9.5958353845
  0
LINE
  5
4B6
100
AcDbEntity
  8
0
100
AcDbLine
 62
7
  6
CONTINUOUS
 10
11.3293122562
 20
9.5958353845
 11
11.3309510742
 21
9.5954289741
  0
LINE
  5
4B7
100
AcDbEntity
  8
0
100
AcDbLine
 62
7
  6
CONTINUOUS
 10
11.3309510742
 20
9.5954289741
 11
11.3383698453
 21
9.5935802255
  0
LINE
  5
4B8
100
AcDbEntity
  8
0
100
AcDbLine
 62
7
  6
CONTINUOUS
 10
11.3383698453
 20
9.5935802255
 11
11.342824684
 21
9.5924629422
  0
LINE
  5
4B9
100
AcDbEntity
  8
0
100
AcDbLine
 62
7
  6
CONTINUOUS
 10
11.342824684
 20
9.5924629422
 11
11.3485862367
 21
9.591010424
  0
LINE
  5
4BA
100
AcDbEntity
  8
0
100
AcDbLine
 62
7
  6
CONTINUOUS
 10
11.3485862367
 20
9.591010424
 11
11.3545566444
 21
9.589496243
  0
LINE
  5
4BB
100
AcDbEntity
  8
0
100
AcDbLine
 62
7
  6
CONTINUOUS
 10
11.3545566444
 20
9.589496243
 11
11.3576611853
 21
9.5887054179
  0
LINE
  5
4BC
100
AcDbEntity
  8
0
100
AcDbLine
 62
7
  6
CONTINUOUS
 10
11.3576611853
 20
9.5887054179
 11
11.3629355623
 21
9.5873563245
  0
LINE
  5
4BD
100
AcDbEntity
  8
0
100
AcDbLine
 62
7
  6
CONTINUOUS
 10
11.3629355623
 20
9.5873563245
 11
11.3638980059
 21
9.5871094345
  0
LINE
  5
4BE
100
AcDbEntity
  8
0
100
AcDbLine
 62
7
  6
CONTINUOUS
 10
11.3638980059
 20
9.5871094345
 11
11.3660280622
 21
9.586562252
  0
LINE
  5
4BF
100
AcDbEntity
  8
0
100
AcDbLine
 62
7
  6
CONTINUOUS
 10
10.0306882759
 20
10.1842550284
 11
10.0325592523
 21
10.1830015913
  0
LINE
  5
4C0
100
AcDbEntity
  8
0
100
AcDbLine
 62
7
  6
CONTINUOUS
 10
10.0325592523
 20
10.1830015913
 11
10.0333303808
 21
10.1824846111
  0
LINE
  5
4C1
100
AcDbEntity
  8
0
100
AcDbLine
 62
7
  6
CONTINUOUS
 10
10.0333303808
 20
10.1824846111
 11
10.0378811326
 21
10.179429093
  0
LINE
  5
4C2
100
AcDbEntity
  8
0
100
AcDbLine
 62
7
  6
CONTINUOUS
 10
10.0378811326
 20
10.179429093
 11
10.0405119858
 21
10.1776589057
  0
LINE
  5
4C3
100
AcDbEntity
  8
0
100
AcDbLine
 62
7
  6
CONTINUOUS
 10
10.0405119858
 20
10.1776589057
 11
10.045627605
 21
10.1742090045
  0
LINE
  5
4C4
100
AcDbEntity
  8
0
100
AcDbLine
 62
7
  6
CONTINUOUS
 10
10.045627605
 20
10.1742090045
 11
10.0505467225
 21
10.1708814365
  0
LINE
  5
4C5
100
AcDbEntity
  8
0
100
AcDbLine
 62
7
  6
CONTINUOUS
 10
10.0505467225
 20
10.1708814365
 11
10.054349169
 21
10.1683024459
  0
LINE
  5
4C6
100
AcDbEntity
  8
0
100
AcDbLine
 62
7
  6
CONTINUOUS
 10
10.054349169
 20
10.1683024459
 11
10.0606660753
 21
10.1640041341
  0
LINE
  5
4C7
100
AcDbEntity
  8
0
100
AcDbLine
 62
7
  6
CONTINUOUS
 10
10.0606660753
 20
10.1640041341
 11
10.0620698464
 21
10.1630466118
  0
LINE
  5
4C8
100
AcDbEntity
  8
0
100
AcDbLine
 62
7
  6
CONTINUOUS
 10
10.0620698464
 20
10.1630466118
 11
10.06747537
 21
10.1593510586
  0
LINE
  5
4C9
100
AcDbEntity
  8
0
100
AcDbLine
 62
7
  6
CONTINUOUS
 10
10.06747537
 20
10.1593510586
 11
10.0693606747
 21
10.1580589494
  0
SPLINE
  5
4CA
100
AcDbEntity
  8
0
100
AcDbSpline
 62
7
  6
CONTINUOUS
 70
0
 71
3
 72
15
 73
11
 74
0
 42
0.0000001
 43
0.0000001
 44
0.0000000001
 40
0.0
 40
0.0
 40
0.0
 40
0.0
 40
0.0243613244
 40
0.0570301823
 40
0.1452261506
 40
0.2599788682
 40
0.3951734716
 40
0.5441494782
 40
0.6995537324
 40
1.0
 40
1.0
 40
1.0
 40
1.0
 10
10.0534385758
 20
10.1740720847
 30
0.0
 10
10.0536839067
 20
10.1739622756
 30
0.0
 10
10.0542478952
 20
10.173682466
 30
0.0
 10
10.0556596226
 20
10.1729244768
 30
0.0
 10
10.0579086683
 20
10.1716194615
 30
0.0
 10
10.0610963673
 20
10.1696809478
 30
0.0
 10
10.0648223486
 20
10.1673376222
 30
0.0
 10
10.0688965314
 20
10.1647062792
 30
0.0
 10
10.0744627504
 20
10.1610252965
 30
0.0
 10
10.0786153672
 20
10.1581866254
 30
0.0
 10
10.0813258836
 20
10.1562783084
 30
0.0
  0
SPLINE
  5
4CB
100
AcDbEntity
  8
0
100
AcDbSpline
 62
7
  6
CONTINUOUS
 70
0
 71
3
 72
18
 73
14
 74
0
 42
0.0000001
 43
0.0000001
 44
0.0000000001
 40
0.0
 40
0.0
 40
0.0
 40
0.0
 40
0.2113419799
 40
0.4041088201
 40
0.5747696997
 40
0.7198701219
 40
0.8367366849
 40
0.8839119043
 40
0.9232364008
 40
0.9544722474
 40
0.9774417614
 40
0.9922857265
 40
1.0
 40
1.0
 40
1.0
 40
1.0
 10
10.0813258836
 20
10.1562783084
 30
0.0
 10
10.082070271
 20
10.1557542285
 30
0.0
 10
10.0834895282
 20
10.1547462905
 30
0.0
 10
10.0854942625
 20
10.1532933398
 30
0.0
 10
10.0872530557
 20
10.1519874123
 30
0.0
 10
10.0887319931
 20
10.1508535554
 30
0.0
 10
10.0897716454
 20
10.1500208258
 30
0.0
 10
10.0904397454
 20
10.1494545486
 30
0.0
 10
10.0908184297
 20
10.1491161771
 30
0.0
 10
10.0911086044
 20
10.148838883
 30
0.0
 10
10.0913115716
 20
10.1486155183
 30
0.0
 10
10.0914251479
 20
10.1484652455
 30
0.0
 10
10.0914632504
 20
10.1483598487
 30
0.0
 10
10.0914493674
 20
10.148329658
 30
0.0
  0
SPLINE
  5
4CC
100
AcDbEntity
  8
0
100
AcDbSpline
 62
7
  6
CONTINUOUS
 70
0
 71
3
 72
10
 73
6
 74
0
 42
0.0000001
 43
0.0000001
 44
0.0000000001
 40
0.0
 40
0.0
 40
0.0
 40
0.0
 40
0.1853868266
 40
0.4223935287
 40
1.0
 40
1.0
 40
1.0
 40
1.0
 10
10.1201390802
 20
10.1442172042
 30
0.0
 10
10.1210548842
 20
10.143807294
 30
0.0
 10
10.1231036171
 20
10.1427897417
 30
0.0
 10
10.1278610122
 20
10.1402086007
 30
0.0
 10
10.131646909
 20
10.1379445399
 30
0.0
 10
10.1343032287
 20
10.1362962958
 30
0.0
  0
LINE
  5
4CD
100
AcDbEntity
  8
0
100
AcDbLine
 62
7
  6
CONTINUOUS
 10
10.1428864051
 20
10.1307320472
 11
10.1514473372
 21
10.1245644907
  0
LINE
  5
4CE
100
AcDbEntity
  8
0
100
AcDbLine
 62
7
  6
CONTINUOUS
 10
10.1514473372
 20
10.1245644907
 11
10.1537988437
 21
10.1226412583
  0
SPLINE
  5
4CF
100
AcDbEntity
  8
0
100
AcDbSpline
 62
7
  6
CONTINUOUS
 70
0
 71
3
 72
13
 73
9
 74
0
 42
0.0000001
 43
0.0000001
 44
0.0000000001
 40
0.0
 40
0.0
 40
0.0
 40
0.0
 40
0.400260741
 40
0.6997743213
 40
0.8107778158
 40
0.8962534929
 40
0.9576526685
 40
1.0
 40
1.0
 40
1.0
 40
1.0
 10
10.1537988437
 20
10.1226412583
 30
0.0
 10
10.1541846741
 20
10.1223073155
 30
0.0
 10
10.154848737
 20
10.1217114937
 30
0.0
 10
10.1555760541
 20
10.1209743346
 30
0.0
 10
10.1559731478
 20
10.1204815592
 30
0.0
 10
10.1561513898
 20
10.1202038492
 30
0.0
 10
10.1562480203
 20
10.1199819937
 30
0.0
 10
10.1562501028
 20
10.1198405117
 30
0.0
 10
10.1562281935
 20
10.1197911703
 30
0.0
  0
LINE
  5
4D0
100
AcDbEntity
  8
0
100
AcDbLine
 62
7
  6
CONTINUOUS
 10
10.22624426
 20
10.0967249478
 11
10.23385509
 21
10.0929052036
  0
SPLINE
  5
4D1
100
AcDbEntity
  8
0
100
AcDbSpline
 62
7
  6
CONTINUOUS
 70
0
 71
3
 72
9
 73
5
 74
0
 42
0.0000001
 43
0.0000001
 44
0.0000000001
 40
0.0
 40
0.0
 40
0.0
 40
0.0
 40
0.5262879298
 40
1.0
 40
1.0
 40
1.0
 40
1.0
 10
10.2425495103
 20
10.0878456907
 30
0.0
 10
10.2443186958
 20
10.086750708
 30
0.0
 10
10.2476459264
 20
10.0846141007
 30
0.0
 10
10.2508918566
 20
10.0823544967
 30
0.0
 10
10.2523982633
 20
10.0812418349
 30
0.0
  0
LINE
  5
4D2
100
AcDbEntity
  8
0
100
AcDbLine
 62
7
  6
CONTINUOUS
 10
10.2523982633
 20
10.0812418349
 11
10.2567505571
 21
10.0777589224
  0
SPLINE
  5
4D3
100
AcDbEntity
  8
0
100
AcDbSpline
 62
7
  6
CONTINUOUS
 70
0
 71
3
 72
13
 73
9
 74
0
 42
0.0000001
 43
0.0000001
 44
0.0000000001
 40
0.0
 40
0.0
 40
0.0
 40
0.0
 40
0.3875174406
 40
0.5465965048
 40
0.6820445481
 40
0.793811005
 40
0.882446517
 40
1.0
 40
1.0
 40
1.0
 40
1.0
 10
10.2567505571
 20
10.0777589224
 30
0.0
 10
10.2571657714
 20
10.0773868583
 30
0.0
 10
10.257739653
 20
10.0768480937
 30
0.0
 10
10.2584073293
 20
10.0761278301
 30
0.0
 10
10.2587788802
 20
10.0756774141
 30
0.0
 10
10.2590552973
 20
10.0752761884
 30
0.0
 10
10.259265687
 20
10.0748800983
 30
0.0
 10
10.2593359307
 20
10.0745504746
 30
0.0
 10
10.2592663769
 20
10.0743963134
 30
0.0
  0
SPLINE
  5
4D4
100
AcDbEntity
  8
0
100
AcDbSpline
 62
7
  6
CONTINUOUS
 70
0
 71
3
 72
10
 73
6
 74
0
 42
0.0000001
 43
0.0000001
 44
0.0000000001
 40
0.0
 40
0.0
 40
0.0
 40
0.0
 40
0.2363857664
 40
0.4908470462
 40
1.0
 40
1.0
 40
1.0
 40
1.0
 10
10.3645232225
 20
10.0348318343
 30
0.0
 10
10.3659371668
 20
10.0341989584
 30
0.0
 10
10.3688433437
 20
10.03281762
 30
0.0
 10
10.3746623945
 20
10.0298023759
 30
0.0
 10
10.3789957499
 20
10.0272891636
 30
0.0
 10
10.3818182204
 20
10.0255095701
 30
0.0
  0
LINE
  5
4D5
100
AcDbEntity
  8
0
100
AcDbLine
 62
7
  6
CONTINUOUS
 10
10.3834513828
 20
10.0244615798
 11
10.3888978347
 21
10.02061831
  0
SPLINE
  5
4D6
100
AcDbEntity
  8
0
100
AcDbSpline
 62
7
  6
CONTINUOUS
 70
0
 71
3
 72
13
 73
9
 74
0
 42
0.0000001
 43
0.0000001
 44
0.0000000001
 40
0.0
 40
0.0
 40
0.0
 40
0.0
 40
0.3883886365
 40
0.549029888
 40
0.6858767139
 40
0.7982087652
 40
0.8862494008
 40
1.0
 40
1.0
 40
1.0
 40
1.0
 10
10.3888978347
 20
10.02061831
 30
0.0
 10
10.3896459888
 20
10.0200369748
 30
0.0
 10
10.390684391
 20
10.0191891167
 30
0.0
 10
10.3919053587
 20
10.0180427133
 30
0.0
 10
10.3925928071
 20
10.0173189445
 30
0.0
 10
10.3931101307
 20
10.0166689767
 30
0.0
 10
10.3935044355
 20
10.0160334913
 30
0.0
 10
10.3936583896
 20
10.0154853303
 30
0.0
 10
10.3935460739
 20
10.0152315853
 30
0.0
  0
LINE
  5
4D7
100
AcDbEntity
  8
0
100
AcDbLine
 62
7
  6
CONTINUOUS
 10
10.5354795979
 20
9.9578120339
 11
10.5426184263
 21
9.9535360376
  0
SPLINE
  5
4D8
100
AcDbEntity
  8
0
100
AcDbSpline
 62
7
  6
CONTINUOUS
 70
0
 71
3
 72
15
 73
11
 74
0
 42
0.0000001
 43
0.0000001
 44
0.0000000001
 40
0.0
 40
0.0
 40
0.0
 40
0.0
 40
0.2045390499
 40
0.3890866095
 40
0.5515360477
 40
0.6899289941
 40
0.8030219714
 40
0.8501085919
 40
0.8910253257
 40
1.0
 40
1.0
 40
1.0
 40
1.0
 10
10.5426184263
 20
9.9535360376
 30
0.0
 10
10.5432190163
 20
9.9531394102
 30
0.0
 10
10.5443508545
 20
9.9523685997
 30
0.0
 10
10.545916075
 20
9.9512202264
 30
0.0
 10
10.5472485651
 20
9.9501510317
 30
0.0
 10
10.5483309927
 20
9.9491735121
 30
0.0
 10
10.5490512168
 20
9.9484091914
 30
0.0
 10
10.5494837245
 20
9.9478425435
 30
0.0
 10
10.5498494896
 20
9.9472731495
 30
0.0
 10
10.5500761376
 20
9.9466738278
 30
0.0
 10
10.5499181185
 20
9.9463244373
 30
0.0
  0
LINE
  5
4D9
100
AcDbEntity
  8
0
100
AcDbLine
 62
7
  6
CONTINUOUS
 10
10.698358169
 20
9.8854086402
 11
10.7071729828
 21
9.8810499976
  0
SPLINE
  5
4DA
100
AcDbEntity
  8
0
100
AcDbSpline
 62
7
  6
CONTINUOUS
 70
0
 71
3
 72
9
 73
5
 74
0
 42
0.0000001
 43
0.0000001
 44
0.0000000001
 40
0.0
 40
0.0
 40
0.0
 40
0.0
 40
0.5421727763
 40
1.0
 40
1.0
 40
1.0
 40
1.0
 10
10.7071729828
 20
9.8810499976
 30
0.0
 10
10.7084444197
 20
9.8803530715
 30
0.0
 10
10.7107617797
 20
9.8790164432
 30
0.0
 10
10.7130013062
 20
9.8775495853
 30
0.0
 10
10.7139918598
 20
9.8768299705
 30
0.0
  0
SPLINE
  5
4DB
100
AcDbEntity
  8
0
100
AcDbSpline
 62
7
  6
CONTINUOUS
 70
0
 71
3
 72
14
 73
10
 74
0
 42
0.0000001
 43
0.0000001
 44
0.0000000001
 40
0.0
 40
0.0
 40
0.0
 40
0.0
 40
0.3806805323
 40
0.537471072
 40
0.6712512324
 40
0.7820468145
 40
0.8708711074
 40
0.9411302989
 40
1.0
 40
1.0
 40
1.0
 40
1.0
 10
10.7139918598
 20
9.8768299705
 30
0.0
 10
10.7146141525
 20
9.8763778889
 30
0.0
 10
10.7154750642
 20
9.8757125707
 30
0.0
 10
10.7164738021
 20
9.8747937374
 30
0.0
 10
10.7170292639
 20
9.8742015778
 30
0.0
 10
10.7174386767
 20
9.8736643886
 30
0.0
 10
10.717699102
 20
9.8731818154
 30
0.0
 10
10.7178105396
 20
9.8727484439
 30
0.0
 10
10.7177678541
 20
9.8724800525
 30
0.0
 10
10.7177193296
 20
9.872371453
 30
0.0
  0
SPLINE
  5
4DC
100
AcDbEntity
  8
0
100
AcDbSpline
 62
7
  6
CONTINUOUS
 70
0
 71
3
 72
11
 73
7
 74
0
 42
0.0000001
 43
0.0000001
 44
0.0000000001
 40
0.0
 40
0.0
 40
0.0
 40
0.0
 40
0.3094100851
 40
0.5880215119
 40
0.8210558846
 40
1.0
 40
1.0
 40
1.0
 40
1.0
 10
10.8711638532
 20
9.8080615034
 30
0.0
 10
10.8725623846
 20
9.8074355263
 30
0.0
 10
10.8751982222
 20
9.8061961929
 30
0.0
 10
10.8788034426
 20
9.8043115231
 30
0.0
 10
10.8817380403
 20
9.8025536911
 30
0.0
 10
10.8834025975
 20
9.8013628529
 30
0.0
 10
10.8840730685
 20
9.8007834289
 30
0.0
  0
SPLINE
  5
4DD
100
AcDbEntity
  8
0
100
AcDbSpline
 62
7
  6
CONTINUOUS
 70
0
 71
3
 72
12
 73
8
 74
0
 42
0.0000001
 43
0.0000001
 44
0.0000000001
 40
0.0
 40
0.0
 40
0.0
 40
0.0
 40
0.3612950661
 40
0.6398916688
 40
0.7506841596
 40
0.8450367459
 40
1.0
 40
1.0
 40
1.0
 40
1.0
 10
10.8840730685
 20
9.8007834289
 30
0.0
 10
10.8843390297
 20
9.800553584
 30
0.0
 10
10.8847939278
 20
9.8001274319
 30
0.0
 10
10.885259449
 20
9.7995582122
 30
0.0
 10
10.8854812175
 20
9.7991404608
 30
0.0
 10
10.885592298
 20
9.7988080897
 30
0.0
 10
10.885581533
 20
9.7985468657
 30
0.0
 10
10.885520254
 20
9.7984091114
 30
0.0
  0
SPLINE
  5
4DE
100
AcDbEntity
  8
0
100
AcDbSpline
 62
7
  6
CONTINUOUS
 70
0
 71
3
 72
9
 73
5
 74
0
 42
0.0000001
 43
0.0000001
 44
0.0000000001
 40
0.0
 40
0.0
 40
0.0
 40
0.0
 40
0.5487886626
 40
1.0
 40
1.0
 40
1.0
 40
1.0
 10
11.0321931156
 20
9.7359854461
 30
0.0
 10
11.0334320859
 20
9.7354308879
 30
0.0
 10
11.0356691924
 20
9.7343742352
 30
0.0
 10
11.0378476596
 20
9.7331966669
 30
0.0
 10
11.0388001567
 20
9.7326149938
 30
0.0
  0
SPLINE
  5
4DF
100
AcDbEntity
  8
0
100
AcDbSpline
 62
7
  6
CONTINUOUS
 70
0
 71
3
 72
14
 73
10
 74
0
 42
0.0000001
 43
0.0000001
 44
0.0000000001
 40
0.0
 40
0.0
 40
0.0
 40
0.0
 40
0.3891983881
 40
0.5470030898
 40
0.6801825321
 40
0.7892029504
 40
0.8755114145
 40
0.9429442106
 40
1.0
 40
1.0
 40
1.0
 40
1.0
 10
11.0388001567
 20
9.7326149938
 30
0.0
 10
11.0393094736
 20
9.732303963
 30
0.0
 10
11.0400141289
 20
9.7318461823
 30
0.0
 10
11.0408373671
 20
9.7312047875
 30
0.0
 10
11.0412923913
 20
9.7307924175
 30
0.0
 10
11.0416289564
 20
9.7304157224
 30
0.0
 10
11.0418468258
 20
9.7300739589
 30
0.0
 10
11.0419451596
 20
9.7297590496
 30
0.0
 10
11.0419146066
 20
9.7295613382
 30
0.0
 10
11.0418786197
 20
9.7294815958
 30
0.0
  0
SPLINE
  5
4E0
100
AcDbEntity
  8
0
100
AcDbSpline
 62
7
  6
CONTINUOUS
 70
0
 71
3
 72
16
 73
12
 74
0
 42
0.0000001
 43
0.0000001
 44
0.0000000001
 40
0.0
 40
0.0
 40
0.0
 40
0.0
 40
0.2141863741
 40
0.4050985489
 40
0.5708802988
 40
0.7097930739
 40
0.8204023653
 40
0.9028145098
 40
0.9342388171
 40
0.9599829509
 40
1.0
 40
1.0
 40
1.0
 40
1.0
 10
11.1704720781
 20
9.6740923326
 30
0.0
 10
11.1709314881
 20
9.6738867025
 30
0.0
 10
11.1717959879
 20
9.6734878232
 30
0.0
 10
11.1729975912
 20
9.6728906643
 30
0.0
 10
11.1740208978
 20
9.6723340341
 30
0.0
 10
11.1748548197
 20
9.6718254383
 30
0.0
 10
11.1754883857
 20
9.6713696573
 30
0.0
 10
11.1758802468
 20
9.6710118289
 30
0.0
 10
11.1760757562
 20
9.6707462496
 30
0.0
 10
11.1761787596
 20
9.6705427821
 30
0.0
 10
11.1761867262
 20
9.6703713452
 30
0.0
 10
11.1761484889
 20
9.6702854315
 30
0.0
  0
SPLINE
  5
4E1
100
AcDbEntity
  8
0
100
AcDbSpline
 62
7
  6
CONTINUOUS
 70
0
 71
3
 72
14
 73
10
 74
0
 42
0.0000001
 43
0.0000001
 44
0.0000000001
 40
0.0
 40
0.0
 40
0.0
 40
0.0
 40
0.4101165144
 40
0.5746886951
 40
0.7116421266
 40
0.8208021825
 40
0.9026154867
 40
0.9593862823
 40
1.0
 40
1.0
 40
1.0
 40
1.0
 10
11.2765772579
 20
9.6266000762
 30
0.0
 10
11.2769799845
 20
9.6264198174
 30
0.0
 10
11.2775400863
 20
9.6261568935
 30
0.0
 10
11.278213638
 20
9.6257922052
 30
0.0
 10
11.2785908465
 20
9.6255620205
 30
0.0
 10
11.278878735
 20
9.6253563484
 30
0.0
 10
11.2790737255
 20
9.6251746563
 30
0.0
 10
11.2791890486
 20
9.6250147176
 30
0.0
 10
11.2791928523
 20
9.6248995309
 30
0.0
 10
11.2791749229
 20
9.6248596842
 30
0.0
  0
SPLINE
  5
4E2
100
AcDbEntity
  8
0
100
AcDbSpline
 62
7
  6
CONTINUOUS
 70
0
 71
3
 72
22
 73
18
 74
0
 42
0.0000001
 43
0.0000001
 44
0.0000000001
 40
0.0
 40
0.0
 40
0.0
 40
0.0
 40
0.002653373
 40
0.0075370329
 40
0.0150044994
 40
0.0251353433
 40
0.0532204412
 40
0.0912737803
 40
0.1386812172
 40
0.1947673997
 40
0.2586103004
 40
0.3292001838
 40
0.4055240813
 40
0.4864866976
 40
0.6574056635
 40
0.8320046503
 40
1.0
 40
1.0
 40
1.0
 40
1.0
 10
11.2987575729
 20
9.6079434045
 30
0.0
 10
11.2987691662
 20
9.6079699658
 30
0.0
 10
11.2988536794
 20
9.608010047
 30
0.0
 10
11.2990116802
 20
9.6080280652
 30
0.0
 10
11.2992600527
 20
9.608032105
 30
0.0
 10
11.2997569221
 20
9.6080017816
 30
0.0
 10
11.3005854431
 20
9.607901791
 30
0.0
 10
11.3018102033
 20
9.607709362
 30
0.0
 10
11.3033318448
 20
9.6074341359
 30
0.0
 10
11.3051248207
 20
9.6070795673
 30
0.0
 10
11.3071611949
 20
9.6066509958
 30
0.0
 10
11.3094090703
 20
9.6061548076
 30
0.0
 10
11.3118349145
 20
9.6055977548
 30
0.0
 10
11.3153226378
 20
9.6047691183
 30
0.0
 10
11.3198437768
 20
9.6036469461
 30
0.0
 10
11.325270787
 20
9.6022301487
 30
0.0
 10
11.3288801604
 20
9.601242492
 30
0.0
 10
11.3306465585
 20
9.6007457761
 30
0.0
  0
SPLINE
  5
4E3
100
AcDbEntity
  8
0
100
AcDbSpline
 62
7
  6
CONTINUOUS
 70
0
 71
3
 72
12
 73
8
 74
0
 42
0.0000001
 43
0.0000001
 44
0.0000000001
 40
0.0
 40
0.0
 40
0.0
 40
0.0
 40
0.3420947796
 40
0.6326708001
 40
0.8559214185
 40
0.9385232384
 40
1.0
 40
1.0
 40
1.0
 40
1.0
 10
11.3306465585
 20
9.6007457761
 30
0.0
 10
11.3321016708
 20
9.6003365946
 30
0.0
 10
11.3347885112
 20
9.5995643967
 30
0.0
 10
11.3384071571
 20
9.5984651698
 30
0.0
 10
11.340912997
 20
9.597647237
 30
0.0
 10
11.3424384779
 20
9.5970929052
 30
0.0
 10
11.3430298293
 20
9.5968561696
 30
0.0
 10
11.3432777623
 20
9.5967451958
 30
0.0
  0
SPLINE
  5
4E4
100
AcDbEntity
  8
0
100
AcDbSpline
 62
7
  6
CONTINUOUS
 70
0
 71
3
 72
18
 73
14
 74
0
 42
0.0000001
 43
0.0000001
 44
0.0000000001
 40
0.0
 40
0.0
 40
0.0
 40
0.0
 40
0.0103140023
 40
0.0182697255
 40
0.0283720312
 40
0.0552330399
 40
0.0910226205
 40
0.187936544
 40
0.314929777
 40
0.4666676798
 40
0.6363949281
 40
0.8168662025
 40
1.0
 40
1.0
 40
1.0
 40
1.0
 10
11.234318272
 20
9.6372422934
 30
0.0
 10
11.2343565082
 20
9.6373274603
 30
0.0
 10
11.2345231075
 20
9.6374157265
 30
0.0
 10
11.2347666686
 20
9.6374763503
 30
0.0
 10
11.2351730867
 20
9.6375302094
 30
0.0
 10
11.235831395
 20
9.63753674
 30
0.0
 10
11.2372742892
 20
9.6374469561
 30
0.0
 10
11.2396049049
 20
9.637126955
 30
0.0
 10
11.2429506804
 20
9.6365192315
 30
0.0
 10
11.2469195896
 20
9.6356648874
 30
0.0
 10
11.2513377731
 20
9.6346049591
 30
0.0
 10
11.2560079136
 20
9.633381569
 30
0.0
 10
11.2591758815
 20
9.6324887876
 30
0.0
 10
11.2607668993
 20
9.6320236336
 30
0.0
  0
LINE
  5
4E5
100
AcDbEntity
  8
0
100
AcDbLine
 62
7
  6
CONTINUOUS
 10
11.2607668993
 20
9.6320236336
 11
11.2700325279
 21
9.6290994007
  0
LINE
  5
4E6
100
AcDbEntity
  8
0
100
AcDbLine
 62
7
  6
CONTINUOUS
 10
11.2700325279
 20
9.6290994007
 11
11.2765772579
 21
9.6266000762
  0
SPLINE
  5
4E7
100
AcDbEntity
  8
0
100
AcDbSpline
 62
7
  6
CONTINUOUS
 70
0
 71
3
 72
15
 73
11
 74
0
 42
0.0000001
 43
0.0000001
 44
0.0000000001
 40
0.0
 40
0.0
 40
0.0
 40
0.0
 40
0.039065657
 40
0.0663420108
 40
0.0999053213
 40
0.1868548081
 40
0.3005296547
 40
0.4403429958
 40
0.6049964438
 40
1.0
 40
1.0
 40
1.0
 40
1.0
 10
11.1318204311
 20
9.6838445418
 30
0.0
 10
11.131873562
 20
9.6839638966
 30
0.0
 10
11.1320704817
 20
9.684109182
 30
0.0
 10
11.1323828364
 20
9.6842178332
 30
0.0
 10
11.132869356
 20
9.6843196218
 30
0.0
 10
11.1336530405
 20
9.6843660964
 30
0.0
 10
11.1347918905
 20
9.6843305718
 30
0.0
 10
11.1361847558
 20
9.6841989395
 30
0.0
 10
11.1385021963
 20
9.6838772288
 30
0.0
 10
11.1403419772
 20
9.6835263992
 30
0.0
 10
11.141634789
 20
9.6832549586
 30
0.0
  0
SPLINE
  5
4E8
100
AcDbEntity
  8
0
100
AcDbSpline
 62
7
  6
CONTINUOUS
 70
0
 71
3
 72
9
 73
5
 74
0
 42
0.0000001
 43
0.0000001
 44
0.0000000001
 40
0.0
 40
0.0
 40
0.0
 40
0.0
 40
0.4745639642
 40
1.0
 40
1.0
 40
1.0
 40
1.0
 10
11.141634789
 20
9.6832549586
 30
0.0
 10
11.1433740385
 20
9.6828897832
 30
0.0
 10
11.1470187041
 20
9.6820235293
 30
0.0
 10
11.150629612
 20
9.6810283407
 30
0.0
 10
11.1525180063
 20
9.6804754075
 30
0.0
  0
LINE
  5
4E9
100
AcDbEntity
  8
0
100
AcDbLine
 62
7
  6
CONTINUOUS
 10
11.1525180063
 20
9.6804754075
 11
11.1623670813
 21
9.6772900263
  0
LINE
  5
4EA
100
AcDbEntity
  8
0
100
AcDbLine
 62
7
  6
CONTINUOUS
 10
11.1623670813
 20
9.6772900263
 11
11.1704720781
 21
9.6740923326
  0
SPLINE
  5
4EB
100
AcDbEntity
  8
0
100
AcDbSpline
 62
7
  6
CONTINUOUS
 70
0
 71
3
 72
16
 73
12
 74
0
 42
0.0000001
 43
0.0000001
 44
0.0000000001
 40
0.0
 40
0.0
 40
0.0
 40
0.0
 40
0.0391823245
 40
0.0667197082
 40
0.1008184819
 40
0.1897868876
 40
0.3060445663
 40
0.4479758926
 40
0.6133103611
 40
0.7985826241
 40
1.0
 40
1.0
 40
1.0
 40
1.0
 10
10.9982408405
 20
9.7445726304
 30
0.0
 10
10.9983240349
 20
9.7447568582
 30
0.0
 10
10.9986388415
 20
9.7449748869
 30
0.0
 10
10.9991314984
 20
9.7451226239
 30
0.0
 10
10.9999035589
 20
9.7452455449
 30
0.0
 10
11.0011414041
 20
9.7452503119
 30
0.0
 10
11.0029269041
 20
9.7450935142
 30
0.0
 10
11.0050876587
 20
9.7447613343
 30
0.0
 10
11.0075793635
 20
9.7442601113
 30
0.0
 10
11.0103502743
 20
9.7436003849
 30
0.0
 10
11.0122769361
 20
9.7430818563
 30
0.0
 10
11.0132768626
 20
9.7427991895
 30
0.0
  0
LINE
  5
4EC
100
AcDbEntity
  8
0
100
AcDbLine
 62
7
  6
CONTINUOUS
 10
11.0230692653
 20
9.7396391746
 11
11.0321931156
 21
9.7359854461
  0
SPLINE
  5
4ED
100
AcDbEntity
  8
0
100
AcDbSpline
 62
7
  6
CONTINUOUS
 70
0
 71
3
 72
18
 73
14
 74
0
 42
0.0000001
 43
0.0000001
 44
0.0000000001
 40
0.0
 40
0.0
 40
0.0
 40
0.0
 40
0.0178954014
 40
0.0397310793
 40
0.0674880624
 40
0.1020159231
 40
0.1436480297
 40
0.1924821819
 40
0.3109835496
 40
0.4548369467
 40
0.6206597991
 40
0.8040756433
 40
1.0
 40
1.0
 40
1.0
 40
1.0
 10
10.8426772291
 20
9.8152866292
 30
0.0
 10
10.8427250256
 20
9.8153941807
 30
0.0
 10
10.8428999491
 20
9.8156032203
 30
0.0
 10
10.8433004919
 20
9.8158084456
 30
0.0
 10
10.8438392754
 20
9.8159452512
 30
0.0
 10
10.8445207187
 20
9.8160155184
 30
0.0
 10
10.845343646
 20
9.8160197769
 30
0.0
 10
10.8467157936
 20
9.8159283443
 30
0.0
 10
10.8487426134
 20
9.8156246279
 30
0.0
 10
10.8514965817
 20
9.8150320035
 30
0.0
 10
10.8546313354
 20
9.8141969696
 30
0.0
 10
10.8580591544
 20
9.8131435303
 30
0.0
 10
10.8604194741
 20
9.8123339133
 30
0.0
 10
10.8616319957
 20
9.8118978543
 30
0.0
  0
SPLINE
  5
4EE
100
AcDbEntity
  8
0
100
AcDbSpline
 62
7
  6
CONTINUOUS
 70
0
 71
3
 72
14
 73
10
 74
0
 42
0.0000001
 43
0.0000001
 44
0.0000000001
 40
0.0
 40
0.0
 40
0.0
 40
0.0
 40
0.0600276253
 40
0.1310704572
 40
0.2202820347
 40
0.3310482326
 40
0.4644575993
 40
0.6206626887
 40
1.0
 40
1.0
 40
1.0
 40
1.0
 10
10.6757368205
 20
9.8911626534
 30
0.0
 10
10.6757837667
 20
9.891267683
 30
0.0
 10
10.6759467071
 20
9.8914717547
 30
0.0
 10
10.6763242574
 20
9.8916753094
 30
0.0
 10
10.6768305147
 20
9.8918042722
 30
0.0
 10
10.6774684261
 20
9.8918633069
 30
0.0
 10
10.6782366457
 20
9.8918544404
 30
0.0
 10
10.6795147141
 20
9.8917435718
 30
0.0
 10
10.68052757
 20
9.891565371
 30
0.0
 10
10.6812394461
 20
9.8914178163
 30
0.0
  0
SPLINE
  5
4EF
100
AcDbEntity
  8
0
100
AcDbSpline
 62
7
  6
CONTINUOUS
 70
0
 71
3
 72
11
 73
7
 74
0
 42
0.0000001
 43
0.0000001
 44
0.0000000001
 40
0.0
 40
0.0
 40
0.0
 40
0.0
 40
0.2027565205
 40
0.4450783502
 40
0.7160829571
 40
1.0
 40
1.0
 40
1.0
 40
1.0
 10
10.6812394461
 20
9.8914178163
 30
0.0
 10
10.6824419652
 20
9.8911685631
 30
0.0
 10
10.6850528695
 20
9.8904841942
 30
0.0
 10
10.689177477
 20
9.8891382572
 30
0.0
 10
10.693693694
 20
9.8874246022
 30
0.0
 10
10.6967885633
 20
9.8861111895
 30
0.0
 10
10.698358169
 20
9.8854086402
 30
0.0
  0
SPLINE
  5
4F0
100
AcDbEntity
  8
0
100
AcDbSpline
 62
7
  6
CONTINUOUS
 70
0
 71
3
 72
18
 73
14
 74
0
 42
0.0000001
 43
0.0000001
 44
0.0000000001
 40
0.0
 40
0.0
 40
0.0
 40
0.0
 40
0.0180194447
 40
0.0392819503
 40
0.0660365226
 40
0.0993695351
 40
0.1397839104
 40
0.1874686627
 40
0.3040536784
 40
0.4472461311
 40
0.6143806901
 40
0.8006276367
 40
1.0
 40
1.0
 40
1.0
 40
1.0
 10
10.5087901798
 20
9.9670319465
 30
0.0
 10
10.5088342336
 20
9.9671292302
 30
0.0
 10
10.5089882958
 20
9.9673168973
 30
0.0
 10
10.5093445969
 20
9.9674945461
 30
0.0
 10
10.5098185797
 20
9.967596997
 30
0.0
 10
10.5104150825
 20
9.9676284031
 30
0.0
 10
10.511134603
 20
9.9675889079
 30
0.0
 10
10.5123379153
 20
9.9674286382
 30
0.0
 10
10.5141190178
 20
9.9670306129
 30
0.0
 10
10.5165467769
 20
9.9663147861
 30
0.0
 10
10.5193252192
 20
9.9653413215
 30
0.0
 10
10.5223743623
 20
9.964142128
 30
0.0
 10
10.524473996
 20
9.9632385044
 30
0.0
 10
10.5255524848
 20
9.9627557771
 30
0.0
  0
SPLINE
  5
4F1
100
AcDbEntity
  8
0
100
AcDbSpline
 62
7
  6
CONTINUOUS
 70
0
 71
3
 72
15
 73
11
 74
0
 42
0.0000001
 43
0.0000001
 44
0.0000000001
 40
0.0
 40
0.0
 40
0.0
 40
0.0
 40
0.0941550144
 40
0.1332937546
 40
0.1793948511
 40
0.2927049038
 40
0.4339686344
 40
0.6013140973
 40
0.7912288407
 40
1.0
 40
1.0
 40
1.0
 40
1.0
 10
10.3532202698
 20
10.0377223287
 30
0.0
 10
10.3533721502
 20
10.0380658277
 30
0.0
 10
10.3540663375
 20
10.0381766528
 30
0.0
 10
10.3547522065
 20
10.038143086
 30
0.0
 10
10.3555475424
 20
10.0380458819
 30
0.0
 10
10.3567149644
 20
10.037784652
 30
0.0
 10
10.3583304113
 20
10.0373025746
 30
0.0
 10
10.3602042601
 20
10.0366369538
 30
0.0
 10
10.3623032924
 20
10.0358034838
 30
0.0
 10
10.3637631144
 20
10.0351720557
 30
0.0
 10
10.3645232225
 20
10.0348318343
 30
0.0
  0
SPLINE
  5
4F2
100
AcDbEntity
  8
0
100
AcDbSpline
 62
7
  6
CONTINUOUS
 70
0
 71
3
 72
16
 73
12
 74
0
 42
0.0000001
 43
0.0000001
 44
0.0000000001
 40
0.0
 40
0.0
 40
0.0
 40
0.0
 40
0.0400190105
 40
0.0657593359
 40
0.0971821278
 40
0.1796221514
 40
0.2903158931
 40
0.4292672834
 40
0.5950348956
 40
0.7858933062
 40
1.0
 40
1.0
 40
1.0
 40
1.0
 10
10.2196237592
 20
10.0984220668
 30
0.0
 10
10.2196623804
 20
10.0985078116
 30
0.0
 10
10.2197954612
 20
10.0986161205
 30
0.0
 10
10.220015802
 20
10.0986749273
 30
0.0
 10
10.2203441549
 20
10.0987060922
 30
0.0
 10
10.2208723252
 20
10.0986521264
 30
0.0
 10
10.2216345909
 20
10.0984829706
 30
0.0
 10
10.2225696642
 20
10.0981997979
 30
0.0
 10
10.2236664228
 20
10.0978074965
 30
0.0
 10
10.2249119337
 20
10.0973093546
 30
0.0
 10
10.2257850304
 20
10.0969304972
 30
0.0
 10
10.22624426
 20
10.0967249478
 30
0.0
  0
SPLINE
  5
4F3
100
AcDbEntity
  8
0
100
AcDbSpline
 62
7
  6
CONTINUOUS
 70
0
 71
3
 72
14
 73
10
 74
0
 42
0.0000001
 43
0.0000001
 44
0.0000000001
 40
0.0
 40
0.0
 40
0.0
 40
0.0
 40
0.0406399365
 40
0.0974967486
 40
0.1793660974
 40
0.2885432365
 40
0.4254801662
 40
0.5900101951
 40
1.0
 40
1.0
 40
1.0
 40
1.0
 10
10.1171105599
 20
10.1449950749
 30
0.0
 10
10.117128366
 20
10.145035005
 30
0.0
 10
10.1172170688
 20
10.1451088225
 30
0.0
 10
10.1174133283
 20
10.1451291306
 30
0.0
 10
10.1176788894
 20
10.1451047453
 30
0.0
 10
10.1180241009
 20
10.1450270367
 30
0.0
 10
10.118447002
 20
10.1448991159
 30
0.0
 10
10.1191674764
 20
10.1446398566
 30
0.0
 10
10.1197365007
 20
10.1443973972
 30
0.0
 10
10.1201390802
 20
10.1442172042
 30
0.0
  0
SPLINE
  5
4F4
100
AcDbEntity
  8
0
100
AcDbSpline
 62
7
  6
CONTINUOUS
 70
0
 71
3
 72
25
 73
21
 74
0
 42
0.0000001
 43
0.0000001
 44
0.0000000001
 40
0.0
 40
0.0
 40
0.0
 40
0.0
 40
0.0007497611
 40
0.0020879868
 40
0.0067946627
 40
0.0142887019
 40
0.0245791532
 40
0.0376566705
 40
0.053475371
 40
0.0719336685
 40
0.0929236389
 40
0.1420641373
 40
0.2000252781
 40
0.2658238443
 40
0.3382674657
 40
0.4161398488
 40
0.4981988
 40
0.6693320688
 40
0.8403681121
 40
1.0
 40
1.0
 40
1.0
 40
1.0
 10
10.9295595236
 20
9.6474337925
 30
0.0
 10
10.9295635797
 20
9.6474415882
 30
0.0
 10
10.9295882447
 20
9.6474531757
 30
0.0
 10
10.9296654456
 20
9.6474638318
 30
0.0
 10
10.9298264915
 20
9.6474588032
 30
0.0
 10
10.9300877213
 20
9.6474334059
 30
0.0
 10
10.930446738
 20
9.6473846734
 30
0.0
 10
10.9309001688
 20
9.6473126621
 30
0.0
 10
10.9314469956
 20
9.6472170844
 30
0.0
 10
10.9320837988
 20
9.6470984898
 30
0.0
 10
10.9331029164
 20
9.6468996113
 30
0.0
 10
10.9345733336
 20
9.6465963927
 30
0.0
 10
10.9365540569
 20
9.6461679373
 30
0.0
 10
10.9387978621
 20
9.6456641857
 30
0.0
 10
10.9412657697
 20
9.6450935219
 30
0.0
 10
10.9439158194
 20
9.6444648029
 30
0.0
 10
10.9476864419
 20
9.6435486739
 30
0.0
 10
10.9525096094
 20
9.6423399107
 30
0.0
 10
10.9582017113
 20
9.6408592705
 30
0.0
 10
10.9619440291
 20
9.6398511599
 30
0.0
 10
10.9637480761
 20
9.6393551346
 30
0.0
  0
LINE
  5
4F5
100
AcDbEntity
  8
0
100
AcDbLine
 62
7
  6
CONTINUOUS
 10
10.9637480761
 20
9.6393551346
 11
10.9746333931
 21
9.6360979772
  0
SPLINE
  5
4F6
100
AcDbEntity
  8
0
100
AcDbSpline
 62
7
  6
CONTINUOUS
 70
0
 71
3
 72
18
 73
14
 74
0
 42
0.0000001
 43
0.0000001
 44
0.0000000001
 40
0.0
 40
0.0
 40
0.0
 40
0.0
 40
0.0128889516
 40
0.0319028977
 40
0.058697041
 40
0.0935650862
 40
0.1363847124
 40
0.1869045611
 40
0.3096591748
 40
0.4577452671
 40
0.6261116032
 40
0.8090612378
 40
1.0
 40
1.0
 40
1.0
 40
1.0
 10
10.861492728
 20
9.6789589846
 30
0.0
 10
10.8615335327
 20
9.6790499021
 30
0.0
 10
10.8617380551
 20
9.6792193753
 30
0.0
 10
10.8621757085
 20
9.6793445126
 30
0.0
 10
10.8627974991
 20
9.6794182663
 30
0.0
 10
10.8636059305
 20
9.679427073
 30
0.0
 10
10.8645963466
 20
9.6793750461
 30
0.0
 10
10.8662593023
 20
9.6792090559
 30
0.0
 10
10.8687161489
 20
9.678827993
 30
0.0
 10
10.8720474687
 20
9.6781664044
 30
0.0
 10
10.8758089941
 20
9.6772917189
 30
0.0
 10
10.8798664391
 20
9.6762343342
 30
0.0
 10
10.8826468933
 20
9.6754421556
 30
0.0
 10
10.884062202
 20
9.6750222148
 30
0.0
  0
SPLINE
  5
4F7
100
AcDbEntity
  8
0
100
AcDbSpline
 62
7
  6
CONTINUOUS
 70
0
 71
3
 72
10
 73
6
 74
0
 42
0.0000001
 43
0.0000001
 44
0.0000000001
 40
0.0
 40
0.0
 40
0.0
 40
0.0
 40
0.5512855198
 40
0.7953550965
 40
1.0
 40
1.0
 40
1.0
 40
1.0
 10
10.884062202
 20
9.6750222148
 30
0.0
 10
10.8873176338
 20
9.6740562853
 30
0.0
 10
10.8919838841
 20
9.6725534022
 30
0.0
 10
10.8977599349
 20
9.6704123054
 30
0.0
 10
10.9003175976
 20
9.6693614316
 30
0.0
 10
10.9014681399
 20
9.6688464535
 30
0.0
  0
SPLINE
  5
4F8
100
AcDbEntity
  8
0
100
AcDbSpline
 62
7
  6
CONTINUOUS
 70
0
 71
3
 72
19
 73
15
 74
0
 42
0.0000001
 43
0.0000001
 44
0.0000000001
 40
0.0
 40
0.0
 40
0.0
 40
0.0
 40
0.01749445
 40
0.0391235065
 40
0.0668987457
 40
0.1016161047
 40
0.1435477402
 40
0.1927383063
 40
0.2490650231
 40
0.3121594676
 40
0.4568408143
 40
0.6229921731
 40
0.8058851563
 40
1.0
 40
1.0
 40
1.0
 40
1.0
 10
10.7227420753
 20
9.7431682752
 30
0.0
 10
10.7227914289
 20
9.7432797171
 30
0.0
 10
10.7229763644
 20
9.7434966733
 30
0.0
 10
10.7234015719
 20
9.7437033734
 30
0.0
 10
10.7239746605
 20
9.7438378132
 30
0.0
 10
10.7247010803
 20
9.7439014191
 30
0.0
 10
10.7255786163
 20
9.743894825
 30
0.0
 10
10.7266034894
 20
9.7438162905
 30
0.0
 10
10.7277688686
 20
9.7436655022
 30
0.0
 10
10.7295829776
 20
9.7433558711
 30
0.0
 10
10.7321273338
 20
9.7427895133
 30
0.0
 10
10.7354476338
 20
9.7418878564
 30
0.0
 10
10.7390610307
 20
9.7407616381
 30
0.0
 10
10.7415433653
 20
9.7399018482
 30
0.0
 10
10.7428146827
 20
9.7394406988
 30
0.0
  0
LINE
  5
4F9
100
AcDbEntity
  8
0
100
AcDbLine
 62
7
  6
CONTINUOUS
 10
10.7428146827
 20
9.7394406988
 11
10.7523378736
 21
9.7355965674
  0
SPLINE
  5
4FA
100
AcDbEntity
  8
0
100
AcDbSpline
 62
7
  6
CONTINUOUS
 70
0
 71
3
 72
18
 73
14
 74
0
 42
0.0000001
 43
0.0000001
 44
0.0000000001
 40
0.0
 40
0.0
 40
0.0
 40
0.0
 40
0.0177865626
 40
0.0388848967
 40
0.065567544
 40
0.0989053113
 40
0.1393797679
 40
0.1871724307
 40
0.3040776856
 40
0.4475906309
 40
0.6149095558
 40
0.8010987026
 40
1.0
 40
1.0
 40
1.0
 40
1.0
 10
10.5554463977
 20
9.8204973777
 30
0.0
 10
10.5554907131
 20
9.8205955091
 30
0.0
 10
10.5556477726
 20
9.8207847189
 30
0.0
 10
10.5560113568
 20
9.8209605813
 30
0.0
 10
10.5564951927
 20
9.8210594742
 30
0.0
 10
10.5571047026
 20
9.8210855598
 30
0.0
 10
10.5578403041
 20
9.8210391171
 30
0.0
 10
10.5590711474
 20
9.8208663956
 30
0.0
 10
10.560892521
 20
9.8204489904
 30
0.0
 10
10.5633743227
 20
9.819707152
 30
0.0
 10
10.566212515
 20
9.8187053026
 30
0.0
 10
10.5693234884
 20
9.8174771483
 30
0.0
 10
10.571464837
 20
9.8165546191
 30
0.0
 10
10.57256385
 20
9.8160627052
 30
0.0
  0
SPLINE
  5
4FB
100
AcDbEntity
  8
0
100
AcDbSpline
 62
7
  6
CONTINUOUS
 70
0
 71
3
 72
16
 73
12
 74
0
 42
0.0000001
 43
0.0000001
 44
0.0000000001
 40
0.0
 40
0.0
 40
0.0
 40
0.0
 40
0.0392375866
 40
0.0646979308
 40
0.0959177921
 40
0.1781582587
 40
0.2888600897
 40
0.4278954488
 40
0.5938773477
 40
0.7851634447
 40
1.0
 40
1.0
 40
1.0
 40
1.0
 10
10.4104498838
 20
9.8874473737
 30
0.0
 10
10.4104860848
 20
9.8875277848
 30
0.0
 10
10.4106128534
 20
9.8876286053
 30
0.0
 10
10.4108214638
 20
9.8876812584
 30
0.0
 10
10.4111342982
 20
9.8877072863
 30
0.0
 10
10.4116379177
 20
9.8876510063
 30
0.0
 10
10.4123656146
 20
9.8874846197
 30
0.0
 10
10.4132593937
 20
9.887209869
 30
0.0
 10
10.414308824
 20
9.886831284
 30
0.0
 10
10.4155021476
 20
9.8863519213
 30
0.0
 10
10.4163393782
 20
9.8859881573
 30
0.0
 10
10.4167800794
 20
9.8857909013
 30
0.0
  0
LINE
  5
4FC
100
AcDbEntity
  8
0
100
AcDbLine
 62
7
  6
CONTINUOUS
 10
15.2935400994
 20
6.1574477028
 11
15.2951371322
 21
6.1587883707
  0
SPLINE
  5
4FD
100
AcDbEntity
  8
0
100
AcDbSpline
 62
7
  6
CONTINUOUS
 70
0
 71
3
 72
14
 73
10
 74
0
 42
0.0000001
 43
0.0000001
 44
0.0000000001
 40
0.0
 40
0.0
 40
0.0
 40
0.0
 40
0.0402916557
 40
0.0969789117
 40
0.1788189081
 40
0.2880507926
 40
0.4250918305
 40
0.5897510363
 40
1.0
 40
1.0
 40
1.0
 40
1.0
 10
10.2490190716
 20
10.0212927247
 30
0.0
 10
10.2490368912
 20
10.0213327279
 30
0.0
 10
10.2491265319
 20
10.0214065253
 30
0.0
 10
10.2493242608
 20
10.0214257789
 30
0.0
 10
10.2495923043
 20
10.0214002876
 30
0.0
 10
10.2499410174
 20
10.0213209201
 30
0.0
 10
10.250368383
 20
10.0211909712
 30
0.0
 10
10.2510965496
 20
10.0209282034
 30
0.0
 10
10.2516717662
 20
10.0206829627
 30
0.0
 10
10.2520787535
 20
10.0205007968
 30
0.0
  0
SPLINE
  5
4FE
100
AcDbEntity
  8
0
100
AcDbSpline
 62
7
  6
CONTINUOUS
 70
0
 71
3
 72
16
 73
12
 74
0
 42
0.0000001
 43
0.0000001
 44
0.0000000001
 40
0.0
 40
0.0
 40
0.0
 40
0.0
 40
0.2143849403
 40
0.4054348335
 40
0.5713050498
 40
0.7102666529
 40
0.8208863287
 40
0.9032415739
 40
0.9346030561
 40
0.9602557641
 40
1.0
 40
1.0
 40
1.0
 40
1.0
 10
11.020561571
 20
9.6765309447
 30
0.0
 10
11.0210178069
 20
9.6763267353
 30
0.0
 10
11.0218763092
 20
9.6759307847
 30
0.0
 10
11.0230696899
 20
9.675338472
 30
0.0
 10
11.0240860543
 20
9.674786837
 30
0.0
 10
11.0249144609
 20
9.6742832525
 30
0.0
 10
11.025544048
 20
9.6738324198
 30
0.0
 10
11.0259337763
 20
9.6734788756
 30
0.0
 10
11.0261285596
 20
9.6732165802
 30
0.0
 10
11.0262312814
 20
9.673016145
 30
0.0
 10
11.0262398933
 20
9.6728468323
 30
0.0
 10
11.0262022197
 20
9.6727621698
 30
0.0
  0
SPLINE
  5
4FF
100
AcDbEntity
  8
0
100
AcDbSpline
 62
7
  6
CONTINUOUS
 70
0
 71
3
 72
10
 73
6
 74
0
 42
0.0000001
 43
0.0000001
 44
0.0000000001
 40
0.0
 40
0.0
 40
0.0
 40
0.0
 40
0.5775488298
 40
0.8117482948
 40
1.0
 40
1.0
 40
1.0
 40
1.0
 10
10.8741856752
 20
9.7420482134
 30
0.0
 10
10.8761247852
 20
9.7411802754
 30
0.0
 10
10.8788220184
 20
9.7398893614
 30
0.0
 10
10.882019144
 20
9.7380680881
 30
0.0
 10
10.8833170695
 20
9.7372088766
 30
0.0
 10
10.8838700276
 20
9.7367920296
 30
0.0
  0
SPLINE
  5
500
100
AcDbEntity
  8
0
100
AcDbSpline
 62
7
  6
CONTINUOUS
 70
0
 71
3
 72
13
 73
9
 74
0
 42
0.0000001
 43
0.0000001
 44
0.0000000001
 40
0.0
 40
0.0
 40
0.0
 40
0.0
 40
0.3718447231
 40
0.6541135502
 40
0.7634014281
 40
0.8541866228
 40
0.9307342286
 40
1.0
 40
1.0
 40
1.0
 40
1.0
 10
10.8838700276
 20
9.7367920296
 30
0.0
 10
10.8841811836
 20
9.7365574648
 30
0.0
 10
10.8847137806
 20
9.7361253559
 30
0.0
 10
10.8852731757
 20
9.7355458809
 30
0.0
 10
10.8855489781
 20
9.7351201725
 30
0.0
 10
10.8856617347
 20
9.7348507902
 30
0.0
 10
10.8856966951
 20
9.7346015111
 30
0.0
 10
10.8856622179
 20
9.7344482329
 30
0.0
 10
10.8856327447
 20
9.7343819008
 30
0.0
  0
LINE
  5
501
100
AcDbEntity
  8
0
100
AcDbLine
 62
7
  6
CONTINUOUS
 10
10.7012500705
 20
9.8194535021
 11
10.709938836
 21
9.8151562795
  0
SPLINE
  5
502
100
AcDbEntity
  8
0
100
AcDbSpline
 62
7
  6
CONTINUOUS
 70
0
 71
3
 72
9
 73
5
 74
0
 42
0.0000001
 43
0.0000001
 44
0.0000000001
 40
0.0
 40
0.0
 40
0.0
 40
0.0
 40
0.5470063767
 40
1.0
 40
1.0
 40
1.0
 40
1.0
 10
10.709938836
 20
9.8151562795
 30
0.0
 10
10.7111640252
 20
9.8144825564
 30
0.0
 10
10.71337633
 20
9.8132003512
 30
0.0
 10
10.7155086846
 20
9.8117846225
 30
0.0
 10
10.7164365644
 20
9.8110919622
 30
0.0
  0
SPLINE
  5
503
100
AcDbEntity
  8
0
100
AcDbSpline
 62
7
  6
CONTINUOUS
 70
0
 71
3
 72
14
 73
10
 74
0
 42
0.0000001
 43
0.0000001
 44
0.0000000001
 40
0.0
 40
0.0
 40
0.0
 40
0.0
 40
0.3775845141
 40
0.5329446712
 40
0.6657358395
 40
0.776294892
 40
0.8659076503
 40
0.9380775551
 40
1.0
 40
1.0
 40
1.0
 40
1.0
 10
10.7164365644
 20
9.8110919622
 30
0.0
 10
10.7169653597
 20
9.8106972177
 30
0.0
 10
10.7176956631
 20
9.8101159794
 30
0.0
 10
10.7185372132
 20
9.8093114449
 30
0.0
 10
10.7190026577
 20
9.8087916522
 30
0.0
 10
10.7193430798
 20
9.8083177398
 30
0.0
 10
10.7195566953
 20
9.8078891353
 30
0.0
 10
10.7196405566
 20
9.8075008265
 30
0.0
 10
10.7195964417
 20
9.807261855
 30
0.0
 10
10.7195520576
 20
9.8071631569
 30
0.0
  0
LINE
  5
504
100
AcDbEntity
  8
0
100
AcDbLine
 62
7
  6
CONTINUOUS
 10
10.5366469401
 20
9.8924098791
 11
10.5419300535
 21
9.8892003824
  0
SPLINE
  5
505
100
AcDbEntity
  8
0
100
AcDbSpline
 62
7
  6
CONTINUOUS
 70
0
 71
3
 72
9
 73
5
 74
0
 42
0.0000001
 43
0.0000001
 44
0.0000000001
 40
0.0
 40
0.0
 40
0.0
 40
0.0
 40
0.5528040703
 40
1.0
 40
1.0
 40
1.0
 40
1.0
 10
10.5419300535
 20
9.8892003824
 30
0.0
 10
10.543052726
 20
9.8884695753
 30
0.0
 10
10.5450528224
 20
9.8871000674
 30
0.0
 10
10.5469614685
 20
9.8856001566
 30
0.0
 10
10.5477682801
 20
9.8848767032
 30
0.0
  0
SPLINE
  5
506
100
AcDbEntity
  8
0
100
AcDbSpline
 62
7
  6
CONTINUOUS
 70
0
 71
3
 72
13
 73
9
 74
0
 42
0.0000001
 43
0.0000001
 44
0.0000000001
 40
0.0
 40
0.0
 40
0.0
 40
0.0
 40
0.3707502678
 40
0.6559746781
 40
0.7673019199
 40
0.8592404564
 40
0.9347891196
 40
1.0
 40
1.0
 40
1.0
 40
1.0
 10
10.5477682801
 20
9.8848767032
 30
0.0
 10
10.5481626303
 20
9.8845230966
 30
0.0
 10
10.5488393044
 20
9.8838738391
 30
0.0
 10
10.5495463627
 20
9.8830288716
 30
0.0
 10
10.5499011532
 20
9.8824257924
 30
0.0
 10
10.5500487108
 20
9.8820534212
 30
0.0
 10
10.5500982461
 20
9.8817203024
 30
0.0
 10
10.550055671
 20
9.8815175507
 30
0.0
 10
10.5500172148
 20
9.8814326952
 30
0.0
  0
LINE
  5
507
100
AcDbEntity
  8
0
100
AcDbLine
 62
7
  6
CONTINUOUS
 10
10.3680667132
 20
9.9685850474
 11
10.3761599014
 21
9.9645544029
  0
SPLINE
  5
508
100
AcDbEntity
  8
0
100
AcDbSpline
 62
7
  6
CONTINUOUS
 70
0
 71
3
 72
10
 73
6
 74
0
 42
0.0000001
 43
0.0000001
 44
0.0000000001
 40
0.0
 40
0.0
 40
0.0
 40
0.0
 40
0.5229015932
 40
0.7729831379
 40
1.0
 40
1.0
 40
1.0
 40
1.0
 10
10.3761599014
 20
9.9645544029
 30
0.0
 10
10.379145947
 20
9.9629423928
 30
0.0
 10
10.3834896823
 20
9.9604251385
 30
0.0
 10
10.3889518082
 20
9.9569198768
 30
0.0
 10
10.3914986363
 20
9.9551573523
 30
0.0
 10
10.3926891275
 20
9.954289515
 30
0.0
  0
LINE
  5
509
100
AcDbEntity
  8
0
100
AcDbLine
 62
7
  6
CONTINUOUS
 10
10.3926891275
 20
9.954289515
 11
10.3973415881
 21
9.9505490579
  0
LINE
  5
50A
100
AcDbEntity
  8
0
100
AcDbLine
 62
7
  6
CONTINUOUS
 10
10.3973415881
 20
9.9505490579
 11
10.3980283198
 21
9.9498862512
  0
SPLINE
  5
50B
100
AcDbEntity
  8
0
100
AcDbSpline
 62
7
  6
CONTINUOUS
 70
0
 71
3
 72
12
 73
8
 74
0
 42
0.0000001
 43
0.0000001
 44
0.0000000001
 40
0.0
 40
0.0
 40
0.0
 40
0.0
 40
0.3722057449
 40
0.6583552578
 40
0.7701133084
 40
0.8623998554
 40
1.0
 40
1.0
 40
1.0
 40
1.0
 10
10.3980283198
 20
9.9498862512
 30
0.0
 10
10.3982970163
 20
9.9496144488
 30
0.0
 10
10.3987572452
 20
9.9491183728
 30
0.0
 10
10.3992356589
 20
9.9484854318
 30
0.0
 10
10.3994739437
 20
9.9480390852
 30
0.0
 10
10.3995949945
 20
9.9477124973
 30
0.0
 10
10.3996078649
 20
9.947455246
 30
0.0
 10
10.3995501897
 20
9.9473262596
 30
0.0
  0
SPLINE
  5
50C
100
AcDbEntity
  8
0
100
AcDbSpline
 62
7
  6
CONTINUOUS
 70
0
 71
3
 72
16
 73
12
 74
0
 42
0.0000001
 43
0.0000001
 44
0.0000000001
 40
0.0
 40
0.0
 40
0.0
 40
0.0
 40
0.0176180249
 40
0.0442529903
 40
0.0794791166
 40
0.1228563468
 40
0.2317732383
 40
0.3650880916
 40
0.5161882718
 40
0.6775439628
 40
1.0
 40
1.0
 40
1.0
 40
1.0
 10
10.1921712378
 20
10.0473151625
 30
0.0
 10
10.1923399781
 20
10.047239635
 30
0.0
 10
10.1927518988
 20
10.0470241995
 30
0.0
 10
10.1934790186
 20
10.0466160243
 30
0.0
 10
10.1944307316
 20
10.0460556328
 30
0.0
 10
10.1961139081
 20
10.0450364355
 30
0.0
 10
10.1986552575
 20
10.0434475832
 30
0.0
 10
10.2021316476
 20
10.0412226993
 30
0.0
 10
10.2060491655
 20
10.0386665514
 30
0.0
 10
10.2116009716
 20
10.0349835188
 30
0.0
 10
10.2158008552
 20
10.0321308311
 30
0.0
 10
10.2185831233
 20
10.0302052073
 30
0.0
  0
SPLINE
  5
50D
100
AcDbEntity
  8
0
100
AcDbSpline
 62
7
  6
CONTINUOUS
 70
0
 71
3
 72
20
 73
16
 74
0
 42
0.0000001
 43
0.0000001
 44
0.0000000001
 40
0.0
 40
0.0
 40
0.0
 40
0.0
 40
0.2090113794
 40
0.4014102717
 40
0.5729441278
 40
0.7195531206
 40
0.7825028585
 40
0.8380637507
 40
0.885873522
 40
0.9255730092
 40
0.9568350863
 40
0.9795508285
 40
0.9937620727
 40
0.9977745464
 40
1.0
 40
1.0
 40
1.0
 40
1.0
 10
10.2185831233
 20
10.0302052073
 30
0.0
 10
10.2194414341
 20
10.0296111655
 30
0.0
 10
10.2210865326
 20
10.0284655123
 30
0.0
 10
10.223423979
 20
10.0268151022
 30
0.0
 10
10.2254956344
 20
10.025328685
 30
0.0
 10
10.2270312073
 20
10.0242042068
 30
0.0
 10
10.2280911265
 20
10.0234106516
 30
0.0
 10
10.2287517802
 20
10.0229072204
 30
0.0
 10
10.2293154243
 20
10.0224679027
 30
0.0
 10
10.22977754
 20
10.0220964275
 30
0.0
 10
10.2301361283
 20
10.0217947261
 30
0.0
 10
10.23038713
 20
10.021566893
 30
0.0
 10
10.2305313753
 20
10.0214174055
 30
0.0
 10
10.2305877887
 20
10.0213351106
 30
0.0
 10
10.2305978376
 20
10.0213016899
 30
0.0
 10
10.2305937104
 20
10.0212913704
 30
0.0
  0
SPLINE
  5
50E
100
AcDbEntity
  8
0
100
AcDbSpline
 62
9
  6
CONTINUOUS
 70
0
 71
3
 72
31
 73
27
 74
0
 42
0.0000001
 43
0.0000001
 44
0.0000000001
 40
0.0
 40
0.0
 40
0.0
 40
0.0
 40
0.0006837817
 40
0.0019676962
 40
0.0038541107
 40
0.0063385993
 40
0.00941527
 40
0.0130777341
 40
0.0173193932
 40
0.0221335483
 40
0.0334522682
 40
0.0469797127
 40
0.0626615396
 40
0.0804434686
 40
0.1002713517
 40
0.1220912122
 40
0.1714916657
 40
0.2282175883
 40
0.2918454894
 40
0.3619558896
 40
0.4381322441
 40
0.5199630599
 40
0.6070430581
 40
0.6989738937
 40
0.7953649678
 40
1.0
 40
1.0
 40
1.0
 40
1.0
 10
11.615962236
 20
10.5546006778
 30
0.0
 10
11.615999534
 20
10.5545516742
 30
0.0
 10
11.6160553053
 20
10.5543786052
 30
0.0
 10
11.6161488565
 20
10.5540475214
 30
0.0
 10
11.6162567563
 20
10.5535480055
 30
0.0
 10
11.6163854263
 20
10.5528903756
 30
0.0
 10
11.6165297389
 20
10.5520720082
 30
0.0
 10
11.6166899369
 20
10.5510961838
 30
0.0
 10
11.6168644411
 20
10.5499640656
 30
0.0
 10
11.6171296501
 20
10.5481483437
 30
0.0
 10
11.6174879524
 20
10.5455011123
 30
0.0
 10
11.6179398337
 20
10.5418790834
 30
0.0
 10
11.6184257514
 20
10.5376748611
 30
0.0
 10
11.6189378683
 20
10.5329026225
 30
0.0
 10
11.6194683092
 20
10.5275765222
 30
0.0
 10
11.620221224
 20
10.5194110501
 30
0.0
 10
11.6211525027
 20
10.5079251389
 30
0.0
 10
11.6221778705
 20
10.4926705602
 30
0.0
 10
11.6230901768
 20
10.4755405399
 30
0.0
 10
11.6238271516
 20
10.4566487693
 30
0.0
 10
11.6243268689
 20
10.4361091952
 30
0.0
 10
11.624527452
 20
10.4140359893
 30
0.0
 10
11.6243670348
 20
10.3905434244
 30
0.0
 10
11.6237837955
 20
10.3657454848
 30
0.0
 10
11.6223305872
 20
10.3303834189
 30
0.0
 10
11.6204513704
 20
10.3033281468
 30
0.0
 10
11.6188071823
 20
10.2849716473
 30
0.0
  0
SPLINE
  5
50F
100
AcDbEntity
  8
0
100
AcDbSpline
 62
9
  6
CONTINUOUS
 70
0
 71
3
 72
13
 73
9
 74
0
 42
0.0000001
 43
0.0000001
 44
0.0000000001
 40
0.0
 40
0.0
 40
0.0
 40
0.0
 40
0.1116250177
 40
0.2287081259
 40
0.3504021281
 40
0.4756280614
 40
0.7348602734
 40
1.0
 40
1.0
 40
1.0
 40
1.0
 10
11.6188071823
 20
10.2849716473
 30
0.0
 10
11.5963791215
 20
10.2964630483
 30
0.0
 10
11.5503031673
 20
10.3197675889
 30
0.0
 10
11.479448062
 20
10.3549467441
 30
0.0
 10
11.4056542346
 20
10.3911088165
 30
0.0
 10
11.3028861997
 20
10.4410716382
 30
0.0
 10
11.1707747579
 20
10.5047428957
 30
0.0
 10
11.0641035668
 20
10.5560823817
 30
0.0
 10
11.0101828241
 20
10.5820740252
 30
0.0
  0
SPLINE
  5
510
100
AcDbEntity
  8
0
100
AcDbSpline
 62
9
  6
CONTINUOUS
 70
0
 71
3
 72
16
 73
12
 74
0
 42
0.0000001
 43
0.0000001
 44
0.0000000001
 40
0.0
 40
0.0
 40
0.0
 40
0.0
 40
0.1533253212
 40
0.3060740886
 40
0.5937594982
 40
0.7208445058
 40
0.8323246204
 40
0.8814458058
 40
0.9258508928
 40
0.9653899634
 40
1.0
 40
1.0
 40
1.0
 40
1.0
 10
11.0101828241
 20
10.5820740252
 30
0.0
 10
10.9799460498
 20
10.5966709829
 30
0.0
 10
10.9196187997
 20
10.6258777078
 30
0.0
 10
10.8026282048
 20
10.682616242
 30
0.0
 10
10.6906440674
 20
10.7365168832
 30
0.0
 10
10.5861823504
 20
10.7851840473
 30
0.0
 10
10.5287675483
 20
10.8111201934
 30
0.0
 10
10.4876215738
 20
10.8290771291
 30
0.0
 10
10.4608019661
 20
10.8404716223
 30
0.0
 10
10.4367894871
 20
10.8503423323
 30
0.0
 10
10.4216847008
 20
10.8563029229
 30
0.0
 10
10.4146080838
 20
10.8590164809
 30
0.0
  0
SPLINE
  5
511
100
AcDbEntity
  8
0
100
AcDbSpline
 62
9
  6
CONTINUOUS
 70
0
 71
3
 72
15
 73
11
 74
0
 42
0.0000001
 43
0.0000001
 44
0.0000000001
 40
0.0
 40
0.0
 40
0.0
 40
0.0
 40
0.3862488668
 40
0.5439346257
 40
0.6785137039
 40
0.7904555807
 40
0.8805744419
 40
0.9499414329
 40
0.977273162
 40
1.0
 40
1.0
 40
1.0
 40
1.0
 10
10.4146080838
 20
10.8590164809
 30
0.0
 10
10.4062690374
 20
10.8622141226
 30
0.0
 10
10.3944747914
 20
10.8665911206
 30
0.0
 10
10.3796067427
 20
10.8716035554
 30
0.0
 10
10.3706782706
 20
10.874370414
 30
0.0
 10
10.3631697817
 20
10.8764321876
 30
0.0
 10
10.3570455419
 20
10.8778123033
 30
0.0
 10
10.3527689627
 20
10.8784758918
 30
0.0
 10
10.3500103042
 20
10.8786360899
 30
0.0
 10
10.3488506476
 20
10.8786046785
 30
0.0
 10
10.3483274829
 20
10.8785551375
 30
0.0
  0
SPLINE
  5
512
100
AcDbEntity
  8
0
100
AcDbSpline
 62
7
  6
CONTINUOUS
 70
0
 71
3
 72
18
 73
14
 74
0
 42
0.0000001
 43
0.0000001
 44
0.0000000001
 40
0.0
 40
0.0
 40
0.0
 40
0.0
 40
0.2007242651
 40
0.3871366924
 40
0.5537513285
 40
0.6960060463
 40
0.8116315709
 40
0.8589937492
 40
0.8992497477
 40
0.9325906471
 40
0.9595690912
 40
0.9813090027
 40
1.0
 40
1.0
 40
1.0
 40
1.0
 10
10.7360497846
 20
9.7340005841
 30
0.0
 10
10.7350333298
 20
9.7344555452
 30
0.0
 10
10.7330864494
 20
9.7353638359
 30
0.0
 10
10.7303483912
 20
9.7367586392
 30
0.0
 10
10.7279519465
 20
9.738105522
 30
0.0
 10
10.7259639493
 20
9.7393702726
 30
0.0
 10
10.724601847
 20
9.7403815704
 30
0.0
 10
10.7237615196
 20
9.7411347633
 30
0.0
 10
10.7232987821
 20
9.7416221137
 30
0.0
 10
10.7229610471
 20
9.742068382
 30
0.0
 10
10.7227479566
 20
9.7424738996
 30
0.0
 10
10.7226603287
 20
9.7428438747
 30
0.0
 10
10.7227000845
 20
9.7430734586
 30
0.0
 10
10.7227420753
 20
9.7431682752
 30
0.0
  0
SPLINE
  5
513
100
AcDbEntity
  8
0
100
AcDbSpline
 62
9
  6
CONTINUOUS
 70
0
 71
3
 72
35
 73
31
 74
0
 42
0.0000001
 43
0.0000001
 44
0.0000000001
 40
0.0
 40
0.0
 40
0.0
 40
0.0
 40
0.0050816615
 40
0.0092832298
 40
0.0127521804
 40
0.0157014353
 40
0.0184212237
 40
0.0212317004
 40
0.0243920068
 40
0.0280577775
 40
0.0370670429
 40
0.0481862967
 40
0.0611483702
 40
0.0758251474
 40
0.0923590418
 40
0.1109493561
 40
0.1316069669
 40
0.1542489416
 40
0.1787753645
 40
0.2051395613
 40
0.233373703
 40
0.2635041351
 40
0.2955494004
 40
0.3295242611
 40
0.4032201871
 40
0.484453434
 40
0.5730835075
 40
0.6690308931
 40
0.7722279898
 40
1.0
 40
1.0
 40
1.0
 40
1.0
 10
11.091858645
 20
10.7645506715
 30
0.0
 10
11.0915906859
 20
10.7646293703
 30
0.0
 10
11.0910953134
 20
10.7647552162
 30
0.0
 10
11.0903981861
 20
10.7648466359
 30
0.0
 10
11.0898109226
 20
10.7648210664
 30
0.0
 10
11.0893236406
 20
10.7646719662
 30
0.0
 10
11.0889393227
 20
10.7643925984
 30
0.0
 10
11.0886623182
 20
10.7639947245
 30
0.0
 10
11.0884789269
 20
10.7634937083
 30
0.0
 10
11.0883246969
 20
10.7626348007
 30
0.0
 10
11.0882771413
 20
10.7613251112
 30
0.0
 10
11.0882397567
 20
10.7595079921
 30
0.0
 10
11.0880710353
 20
10.757381765
 30
0.0
 10
11.0875987046
 20
10.754991822
 30
0.0
 10
11.0866624711
 20
10.7524117907
 30
0.0
 10
11.0853751395
 20
10.7496284665
 30
0.0
 10
11.083827191
 20
10.7465993846
 30
0.0
 10
11.0821111282
 20
10.7432904488
 30
0.0
 10
11.0803239878
 20
10.7396650873
 30
0.0
 10
11.0785450145
 20
10.7356963386
 30
0.0
 10
11.0767216964
 20
10.7314116017
 30
0.0
 10
11.0748120953
 20
10.726824473
 30
0.0
 10
11.0727706944
 20
10.7219504463
 30
0.0
 10
11.0697287686
 20
10.7149000533
 30
0.0
 10
11.0655020477
 20
10.7054174326
 30
0.0
 10
11.0599877195
 20
10.6932206225
 30
0.0
 10
11.0539874554
 20
10.6799013972
 30
0.0
 10
11.0475051615
 20
10.6654754343
 30
0.0
 10
11.0379105318
 20
10.6440645282
 30
0.0
 10
11.0304996359
 20
10.6274533524
 30
0.0
 10
11.0254131734
 20
10.6160155037
 30
0.0
  0
SPLINE
  5
514
100
AcDbEntity
  8
0
100
AcDbSpline
 62
9
  6
CONTINUOUS
 70
0
 71
3
 72
36
 73
32
 74
0
 42
0.0000001
 43
0.0000001
 44
0.0000000001
 40
0.0
 40
0.0
 40
0.0
 40
0.0
 40
0.1892917074
 40
0.284257763
 40
0.3776950512
 40
0.468267811
 40
0.5546952197
 40
0.6357495241
 40
0.7103611101
 40
0.7775595006
 40
0.836612981
 40
0.8628829408
 40
0.8869111395
 40
0.9086602269
 40
0.9280926492
 40
0.9451785543
 40
0.9599194589
 40
0.9723244777
 40
0.9776537991
 40
0.9824024217
 40
0.9865721598
 40
0.9901678712
 40
0.9931951604
 40
0.9956596117
 40
0.9975667889
 40
0.9983131331
 40
0.9989222357
 40
0.9993947862
 40
0.9997314727
 40
0.9999329822
 40
1.0
 40
1.0
 40
1.0
 40
1.0
 10
11.0254131734
 20
10.6160155037
 30
0.0
 10
10.9884024479
 20
10.634769074
 30
0.0
 10
10.9325245035
 20
10.6623434176
 30
0.0
 10
10.8578395186
 20
10.6980631694
 30
0.0
 10
10.8024540721
 20
10.7239809562
 30
0.0
 10
10.7485426916
 20
10.7486271992
 30
0.0
 10
10.6968903031
 20
10.7716812934
 30
0.0
 10
10.6482285547
 20
10.7928462309
 30
0.0
 10
10.6032409811
 20
10.8118854352
 30
0.0
 10
10.5625102389
 20
10.8286031355
 30
0.0
 10
10.5314424568
 20
10.8409521389
 30
0.0
 10
10.5090865898
 20
10.8495964583
 30
0.0
 10
10.4943224862
 20
10.8552011751
 30
0.0
 10
10.4809281444
 20
10.8601904778
 30
0.0
 10
10.4689313759
 20
10.8645716344
 30
0.0
 10
10.4583517853
 20
10.8683546111
 30
0.0
 10
10.4492006779
 20
10.8715569567
 30
0.0
 10
10.4424660677
 20
10.8738624632
 30
0.0
 10
10.4377951214
 20
10.8754334265
 30
0.0
 10
10.4348316809
 20
10.876418754
 30
0.0
 10
10.4322258523
 20
10.8772752094
 30
0.0
 10
10.4299758979
 20
10.8780060079
 30
0.0
 10
10.4280793038
 20
10.8786147353
 30
0.0
 10
10.426533346
 20
10.8791047464
 30
0.0
 10
10.4254628391
 20
10.8794402279
 30
0.0
 10
10.4247796968
 20
10.8796515705
 30
0.0
 10
10.4243969026
 20
10.8797702811
 30
0.0
 10
10.4240992665
 20
10.8798592238
 30
0.0
 10
10.4238880984
 20
10.8799282109
 30
0.0
 10
10.4237597117
 20
10.8799586185
 30
0.0
 10
10.4237047844
 20
10.8799837648
 30
0.0
 10
10.4236901188
 20
10.8799846051
 30
0.0
  0
SPLINE
  5
515
100
AcDbEntity
  8
0
100
AcDbSpline
 62
7
  6
CONTINUOUS
 70
0
 71
3
 72
15
 73
11
 74
0
 42
0.0000001
 43
0.0000001
 44
0.0000000001
 40
0.0
 40
0.0
 40
0.0
 40
0.0
 40
0.2144285862
 40
0.4045246915
 40
0.569000314
 40
0.7067036607
 40
0.8167780608
 40
0.8992624666
 40
0.9572195345
 40
1.0
 40
1.0
 40
1.0
 40
1.0
 10
10.8659912613
 20
9.675839296
 30
0.0
 10
10.8656213857
 20
9.6760048509
 30
0.0
 10
10.8649274185
 20
9.6763258732
 30
0.0
 10
10.8639661988
 20
9.6768083175
 30
0.0
 10
10.8631518723
 20
9.677259106
 30
0.0
 10
10.8624920401
 20
9.677673779
 30
0.0
 10
10.8619898499
 20
9.6780473762
 30
0.0
 10
10.8616521159
 20
9.6783800375
 30
0.0
 10
10.8614596939
 20
9.678677642
 30
0.0
 10
10.8614596238
 20
9.6788852244
 30
0.0
 10
10.861492728
 20
9.6789589846
 30
0.0
  0
SPLINE
  5
516
100
AcDbEntity
  8
0
100
AcDbSpline
 62
7
  6
CONTINUOUS
 70
0
 71
3
 72
27
 73
23
 74
0
 42
0.0000001
 43
0.0000001
 44
0.0000000001
 40
0.0
 40
0.0
 40
0.0
 40
0.0
 40
0.0312906477
 40
0.0775933529
 40
0.1372805935
 40
0.2082892954
 40
0.3743524619
 40
0.4640984951
 40
0.5545802056
 40
0.6430210373
 40
0.7266773978
 40
0.802903597
 40
0.8693669464
 40
0.8982297818
 40
0.9238280356
 40
0.9459762764
 40
0.9645040456
 40
0.9792455753
 40
0.9900472457
 40
0.9968376113
 40
0.9988039345
 40
1.0
 40
1.0
 40
1.0
 40
1.0
 10
10.0906803337
 20
10.1485163548
 30
0.0
 10
10.0902423483
 20
10.1487123953
 30
0.0
 10
10.0891891433
 20
10.1492693851
 30
0.0
 10
10.0873620612
 20
10.1503144809
 30
0.0
 10
10.0850387771
 20
10.1517189196
 30
0.0
 10
10.0811789875
 20
10.1541299153
 30
0.0
 10
10.0769727987
 20
10.156855957
 30
0.0
 10
10.0725466833
 20
10.1597904562
 30
0.0
 10
10.0691289043
 20
10.1620915226
 30
0.0
 10
10.0658043618
 20
10.1643636552
 30
0.0
 10
10.0626764579
 20
10.1665358988
 30
0.0
 10
10.0598430843
 20
10.1685411515
 30
0.0
 10
10.0577123361
 20
10.1700844198
 30
0.0
 10
10.056224116
 20
10.1711908881
 30
0.0
 10
10.0552886416
 20
10.171901612
 30
0.0
 10
10.0544875319
 20
10.1725272806
 30
0.0
 10
10.0538276231
 20
10.1730624674
 30
0.0
 10
10.0533136909
 20
10.1735026724
 30
0.0
 10
10.052953194
 20
10.1738410906
 30
0.0
 10
10.0527499036
 20
10.1740665291
 30
0.0
 10
10.0526734868
 20
10.1741972121
 30
0.0
 10
10.052665924
 20
10.1742500612
 30
0.0
 10
10.0526735795
 20
10.1742667294
 30
0.0
  0
SPLINE
  5
517
100
AcDbEntity
  8
0
100
AcDbSpline
 62
7
  6
CONTINUOUS
 70
0
 71
3
 72
9
 73
5
 74
0
 42
0.0000001
 43
0.0000001
 44
0.0000000001
 40
0.0
 40
0.0
 40
0.0
 40
0.0
 40
0.5003065065
 40
1.0
 40
1.0
 40
1.0
 40
1.0
 10
12.9466748953
 20
9.037782055
 30
0.0
 10
12.9630104555
 20
9.0210768276
 30
0.0
 10
12.9947244808
 20
8.9867712221
 30
0.0
 10
13.0252923711
 20
8.9514561736
 30
0.0
 10
13.0402925906
 20
8.9335796081
 30
0.0
  0
SPLINE
  5
518
100
AcDbEntity
  8
0
100
AcDbSpline
 62
7
  6
CONTINUOUS
 70
0
 71
3
 72
10
 73
6
 74
0
 42
0.0000001
 43
0.0000001
 44
0.0000000001
 40
0.0
 40
0.0
 40
0.0
 40
0.0
 40
0.5025468674
 40
0.7515405278
 40
1.0
 40
1.0
 40
1.0
 40
1.0
 10
13.0262743712
 20
9.1045739459
 30
0.0
 10
13.045030388
 20
9.0902441172
 30
0.0
 10
13.0713924722
 20
9.0665831229
 30
0.0
 10
13.1039968663
 20
9.0327763254
 30
0.0
 10
13.1194178905
 20
9.0152072737
 30
0.0
 10
13.1269190016
 20
9.0062677976
 30
0.0
  0
SPLINE
  5
519
100
AcDbEntity
  8
0
100
AcDbSpline
 62
7
  6
CONTINUOUS
 70
0
 71
3
 72
14
 73
10
 74
0
 42
0.0000001
 43
0.0000001
 44
0.0000000001
 40
0.0
 40
0.0
 40
0.0
 40
0.0
 40
0.1292333549
 40
0.2564002816
 40
0.382077228
 40
0.5067216942
 40
0.6306473243
 40
0.7540553041
 40
1.0
 40
1.0
 40
1.0
 40
1.0
 10
13.0982904409
 20
9.1650026034
 30
0.0
 10
13.103585237
 20
9.1619049877
 30
0.0
 10
13.1139119991
 20
9.1554494888
 30
0.0
 10
13.1287479574
 20
9.1450047521
 30
0.0
 10
13.1428778935
 20
9.1339755692
 30
0.0
 10
13.1564043973
 20
9.1224530508
 30
0.0
 10
13.1694064203
 20
9.1105004085
 30
0.0
 10
13.1860336185
 20
9.0940092548
 30
0.0
 10
13.1977884648
 20
9.0809740408
 30
0.0
 10
13.2052925535
 20
9.0720310161
 30
0.0
  0
SPLINE
  5
51A
100
AcDbEntity
  8
0
100
AcDbSpline
 62
7
  6
CONTINUOUS
 70
0
 71
3
 72
10
 73
6
 74
0
 42
0.0000001
 43
0.0000001
 44
0.0000000001
 40
0.0
 40
0.0
 40
0.0
 40
0.0
 40
0.1851226015
 40
0.4223494671
 40
1.0
 40
1.0
 40
1.0
 40
1.0
 10
10.1531864114
 20
10.1205388831
 30
0.0
 10
10.1522535424
 20
10.1209564316
 30
0.0
 10
10.1501672836
 20
10.1220016814
 30
0.0
 10
10.1453292405
 20
10.1246619958
 30
0.0
 10
10.1414833974
 20
10.1270012931
 30
0.0
 10
10.1387849508
 20
10.1287010727
 30
0.0
  0
SPLINE
  5
51B
100
AcDbEntity
  8
0
100
AcDbSpline
 62
7
  6
CONTINUOUS
 70
0
 71
3
 72
19
 73
15
 74
0
 42
0.0000001
 43
0.0000001
 44
0.0000000001
 40
0.0
 40
0.0
 40
0.0
 40
0.0
 40
0.18283829
 40
0.3632641007
 40
0.5331991149
 40
0.6852818686
 40
0.8126066697
 40
0.8652482626
 40
0.9097371745
 40
0.945512002
 40
0.9722624371
 40
0.9822668581
 40
0.9900892796
 40
1.0
 40
1.0
 40
1.0
 40
1.0
 10
10.1387849508
 20
10.1287010727
 30
0.0
 10
10.1373776788
 20
10.129587528
 30
0.0
 10
10.1345981461
 20
10.1313749667
 30
0.0
 10
10.1305642968
 20
10.1340685445
 30
0.0
 10
10.1268106617
 20
10.1366767213
 30
0.0
 10
10.1235041754
 20
10.1390802578
 30
0.0
 10
10.1211105659
 20
10.140923734
 30
0.0
 10
10.1195370509
 20
10.1422253118
 30
0.0
 10
10.1186288647
 20
10.1430233893
 30
0.0
 10
10.1179267809
 20
10.1436992657
 30
0.0
 10
10.117483463
 20
10.1441870575
 30
0.0
 10
10.1172454224
 20
10.144519928
 30
0.0
 10
10.1171250972
 20
10.1447341636
 30
0.0
 10
10.1170738431
 20
10.1449127373
 30
0.0
 10
10.1171105599
 20
10.1449950749
 30
0.0
  0
SPLINE
  5
51C
100
AcDbEntity
  8
0
100
AcDbSpline
 62
7
  6
CONTINUOUS
 70
0
 71
3
 72
17
 73
13
 74
0
 42
0.0000001
 43
0.0000001
 44
0.0000000001
 40
0.0
 40
0.0
 40
0.0
 40
0.0
 40
0.0131971056
 40
0.0322341936
 40
0.0587395733
 40
0.0930697169
 40
0.1352103082
 40
0.1850122722
 40
0.3063449253
 40
0.4532820472
 40
0.6214393794
 40
1.0
 40
1.0
 40
1.0
 40
1.0
 10
11.0262022197
 20
9.6727621698
 30
0.0
 10
11.0261640872
 20
9.6726764764
 30
0.0
 10
11.0259792267
 20
9.6725146076
 30
0.0
 10
11.025578133
 20
9.6723910845
 30
0.0
 10
11.0250137447
 20
9.6723145422
 30
0.0
 10
11.0242812996
 20
9.6722966549
 30
0.0
 10
11.02338418
 20
9.6723337472
 30
0.0
 10
11.0218740696
 20
9.6724697744
 30
0.0
 10
11.0196357532
 20
9.6727961556
 30
0.0
 10
11.0165873185
 20
9.6733716382
 30
0.0
 10
11.0117744543
 20
9.6744426282
 30
0.0
 10
11.0080157934
 20
9.6754353663
 30
0.0
 10
11.0054289351
 20
9.6761749742
 30
0.0
  0
SPLINE
  5
51D
100
AcDbEntity
  8
0
100
AcDbSpline
 62
7
  6
CONTINUOUS
 70
0
 71
3
 72
10
 73
6
 74
0
 42
0.0000001
 43
0.0000001
 44
0.0000000001
 40
0.0
 40
0.0
 40
0.0
 40
0.0
 40
0.5401582773
 40
0.7870065276
 40
1.0
 40
1.0
 40
1.0
 40
1.0
 10
11.0054289351
 20
9.6761749742
 30
0.0
 10
11.0021334407
 20
9.677117188
 30
0.0
 10
10.9973643697
 20
9.6786116569
 30
0.0
 10
10.9914057988
 20
9.6807954331
 30
0.0
 10
10.9887049
 20
9.6819033968
 30
0.0
 10
10.9874712964
 20
9.6824555528
 30
0.0
  0
SPLINE
  5
51E
100
AcDbEntity
  8
0
100
AcDbSpline
 62
7
  6
CONTINUOUS
 70
0
 71
3
 72
18
 73
14
 74
0
 42
0.0000001
 43
0.0000001
 44
0.0000000001
 40
0.0
 40
0.0
 40
0.0
 40
0.0
 40
0.0358682463
 40
0.0636356794
 40
0.0989520517
 40
0.1418737488
 40
0.192260636
 40
0.249881158
 40
0.3143369744
 40
0.4613976448
 40
0.6285742721
 40
0.8102738139
 40
1.0
 40
1.0
 40
1.0
 40
1.0
 10
10.8856327447
 20
9.7343819008
 30
0.0
 10
10.8855184619
 20
9.734124697
 30
0.0
 10
10.8850009015
 20
9.7338665861
 30
0.0
 10
10.8842538276
 20
9.7337383814
 30
0.0
 10
10.883415383
 20
9.733690558
 30
0.0
 10
10.8824080692
 20
9.7337222188
 30
0.0
 10
10.8812272038
 20
9.7338277172
 30
0.0
 10
10.8798861046
 20
9.7340098591
 30
0.0
 10
10.8778045351
 20
9.7343688342
 30
0.0
 10
10.8749003131
 20
9.7350040916
 30
0.0
 10
10.8711365172
 20
9.7359963466
 30
0.0
 10
10.8670904826
 20
9.7372202277
 30
0.0
 10
10.8643288373
 20
9.7381535257
 30
0.0
 10
10.8629263691
 20
9.7386529593
 30
0.0
  0
LINE
  5
51F
100
AcDbEntity
  8
0
100
AcDbLine
 62
7
  6
CONTINUOUS
 10
10.8629263691
 20
9.7386529593
 11
10.8536809917
 21
9.742339561
  0
LINE
  5
520
100
AcDbEntity
  8
0
100
AcDbLine
 62
7
  6
CONTINUOUS
 10
10.2526192217
 20
10.0760331528
 11
10.2448659757
 21
10.0799587367
  0
SPLINE
  5
521
100
AcDbEntity
  8
0
100
AcDbSpline
 62
7
  6
CONTINUOUS
 70
0
 71
3
 72
17
 73
13
 74
0
 42
0.0000001
 43
0.0000001
 44
0.0000000001
 40
0.0
 40
0.0
 40
0.0
 40
0.0
 40
0.378103316
 40
0.5461628897
 40
0.6931079609
 40
0.8144741541
 40
0.8643167907
 40
0.9065346036
 40
0.9409594964
 40
0.9675607567
 40
0.9866871121
 40
1.0
 40
1.0
 40
1.0
 40
1.0
 10
10.2360746726
 20
10.0851545802
 30
0.0
 10
10.2337904092
 20
10.0865912495
 30
0.0
 10
10.2305322744
 20
10.0887345497
 30
0.0
 10
10.2265109573
 20
10.0916163734
 30
0.0
 10
10.2240399778
 20
10.0935128477
 30
0.0
 10
10.2222979635
 20
10.0949715159
 30
0.0
 10
10.2211861184
 20
10.0960133025
 30
0.0
 10
10.2205579812
 20
10.0966622589
 30
0.0
 10
10.2200812076
 20
10.0972251376
 30
0.0
 10
10.219760968
 20
10.0977014085
 30
0.0
 10
10.2195859209
 20
10.0980873553
 30
0.0
 10
10.219584739
 20
10.0983354359
 30
0.0
 10
10.2196237592
 20
10.0984220668
 30
0.0
  0
SPLINE
  5
522
100
AcDbEntity
  8
0
100
AcDbSpline
 62
7
  6
CONTINUOUS
 70
0
 71
3
 72
11
 73
7
 74
0
 42
0.0000001
 43
0.0000001
 44
0.0000000001
 40
0.0
 40
0.0
 40
0.0
 40
0.0
 40
0.2537054724
 40
0.5247440774
 40
0.782335725
 40
1.0
 40
1.0
 40
1.0
 40
1.0
 10
10.382202583
 20
10.0180321557
 30
0.0
 10
10.3800076684
 20
10.0190145908
 30
0.0
 10
10.3755419966
 20
10.0212126786
 30
0.0
 10
10.3690614108
 20
10.024822867
 30
0.0
 10
10.3630611315
 20
10.0285736498
 30
0.0
 10
10.3593787287
 20
10.0311774731
 30
0.0
 10
10.3577577281
 20
10.0324537488
 30
0.0
  0
SPLINE
  5
523
100
AcDbEntity
  8
0
100
AcDbSpline
 62
7
  6
CONTINUOUS
 70
0
 71
3
 72
13
 73
9
 74
0
 42
0.0000001
 43
0.0000001
 44
0.0000000001
 40
0.0
 40
0.0
 40
0.0
 40
0.0
 40
0.3893502665
 40
0.5502861228
 40
0.6872937344
 40
0.7996299993
 40
0.8874799854
 40
1.0
 40
1.0
 40
1.0
 40
1.0
 10
10.3577577281
 20
10.0324537488
 30
0.0
 10
10.3570292593
 20
10.0330273001
 30
0.0
 10
10.3560180252
 20
10.0338623985
 30
0.0
 10
10.3548276386
 20
10.0349879797
 30
0.0
 10
10.354157296
 20
10.0356964576
 30
0.0
 10
10.3536519116
 20
10.0363308368
 30
0.0
 10
10.3532676106
 20
10.0369465189
 30
0.0
 10
10.3531119156
 20
10.0374772704
 30
0.0
 10
10.3532202698
 20
10.0377223287
 30
0.0
  0
SPLINE
  5
524
100
AcDbEntity
  8
0
100
AcDbSpline
 62
7
  6
CONTINUOUS
 70
0
 71
3
 72
11
 73
7
 74
0
 42
0.0000001
 43
0.0000001
 44
0.0000000001
 40
0.0
 40
0.0
 40
0.0
 40
0.0
 40
0.2588962638
 40
0.5213043643
 40
0.7722459022
 40
1.0
 40
1.0
 40
1.0
 40
1.0
 10
10.5331056033
 20
9.9504885641
 30
0.0
 10
10.5315550568
 20
9.9511825826
 30
0.0
 10
10.5284634139
 20
9.9526487294
 30
0.0
 10
10.5239685468
 20
9.9549907272
 30
0.0
 10
10.5197487217
 20
9.9574099293
 30
0.0
 10
10.5170929783
 20
9.9590900655
 30
0.0
 10
10.5158543999
 20
9.9599262872
 30
0.0
  0
SPLINE
  5
525
100
AcDbEntity
  8
0
100
AcDbSpline
 62
7
  6
CONTINUOUS
 70
0
 71
3
 72
14
 73
10
 74
0
 42
0.0000001
 43
0.0000001
 44
0.0000000001
 40
0.0
 40
0.0
 40
0.0
 40
0.0
 40
0.204677178
 40
0.3892233326
 40
0.5516192669
 40
0.6899853037
 40
0.8031041138
 40
0.891078395
 40
1.0
 40
1.0
 40
1.0
 40
1.0
 10
10.5158543999
 20
9.9599262872
 30
0.0
 10
10.5152719265
 20
9.960319542
 30
0.0
 10
10.5141748478
 20
9.9610834867
 30
0.0
 10
10.5126592699
 20
9.9622194998
 30
0.0
 10
10.5113694526
 20
9.9632779614
 30
0.0
 10
10.5103247987
 20
9.9642364968
 30
0.0
 10
10.5095278753
 20
9.9651068495
 30
0.0
 10
10.508920179
 20
9.9659372484
 30
0.0
 10
10.5086358984
 20
9.9666912481
 30
0.0
 10
10.5087901798
 20
9.9670319465
 30
0.0
  0
SPLINE
  5
526
100
AcDbEntity
  8
0
100
AcDbSpline
 62
7
  6
CONTINUOUS
 70
0
 71
3
 72
14
 73
10
 74
0
 42
0.0000001
 43
0.0000001
 44
0.0000000001
 40
0.0
 40
0.0
 40
0.0
 40
0.0
 40
0.1292333549
 40
0.2564002816
 40
0.382077228
 40
0.5067216942
 40
0.6306473243
 40
0.7540553041
 40
1.0
 40
1.0
 40
1.0
 40
1.0
 10
12.7128779955
 20
8.8416031626
 30
0.0
 10
12.7150091197
 20
8.835850911
 30
0.0
 10
12.7195733216
 20
8.82456005
 30
0.0
 10
12.7272831422
 20
8.8081357738
 30
0.0
 10
12.7356911294
 20
8.7923053056
 30
0.0
 10
12.7446897421
 20
8.7769834355
 30
0.0
 10
12.7542030193
 20
8.7621033879
 30
0.0
 10
12.7675563527
 20
8.7428651354
 30
0.0
 10
12.7783523249
 20
8.7290253304
 30
0.0
 10
12.7858564135
 20
8.7200823058
 30
0.0
  0
SPLINE
  5
527
100
AcDbEntity
  8
0
100
AcDbSpline
 62
7
  6
CONTINUOUS
 70
0
 71
3
 72
10
 73
6
 74
0
 42
0.0000001
 43
0.0000001
 44
0.0000000001
 40
0.0
 40
0.0
 40
0.0
 40
0.0
 40
0.5025468674
 40
0.7515405278
 40
1.0
 40
1.0
 40
1.0
 40
1.0
 10
12.7848940652
 20
8.9020318201
 30
0.0
 10
12.7957492434
 20
8.8810724007
 30
0.0
 10
12.8144730462
 20
8.8510021273
 30
0.0
 10
12.8421045488
 20
8.8130225784
 30
0.0
 10
12.8567288543
 20
8.7947850004
 30
0.0
 10
12.8642299654
 20
8.7858455243
 30
0.0
  0
SPLINE
  5
528
100
AcDbEntity
  8
0
100
AcDbSpline
 62
7
  6
CONTINUOUS
 70
0
 71
3
 72
9
 73
5
 74
0
 42
0.0000001
 43
0.0000001
 44
0.0000000001
 40
0.0
 40
0.0
 40
0.0
 40
0.0
 40
0.5003065065
 40
1.0
 40
1.0
 40
1.0
 40
1.0
 10
12.864493541
 20
8.968823711
 30
0.0
 10
12.8781083382
 20
8.9498354923
 30
0.0
 10
12.9063856818
 20
8.9126461684
 30
0.0
 10
12.9358561569
 20
8.8764102793
 30
0.0
 10
12.9508563764
 20
8.8585337138
 30
0.0
  0
SPLINE
  5
529
100
AcDbEntity
  8
0
100
AcDbSpline
 62
7
  6
CONTINUOUS
 70
0
 71
3
 72
9
 73
5
 74
0
 42
0.0000001
 43
0.0000001
 44
0.0000000001
 40
0.0
 40
0.0
 40
0.0
 40
0.0
 40
0.4995934375
 40
1.0
 40
1.0
 40
1.0
 40
1.0
 10
15.0720554884
 20
6.3305870515
 30
0.0
 10
15.0886749369
 20
6.3107807641
 30
0.0
 10
15.1226050951
 20
6.2716930132
 30
0.0
 10
15.1579989554
 20
6.2338963121
 30
0.0
 10
15.1763399297
 20
6.2156129433
 30
0.0
  0
SPLINE
  5
52A
100
AcDbEntity
  8
0
100
AcDbSpline
 62
7
  6
CONTINUOUS
 70
0
 71
3
 72
19
 73
15
 74
0
 42
0.0000001
 43
0.0000001
 44
0.0000000001
 40
0.0
 40
0.0
 40
0.0
 40
0.0
 40
0.1882554042
 40
0.3703059669
 40
0.5377960988
 40
0.684620813
 40
0.748790005
 40
0.8060607018
 40
0.8561122026
 40
0.8987402574
 40
0.933853661
 40
0.961614687
 40
0.9828959433
 40
1.0
 40
1.0
 40
1.0
 40
1.0
 10
10.6950444912
 20
9.8780053621
 30
0.0
 10
10.6936728022
 20
9.8786193246
 30
0.0
 10
10.6909965747
 20
9.8798766088
 30
0.0
 10
10.6871775428
 20
9.8818400686
 30
0.0
 10
10.6837301757
 20
9.8837960466
 30
0.0
 10
10.6811768617
 20
9.8854149955
 30
0.0
 10
10.679429174
 20
9.8866534428
 30
0.0
 10
10.6783456452
 20
9.887490952
 30
0.0
 10
10.6774370961
 20
9.8882714192
 30
0.0
 10
10.6767095545
 20
9.8889879194
 30
0.0
 10
10.6761665883
 20
9.8896343395
 30
0.0
 10
10.6758121728
 20
9.8902087351
 30
0.0
 10
10.6756436529
 20
9.8907181874
 30
0.0
 10
10.6756811024
 20
9.8910379992
 30
0.0
 10
10.6757368205
 20
9.8911626534
 30
0.0
  0
SPLINE
  5
52B
100
AcDbEntity
  8
0
100
AcDbSpline
 62
7
  6
CONTINUOUS
 70
0
 71
3
 72
19
 73
15
 74
0
 42
0.0000001
 43
0.0000001
 44
0.0000000001
 40
0.0
 40
0.0
 40
0.0
 40
0.0
 40
0.0174413828
 40
0.0389097221
 40
0.0666021755
 40
0.1014681313
 40
0.143709891
 40
0.193239224
 40
0.249849749
 40
0.313275042
 40
0.4588446506
 40
0.6254910504
 40
0.8081778572
 40
1.0
 40
1.0
 40
1.0
 40
1.0
 10
10.7195520576
 20
9.8071631569
 30
0.0
 10
10.7194987702
 20
9.8070446601
 30
0.0
 10
10.7193004337
 20
9.8068150299
 30
0.0
 10
10.7188443077
 20
9.806601149
 30
0.0
 10
10.7182286221
 20
9.8064723571
 30
0.0
 10
10.7174473469
 20
9.8064271953
 30
0.0
 10
10.7165037486
 20
9.8064632402
 30
0.0
 10
10.7154040853
 20
9.8065815864
 30
0.0
 10
10.7141565037
 20
9.8067821113
 30
0.0
 10
10.7122174539
 20
9.8071779808
 30
0.0
 10
10.7095074191
 20
9.8078824698
 30
0.0
 10
10.7059874817
 20
9.8089822946
 30
0.0
 10
10.7021921727
 20
9.8103442298
 30
0.0
 10
10.6996010729
 20
9.8113800989
 30
0.0
 10
10.6982833699
 20
9.8119328726
 30
0.0
  0
SPLINE
  5
52C
100
AcDbEntity
  8
0
100
AcDbSpline
 62
7
  6
CONTINUOUS
 70
0
 71
3
 72
18
 73
14
 74
0
 42
0.0000001
 43
0.0000001
 44
0.0000000001
 40
0.0
 40
0.0
 40
0.0
 40
0.0
 40
0.1990777816
 40
0.3850439884
 40
0.5519198038
 40
0.6949200815
 40
0.811439947
 40
0.8591586691
 40
0.8996699359
 40
0.9331695611
 40
0.9601539853
 40
0.9816953566
 40
1.0
 40
1.0
 40
1.0
 40
1.0
 10
10.8569833791
 20
9.8055221601
 30
0.0
 10
10.8559041612
 20
9.8060052137
 30
0.0
 10
10.8538310777
 20
9.8069719134
 30
0.0
 10
10.8509080078
 20
9.8084569446
 30
0.0
 10
10.8483366608
 20
9.8098949939
 30
0.0
 10
10.8461936293
 20
9.8112464723
 30
0.0
 10
10.8447188027
 20
9.8123261669
 30
0.0
 10
10.8438049936
 20
9.813129901
 30
0.0
 10
10.8433006668
 20
9.813649288
 30
0.0
 10
10.8429306936
 20
9.8141236266
 30
0.0
 10
10.8426949682
 20
9.8145532423
 30
0.0
 10
10.8425937521
 20
9.8149439434
 30
0.0
 10
10.8426330778
 20
9.8151872803
 30
0.0
 10
10.8426772291
 20
9.8152866292
 30
0.0
  0
SPLINE
  5
52D
100
AcDbEntity
  8
0
100
AcDbSpline
 62
7
  6
CONTINUOUS
 70
0
 71
3
 72
17
 73
13
 74
0
 42
0.0000001
 43
0.0000001
 44
0.0000000001
 40
0.0
 40
0.0
 40
0.0
 40
0.0
 40
0.2073053707
 40
0.3958862628
 40
0.5620696228
 40
0.7023957837
 40
0.8150781704
 40
0.9000131569
 40
0.9325069216
 40
0.9589895122
 40
0.9807162163
 40
1.0
 40
1.0
 40
1.0
 40
1.0
 10
11.0078863995
 20
9.7379785684
 30
0.0
 10
11.007125863
 20
9.7383189815
 30
0.0
 10
11.0056821901
 20
9.7389887995
 30
0.0
 10
11.0036639831
 20
9.7400051702
 30
0.0
 10
11.0019227317
 20
9.7409695403
 30
0.0
 10
11.0004926125
 20
9.7418633394
 30
0.0
 10
10.9993992702
 20
9.7426706002
 30
0.0
 10
10.9987187738
 20
9.7433052366
 30
0.0
 10
10.9983733419
 20
9.7437715465
 30
0.0
 10
10.9982276719
 20
9.7440640579
 30
0.0
 10
10.9981743594
 20
9.7443349792
 30
0.0
 10
10.9982089403
 20
9.7445019898
 30
0.0
 10
10.9982408405
 20
9.7445726304
 30
0.0
  0
SPLINE
  5
52E
100
AcDbEntity
  8
0
100
AcDbSpline
 62
7
  6
CONTINUOUS
 70
0
 71
3
 72
16
 73
12
 74
0
 42
0.0000001
 43
0.0000001
 44
0.0000000001
 40
0.0
 40
0.0
 40
0.0
 40
0.0
 40
0.2133666616
 40
0.4035704454
 40
0.5687997253
 40
0.7073708515
 40
0.8179104189
 40
0.9005541741
 40
0.9322767978
 40
0.9584891911
 40
1.0
 40
1.0
 40
1.0
 40
1.0
 10
11.1374697607
 20
9.6799775714
 30
0.0
 10
11.1370103547
 20
9.6801831998
 30
0.0
 10
11.1361461283
 20
9.6805828205
 30
0.0
 10
11.1349459581
 20
9.6811834486
 30
0.0
 10
11.1339248537
 20
9.6817456101
 30
0.0
 10
11.1330937235
 20
9.6822616905
 30
0.0
 10
11.1324633889
 20
9.6827263885
 30
0.0
 10
11.1320755659
 20
9.6830936075
 30
0.0
 10
11.1318843124
 20
9.68336669
 30
0.0
 10
11.1317843531
 20
9.6835788723
 30
0.0
 10
11.1317806082
 20
9.6837550822
 30
0.0
 10
11.1318204311
 20
9.6838445418
 30
0.0
  0
SPLINE
  5
52F
100
AcDbEntity
  8
0
100
AcDbSpline
 62
7
  6
CONTINUOUS
 70
0
 71
3
 72
18
 73
14
 74
0
 42
0.0000001
 43
0.0000001
 44
0.0000000001
 40
0.0
 40
0.0
 40
0.0
 40
0.0
 40
0.018575305
 40
0.0402066358
 40
0.0671048283
 40
0.100406251
 40
0.1406716538
 40
0.1880804857
 40
0.3038516798
 40
0.4462278636
 40
0.6128848667
 40
0.799308502
 40
1.0
 40
1.0
 40
1.0
 40
1.0
 10
10.5500172148
 20
9.8814326952
 30
0.0
 10
10.5499745398
 20
9.8813385306
 30
0.0
 10
10.5498296788
 20
9.8811566054
 30
0.0
 10
10.5494948624
 20
9.8809773803
 30
0.0
 10
10.5490496707
 20
9.8808686918
 30
0.0
 10
10.5484904448
 20
9.8808264516
 30
0.0
 10
10.5478166319
 20
9.8808507783
 30
0.0
 10
10.5466911002
 20
9.8809820099
 30
0.0
 10
10.5450240191
 20
9.8813325298
 30
0.0
 10
10.5427495509
 20
9.8819819002
 30
0.0
 10
10.5401412557
 20
9.8828802122
 30
0.0
 10
10.5372692185
 20
9.88400018
 30
0.0
 10
10.5352890825
 20
9.884850513
 30
0.0
 10
10.5342695735
 20
9.8853068412
 30
0.0
  0
SPLINE
  5
530
100
AcDbEntity
  8
0
100
AcDbSpline
 62
7
  6
CONTINUOUS
 70
0
 71
3
 72
14
 73
10
 74
0
 42
0.0000001
 43
0.0000001
 44
0.0000000001
 40
0.0
 40
0.0
 40
0.0
 40
0.0
 40
0.4082596285
 40
0.5721444425
 40
0.7086376293
 40
0.8176450454
 40
0.8997499565
 40
0.9575075507
 40
1.0
 40
1.0
 40
1.0
 40
1.0
 10
11.236902571
 20
9.6354718411
 30
0.0
 10
11.2364999167
 20
9.6356520675
 30
0.0
 10
11.2359401372
 20
9.6359157386
 30
0.0
 10
11.2352683752
 20
9.6362839621
 30
0.0
 10
11.2348925832
 20
9.6365175322
 30
0.0
 10
11.2346064135
 20
9.6367276805
 30
0.0
 10
11.2344128784
 20
9.6369145368
 30
0.0
 10
11.2343001011
 20
9.6370819556
 30
0.0
 10
11.2342994662
 20
9.6372004056
 30
0.0
 10
11.234318272
 20
9.6372422934
 30
0.0
  0
SPLINE
  5
531
100
AcDbEntity
  8
0
100
AcDbSpline
 62
7
  6
CONTINUOUS
 70
0
 71
3
 72
27
 73
23
 74
0
 42
0.0000001
 43
0.0000001
 44
0.0000000001
 40
0.0
 40
0.0
 40
0.0
 40
0.0
 40
0.0011949158
 40
0.00315995
 40
0.0099490831
 40
0.0207444047
 40
0.0354688918
 40
0.0539741666
 40
0.0760998079
 40
0.1016806938
 40
0.1305243591
 40
0.1969332384
 40
0.2731281792
 40
0.3567841387
 40
0.4452368697
 40
0.5357535243
 40
0.6255488597
 40
0.7916999798
 40
0.8627378784
 40
0.9224342322
 40
0.9687216936
 40
1.0
 40
1.0
 40
1.0
 40
1.0
 10
11.3439330158
 20
9.596304222
 30
0.0
 10
11.3439257162
 20
9.5962874138
 30
0.0
 10
11.3438813074
 20
9.5962578303
 30
0.0
 10
11.3437329881
 20
9.5962277864
 30
0.0
 10
11.343429564
 20
9.5962292656
 30
0.0
 10
11.3429373901
 20
9.5962726197
 30
0.0
 10
11.3422673978
 20
9.5963624766
 30
0.0
 10
11.3414295615
 20
9.5964978719
 30
0.0
 10
11.3404301801
 20
9.5966782881
 30
0.0
 10
11.3392778071
 20
9.5969022885
 30
0.0
 10
11.3374625255
 20
9.5972747396
 30
0.0
 10
11.3348936153
 20
9.5978352277
 30
0.0
 10
11.3315118084
 20
9.5986120885
 30
0.0
 10
11.3278082511
 20
9.5994975713
 30
0.0
 10
11.3238981963
 20
9.6004633431
 30
0.0
 10
11.3199037322
 20
9.6014796518
 30
0.0
 10
11.314763968
 20
9.6028262212
 30
0.0
 10
11.3099263035
 20
9.6041477572
 30
0.0
 10
11.3055549705
 20
9.6054206993
 30
0.0
 10
11.3029594313
 20
9.6062177832
 30
0.0
 10
11.3009630775
 20
9.6068840697
 30
0.0
 10
11.2998464659
 20
9.6072984041
 30
0.0
 10
11.2994086487
 20
9.6074943694
 30
0.0
  0
SPLINE
  5
532
100
AcDbEntity
  8
0
100
AcDbSpline
 62
7
  6
CONTINUOUS
 70
0
 71
3
 72
19
 73
15
 74
0
 42
0.0000001
 43
0.0000001
 44
0.0000000001
 40
0.0
 40
0.0
 40
0.0
 40
0.0
 40
0.0099075442
 40
0.0177121497
 40
0.0276907475
 40
0.0543755949
 40
0.0900721518
 40
0.1344452405
 40
0.1869553214
 40
0.314078735
 40
0.4660428247
 40
0.636006498
 40
0.8166781622
 40
1.0
 40
1.0
 40
1.0
 40
1.0
 10
11.2791749229
 20
9.6248596842
 30
0.0
 10
11.279138163
 20
9.6247779884
 30
0.0
 10
11.2789724895
 20
9.6246973529
 30
0.0
 10
11.2787344065
 20
9.6246442784
 30
0.0
 10
11.2783311129
 20
9.6245997506
 30
0.0
 10
11.2776774184
 20
9.6246046325
 30
0.0
 10
11.2767137551
 20
9.6246765803
 30
0.0
 10
11.2755235124
 20
9.6248199689
 30
0.0
 10
11.2735204288
 20
9.6251224788
 30
0.0
 10
11.2705724979
 20
9.6256739493
 30
0.0
 10
11.2666032708
 20
9.6265308694
 30
0.0
 10
11.2621822316
 20
9.6275846129
 30
0.0
 10
11.2575069707
 20
9.6287907255
 30
0.0
 10
11.2543344436
 20
9.6296675952
 30
0.0
 10
11.2527409138
 20
9.6301240577
 30
0.0
  0
SPLINE
  5
533
100
AcDbEntity
  8
0
100
AcDbSpline
 62
7
  6
CONTINUOUS
 70
0
 71
3
 72
10
 73
6
 74
0
 42
0.0000001
 43
0.0000001
 44
0.0000000001
 40
0.0
 40
0.0
 40
0.0
 40
0.0
 40
0.5778300534
 40
0.8150780896
 40
1.0
 40
1.0
 40
1.0
 40
1.0
 10
11.2527409138
 20
9.6301240577
 30
0.0
 10
11.249643843
 20
9.6310112057
 30
0.0
 10
11.2452929431
 20
9.6323319521
 30
0.0
 10
11.2400336972
 20
9.6341835383
 30
0.0
 10
11.2378436172
 20
9.6350506325
 30
0.0
 10
11.236902571
 20
9.6354718411
 30
0.0
  0
SPLINE
  5
534
100
AcDbEntity
  8
0
100
AcDbSpline
 62
7
  6
CONTINUOUS
 70
0
 71
3
 72
17
 73
13
 74
0
 42
0.0000001
 43
0.0000001
 44
0.0000000001
 40
0.0
 40
0.0
 40
0.0
 40
0.0
 40
0.013337116
 40
0.0324625978
 40
0.0590115777
 40
0.0933526591
 40
0.1354795515
 40
0.1852488643
 40
0.3064760646
 40
0.4532958001
 40
0.6213719948
 40
1.0
 40
1.0
 40
1.0
 40
1.0
 10
11.1761484889
 20
9.6702854315
 30
0.0
 10
11.1761100812
 20
9.670199135
 30
0.0
 10
11.1759258281
 20
9.6700357266
 30
0.0
 10
11.1755249569
 20
9.6699093056
 30
0.0
 10
11.1749619238
 20
9.6698302237
 30
0.0
 10
11.1742317926
 20
9.6698096415
 30
0.0
 10
11.1733379603
 20
9.6698440948
 30
0.0
 10
11.1718339196
 20
9.6699764134
 30
0.0
 10
11.1696048155
 20
9.6702987852
 30
0.0
 10
11.1665689177
 20
9.6708705531
 30
0.0
 10
11.1617739918
 20
9.6719384289
 30
0.0
 10
11.1580293611
 20
9.6729307223
 30
0.0
 10
11.1554518011
 20
9.6736702775
 30
0.0
  0
SPLINE
  5
535
100
AcDbEntity
  8
0
100
AcDbSpline
 62
7
  6
CONTINUOUS
 70
0
 71
3
 72
10
 73
6
 74
0
 42
0.0000001
 43
0.0000001
 44
0.0000000001
 40
0.0
 40
0.0
 40
0.0
 40
0.0
 40
0.5397685458
 40
0.7867230484
 40
1.0
 40
1.0
 40
1.0
 40
1.0
 10
11.1554518011
 20
9.6736702775
 30
0.0
 10
11.1521540804
 20
9.6746164619
 30
0.0
 10
11.1473806471
 20
9.6761188117
 30
0.0
 10
11.1414141625
 20
9.678311663
 30
0.0
 10
11.1387070642
 20
9.6794237593
 30
0.0
 10
11.1374697607
 20
9.6799775714
 30
0.0
  0
SPLINE
  5
536
100
AcDbEntity
  8
0
100
AcDbSpline
 62
7
  6
CONTINUOUS
 70
0
 71
3
 72
10
 73
6
 74
0
 42
0.0000001
 43
0.0000001
 44
0.0000000001
 40
0.0
 40
0.0
 40
0.0
 40
0.0
 40
0.1854998627
 40
0.4228619274
 40
1.0
 40
1.0
 40
1.0
 40
1.0
 10
10.2850636372
 20
9.9968504269
 30
0.0
 10
10.2841271484
 20
9.9972695956
 30
0.0
 10
10.2820348828
 20
9.9983188363
 30
0.0
 10
10.2771899809
 20
10.0009877634
 30
0.0
 10
10.2733414547
 20
10.0033345875
 30
0.0
 10
10.2706421263
 20
10.0050386475
 30
0.0
  0
SPLINE
  5
537
100
AcDbEntity
  8
0
100
AcDbSpline
 62
7
  6
CONTINUOUS
 70
0
 71
3
 72
19
 73
15
 74
0
 42
0.0000001
 43
0.0000001
 44
0.0000000001
 40
0.0
 40
0.0
 40
0.0
 40
0.0
 40
0.1830065722
 40
0.3635150306
 40
0.5334781189
 40
0.6855480289
 40
0.812824153
 40
0.8654316319
 40
0.90988422
 40
0.9456228365
 40
0.9723360514
 40
0.9823218825
 40
0.9901258852
 40
1.0
 40
1.0
 40
1.0
 40
1.0
 10
10.2706421263
 20
10.0050386475
 30
0.0
 10
10.269237933
 20
10.0059251012
 30
0.0
 10
10.2664650149
 20
10.007711847
 30
0.0
 10
10.2624409448
 20
10.0104029126
 30
0.0
 10
10.2586968153
 20
10.0130064054
 30
0.0
 10
10.2553987556
 20
10.0154037271
 30
0.0
 10
10.2530109365
 20
10.0172409637
 30
0.0
 10
10.2514410732
 20
10.0185372957
 30
0.0
 10
10.250535006
 20
10.019331756
 30
0.0
 10
10.2498344456
 20
10.0200042898
 30
0.0
 10
10.2493919697
 20
10.0204894705
 30
0.0
 10
10.2491542341
 20
10.0208204979
 30
0.0
 10
10.249034081
 20
10.0210333227
 30
0.0
 10
10.2489826138
 20
10.0212108806
 30
0.0
 10
10.2490190716
 20
10.0212927247
 30
0.0
  0
SPLINE
  5
538
100
AcDbEntity
  8
0
100
AcDbSpline
 62
7
  6
CONTINUOUS
 70
0
 71
3
 72
17
 73
13
 74
0
 42
0.0000001
 43
0.0000001
 44
0.0000000001
 40
0.0
 40
0.0
 40
0.0
 40
0.0
 40
0.0345331999
 40
0.0623946947
 40
0.0982764676
 40
0.1420925588
 40
0.1935535758
 40
0.2522916724
 40
0.3178717906
 40
0.4668655257
 40
0.634680485
 40
1.0
 40
1.0
 40
1.0
 40
1.0
 10
11.0418786197
 20
9.7294815958
 30
0.0
 10
11.0417561236
 20
9.7292101602
 30
0.0
 10
11.0411715091
 20
9.7289677046
 30
0.0
 10
11.0403577302
 20
9.7288560008
 30
0.0
 10
11.0394198234
 20
9.728830517
 30
0.0
 10
11.0382929539
 20
9.7288905553
 30
0.0
 10
11.0369706659
 20
9.7290309898
 30
0.0
 10
11.035471264
 20
9.7292534556
 30
0.0
 10
11.0331521136
 20
9.7296761665
 30
0.0
 10
11.0299337765
 20
9.7304005019
 30
0.0
 10
11.0242497581
 20
9.7319182013
 30
0.0
 10
11.0198700304
 20
9.7333308035
 30
0.0
 10
11.0169029246
 20
9.7343894941
 30
0.0
  0
LINE
  5
539
100
AcDbEntity
  8
0
100
AcDbLine
 62
7
  6
CONTINUOUS
 10
11.0169029246
 20
9.7343894941
 11
11.0078863995
 21
9.7379785684
  0
SPLINE
  5
53A
100
AcDbEntity
  8
0
100
AcDbSpline
 62
7
  6
CONTINUOUS
 70
0
 71
3
 72
18
 73
14
 74
0
 42
0.0000001
 43
0.0000001
 44
0.0000000001
 40
0.0
 40
0.0
 40
0.0
 40
0.0
 40
0.0176345421
 40
0.0393452646
 40
0.0670796376
 40
0.1016510883
 40
0.1433681322
 40
0.1923098704
 40
0.3110196958
 40
0.4550332522
 40
0.6209451458
 40
0.8043153712
 40
1.0
 40
1.0
 40
1.0
 40
1.0
 10
10.885520254
 20
9.7984091114
 30
0.0
 10
10.8854727929
 20
9.7983024197
 30
0.0
 10
10.8852966005
 20
9.7980951303
 30
0.0
 10
10.884894454
 20
9.7978928001
 30
0.0
 10
10.8843522805
 20
9.7977570917
 30
0.0
 10
10.8836654939
 20
9.7976867339
 30
0.0
 10
10.8828354188
 20
9.7976811767
 30
0.0
 10
10.8814509869
 20
9.7977690588
 30
0.0
 10
10.8794057805
 20
9.7980651099
 30
0.0
 10
10.8766266388
 20
9.7986465999
 30
0.0
 10
10.8734643187
 20
9.7994694298
 30
0.0
 10
10.870008652
 20
9.8005112948
 30
0.0
 10
10.8676304278
 20
9.8013155715
 30
0.0
 10
10.8664095481
 20
9.8017497308
 30
0.0
  0
LINE
  5
53B
100
AcDbEntity
  8
0
100
AcDbLine
 62
7
  6
CONTINUOUS
 10
10.8664095481
 20
9.8017497308
 11
10.8569833791
 21
9.8055221601
  0
SPLINE
  5
53C
100
AcDbEntity
  8
0
100
AcDbSpline
 62
7
  6
CONTINUOUS
 70
0
 71
3
 72
19
 73
15
 74
0
 42
0.0000001
 43
0.0000001
 44
0.0000000001
 40
0.0
 40
0.0
 40
0.0
 40
0.0
 40
0.0170997424
 40
0.0383840093
 40
0.0661685546
 40
0.101293898
 40
0.1439276186
 40
0.1939894215
 40
0.251286691
 40
0.3154931625
 40
0.4623743331
 40
0.6298430394
 40
0.8118161375
 40
1.0
 40
1.0
 40
1.0
 40
1.0
 10
10.7177193296
 20
9.872371453
 30
0.0
 10
10.7176636423
 20
9.8722468229
 30
0.0
 10
10.7174503427
 20
9.8720055613
 30
0.0
 10
10.7169578256
 20
9.871791905
 30
0.0
 10
10.7162929906
 20
9.8716739711
 30
0.0
 10
10.7154488731
 20
9.8716481508
 30
0.0
 10
10.7144296079
 20
9.8717133834
 30
0.0
 10
10.7132419442
 20
9.8718710391
 30
0.0
 10
10.7118949523
 20
9.8721214282
 30
0.0
 10
10.7098061714
 20
9.8726002372
 30
0.0
 10
10.7068972947
 20
9.873426241
 30
0.0
 10
10.7031422525
 20
9.8746939635
 30
0.0
 10
10.6991350537
 20
9.8762337154
 30
0.0
 10
10.6964156573
 20
9.8773916336
 30
0.0
 10
10.6950444912
 20
9.8780053621
 30
0.0
  0
SPLINE
  5
53D
100
AcDbEntity
  8
0
100
AcDbSpline
 62
7
  6
CONTINUOUS
 70
0
 71
3
 72
18
 73
14
 74
0
 42
0.0000001
 43
0.0000001
 44
0.0000000001
 40
0.0
 40
0.0
 40
0.0
 40
0.0
 40
0.0183119291
 40
0.0398571154
 40
0.0668424309
 40
0.1003487746
 40
0.1408833667
 40
0.1886405107
 40
0.3052336396
 40
0.4482590103
 40
0.6150854791
 40
0.8009834903
 40
1.0
 40
1.0
 40
1.0
 40
1.0
 10
10.5499181185
 20
9.9463244373
 30
0.0
 10
10.5498733006
 20
9.946225342
 30
0.0
 10
10.5497179296
 20
9.9460339614
 30
0.0
 10
10.5493591378
 20
9.9458490151
 30
0.0
 10
10.5488816574
 20
9.9457384863
 30
0.0
 10
10.5482812553
 20
9.9456983779
 30
0.0
 10
10.5475575366
 20
9.9457286525
 30
0.0
 10
10.5463486191
 20
9.945875111
 30
0.0
 10
10.544560175
 20
9.9462560869
 30
0.0
 10
10.5421243739
 20
9.9469540745
 30
0.0
 10
10.5393394456
 20
9.9479134717
 30
0.0
 10
10.5362857144
 20
9.9491038688
 30
0.0
 10
10.5341844697
 20
9.9500056678
 30
0.0
 10
10.5331056033
 20
9.9504885641
 30
0.0
  0
SPLINE
  5
53E
100
AcDbEntity
  8
0
100
AcDbSpline
 62
7
  6
CONTINUOUS
 70
0
 71
3
 72
17
 73
13
 74
0
 42
0.0000001
 43
0.0000001
 44
0.0000000001
 40
0.0
 40
0.0
 40
0.0
 40
0.0
 40
0.01928833
 40
0.0410250269
 40
0.0675335753
 40
0.100060229
 40
0.1850606976
 40
0.2977757127
 40
0.4380719978
 40
0.6042070526
 40
0.7927395
 40
1.0
 40
1.0
 40
1.0
 40
1.0
 10
10.3935460739
 20
10.0152315853
 30
0.0
 10
10.3935146943
 20
10.0151606922
 30
0.0
 10
10.393413211
 20
10.0150235161
 30
0.0
 10
10.393175422
 20
10.0148827953
 30
0.0
 10
10.3928598922
 20
10.0147967535
 30
0.0
 10
10.392281492
 20
10.0147439303
 30
0.0
 10
10.3913543546
 20
10.0148288715
 30
0.0
 10
10.3900236828
 20
10.0151065517
 30
0.0
 10
10.3884045227
 20
10.0155775174
 30
0.0
 10
10.3865258152
 20
10.01623356
 30
0.0
 10
10.3844238879
 20
10.0170614916
 30
0.0
 10
10.3829629531
 20
10.0176918171
 30
0.0
 10
10.382202583
 20
10.0180321557
 30
0.0
  0
SPLINE
  5
53F
100
AcDbEntity
  8
0
100
AcDbSpline
 62
7
  6
CONTINUOUS
 70
0
 71
3
 72
12
 73
8
 74
0
 42
0.0000001
 43
0.0000001
 44
0.0000000001
 40
0.0
 40
0.0
 40
0.0
 40
0.0
 40
0.2478834681
 40
0.4964324643
 40
0.6212189444
 40
0.7465591513
 40
1.0
 40
1.0
 40
1.0
 40
1.0
 10
14.9854290774
 20
6.257898862
 30
0.0
 10
14.9937401334
 20
6.2479941311
 30
0.0
 10
15.0108713993
 20
6.2285600039
 30
0.0
 10
15.0335571097
 20
6.2054005411
 30
0.0
 10
15.0525145497
 20
6.1875847033
 30
0.0
 10
15.072227958
 20
6.1702231822
 30
0.0
 10
15.0878075622
 20
6.1580204972
 30
0.0
 10
15.0985914079
 20
6.1503741874
 30
0.0
  0
SPLINE
  5
540
100
AcDbEntity
  8
0
100
AcDbSpline
 62
7
  6
CONTINUOUS
 70
0
 71
3
 72
17
 73
13
 74
0
 42
0.0000001
 43
0.0000001
 44
0.0000000001
 40
0.0
 40
0.0
 40
0.0
 40
0.0
 40
0.019942726
 40
0.0420259429
 40
0.0684636083
 40
0.1005432016
 40
0.1839968544
 40
0.2950869694
 40
0.4342136546
 40
0.5996836401
 40
0.7891159851
 40
1.0
 40
1.0
 40
1.0
 40
1.0
 10
10.3995501897
 20
9.9473262596
 30
0.0
 10
10.3995257251
 20
9.9472715461
 30
0.0
 10
10.3994490521
 20
9.9471661449
 30
0.0
 10
10.3992714038
 20
9.9470555407
 30
0.0
 10
10.399037538
 20
9.9469856619
 30
0.0
 10
10.3986119595
 20
9.9469386298
 30
0.0
 10
10.3979285946
 20
9.9469944199
 30
0.0
 10
10.3969458365
 20
9.9471969534
 30
0.0
 10
10.3957453167
 20
9.9475468319
 30
0.0
 10
10.3943435492
 20
9.9480372286
 30
0.0
 10
10.3927617797
 20
9.9486621626
 30
0.0
 10
10.3916572695
 20
9.9491395411
 30
0.0
 10
10.3910788003
 20
9.9493984616
 30
0.0
  0
SPLINE
  5
541
100
AcDbEntity
  8
0
100
AcDbSpline
 62
7
  6
CONTINUOUS
 70
0
 71
3
 72
16
 73
12
 74
0
 42
0.0000001
 43
0.0000001
 44
0.0000000001
 40
0.0
 40
0.0
 40
0.0
 40
0.0
 40
0.0415402252
 40
0.0677706367
 40
0.0995079423
 40
0.1821575267
 40
0.2926645967
 40
0.4312135248
 40
0.5964340302
 40
0.786635852
 40
1.0
 40
1.0
 40
1.0
 40
1.0
 10
10.2592663769
 20
10.0743963134
 30
0.0
 10
10.2592260792
 20
10.0743069967
 30
0.0
 10
10.259092001
 20
10.074192458
 30
0.0
 10
10.258867033
 20
10.0741256638
 30
0.0
 10
10.2585358892
 20
10.0740863768
 30
0.0
 10
10.2580037189
 20
10.0741308794
 30
0.0
 10
10.2572373599
 20
10.0742912486
 30
0.0
 10
10.2562989919
 20
10.0745672611
 30
0.0
 10
10.25519965
 20
10.0749542878
 30
0.0
 10
10.2539522974
 20
10.0754492464
 30
0.0
 10
10.2530785961
 20
10.0758275386
 30
0.0
 10
10.2526192217
 20
10.0760331528
 30
0.0
  0
SPLINE
  5
542
100
AcDbEntity
  8
0
100
AcDbSpline
 62
7
  6
CONTINUOUS
 70
0
 71
3
 72
14
 73
10
 74
0
 42
0.0000001
 43
0.0000001
 44
0.0000000001
 40
0.0
 40
0.0
 40
0.0
 40
0.0
 40
0.0424832896
 40
0.1001839337
 40
0.1822532514
 40
0.2912542286
 40
0.427764059
 40
0.591679325
 40
1.0
 40
1.0
 40
1.0
 40
1.0
 10
10.1562281935
 20
10.1197911703
 30
0.0
 10
10.1562095633
 20
10.1197492137
 30
0.0
 10
10.1561210551
 20
10.1196705934
 30
0.0
 10
10.1559211449
 20
10.1196429841
 30
0.0
 10
10.1556529674
 20
10.1196628208
 30
0.0
 10
10.1553056151
 20
10.1197362475
 30
0.0
 10
10.1548810348
 20
10.1198609613
 30
0.0
 10
10.1541587916
 20
10.120116744
 30
0.0
 10
10.1535891355
 20
10.1203586254
 30
0.0
 10
10.1531864114
 20
10.1205388831
 30
0.0
  0
SPLINE
  5
543
100
AcDbEntity
  8
0
100
AcDbSpline
 62
7
  6
CONTINUOUS
 70
0
 71
3
 72
13
 73
9
 74
0
 42
0.0000001
 43
0.0000001
 44
0.0000000001
 40
0.0
 40
0.0
 40
0.0
 40
0.0
 40
0.2445587631
 40
0.3684042621
 40
0.4931802081
 40
0.6188164438
 40
0.7452347247
 40
1.0
 40
1.0
 40
1.0
 40
1.0
 10
11.8964490753
 20
9.892201086
 30
0.0
 10
11.9086725607
 20
9.8867329577
 30
0.0
 10
11.9269463332
 20
9.878176573
 30
0.0
 10
11.9510697618
 20
9.8660378604
 30
0.0
 10
11.9691954022
 20
9.8564746555
 30
0.0
 10
11.9872718587
 20
9.8465237751
 30
0.0
 10
12.0113615901
 20
9.8327455087
 30
0.0
 10
12.0292256697
 20
9.8219419914
 30
0.0
 10
12.0410374533
 20
9.8145207222
 30
0.0
  0
SPLINE
  5
544
100
AcDbEntity
  8
0
100
AcDbSpline
 62
7
  6
CONTINUOUS
 70
0
 71
3
 72
20
 73
16
 74
0
 42
0.0000001
 43
0.0000001
 44
0.0000000001
 40
0.0
 40
0.0
 40
0.0
 40
0.0
 40
0.1504367661
 40
0.2984821719
 40
0.4415132809
 40
0.5103397296
 40
0.576936086
 40
0.6409954116
 40
0.7022300298
 40
0.7603806461
 40
0.8152292088
 40
0.8666174927
 40
0.9144743302
 40
0.958855444
 40
1.0
 40
1.0
 40
1.0
 40
1.0
 10
12.0410374533
 20
9.8145207222
 30
0.0
 10
12.0253883867
 20
9.7937174314
 30
0.0
 10
11.9927074409
 20
9.7536431206
 30
0.0
 10
11.9401164587
 20
9.6981374565
 30
0.0
 10
11.8939920592
 20
9.6561880788
 30
0.0
 10
11.856443805
 20
9.6259720612
 30
0.0
 10
11.8286493977
 20
9.6054824087
 30
0.0
 10
11.8010406136
 20
9.5870113785
 30
0.0
 10
11.773793456
 20
9.5706956088
 30
0.0
 10
11.7470836705
 20
9.5566711764
 30
0.0
 10
11.7210844488
 20
9.5450737511
 30
0.0
 10
11.6959666899
 20
9.5360389992
 30
0.0
 10
11.6718930241
 20
9.529704695
 30
0.0
 10
11.6490301167
 20
9.5262129447
 30
0.0
 10
11.6341736623
 20
9.5258752644
 30
0.0
 10
11.6270658953
 20
9.5262889674
 30
0.0
  0
SPLINE
  5
545
100
AcDbEntity
  8
0
100
AcDbSpline
 62
9
  6
CONTINUOUS
 70
0
 71
3
 72
17
 73
13
 74
0
 42
0.0000001
 43
0.0000001
 44
0.0000000001
 40
0.0
 40
0.0
 40
0.0
 40
0.0
 40
0.1490011078
 40
0.2930229444
 40
0.4320581663
 40
0.5654108827
 40
0.6918145575
 40
0.7515975491
 40
0.8086011007
 40
0.912608243
 40
0.9586312176
 40
1.0
 40
1.0
 40
1.0
 40
1.0
 10
11.7888043669
 20
9.9347349113
 30
0.0
 10
11.7787331231
 20
9.9147189053
 30
0.0
 10
11.7575505053
 20
9.8760387717
 30
0.0
 10
11.7233024352
 20
9.8208036322
 30
0.0
 10
11.6884666704
 20
9.7687575817
 30
0.0
 10
11.6540036425
 20
9.7196756203
 30
0.0
 10
11.6260420763
 20
9.6805963055
 30
0.0
 10
11.6048737733
 20
9.6507739943
 30
0.0
 10
11.5858389391
 20
9.6235686791
 30
0.0
 10
11.56841082
 20
9.5977643539
 30
0.0
 10
11.5528536884
 20
9.5735469985
 30
0.0
 10
11.5459524166
 20
9.562361433
 30
0.0
 10
11.5427516477
 20
9.5570269343
 30
0.0
  0
SPLINE
  5
546
100
AcDbEntity
  8
0
100
AcDbSpline
 62
9
  6
CONTINUOUS
 70
0
 71
3
 72
14
 73
10
 74
0
 42
0.0000001
 43
0.0000001
 44
0.0000000001
 40
0.0
 40
0.0
 40
0.0
 40
0.0
 40
0.1291920497
 40
0.257545885
 40
0.5124548257
 40
0.638542206
 40
0.7626376385
 40
0.8835980741
 40
1.0
 40
1.0
 40
1.0
 40
1.0
 10
11.64497841
 20
9.9848524773
 30
0.0
 10
11.638352574
 20
9.9674298391
 30
0.0
 10
11.6240710405
 20
9.933100449
 30
0.0
 10
11.5924786741
 20
9.8662329657
 30
0.0
 10
11.5579658382
 20
9.801323733
 30
0.0
 10
11.5231140149
 20
9.7373267464
 30
0.0
 10
11.4977956504
 20
9.6901384876
 30
0.0
 10
11.4740519707
 20
9.6437007474
 30
0.0
 10
11.4593505481
 20
9.6127602813
 30
0.0
 10
11.4524610372
 20
9.5974438071
 30
0.0
  0
SPLINE
  5
547
100
AcDbEntity
  8
0
100
AcDbSpline
 62
9
  6
CONTINUOUS
 70
0
 71
3
 72
12
 73
8
 74
0
 42
0.0000001
 43
0.0000001
 44
0.0000000001
 40
0.0
 40
0.0
 40
0.0
 40
0.0
 40
0.2458684662
 40
0.3705841655
 40
0.4961937917
 40
0.7486469279
 40
1.0
 40
1.0
 40
1.0
 40
1.0
 10
11.6039495208
 20
9.999578237
 30
0.0
 10
11.5924814522
 20
9.9663003307
 30
0.0
 10
11.5720990329
 20
9.9171980149
 30
0.0
 10
11.5413192156
 20
9.8531819683
 30
0.0
 10
11.508492685
 20
9.7891153385
 30
0.0
 10
11.4657006074
 20
9.7098230572
 30
0.0
 10
11.4323357529
 20
9.6458568123
 30
0.0
 10
11.4166287078
 20
9.6134822091
 30
0.0
  0
SPLINE
  5
548
100
AcDbEntity
  8
0
100
AcDbSpline
 62
9
  6
CONTINUOUS
 70
0
 71
3
 72
13
 73
9
 74
0
 42
0.0000001
 43
0.0000001
 44
0.0000000001
 40
0.0
 40
0.0
 40
0.0
 40
0.0
 40
0.2457399506
 40
0.3706072545
 40
0.4964668871
 40
0.7493610163
 40
0.8752617585
 40
1.0
 40
1.0
 40
1.0
 40
1.0
 10
11.5629889362
 20
10.0144745791
 30
0.0
 10
11.5516768358
 20
9.9814513501
 30
0.0
 10
11.5317550513
 20
9.9326197681
 30
0.0
 10
11.5018868271
 20
9.8687386439
 30
0.0
 10
11.470112527
 20
9.8046361024
 30
0.0
 10
11.437081175
 20
9.7410135093
 30
0.0
 10
11.4048291921
 20
9.6771702877
 30
0.0
 10
11.3893374026
 20
9.6451101576
 30
0.0
 10
11.3818580049
 20
9.6290472462
 30
0.0
  0
SPLINE
  5
549
100
AcDbEntity
  8
0
100
AcDbSpline
 62
9
  6
CONTINUOUS
 70
0
 71
3
 72
45
 73
41
 74
0
 42
0.0000001
 43
0.0000001
 44
0.0000000001
 40
0.0
 40
0.0
 40
0.0
 40
0.0
 40
0.0001274706
 40
0.0003792586
 40
0.0007719781
 40
0.0013089746
 40
0.0019912026
 40
0.0028190592
 40
0.0049157712
 40
0.007607255
 40
0.0109017986
 40
0.0148009735
 40
0.0192968707
 40
0.0243804714
 40
0.030044591
 40
0.0362872047
 40
0.0431071052
 40
0.0584725366
 40
0.0761160952
 40
0.0960034987
 40
0.1180812169
 40
0.1422824412
 40
0.1685404735
 40
0.1967891319
 40
0.2269626199
 40
0.2928293085
 40
0.3655702123
 40
0.4444215884
 40
0.5285992705
 40
0.5724409844
 40
0.6173132403
 40
0.6631105977
 40
0.7097239173
 40
0.7570381352
 40
0.7809221029
 40
0.80493805
 40
0.8533055625
 40
0.90201922
 40
0.9509580838
 40
1.0
 40
1.0
 40
1.0
 40
1.0
 10
9.9994626168
 20
10.6860406401
 30
0.0
 10
9.9994876503
 20
10.686073117
 30
0.0
 10
9.9996305226
 20
10.6860843116
 30
0.0
 10
9.9998608786
 20
10.6860297699
 30
0.0
 10
10.0002283241
 20
10.6859098325
 30
0.0
 10
10.0007061054
 20
10.6857143412
 30
0.0
 10
10.0013077344
 20
10.6854440812
 30
0.0
 10
10.0023520519
 20
10.6849393587
 30
0.0
 10
10.0039649259
 20
10.6841248146
 30
0.0
 10
10.0062942962
 20
10.682969694
 30
0.0
 10
10.0091733969
 20
10.6816189203
 30
0.0
 10
10.0126058693
 20
10.6800830642
 30
0.0
 10
10.0165737471
 20
10.6783350345
 30
0.0
 10
10.0210612445
 20
10.6763582003
 30
0.0
 10
10.0260544942
 20
10.6741357448
 30
0.0
 10
10.0315537356
 20
10.6716765909
 30
0.0
 10
10.039898551
 20
10.6679360975
 30
0.0
 10
10.051591934
 20
10.662699742
 30
0.0
 10
10.0671241181
 20
10.6557505368
 30
0.0
 10
10.0846226446
 20
10.647909208
 30
0.0
 10
10.104044365
 20
10.6392011081
 30
0.0
 10
10.1253404537
 20
10.6296644047
 30
0.0
 10
10.1484531618
 20
10.6193273295
 30
0.0
 10
10.1733183506
 20
10.6082030168
 30
0.0
 10
10.2098055518
 20
10.591856311
 30
0.0
 10
10.2593487356
 20
10.5696456077
 30
0.0
 10
10.3232005586
 20
10.5410737256
 30
0.0
 10
10.3924340025
 20
10.5101071973
 30
0.0
 10
10.4531837312
 20
10.4829418975
 30
0.0
 10
10.5039531064
 20
10.4602340259
 30
0.0
 10
10.5434437029
 20
10.4425481888
 30
0.0
 10
10.583729826
 20
10.4244573963
 30
0.0
 10
10.62472184
 20
10.406021004
 30
0.0
 10
10.6593142256
 20
10.390541064
 30
0.0
 10
10.6873082555
 20
10.3781129326
 30
0.0
 10
10.7156416971
 20
10.3656145145
 30
0.0
 10
10.7513085285
 20
10.3499505432
 30
0.0
 10
10.7942678015
 20
10.330952989
 30
0.0
 10
10.837292492
 20
10.31156929
 30
0.0
 10
10.865941241
 20
10.2984277649
 30
0.0
 10
10.8802575894
 20
10.2918003167
 30
0.0
  0
SPLINE
  5
54A
100
AcDbEntity
  8
0
100
AcDbSpline
 62
7
  6
CONTINUOUS
 70
0
 71
3
 72
31
 73
27
 74
0
 42
0.0000001
 43
0.0000001
 44
0.0000000001
 40
0.0
 40
0.0
 40
0.0
 40
0.0
 40
0.0008559507
 40
0.0027088454
 40
0.0056314576
 40
0.009635193
 40
0.0147214447
 40
0.020888615
 40
0.0364360228
 40
0.0561068539
 40
0.0796725858
 40
0.1069030539
 40
0.1375674072
 40
0.171409311
 40
0.2081022118
 40
0.2886857542
 40
0.3765823359
 40
0.4687946953
 40
0.6535694793
 40
0.7399120393
 40
0.8181584734
 40
0.8855926469
 40
0.9396578164
 40
0.9782581395
 40
0.9913167505
 40
1.0
 40
1.0
 40
1.0
 40
1.0
 10
10.9748188017
 20
9.6359738697
 30
0.0
 10
10.9748126622
 20
9.6359621062
 30
0.0
 10
10.9747628571
 20
9.6359545374
 30
0.0
 10
10.974681753
 20
9.6359543153
 30
0.0
 10
10.9745427916
 20
9.6359665736
 30
0.0
 10
10.9743595598
 20
9.6359908404
 30
0.0
 10
10.9741254253
 20
9.6360281007
 30
0.0
 10
10.9737166008
 20
9.6361007936
 30
0.0
 10
10.9730870793
 20
9.6362256488
 30
0.0
 10
10.9721957205
 20
9.6364149016
 30
0.0
 10
10.9711291938
 20
9.6366514403
 30
0.0
 10
10.9698980668
 20
9.6369326121
 30
0.0
 10
10.9685131312
 20
9.6372557845
 30
0.0
 10
10.9669866552
 20
9.6376178446
 30
0.0
 10
10.9647087531
 20
9.6381649904
 30
0.0
 10
10.9616186586
 20
9.6389186435
 30
0.0
 10
10.9576953584
 20
9.6398882982
 30
0.0
 10
10.9522074893
 20
9.64125941
 30
0.0
 10
10.9467472881
 20
9.6426418352
 30
0.0
 10
10.9415026711
 20
9.6439934352
 30
0.0
 10
10.9380232765
 20
9.6449052655
 30
0.0
 10
10.9350322664
 20
9.6457071357
 30
0.0
 10
10.9326417211
 20
9.6463738692
 30
0.0
 10
10.9310692529
 20
9.6468377979
 30
0.0
 10
10.9301816235
 20
9.6471325212
 30
0.0
 10
10.9298651089
 20
9.647249616
 30
0.0
 10
10.9297422442
 20
9.6473046097
 30
0.0
  0
SPLINE
  5
54B
100
AcDbEntity
  8
0
100
AcDbSpline
 62
7
  6
CONTINUOUS
 70
0
 71
3
 72
31
 73
27
 74
0
 42
0.0000001
 43
0.0000001
 44
0.0000000001
 40
0.0
 40
0.0
 40
0.0
 40
0.0
 40
0.0115899692
 40
0.0273146955
 40
0.070430994
 40
0.1277954742
 40
0.1973312423
 40
0.2765318914
 40
0.362780505
 40
0.4532071259
 40
0.5448973635
 40
0.6349271203
 40
0.720368675
 40
0.7984363498
 40
0.833917904
 40
0.866617889
 40
0.8962300873
 40
0.922505708
 40
0.9452435162
 40
0.96424505
 40
0.9793148476
 40
0.9902732098
 40
0.9941908436
 40
0.9970803484
 40
0.9989735457
 40
1.0
 40
1.0
 40
1.0
 40
1.0
 10
10.3700847451
 20
9.89780508
 30
0.0
 10
10.3699216417
 20
9.8978780844
 30
0.0
 10
10.3695451636
 20
9.8980675068
 30
0.0
 10
10.3685929031
 20
9.8985894612
 30
0.0
 10
10.3670523632
 20
9.8995051707
 30
0.0
 10
10.3648260734
 20
9.9008889984
 30
0.0
 10
10.3621497682
 20
9.9026024325
 30
0.0
 10
10.3591152125
 20
9.9045818304
 30
0.0
 10
10.3558249155
 20
9.9067585946
 30
0.0
 10
10.3523857457
 20
9.9090592155
 30
0.0
 10
10.3489085155
 20
9.9114077167
 30
0.0
 10
10.3455050283
 20
9.9137280098
 30
0.0
 10
10.3422855595
 20
9.9159452801
 30
0.0
 10
10.339768607
 20
9.9176997621
 30
0.0
 10
10.3379264336
 20
9.9190001416
 30
0.0
 10
10.3366987011
 20
9.91987545
 30
0.0
 10
10.3355912094
 20
9.9206748613
 30
0.0
 10
10.334613585
 20
9.9213917339
 30
0.0
 10
10.3337740866
 20
9.9220201456
 30
0.0
 10
10.3330800253
 20
9.9225547064
 30
0.0
 10
10.3325391206
 20
9.922989553
 30
0.0
 10
10.3321888035
 20
9.9232915996
 30
0.0
 10
10.3319927705
 20
9.9234819409
 30
0.0
 10
10.3319027174
 20
9.9235834901
 30
0.0
 10
10.3318516127
 20
9.9236536917
 30
0.0
 10
10.3318359627
 20
9.9237023366
 30
0.0
 10
10.3318422015
 20
9.923716881
 30
0.0
  0
SPLINE
  5
54C
100
AcDbEntity
  8
0
100
AcDbSpline
 62
7
  6
CONTINUOUS
 70
0
 71
3
 72
19
 73
15
 74
0
 42
0.0000001
 43
0.0000001
 44
0.0000000001
 40
0.0
 40
0.0
 40
0.0
 40
0.0
 40
0.0118466402
 40
0.0200842674
 40
0.0302291502
 40
0.0566279379
 40
0.091288848
 40
0.1340487784
 40
0.1846342004
 40
0.3078079643
 40
0.456474889
 40
0.6254061236
 40
0.8087854591
 40
1.0
 40
1.0
 40
1.0
 40
1.0
 10
10.906013753
 20
9.6658321868
 30
0.0
 10
10.9059762521
 20
9.6657484179
 30
0.0
 10
10.9058395061
 20
9.6656457711
 30
0.0
 10
10.9056216575
 20
9.6655662287
 30
0.0
 10
10.9052812377
 20
9.6654898893
 30
0.0
 10
10.9047298053
 20
9.6654490297
 30
0.0
 10
10.9039250061
 20
9.6654599785
 30
0.0
 10
10.9029355207
 20
9.6655324558
 30
0.0
 10
10.9012685935
 20
9.6657226745
 30
0.0
 10
10.8988017289
 20
9.6661227825
 30
0.0
 10
10.8954522822
 20
9.666789544
 30
0.0
 10
10.8916675846
 20
9.667651881
 30
0.0
 10
10.8875839399
 20
9.6686802971
 30
0.0
 10
10.884784572
 20
9.669446563
 30
0.0
 10
10.8833598374
 20
9.6698523761
 30
0.0
  0
SPLINE
  5
54D
100
AcDbEntity
  8
0
100
AcDbSpline
 62
7
  6
CONTINUOUS
 70
0
 71
3
 72
10
 73
6
 74
0
 42
0.0000001
 43
0.0000001
 44
0.0000000001
 40
0.0
 40
0.0
 40
0.0
 40
0.0
 40
0.5513950771
 40
0.7953630219
 40
1.0
 40
1.0
 40
1.0
 40
1.0
 10
10.8833598374
 20
9.6698523761
 30
0.0
 10
10.8801103179
 20
9.6707779505
 30
0.0
 10
10.8754494819
 20
9.6722141906
 30
0.0
 10
10.8696846332
 20
9.6742933268
 30
0.0
 10
10.8671357906
 20
9.6753270093
 30
0.0
 10
10.8659912613
 20
9.675839296
 30
0.0
  0
SPLINE
  5
54E
100
AcDbEntity
  8
0
100
AcDbSpline
 62
7
  6
CONTINUOUS
 70
0
 71
3
 72
19
 73
15
 74
0
 42
0.0000001
 43
0.0000001
 44
0.0000000001
 40
0.0
 40
0.0
 40
0.0
 40
0.0
 40
0.0168845307
 40
0.0382065959
 40
0.0659035578
 40
0.1006883443
 40
0.1427755419
 40
0.192169113
 40
0.2487127833
 40
0.3120156973
 40
0.457037727
 40
0.6233690183
 40
0.8062150945
 40
1.0
 40
1.0
 40
1.0
 40
1.0
 10
10.7657485648
 20
9.7266589166
 30
0.0
 10
10.7657005519
 20
9.7265503344
 30
0.0
 10
10.7655141267
 20
9.7263390766
 30
0.0
 10
10.7650881907
 20
9.7261413922
 30
0.0
 10
10.7645110589
 20
9.7260112029
 30
0.0
 10
10.7637768569
 20
9.7259488657
 30
0.0
 10
10.7628882644
 20
9.7259534919
 30
0.0
 10
10.761849454
 20
9.7260269503
 30
0.0
 10
10.7606676374
 20
9.7261694664
 30
0.0
 10
10.7588282405
 20
9.7264636923
 30
0.0
 10
10.7562485961
 20
9.7270052057
 30
0.0
 10
10.7528830697
 20
9.7278739086
 30
0.0
 10
10.7492242795
 20
9.7289671549
 30
0.0
 10
10.7467129913
 20
9.7298096346
 30
0.0
 10
10.7454283089
 20
9.7302638064
 30
0.0
  0
SPLINE
  5
54F
100
AcDbEntity
  8
0
100
AcDbSpline
 62
7
  6
CONTINUOUS
 70
0
 71
3
 72
9
 73
5
 74
0
 42
0.0000001
 43
0.0000001
 44
0.0000000001
 40
0.0
 40
0.0
 40
0.0
 40
0.0
 40
0.2529928672
 40
1.0
 40
1.0
 40
1.0
 40
1.0
 10
10.7454283089
 20
9.7302638064
 30
0.0
 10
10.7446255081
 20
9.7305476193
 30
0.0
 10
10.7414639698
 20
9.7317019913
 30
0.0
 10
10.7383445834
 20
9.7329734413
 30
0.0
 10
10.7360497846
 20
9.7340005841
 30
0.0
  0
SPLINE
  5
550
100
AcDbEntity
  8
0
100
AcDbSpline
 62
7
  6
CONTINUOUS
 70
0
 71
3
 72
18
 73
14
 74
0
 42
0.0000001
 43
0.0000001
 44
0.0000000001
 40
0.0
 40
0.0
 40
0.0
 40
0.0
 40
0.018366528
 40
0.0400385832
 40
0.0671953896
 40
0.1008877872
 40
0.1415979469
 40
0.1895171617
 40
0.3063967181
 40
0.4495569643
 40
0.6162796924
 40
0.8017945987
 40
1.0
 40
1.0
 40
1.0
 40
1.0
 10
10.5966322293
 20
9.7999177373
 30
0.0
 10
10.5965863592
 20
9.7998159198
 30
0.0
 10
10.5964265018
 20
9.7996191447
 30
0.0
 10
10.5960576697
 20
9.7994282865
 30
0.0
 10
10.5955664687
 20
9.7993125382
 30
0.0
 10
10.5949488145
 20
9.7992680701
 30
0.0
 10
10.5942045663
 20
9.7992948038
 30
0.0
 10
10.592962295
 20
9.799437763
 30
0.0
 10
10.5911257273
 20
9.7998183175
 30
0.0
 10
10.5886268256
 20
9.8005215741
 30
0.0
 10
10.5857742913
 20
9.8014929984
 30
0.0
 10
10.5826527471
 20
9.8027020698
 30
0.0
 10
10.5805075022
 20
9.8036206909
 30
0.0
 10
10.5794075235
 20
9.8041130371
 30
0.0
  0
SPLINE
  5
551
100
AcDbEntity
  8
0
100
AcDbSpline
 62
7
  6
CONTINUOUS
 70
0
 71
3
 72
16
 73
12
 74
0
 42
0.0000001
 43
0.0000001
 44
0.0000000001
 40
0.0
 40
0.0
 40
0.0
 40
0.0
 40
0.0424920651
 40
0.0689929897
 40
0.1008783244
 40
0.1835661905
 40
0.2939005227
 40
0.4320935492
 40
0.5969031917
 40
0.7867702521
 40
1.0
 40
1.0
 40
1.0
 40
1.0
 10
10.45005375
 20
9.8633359219
 30
0.0
 10
10.4500141946
 20
9.8632481368
 30
0.0
 10
10.4498854894
 20
9.8631344113
 30
0.0
 10
10.4496674518
 20
9.8630653196
 30
0.0
 10
10.449348927
 20
9.8630226475
 30
0.0
 10
10.4488370273
 20
9.863059676
 30
0.0
 10
10.448100825
 20
9.8632083297
 30
0.0
 10
10.4472001307
 20
9.8634685194
 30
0.0
 10
10.4461453092
 20
9.8638363564
 30
0.0
 10
10.4449481586
 20
9.864309207
 30
0.0
 10
10.4441096664
 20
9.8646718197
 30
0.0
 10
10.4436686576
 20
9.8648692135
 30
0.0
  0
SPLINE
  5
552
100
AcDbEntity
  8
0
100
AcDbSpline
 62
9
  6
CONTINUOUS
 70
0
 71
3
 72
22
 73
18
 74
0
 42
0.0000001
 43
0.0000001
 44
0.0000000001
 40
0.0
 40
0.0
 40
0.0
 40
0.0
 40
0.1571008818
 40
0.2348546115
 40
0.3114758991
 40
0.3865167131
 40
0.4595441433
 40
0.5301391703
 40
0.597890168
 40
0.6623971807
 40
0.7232931868
 40
0.7802665027
 40
0.8330475268
 40
0.8814258663
 40
0.925290256
 40
0.964711786
 40
1.0
 40
1.0
 40
1.0
 40
1.0
 10
12.0992398868
 20
9.7755072356
 30
0.0
 10
12.083412601
 20
9.7573981213
 30
0.0
 10
12.0589411873
 20
9.7310205786
 30
0.0
 10
12.025055618
 20
9.6974654914
 30
0.0
 10
11.9994074691
 20
9.6734640704
 30
0.0
 10
11.9736237146
 20
9.6506878914
 30
0.0
 10
11.9478824241
 20
9.6292788422
 30
0.0
 10
11.9223598691
 20
9.6093763803
 30
0.0
 10
11.8972308097
 20
9.5911183257
 30
0.0
 10
11.8726677118
 20
9.5746406798
 30
0.0
 10
11.8488366975
 20
9.560075108
 30
0.0
 10
11.8258982585
 20
9.5475460133
 30
0.0
 10
11.804006217
 20
9.5371739565
 30
0.0
 10
11.7833105197
 20
9.5290768099
 30
0.0
 10
11.7639432628
 20
9.5233731541
 30
0.0
 10
11.7460335338
 20
9.5201733037
 30
0.0
 10
11.7345410882
 20
9.5197746107
 30
0.0
 10
11.729149248
 20
9.5201111504
 30
0.0
  0
SPLINE
  5
553
100
AcDbEntity
  8
0
100
AcDbSpline
 62
7
  6
CONTINUOUS
 70
0
 71
3
 72
18
 73
14
 74
0
 42
0.0000001
 43
0.0000001
 44
0.0000000001
 40
0.0
 40
0.0
 40
0.0
 40
0.0
 40
0.1844870278
 40
0.3636843342
 40
0.5320311617
 40
0.6836667426
 40
0.8125290175
 40
0.8664875485
 40
0.9124185708
 40
0.9495318512
 40
0.9770327214
 40
0.9941226977
 40
1.0
 40
1.0
 40
1.0
 40
1.0
 10
12.0410373898
 20
9.8145207622
 30
0.0
 10
12.0551637348
 20
9.8332998052
 30
0.0
 10
12.0817089712
 20
9.8713102295
 30
0.0
 10
12.1173703018
 20
9.9289650841
 30
0.0
 10
12.1483709092
 20
9.9844995457
 30
0.0
 10
12.1743942547
 20
10.0354166792
 30
0.0
 10
12.1926246569
 20
10.073927089
 30
0.0
 10
12.2045523158
 20
10.1005118279
 30
0.0
 10
12.2115063361
 20
10.1165176069
 30
0.0
 10
12.2169751288
 20
10.1294931758
 30
0.0
 10
12.220922247
 20
10.1391229012
 30
0.0
 10
12.2233029773
 20
10.1450942413
 30
0.0
 10
12.2243693749
 20
10.1478184622
 30
0.0
 10
12.2246368786
 20
10.1485176597
 30
0.0
  0
SPLINE
  5
554
100
AcDbEntity
  8
0
100
AcDbSpline
 62
7
  6
CONTINUOUS
 70
0
 71
3
 72
26
 73
22
 74
0
 42
0.0000001
 43
0.0000001
 44
0.0000000001
 40
0.0
 40
0.0
 40
0.0
 40
0.0
 40
0.0156087749
 40
0.031238134
 40
0.046869219
 40
0.0624993299
 40
0.0781290007
 40
0.0937579937
 40
0.1250035939
 40
0.1562526741
 40
0.1875028354
 40
0.2187533878
 40
0.2500040968
 40
0.3125009605
 40
0.3749998386
 40
0.4374996414
 40
0.4999998764
 40
0.6249981092
 40
0.7499983831
 40
0.8749991554
 40
1.0
 40
1.0
 40
1.0
 40
1.0
 10
15.4125421721
 20
6.2311941518
 30
0.0
 10
15.412065869
 20
6.2317617877
 30
0.0
 10
15.4108697542
 20
6.2327079183
 30
0.0
 10
15.4087448308
 20
6.2334487449
 30
0.0
 10
15.4065235724
 20
6.2337149778
 30
0.0
 10
15.4042930136
 20
6.2336559563
 30
0.0
 10
15.4020827784
 20
6.2333690279
 30
0.0
 10
15.3991760877
 20
6.2327622311
 30
0.0
 10
15.3956199171
 20
6.2316863309
 30
0.0
 10
15.3914708018
 20
6.2300694426
 30
0.0
 10
15.3874209036
 20
6.2282192851
 30
0.0
 10
15.3834565737
 20
6.2261938862
 30
0.0
 10
15.3782695061
 20
6.2233097428
 30
0.0
 10
15.3719445834
 20
6.219428528
 30
0.0
 10
15.3645517121
 20
6.2144686084
 30
0.0
 10
15.3573122201
 20
6.2092879829
 30
0.0
 10
15.3478202989
 20
6.2021623541
 30
0.0
 10
15.3361867136
 20
6.1929534755
 30
0.0
 10
15.3224332735
 20
6.1816496875
 30
0.0
 10
15.3087740073
 20
6.1702323372
 30
0.0
 10
15.29968297
 20
6.1626027815
 30
0.0
 10
15.2951371322
 20
6.1587883707
 30
0.0
  0
SPLINE
  5
555
100
AcDbEntity
  8
0
100
AcDbSpline
 62
7
  6
CONTINUOUS
 70
0
 71
3
 72
26
 73
22
 74
0
 42
0.0000001
 43
0.0000001
 44
0.0000000001
 40
0.0
 40
0.0
 40
0.0
 40
0.0
 40
0.1250012602
 40
0.250002464
 40
0.3750032094
 40
0.5000019919
 40
0.5625024481
 40
0.6250024865
 40
0.687501612
 40
0.7499987778
 40
0.7812495894
 40
0.812500243
 40
0.8437505119
 40
0.8749997145
 40
0.906245453
 40
0.9218743328
 40
0.9375037485
 40
0.9531335466
 40
0.9687643448
 40
0.9843932377
 40
1.0
 40
1.0
 40
1.0
 40
1.0
 10
15.2935400994
 20
6.1574477028
 30
0.0
 10
15.2889277213
 20
6.1535774581
 30
0.0
 10
15.2797016662
 20
6.1458385412
 30
0.0
 10
15.2658819032
 20
6.1342070585
 30
0.0
 10
15.252151653
 20
6.1224700251
 30
0.0
 10
15.2408835546
 20
6.1124868854
 30
0.0
 10
15.2320733461
 20
6.1042768158
 30
0.0
 10
15.2256055899
 20
6.0979717484
 30
0.0
 10
15.2193287757
 20
6.091476079
 30
0.0
 10
15.2143184888
 20
6.0858556908
 30
0.0
 10
15.210506546
 20
6.0811939656
 30
0.0
 10
15.2077709492
 20
6.0775996711
 30
0.0
 10
15.2051938801
 20
6.0738891618
 30
0.0
 10
15.2028304403
 20
6.0700384351
 30
0.0
 10
15.2011125279
 20
6.066682978
 30
0.0
 10
15.1999790537
 20
6.0638915559
 30
0.0
 10
15.199290467
 20
6.0617376126
 30
0.0
 10
15.1988245528
 20
6.0595221593
 30
0.0
 10
15.198684164
 20
6.0572567126
 30
0.0
 10
15.1990356228
 20
6.0550005241
 30
0.0
 10
15.1997664976
 20
6.0536354926
 30
0.0
 10
15.2002497086
 20
6.0530596241
 30
0.0
  0
SPLINE
  5
556
100
AcDbEntity
  8
0
100
AcDbSpline
 62
9
  6
CONTINUOUS
 70
0
 71
3
 72
17
 73
13
 74
0
 42
0.0000001
 43
0.0000001
 44
0.0000000001
 40
0.0
 40
0.0
 40
0.0
 40
0.0
 40
0.1677295498
 40
0.3306206909
 40
0.4853199515
 40
0.6281430514
 40
0.7551701809
 40
0.8623115569
 40
0.9071127376
 40
0.9453546765
 40
0.9764977088
 40
1.0
 40
1.0
 40
1.0
 40
1.0
 10
11.8964476751
 20
9.892201475
 30
0.0
 10
11.9082026574
 20
9.9119875736
 30
0.0
 10
11.9298703642
 20
9.9518961655
 30
0.0
 10
11.9578660195
 20
10.0123542421
 30
0.0
 10
11.9813757603
 20
10.0710178957
 30
0.0
 10
12.0006840714
 20
10.1259940803
 30
0.0
 10
12.0160749987
 20
10.1753885888
 30
0.0
 10
12.0264065419
 20
10.2122504093
 30
0.0
 10
12.0330230535
 20
10.2374935874
 30
0.0
 10
12.0368719713
 20
10.252681364
 30
0.0
 10
12.0399473783
 20
10.2650499426
 30
0.0
 10
12.0417627796
 20
10.2723250167
 30
0.0
 10
12.0425721723
 20
10.2754465916
 30
0.0
  0
SPLINE
  5
557
100
AcDbEntity
  8
0
100
AcDbSpline
 62
9
  6
CONTINUOUS
 70
0
 71
3
 72
19
 73
15
 74
0
 42
0.0000001
 43
0.0000001
 44
0.0000000001
 40
0.0
 40
0.0
 40
0.0
 40
0.0
 40
0.2329366826
 40
0.4356302993
 40
0.607545128
 40
0.7481711141
 40
0.8066081013
 40
0.8570631384
 40
0.8995060449
 40
0.9339367845
 40
0.9604225885
 40
0.9792125194
 40
0.991204053
 40
1.0
 40
1.0
 40
1.0
 40
1.0
 10
12.0425721723
 20
10.2754465916
 30
0.0
 10
12.0427524297
 20
10.2761417881
 30
0.0
 10
12.0430927485
 20
10.2774410944
 30
0.0
 10
12.0435816494
 20
10.2792493717
 30
0.0
 10
12.044014697
 20
10.2807778133
 30
0.0
 10
12.0443466256
 20
10.2818725114
 30
0.0
 10
12.0445882905
 20
10.2826029601
 30
0.0
 10
12.0447445741
 20
10.2830425705
 30
0.0
 10
12.0448873844
 20
10.2834085881
 30
0.0
 10
12.0450164489
 20
10.2836994528
 30
0.0
 10
12.045132216
 20
10.2839183343
 30
0.0
 10
12.0452336878
 20
10.2840597187
 30
0.0
 10
12.0453305508
 20
10.2841472818
 30
0.0
 10
12.0454039132
 20
10.2841349997
 30
0.0
 10
12.0454255657
 20
10.2841186707
 30
0.0
  0
SPLINE
  5
558
100
AcDbEntity
  8
0
100
AcDbSpline
 62
9
  6
CONTINUOUS
 70
0
 71
3
 72
36
 73
32
 74
0
 42
0.0000001
 43
0.0000001
 44
0.0000000001
 40
0.0
 40
0.0
 40
0.0
 40
0.0
 40
0.0940863866
 40
0.1869105811
 40
0.2779686841
 40
0.366698882
 40
0.4524917352
 40
0.53469856
 40
0.6126382439
 40
0.685602795
 40
0.7528618881
 40
0.8136666373
 40
0.8414104797
 40
0.8672530692
 40
0.891096973
 40
0.9128441809
 40
0.9323962331
 40
0.9496544001
 40
0.9645199779
 40
0.9768948579
 40
0.982118149
 40
0.9866830442
 40
0.9905784829
 40
0.9937945044
 40
0.9963235254
 40
0.9973297738
 40
0.9981648988
 40
0.9988321954
 40
0.9993399734
 40
0.9997099238
 40
1.0
 40
1.0
 40
1.0
 40
1.0
 10
11.7888044061
 20
9.9347348878
 30
0.0
 10
11.7953342221
 20
9.9477034096
 30
0.0
 10
11.8076673631
 20
9.9737926692
 30
0.0
 10
11.8242548309
 20
10.0133656322
 30
0.0
 10
11.8389582135
 20
10.0527938665
 30
0.0
 10
11.8518981917
 20
10.0916909505
 30
0.0
 10
11.8631957114
 20
10.129671669
 30
0.0
 10
11.8729711274
 20
10.166350051
 30
0.0
 10
11.881344568
 20
10.2013399184
 30
0.0
 10
11.8884358548
 20
10.2342548351
 30
0.0
 10
11.8943646532
 20
10.2647081085
 30
0.0
 10
11.8985548107
 20
10.2883859331
 30
0.0
 10
11.9014421099
 20
10.305801481
 30
0.0
 10
11.9033244035
 20
10.3176016354
 30
0.0
 10
11.9050054641
 20
10.3284965938
 30
0.0
 10
11.9065001478
 20
10.3384379537
 30
0.0
 10
11.9078232442
 20
10.3473773171
 30
0.0
 10
11.9089891746
 20
10.355266389
 30
0.0
 10
11.9100125807
 20
10.3620568549
 30
0.0
 10
11.910795582
 20
10.3670053288
 30
0.0
 10
11.9113733734
 20
10.3703765032
 30
0.0
 10
11.9117553348
 20
10.3724534242
 30
0.0
 10
11.9121121432
 20
10.3742198521
 30
0.0
 10
11.9124455935
 20
10.3756698922
 30
0.0
 10
11.9127207803
 20
10.376675511
 30
0.0
 10
11.9129386698
 20
10.3773141125
 30
0.0
 10
11.9130845557
 20
10.3776729141
 30
0.0
 10
11.9132256251
 20
10.3779501627
 30
0.0
 10
11.9133630808
 20
10.3781456681
 30
0.0
 10
11.9135018978
 20
10.3782674205
 30
0.0
 10
11.9136099627
 20
10.3782858851
 30
0.0
 10
11.9136538762
 20
10.3782771935
 30
0.0
  0
SPLINE
  5
559
100
AcDbEntity
  8
0
100
AcDbSpline
 62
7
  6
CONTINUOUS
 70
0
 71
3
 72
13
 73
9
 74
0
 42
0.0000001
 43
0.0000001
 44
0.0000000001
 40
0.0
 40
0.0
 40
0.0
 40
0.0
 40
0.0428497813
 40
0.1007315134
 40
0.1828697833
 40
0.2918728397
 40
0.5920294904
 40
1.0
 40
1.0
 40
1.0
 40
1.0
 10
10.288141949
 20
9.9961006368
 30
0.0
 10
10.2881229441
 20
9.9960578106
 30
0.0
 10
10.2880334773
 20
9.9959773781
 30
0.0
 10
10.2878306319
 20
9.9959479714
 30
0.0
 10
10.2875588683
 20
9.9959670509
 30
0.0
 10
10.2870315941
 20
9.9960775538
 30
0.0
 10
10.2861843659
 20
9.9963669967
 30
0.0
 10
10.2854708032
 20
9.996668181
 30
0.0
 10
10.2850636372
 20
9.9968504269
 30
0.0
  0
LINE
  5
55A
100
AcDbEntity
  8
0
100
AcDbLine
 62
7
  6
CONTINUOUS
 10
10.4436686576
 20
9.8648692135
 11
10.4359821109
 21
9.8687846447
  0
LINE
  5
55B
100
AcDbEntity
  8
0
100
AcDbLine
 62
7
  6
CONTINUOUS
 10
10.4359821109
 20
9.8687846447
 11
10.4272675131
 21
9.8739758983
  0
SPLINE
  5
55C
100
AcDbEntity
  8
0
100
AcDbSpline
 62
7
  6
CONTINUOUS
 70
0
 71
3
 72
18
 73
14
 74
0
 42
0.0000001
 43
0.0000001
 44
0.0000000001
 40
0.0
 40
0.0
 40
0.0
 40
0.0
 40
0.1935498371
 40
0.3775366096
 40
0.5458930625
 40
0.6933334472
 40
0.815163048
 40
0.8651743308
 40
0.9074969844
 40
0.9419302673
 40
0.9684020814
 40
0.987209344
 40
1.0
 40
1.0
 40
1.0
 40
1.0
 10
10.4272675131
 20
9.8739758983
 30
0.0
 10
10.4260786617
 20
9.874728172
 30
0.0
 10
10.4237754105
 20
9.8762205722
 30
0.0
 10
10.4204935036
 20
9.8784513586
 30
0.0
 10
10.417540304
 20
9.880567887
 30
0.0
 10
10.4150121103
 20
9.882499154
 30
0.0
 10
10.4132244991
 20
9.8839812264
 30
0.0
 10
10.4120794883
 20
9.8850364505
 30
0.0
 10
10.411431123
 20
9.8856917952
 30
0.0
 10
10.4109374016
 20
9.8862577029
 30
0.0
 10
10.4106041106
 20
9.8867341204
 30
0.0
 10
10.4104192294
 20
9.8871153748
 30
0.0
 10
10.4104117172
 20
9.8873625964
 30
0.0
 10
10.4104498838
 20
9.8874473737
 30
0.0
  0
SPLINE
  5
55D
100
AcDbEntity
  8
0
100
AcDbSpline
 62
7
  6
CONTINUOUS
 70
0
 71
3
 72
17
 73
13
 74
0
 42
0.0000001
 43
0.0000001
 44
0.0000000001
 40
0.0
 40
0.0
 40
0.0
 40
0.0
 40
0.0089934618
 40
0.0252825969
 40
0.0498618837
 40
0.0827853599
 40
0.1730442756
 40
0.2937856052
 40
0.4412628066
 40
0.6114582405
 40
0.7995001351
 40
1.0
 40
1.0
 40
1.0
 40
1.0
 10
11.122586883
 20
9.6305015228
 30
0.0
 10
11.1225646748
 20
9.6304490131
 30
0.0
 10
11.1224006686
 20
9.630368996
 30
0.0
 10
11.122095305
 20
9.630336185
 30
0.0
 10
11.1216223163
 20
9.6303312488
 30
0.0
 10
11.1206898753
 20
9.6303962946
 30
0.0
 10
11.1191543249
 20
9.6306008206
 30
0.0
 10
11.116915727
 20
9.6309881923
 30
0.0
 10
11.1141891597
 20
9.6315297102
 30
0.0
 10
11.1110563837
 20
9.6322106414
 30
0.0
 10
11.1076058777
 20
9.6330112588
 30
0.0
 10
11.105213221
 20
9.6335963829
 30
0.0
 10
11.1039802121
 20
9.6339049925
 30
0.0
  0
SPLINE
  5
55E
100
AcDbEntity
  8
0
100
AcDbSpline
 62
7
  6
CONTINUOUS
 70
0
 71
3
 72
11
 73
7
 74
0
 42
0.0000001
 43
0.0000001
 44
0.0000000001
 40
0.0
 40
0.0
 40
0.0
 40
0.0
 40
0.3158567617
 40
0.5974189744
 40
0.8296644678
 40
1.0
 40
1.0
 40
1.0
 40
1.0
 10
11.0938519593
 20
9.6365971803
 30
0.0
 10
11.0922901211
 20
9.6370376837
 30
0.0
 10
11.089342436
 20
9.6378935939
 30
0.0
 10
11.0852710968
 20
9.6391580219
 30
0.0
 10
11.081944579
 20
9.6402929522
 30
0.0
 10
11.0800117065
 20
9.6410348334
 30
0.0
 10
11.0792129408
 20
9.6413923578
 30
0.0
  0
SPLINE
  5
55F
100
AcDbEntity
  8
0
100
AcDbSpline
 62
7
  6
CONTINUOUS
 70
0
 71
3
 72
16
 73
12
 74
0
 42
0.0000001
 43
0.0000001
 44
0.0000000001
 40
0.0
 40
0.0
 40
0.0
 40
0.0
 40
0.2132655833
 40
0.4033438106
 40
0.5684489572
 40
0.7069253983
 40
0.8174283412
 40
0.9001018154
 40
0.9318790505
 40
0.9581832333
 40
1.0
 40
1.0
 40
1.0
 40
1.0
 10
10.9874712964
 20
9.6824555528
 30
0.0
 10
10.9870150226
 20
9.6826597792
 30
0.0
 10
10.9861568242
 20
9.68305678
 30
0.0
 10
10.984965334
 20
9.683653895
 30
0.0
 10
10.9839519834
 20
9.6842131423
 30
0.0
 10
10.9831274658
 20
9.684726992
 30
0.0
 10
10.9825024078
 20
9.6851900905
 30
0.0
 10
10.9821182699
 20
9.6855565246
 30
0.0
 10
10.9819293218
 20
9.685829137
 30
0.0
 10
10.9818307616
 20
9.6860415649
 30
0.0
 10
10.9818279454
 20
9.6862174708
 30
0.0
 10
10.9818678198
 20
9.6863070121
 30
0.0
  0
SPLINE
  5
560
100
AcDbEntity
  8
0
100
AcDbSpline
 62
9
  6
CONTINUOUS
 70
0
 71
3
 72
37
 73
33
 74
0
 42
0.0000001
 43
0.0000001
 44
0.0000000001
 40
0.0
 40
0.0
 40
0.0
 40
0.0
 40
0.093453527
 40
0.1856701285
 40
0.2761956766
 40
0.3645018894
 40
0.4499994504
 40
0.532048796
 40
0.6099689182
 40
0.6830445252
 40
0.7505318645
 40
0.78194135
 40
0.8116642669
 40
0.8396016212
 40
0.8656533862
 40
0.8897185913
 40
0.9116954068
 40
0.9314812274
 40
0.9489727594
 40
0.9640661249
 40
0.9706809087
 40
0.9766570129
 40
0.981981379
 40
0.9866409777
 40
0.9906228568
 40
0.9939142394
 40
0.99650276
 40
0.9983771635
 40
0.9990441181
 40
0.9995309393
 40
0.9998415269
 40
1.0
 40
1.0
 40
1.0
 40
1.0
 10
11.6449786168
 20
9.9848535905
 30
0.0
 10
11.6508029967
 20
10.0001026583
 30
0.0
 10
11.6615149528
 20
10.0307337152
 30
0.0
 10
11.6750907632
 20
10.0770456402
 30
0.0
 10
11.6863100649
 20
10.1230568397
 30
0.0
 10
11.6953897202
 20
10.1683375615
 30
0.0
 10
11.7025467133
 20
10.2124599588
 30
0.0
 10
11.7079972268
 20
10.2549950245
 30
0.0
 10
11.7119571385
 20
10.2955134873
 30
0.0
 10
11.7146420306
 20
10.3335854661
 30
0.0
 10
11.716027826
 20
10.3635947563
 30
0.0
 10
11.7166901544
 20
10.3860513281
 30
0.0
 10
11.7169898879
 20
10.4016065223
 30
0.0
 10
11.7171316126
 20
10.4162280193
 30
0.0
 10
11.7171422787
 20
10.4298619297
 30
0.0
 10
11.7170488195
 20
10.442454331
 30
0.0
 10
11.716878147
 20
10.4539513054
 30
0.0
 10
11.7166570861
 20
10.4642989301
 30
0.0
 10
11.716412479
 20
10.4734432847
 30
0.0
 10
11.716202638
 20
10.480287085
 30
0.0
 10
11.7160484048
 20
10.4851202306
 30
0.0
 10
11.7159489007
 20
10.488247909
 30
0.0
 10
11.7158636251
 20
10.491034339
 30
0.0
 10
11.7157958589
 20
10.4934728526
 30
0.0
 10
11.71574873
 20
10.4955565412
 30
0.0
 10
11.7157253317
 20
10.4972792745
 30
0.0
 10
11.715727913
 20
10.4986330279
 30
0.0
 10
11.7157558947
 20
10.4995304896
 30
0.0
 10
11.7157985021
 20
10.5000558148
 30
0.0
 10
11.7158397923
 20
10.5003123183
 30
0.0
 10
11.7158761323
 20
10.500467778
 30
0.0
 10
11.7159315768
 20
10.5005476931
 30
0.0
 10
11.715959082
 20
10.5005508032
 30
0.0
  0
SPLINE
  5
561
100
AcDbEntity
  8
0
100
AcDbSpline
 62
7
  6
CONTINUOUS
 70
0
 71
3
 72
16
 73
12
 74
0
 42
0.0000001
 43
0.0000001
 44
0.0000000001
 40
0.0
 40
0.0
 40
0.0
 40
0.0
 40
0.2052289336
 40
0.3937034715
 40
0.560880725
 40
0.7026830114
 40
0.7634318639
 40
0.8172424396
 40
0.8640464555
 40
0.9038597861
 40
1.0
 40
1.0
 40
1.0
 40
1.0
 10
10.8536809917
 20
9.742339561
 30
0.0
 10
10.8527962632
 20
9.742735562
 30
0.0
 10
10.8511098392
 20
9.7435197895
 30
0.0
 10
10.8487455854
 20
9.744715871
 30
0.0
 10
10.8466923269
 20
9.7458597961
 30
0.0
 10
10.8452134164
 20
9.7467899753
 30
0.0
 10
10.8442283197
 20
9.7474963668
 30
0.0
 10
10.8436321532
 20
9.7479677161
 30
0.0
 10
10.8431333986
 20
9.7484174082
 30
0.0
 10
10.8425601532
 20
9.7490165168
 30
0.0
 10
10.8421109164
 20
9.7497294689
 30
0.0
 10
10.8422956535
 20
9.7501442673
 30
0.0
  0
SPLINE
  5
562
100
AcDbEntity
  8
0
100
AcDbSpline
 62
7
  6
CONTINUOUS
 70
0
 71
3
 72
19
 73
15
 74
0
 42
0.0000001
 43
0.0000001
 44
0.0000000001
 40
0.0
 40
0.0
 40
0.0
 40
0.0
 40
0.1907455993
 40
0.3737163676
 40
0.5410426731
 40
0.6869587016
 40
0.7505650902
 40
0.8072699787
 40
0.8567602936
 40
0.8988972052
 40
0.9336613
 40
0.9612848285
 40
0.9826296656
 40
1.0
 40
1.0
 40
1.0
 40
1.0
 10
10.6956146166
 20
9.8130894417
 30
0.0
 10
10.6943001546
 20
9.8136777897
 30
0.0
 10
10.6917452329
 20
9.8148767042
 30
0.0
 10
10.6881105504
 20
9.8167430462
 30
0.0
 10
10.6848505668
 20
9.8185914361
 30
0.0
 10
10.6824473737
 20
9.8201180697
 30
0.0
 10
10.6808094827
 20
9.821283961
 30
0.0
 10
10.6797971811
 20
9.8220713503
 30
0.0
 10
10.678950697
 20
9.822805663
 30
0.0
 10
10.6782747677
 20
9.8234806338
 30
0.0
 10
10.6777720206
 20
9.8240914104
 30
0.0
 10
10.6774448434
 20
9.8246359002
 30
0.0
 10
10.6772927161
 20
9.8251218988
 30
0.0
 10
10.6773326897
 20
9.8254258098
 30
0.0
 10
10.6773864654
 20
9.8255454233
 30
0.0
  0
SPLINE
  5
563
100
AcDbEntity
  8
0
100
AcDbSpline
 62
7
  6
CONTINUOUS
 70
0
 71
3
 72
11
 73
7
 74
0
 42
0.0000001
 43
0.0000001
 44
0.0000000001
 40
0.0
 40
0.0
 40
0.0
 40
0.0
 40
0.2546304156
 40
0.5155922143
 40
0.7680057274
 40
1.0
 40
1.0
 40
1.0
 40
1.0
 10
10.5342695735
 20
9.8853068412
 30
0.0
 10
10.5327325493
 20
9.8859948071
 30
0.0
 10
10.5296516786
 20
9.887458547
 30
0.0
 10
10.5251481383
 20
9.8898096052
 30
0.0
 10
10.5208704835
 20
9.8922616818
 30
0.0
 10
10.518158472
 20
9.8939695236
 30
0.0
 10
10.5168829816
 20
9.8948222202
 30
0.0
  0
SPLINE
  5
564
100
AcDbEntity
  8
0
100
AcDbSpline
 62
7
  6
CONTINUOUS
 70
0
 71
3
 72
16
 73
12
 74
0
 42
0.0000001
 43
0.0000001
 44
0.0000000001
 40
0.0
 40
0.0
 40
0.0
 40
0.0
 40
0.2039793532
 40
0.3885139102
 40
0.5512667787
 40
0.6900416674
 40
0.8034534851
 40
0.8912825819
 40
0.9259496848
 40
0.9549594905
 40
1.0
 40
1.0
 40
1.0
 40
1.0
 10
10.5168829816
 20
9.8948222202
 30
0.0
 10
10.5162453737
 20
9.8952484768
 30
0.0
 10
10.5150421565
 20
9.8960773613
 30
0.0
 10
10.5133754026
 20
9.8973103819
 30
0.0
 10
10.5119518606
 20
9.8984574392
 30
0.0
 10
10.5107907705
 20
9.8995015122
 30
0.0
 10
10.5099088334
 20
9.9004286738
 30
0.0
 10
10.5093708917
 20
9.9011391541
 30
0.0
 10
10.5091084232
 20
9.9016478112
 30
0.0
 10
10.5089762807
 20
9.9020331516
 30
0.0
 10
10.508977305
 20
9.9023348063
 30
0.0
 10
10.5090473051
 20
9.9024890157
 30
0.0
  0
LINE
  5
565
100
AcDbEntity
  8
0
100
AcDbLine
 62
7
  6
CONTINUOUS
 10
10.3910788003
 20
9.9493984616
 11
10.3828282225
 21
9.95355334
  0
SPLINE
  5
566
100
AcDbEntity
  8
0
100
AcDbSpline
 62
7
  6
CONTINUOUS
 70
0
 71
3
 72
12
 73
8
 74
0
 42
0.0000001
 43
0.0000001
 44
0.0000000001
 40
0.0
 40
0.0
 40
0.0
 40
0.0
 40
0.2943152521
 40
0.5780389812
 40
0.8215193607
 40
0.9201380816
 40
1.0
 40
1.0
 40
1.0
 40
1.0
 10
10.3828282225
 20
9.95355334
 30
0.0
 10
10.3805728945
 20
9.9547928066
 30
0.0
 10
10.3762033928
 20
9.9573379214
 30
0.0
 10
10.3701600048
 20
9.9612237298
 30
0.0
 10
10.3657013338
 20
9.9644041088
 30
0.0
 10
10.3628321952
 20
9.9667250581
 30
0.0
 10
10.3616722702
 20
9.9677717891
 30
0.0
 10
10.3611785823
 20
9.9682656583
 30
0.0
  0
SPLINE
  5
567
100
AcDbEntity
  8
0
100
AcDbSpline
 62
7
  6
CONTINUOUS
 70
0
 71
3
 72
12
 73
8
 74
0
 42
0.0000001
 43
0.0000001
 44
0.0000000001
 40
0.0
 40
0.0
 40
0.0
 40
0.0
 40
0.3756356738
 40
0.6632607901
 40
0.7748725957
 40
0.8663226449
 40
1.0
 40
1.0
 40
1.0
 40
1.0
 10
10.3611785823
 20
9.9682656583
 30
0.0
 10
10.3609108112
 20
9.9685335277
 30
0.0
 10
10.360451888
 20
9.9690208398
 30
0.0
 10
10.3599711909
 20
9.9696395144
 30
0.0
 10
10.3597287252
 20
9.9700739015
 30
0.0
 10
10.3596047141
 20
9.9703867276
 30
0.0
 10
10.3595855501
 20
9.9706351405
 30
0.0
 10
10.3596404843
 20
9.9707582254
 30
0.0
  0
SPLINE
  5
568
100
AcDbEntity
  8
0
100
AcDbSpline
 62
7
  6
CONTINUOUS
 70
0
 71
3
 72
32
 73
28
 74
0
 42
0.0000001
 43
0.0000001
 44
0.0000000001
 40
0.0
 40
0.0
 40
0.0
 40
0.0
 40
0.0095490525
 40
0.0234037855
 40
0.0633475497
 40
0.1183751862
 40
0.1864086081
 40
0.2649102942
 40
0.3511921733
 40
0.4422674748
 40
0.5351040687
 40
0.6266350687
 40
0.7137844752
 40
0.7936433851
 40
0.8299954556
 40
0.8635156401
 40
0.8938848298
 40
0.9208560652
 40
0.9442031681
 40
0.9637008347
 40
0.9791257035
 40
0.9852494053
 40
0.9903036499
 40
0.9942888007
 40
0.9972092169
 40
0.9990823595
 40
1.0
 40
1.0
 40
1.0
 40
1.0
 10
10.230307048
 20
10.0213592584
 30
0.0
 10
10.2301721075
 20
10.0214196572
 30
0.0
 10
10.2298500678
 20
10.0215865332
 30
0.0
 10
10.2289952809
 20
10.0220672204
 30
0.0
 10
10.2275548791
 20
10.0229422118
 30
0.0
 10
10.225419984
 20
10.0242878534
 30
0.0
 10
10.2227988723
 20
10.0259816221
 30
0.0
 10
10.2197851896
 20
10.02795909
 30
0.0
 10
10.2164849862
 20
10.0301501007
 30
0.0
 10
10.2130096861
 20
10.0324785376
 30
0.0
 10
10.2094756963
 20
10.0348653321
 30
0.0
 10
10.2060005775
 20
10.0372306459
 30
0.0
 10
10.202700342
 20
10.0394957574
 30
0.0
 10
10.2001126495
 20
10.0412893229
 30
0.0
 10
10.1982136365
 20
10.0426188782
 30
0.0
 10
10.196945624
 20
10.0435137245
 30
0.0
 10
10.1958000453
 20
10.0443301543
 30
0.0
 10
10.1947870019
 20
10.0450611205
 30
0.0
 10
10.1939153034
 20
10.0457003288
 30
0.0
 10
10.1931936572
 20
10.0462416461
 30
0.0
 10
10.1926912888
 20
10.0466311462
 30
0.0
 10
10.1923718621
 20
10.04689089
 30
0.0
 10
10.1921926527
 20
10.0470431965
 30
0.0
 10
10.1920558939
 20
10.0471664961
 30
0.0
 10
10.1919582918
 20
10.0472648514
 30
0.0
 10
10.1919048402
 20
10.0473291239
 30
0.0
 10
10.1918815732
 20
10.0473740724
 30
0.0
 10
10.1918867508
 20
10.0473873026
 30
0.0
  0
SPLINE
  5
569
100
AcDbEntity
  8
0
100
AcDbSpline
 62
9
  6
CONTINUOUS
 70
0
 71
3
 72
11
 73
7
 74
0
 42
0.0000001
 43
0.0000001
 44
0.0000000001
 40
0.0
 40
0.0
 40
0.0
 40
0.0
 40
0.2676209379
 40
0.5337597381
 40
0.7822676981
 40
1.0
 40
1.0
 40
1.0
 40
1.0
 10
16.0392493673
 20
5.0120860098
 30
0.0
 10
16.0384039707
 20
5.0088126681
 30
0.0
 10
16.0365404082
 20
5.0023289786
 30
0.0
 10
16.0333263568
 20
4.9929786375
 30
0.0
 10
16.0297919186
 20
4.9844228009
 30
0.0
 10
16.0271829124
 20
4.9791340468
 30
0.0
 10
16.0258453486
 20
4.9767306506
 30
0.0
  0
SPLINE
  5
56A
100
AcDbEntity
  8
0
100
AcDbSpline
 62
9
  6
CONTINUOUS
 70
0
 71
3
 72
17
 73
13
 74
0
 42
0.0000001
 43
0.0000001
 44
0.0000000001
 40
0.0
 40
0.0
 40
0.0
 40
0.0
 40
0.1249672306
 40
0.2491766503
 40
0.3727468355
 40
0.4959646608
 40
0.6193590532
 40
0.7438146642
 40
0.8069193473
 40
0.8707093041
 40
0.9351493369
 40
1.0
 40
1.0
 40
1.0
 40
1.0
 10
16.0392494982
 20
5.0120859997
 30
0.0
 10
16.0440901887
 20
5.0108625777
 30
0.0
 10
16.0536838006
 20
5.0081809825
 30
0.0
 10
16.0677634442
 20
5.003293092
 30
0.0
 10
16.0813655637
 20
4.997356872
 30
0.0
 10
16.0942954834
 20
4.9901096696
 30
0.0
 10
16.1062156339
 20
4.9812100732
 30
0.0
 10
16.1147775342
 20
4.972066596
 30
0.0
 10
16.1202204899
 20
4.963595262
 30
0.0
 10
16.1234156838
 20
4.9566168618
 30
0.0
 10
16.1254635676
 20
4.9491435415
 30
0.0
 10
16.1259449617
 20
4.9439663416
 30
0.0
 10
16.1259417149
 20
4.9413753216
 30
0.0
  0
SPLINE
  5
56B
100
AcDbEntity
  8
0
100
AcDbSpline
 62
9
  6
CONTINUOUS
 70
0
 71
3
 72
20
 73
16
 74
0
 42
0.0000001
 43
0.0000001
 44
0.0000000001
 40
0.0
 40
0.0
 40
0.0
 40
0.0
 40
0.1422023826
 40
0.2822191469
 40
0.4194073035
 40
0.5528976627
 40
0.6179476253
 40
0.6812231653
 40
0.7421871347
 40
0.800545729
 40
0.8560400399
 40
0.9076653959
 40
0.9550952222
 40
0.9776827164
 40
1.0
 40
1.0
 40
1.0
 40
1.0
 10
16.0258453019
 20
4.9767306627
 30
0.0
 10
16.0301141509
 20
4.9761368463
 30
0.0
 10
16.0385712233
 20
4.9748445579
 30
0.0
 10
16.0510637014
 20
4.9724762832
 30
0.0
 10
16.0631812128
 20
4.9696059585
 30
0.0
 10
16.072930476
 20
4.9666594809
 30
0.0
 10
16.0803775407
 20
4.9639116907
 30
0.0
 10
16.0856471698
 20
4.9616338442
 30
0.0
 10
16.0905602203
 20
4.959072458
 30
0.0
 10
16.095013022
 20
4.9561825355
 30
0.0
 10
16.0988709753
 20
4.9529527453
 30
0.0
 10
16.1019665062
 20
4.9494064332
 30
0.0
 10
16.1037531451
 20
4.9461263713
 30
0.0
 10
16.1044937093
 20
4.9434157944
 30
0.0
 10
16.1046205004
 20
4.942051727
 30
0.0
 10
16.1046198941
 20
4.9413753221
 30
0.0
  0
SPLINE
  5
56C
100
AcDbEntity
  8
0
100
AcDbSpline
 62
9
  6
CONTINUOUS
 70
0
 71
3
 72
20
 73
16
 74
0
 42
0.0000001
 43
0.0000001
 44
0.0000000001
 40
0.0
 40
0.0
 40
0.0
 40
0.0
 40
0.0223173822
 40
0.044904903
 40
0.0923346929
 40
0.1439600398
 40
0.1994544406
 40
0.2578131071
 40
0.3187770326
 40
0.3820524685
 40
0.4471023328
 40
0.5805925849
 40
0.7177807127
 40
0.8577975245
 40
1.0
 40
1.0
 40
1.0
 40
1.0
 10
15.6803274427
 20
4.9413753221
 30
0.0
 10
15.6803268314
 20
4.94205173
 30
0.0
 10
15.6804536137
 20
4.9434158025
 30
0.0
 10
15.6811941681
 20
4.9461263857
 30
0.0
 10
15.6829808092
 20
4.949406448
 30
0.0
 10
15.6860763543
 20
4.9529527506
 30
0.0
 10
15.6899343216
 20
4.9561825314
 30
0.0
 10
15.6943871274
 20
4.9590724544
 30
0.0
 10
15.6993001747
 20
4.961633843
 30
0.0
 10
15.7045697956
 20
4.9639116914
 30
0.0
 10
15.7120168514
 20
4.9666594814
 30
0.0
 10
15.7217661088
 20
4.9696059575
 30
0.0
 10
15.7338836187
 20
4.9724762825
 30
0.0
 10
15.7463761019
 20
4.9748445562
 30
0.0
 10
15.7548331795
 20
4.9761368446
 30
0.0
 10
15.7591020318
 20
4.9767306614
 30
0.0
  0
SPLINE
  5
56D
100
AcDbEntity
  8
0
100
AcDbSpline
 62
9
  6
CONTINUOUS
 70
0
 71
3
 72
17
 73
13
 74
0
 42
0.0000001
 43
0.0000001
 44
0.0000000001
 40
0.0
 40
0.0
 40
0.0
 40
0.0
 40
0.0648506028
 40
0.1292906715
 40
0.1930806823
 40
0.2561854018
 40
0.380641079
 40
0.5040354757
 40
0.6272532692
 40
0.7508234242
 40
0.8750327999
 40
1.0
 40
1.0
 40
1.0
 40
1.0
 10
15.6590056186
 20
4.9413753216
 30
0.0
 10
15.6590023815
 20
4.9439663391
 30
0.0
 10
15.6594837587
 20
4.949143538
 30
0.0
 10
15.6615316466
 20
4.9566168602
 30
0.0
 10
15.6647268457
 20
4.9635952627
 30
0.0
 10
15.670169803
 20
4.9720666028
 30
0.0
 10
15.6787317087
 20
4.9812100814
 30
0.0
 10
15.6906518666
 20
4.9901096697
 30
0.0
 10
15.7035817852
 20
4.9973568682
 30
0.0
 10
15.7171839009
 20
5.0032930855
 30
0.0
 10
15.7312635391
 20
5.0081809771
 30
0.0
 10
15.7408571463
 20
5.010862577
 30
0.0
 10
15.7456978353
 20
5.0120859997
 30
0.0
  0
SPLINE
  5
56E
100
AcDbEntity
  8
0
100
AcDbSpline
 62
9
  6
CONTINUOUS
 70
0
 71
3
 72
11
 73
7
 74
0
 42
0.0000001
 43
0.0000001
 44
0.0000000001
 40
0.0
 40
0.0
 40
0.0
 40
0.0
 40
0.2676210053
 40
0.5337598127
 40
0.7822677641
 40
1.0
 40
1.0
 40
1.0
 40
1.0
 10
15.745697716
 20
5.0120859767
 30
0.0
 10
15.7465431262
 20
5.008812638
 30
0.0
 10
15.7484067149
 20
5.0023289558
 30
0.0
 10
15.7516208051
 20
4.9929786283
 30
0.0
 10
15.7551552812
 20
4.9844228094
 30
0.0
 10
15.7577643139
 20
4.9791340699
 30
0.0
 10
15.7591018911
 20
4.9767306825
 30
0.0
  0
SPLINE
  5
56F
100
AcDbEntity
  8
0
100
AcDbSpline
 62
9
  6
CONTINUOUS
 70
0
 71
3
 72
30
 73
26
 74
0
 42
0.0000001
 43
0.0000001
 44
0.0000000001
 40
0.0
 40
0.0
 40
0.0
 40
0.0
 40
0.0002690679
 40
0.0006049538
 40
0.0010746754
 40
0.0024144289
 40
0.0042859364
 40
0.0066868068
 40
0.0096146501
 40
0.0170417017
 40
0.0265479971
 40
0.0381144618
 40
0.0517220411
 40
0.0673517013
 40
0.0849844295
 40
0.104601234
 40
0.1497111954
 40
0.2025301105
 40
0.2629068563
 40
0.3306906917
 40
0.4057312718
 40
0.4878786634
 40
0.5769833609
 40
0.7754684302
 40
1.0
 40
1.0
 40
1.0
 40
1.0
 10
11.6523134362
 20
10.5355237499
 30
0.0
 10
11.6523173956
 20
10.5355222501
 30
0.0
 10
11.6523134278
 20
10.5355085803
 30
0.0
 10
11.6523185332
 20
10.5354940292
 30
0.0
 10
11.6523216813
 20
10.5354593524
 30
0.0
 10
11.6523308772
 20
10.5354029178
 30
0.0
 10
11.6523425019
 20
10.5353150065
 30
0.0
 10
11.6523582509
 20
10.5352029497
 30
0.0
 10
11.6523854975
 20
10.5350040217
 30
0.0
 10
11.6524277185
 20
10.5346944054
 30
0.0
 10
11.6524874133
 20
10.5342499184
 30
0.0
 10
11.6525591514
 20
10.5337089489
 30
0.0
 10
11.6526424122
 20
10.5330723015
 30
0.0
 10
11.6527367459
 20
10.5323408381
 30
0.0
 10
11.6528416788
 20
10.5315154007
 30
0.0
 10
11.6530027597
 20
10.5302294834
 30
0.0
 10
11.6532273545
 20
10.5283935269
 30
0.0
 10
11.6535205685
 20
10.5259198227
 30
0.0
 10
11.6538449594
 20
10.5230905514
 30
0.0
 10
11.6541967859
 20
10.5199124897
 30
0.0
 10
11.6545723024
 20
10.5163924131
 30
0.0
 10
11.6549677677
 20
10.5125370973
 30
0.0
 10
11.6555374729
 20
10.5067470494
 30
0.0
 10
11.6562740518
 20
10.4987222022
 30
0.0
 10
11.6568244204
 20
10.492088519
 30
0.0
 10
11.657101321
 20
10.4885662736
 30
0.0
  0
SPLINE
  5
570
100
AcDbEntity
  8
0
100
AcDbSpline
 62
7
  6
CONTINUOUS
 70
0
 71
3
 72
11
 73
7
 74
0
 42
0.0000001
 43
0.0000001
 44
0.0000000001
 40
0.0
 40
0.0
 40
0.0
 40
0.0
 40
0.1879892797
 40
0.4225927641
 40
0.6958131324
 40
1.0
 40
1.0
 40
1.0
 40
1.0
 10
11.657101321
 20
10.4885662736
 30
0.0
 10
11.6581981298
 20
10.4746145916
 30
0.0
 10
11.6601350809
 20
10.443208728
 30
0.0
 10
11.661604361
 20
10.3914192546
 30
0.0
 10
11.6609905069
 20
10.3309566064
 30
0.0
 10
11.6586300024
 20
10.2880162377
 30
0.0
 10
11.6568178615
 20
10.2654438863
 30
0.0
  0
SPLINE
  5
571
100
AcDbEntity
  8
0
100
AcDbSpline
 62
7
  6
CONTINUOUS
 70
0
 71
3
 72
9
 73
5
 74
0
 42
0.0000001
 43
0.0000001
 44
0.0000000001
 40
0.0
 40
0.0
 40
0.0
 40
0.0
 40
0.4995934375
 40
1.0
 40
1.0
 40
1.0
 40
1.0
 10
15.1614917026
 20
6.4056329458
 30
0.0
 10
15.178111151
 20
6.3858266584
 30
0.0
 10
15.210713161
 20
6.3456244588
 30
0.0
 10
15.2417895659
 20
6.3042049825
 30
0.0
 10
15.2566102925
 20
6.2829677752
 30
0.0
  0
LINE
  5
572
100
AcDbEntity
  8
0
100
AcDbLine
 62
9
  6
CONTINUOUS
 10
11.6568178615
 20
10.2654438863
 11
11.6188067491
 21
10.2849668108
  0
SPLINE
  5
573
100
AcDbEntity
  8
0
100
AcDbSpline
 62
7
  6
CONTINUOUS
 70
0
 71
3
 72
12
 73
8
 74
0
 42
0.0000001
 43
0.0000001
 44
0.0000000001
 40
0.0
 40
0.0
 40
0.0
 40
0.0
 40
0.2478834681
 40
0.4964324643
 40
0.6212189444
 40
0.7465591513
 40
1.0
 40
1.0
 40
1.0
 40
1.0
 10
15.2481181136
 20
6.4783211353
 30
0.0
 10
15.2564291696
 20
6.4684164045
 30
0.0
 10
15.2725932356
 20
6.4481707003
 30
0.0
 10
15.2914615219
 20
6.4218080383
 30
0.0
 10
15.3057147722
 20
6.4000449166
 30
0.0
 10
15.3193893353
 20
6.3776162027
 30
0.0
 10
15.3287012643
 20
6.3601543137
 30
0.0
 10
15.3343588143
 20
6.3482065312
 30
0.0
  0
SPLINE
  5
574
100
AcDbEntity
  8
0
100
AcDbSpline
 62
7
  6
CONTINUOUS
 70
0
 71
3
 72
13
 73
9
 74
0
 42
0.0000001
 43
0.0000001
 44
0.0000000001
 40
0.0
 40
0.0
 40
0.0
 40
0.0
 40
0.2447129374
 40
0.4910958373
 40
0.6155653411
 40
0.7414083159
 40
0.8692770798
 40
1.0
 40
1.0
 40
1.0
 40
1.0
 10
15.3264916655
 20
6.5440843538
 30
0.0
 10
15.3348067429
 20
6.5341748305
 30
0.0
 10
15.3507260983
 20
6.5136275928
 30
0.0
 10
15.3684552711
 20
6.4862922753
 30
0.0
 10
15.3812875968
 20
6.4633764656
 30
0.0
 10
15.3901695858
 20
6.4454550373
 30
0.0
 10
15.3981198747
 20
6.4267396941
 30
0.0
 10
15.4026421199
 20
6.4138266514
 30
0.0
 10
15.4047002695
 20
6.4072300203
 30
0.0
  0
SPLINE
  5
575
100
AcDbEntity
  8
0
100
AcDbSpline
 62
9
  6
CONTINUOUS
 70
0
 71
3
 72
11
 73
7
 74
0
 42
0.0000001
 43
0.0000001
 44
0.0000000001
 40
0.0
 40
0.0
 40
0.0
 40
0.0
 40
0.2639333255
 40
0.5208090964
 40
0.7673517676
 40
1.0
 40
1.0
 40
1.0
 40
1.0
 10
11.5629887714
 20
10.014474667
 30
0.0
 10
11.5708653534
 20
10.0375181052
 30
0.0
 10
11.5847025759
 20
10.0835871618
 30
0.0
 10
11.6005477474
 20
10.1526365275
 30
0.0
 10
11.6118417531
 20
10.2196404699
 30
0.0
 10
11.616891644
 20
10.2635865784
 30
0.0
 10
11.6188067491
 20
10.2849668108
 30
0.0
  0
SPLINE
  5
576
100
AcDbEntity
  8
0
100
AcDbSpline
 62
7
  6
CONTINUOUS
 70
0
 71
3
 72
11
 73
7
 74
0
 42
0.0000001
 43
0.0000001
 44
0.0000000001
 40
0.0
 40
0.0
 40
0.0
 40
0.0
 40
0.2360454706
 40
0.4834947008
 40
0.7390638902
 40
1.0
 40
1.0
 40
1.0
 40
1.0
 10
11.6568179043
 20
10.2654438643
 30
0.0
 10
11.6551069459
 20
10.2441318584
 30
0.0
 10
11.6505624745
 20
10.2005535741
 30
0.0
 10
11.6400846839
 20
10.1343988494
 30
0.0
 10
11.6250619929
 20
10.066803326
 30
0.0
 10
11.6116501446
 20
10.0219236937
 30
0.0
 10
11.6039495583
 20
9.9995782231
 30
0.0
  0
SPLINE
  5
577
100
AcDbEntity
  8
0
100
AcDbSpline
 62
7
  6
CONTINUOUS
 70
0
 71
3
 72
18
 73
14
 74
0
 42
0.0000001
 43
0.0000001
 44
0.0000000001
 40
0.0
 40
0.0
 40
0.0
 40
0.0
 40
0.1988933148
 40
0.3830756951
 40
0.5481777111
 40
0.6907171319
 40
0.807777725
 40
0.856013963
 40
0.8972620156
 40
0.9316345937
 40
0.9594760571
 40
0.9816317257
 40
1.0
 40
1.0
 40
1.0
 40
1.0
 10
10.5685337379
 20
9.8096462615
 30
0.0
 10
10.5675312464
 20
9.8102208776
 30
0.0
 10
10.5656168981
 20
9.8113567773
 30
0.0
 10
10.5629333317
 20
9.8130728103
 30
0.0
 10
10.560587766
 20
9.8147063652
 30
0.0
 10
10.5586343335
 20
9.8162151461
 30
0.0
 10
10.557291068
 20
9.81739983
 30
0.0
 10
10.5564607283
 20
9.8182671626
 30
0.0
 10
10.5560014981
 20
9.8188221622
 30
0.0
 10
10.5556649642
 20
9.8193219121
 30
0.0
 10
10.5554522629
 20
9.8197661619
 30
0.0
 10
10.5553631774
 20
9.8201586512
 30
0.0
 10
10.5554024777
 20
9.820400122
 30
0.0
 10
10.5554463977
 20
9.8204973777
 30
0.0
  0
SPLINE
  5
578
100
AcDbEntity
  8
0
100
AcDbSpline
 62
7
  6
CONTINUOUS
 70
0
 71
3
 72
13
 73
9
 74
0
 42
0.0000001
 43
0.0000001
 44
0.0000000001
 40
0.0
 40
0.0
 40
0.0
 40
0.0
 40
0.2447129374
 40
0.4910958373
 40
0.6155653411
 40
0.7414083159
 40
0.8692770798
 40
1.0
 40
1.0
 40
1.0
 40
1.0
 10
14.9070555255
 20
6.1921356435
 30
0.0
 10
14.9153706029
 20
6.1822261201
 30
0.0
 10
14.9328413148
 20
6.1629806251
 30
0.0
 10
14.9566827089
 20
6.1407740702
 30
0.0
 10
14.9770220659
 20
6.1241574078
 30
0.0
 10
14.9931288863
 20
6.1122983327
 30
0.0
 10
15.0101793481
 20
6.1012189414
 30
0.0
 10
15.0221109331
 20
6.0945230729
 30
0.0
 10
15.0282499527
 20
6.0913506983
 30
0.0
  0
ENDSEC
  0
SECTION
  2
OBJECTS
  0
DICTIONARY
  5
C
100
AcDbDictionary
280
0
281
1
  3
ACAD_GROUP
350
D
  3
ACAD_MLINESTYLE
350
17
  3
ACAD_LAYOUT
350
1A
  3
ACAD_PLOTSETTINGS
350
19
  3
ACAD_PLOTSTYLENAME
350
E
  0
DICTIONARY
  5
D
102
{ACAD_REACTORS
330
C
102
}
100
AcDbDictionary
280
0
281
1
  0
ACDBDICTIONARYWDFLT
  5
E
102
{ACAD_REACTORS
330
C
102
}
100
AcDbDictionary
281
1
  3
Normal
350
F
100
AcDbDictionaryWithDefault
340
F
  0
DICTIONARY
  5
17
102
{ACAD_REACTORS
330
C
102
}
100
AcDbDictionary
280
0
281
1
  3
Standard
350
18
  0
DICTIONARY
  5
19
102
{ACAD_REACTORS
330
C
102
}
100
AcDbDictionary
281
1
  0
DICTIONARY
  5
1A
102
{ACAD_REACTORS
330
C
102
}
100
AcDbDictionary
281
1
  3
Model
350
579
  3
Layout1
350
57A
  0
ACDBPLACEHOLDER
  5
F
102
{ACAD_REACTORS
330
E
102
}
  0
MLINESTYLE
  5
18
102
{ACAD_REACTORS
330
17
102
}
100
AcDbMlineStyle
  2
STANDARD
 70
0
  3

 62
256
 51
90.0
 52
90.0
 71
2
 49
0.5
 62
256
  6
BYLAYER
 49
-0.5
 62
256
  6
BYLAYER
  0
LAYOUT
  5
579
102
{ACAD_REACTORS
330
1A
102
}
100
AcDbPlotSettings
  1

  2
none_device
  4
ANSI_C_(22.00_x_17.00_Inches)
  6

 40
0.0
 41
0.0
 42
0.0
 43
0.0
 44
558.8
 45
431.8
 46
0.0
 47
0.0
 48
0.0
 49
0.0
140
0.0
141
0.0
142
1.0
143
1.0
 70
1024
 72
0
 73
0
 74
0
  7

 75
0
147
1.0
148
0.0
149
0.0
100
AcDbLayout
  1
Model
 70
0
 71
0
 10
0.0
 20
0.0
 11
22.0
 21
17.0
 12
0.0
 22
0.0
 32
0.0
 14
0.0
 24
0.0
 34
0.0
 15
0.0
 25
0.0
 35
0.0
146
0.0
 13
0.0
 23
0.0
 33
0.0
 16
1.0
 26
0.0
 36
0.0
 17
0.0
 27
1.0
 37
0.0
 76
0
330
202
345
0
346
0
  0
LAYOUT
  5
57A
102
{ACAD_REACTORS
330
1A
102
}
100
AcDbPlotSettings
  1

  2
none_device
  4
ANSI_C_(22.00_x_17.00_Inches)
  6

 40
0.0
 41
0.0
 42
0.0
 43
0.0
 44
558.8
 45
431.8
 46
0.0
 47
0.0
 48
0.0
 49
0.0
140
0.0
141
0.0
142
1.0
143
1.0
 70
0
 72
0
 73
0
 74
0
  7

 75
0
147
1.0
148
0.0
149
0.0
100
AcDbLayout
  1
Layout1
 70
0
 71
1
 10
0.0
 20
0.0
 11
22.0
 21
17.0
 12
0.0
 22
0.0
 32
0.0
 14
0.0
 24
0.0
 34
0.0
 15
0.0
 25
0.0
 35
0.0
146
0.0
 13
0.0
 23
0.0
 33
0.0
 16
1.0
 26
0.0
 36
0.0
 17
0.0
 27
1.0
 37
0.0
 76
0
330
203
345
0
346
0
  0
ENDSEC
  0
EOF
