999
DXF file: 3-991_right.dxf
999
Pro/ENGINEER 2018400 by Parametric Technology Corporation
  0
SECTION
  2
HEADER
  9
$ACADVER
  1
AC1027
  9
$DWGCODEPAGE
  3
ANSI_1252
  9
$EXTMAX
 10
11.0
 20
8.5
 30
0.0
  9
$EXTMIN
 10
0.0
 20
0.0
 30
0.0
  9
$LIMMIN
 10
0.0
 20
0.0
  9
$LIMMAX
 10
11.0
 20
8.5
  9
$VIEWCTR
 10
5.5
 20
4.25
  9
$VIEWSIZE
 40
8.5
  9
$CLAYER
  8
0
  9
$LTSCALE
 40
0.605
  9
$CELTYPE
  6
BYLAYER
  9
$DIMSCALE
 40
1.0
  9
$DIMASZ
 40
0.1
  9
$DIMEXO
 40
0.0625
  9
$DIMDLI
 40
0.418
  9
$DIMEXE
 40
0.125
  9
$DIMCEN
 40
0.099
  9
$DIMLFAC
 40
1.0
  9
$DIMBLK
  1
_FILLED
  9
$DIMALT
 70
1
  9
$DIMALTD
 70
2
  9
$DIMALTTD
 70
2
  9
$DIMALTF
 40
25.4
  9
$DIMTXT
 40
0.08
  9
$DIMTOL
 70
1
  9
$DIMLIM
 70
0
  9
$DIMTFAC
 40
1.0
  9
$DIMTP
 40
0.001
  9
$DIMTM
 40
0.001
  9
$DIMGAP
 40
0.09
  9
$DIMDSEP
 70
46
  9
$AUNITS
 70
0
  9
$PDMODE
 70
3
  9
$PDSIZE
 40
0.3125
  9
$HANDSEED
  5
264
  9
$TILEMODE
 70
1
  9
$MEASUREMENT
 70
0
  9
$INSUNITS
 70
1
  0
ENDSEC
  0
SECTION
  2
CLASSES
  0
CLASS
  1
ACDBDICTIONARYWDFLT
  2
AcDbDictionaryWithDefault
  3
AutoCAD 2000
 90
0
 91
1
280
0
281
0
  0
CLASS
  1
ACDBPLACEHOLDER
  2
AcDbPlaceHolder
  3
AutoCAD 2000
 90
0
 91
1
280
0
281
0
  0
CLASS
  1
LAYOUT
  2
AcDbLayout
  3
AutoCAD 2000
 90
0
 91
0
280
0
281
0
  0
ENDSEC
  0
SECTION
  2
TABLES
  0
TABLE
  2
VPORT
  5
8
100
AcDbSymbolTable
 70
2
  0
VPORT
  5
1F4
100
AcDbSymbolTableRecord
100
AcDbViewportTableRecord
  2
*ACTIVE
 70
0
 10
0.0
 20
0.0
 11
1.0
 21
1.0
 12
5.5
 22
4.25
 13
0.0
 23
0.0
 14
1.0
 24
1.0
 15
0.0
 25
0.0
 16
0.0
 26
0.0
 36
1.0
 17
0.0
 27
0.0
 37
0.0
 40
8.5
 41
1.2941176471
 42
50.0
 43
0.0
 44
0.0
 50
0.0
 51
0.0
 71
0
 72
100
 73
1
 74
1
 75
0
 76
0
 77
0
 78
0
  0
ENDTAB
  0
TABLE
  2
LTYPE
  5
5
100
AcDbSymbolTable
 70
6
  0
LTYPE
  5
14
100
AcDbSymbolTableRecord
100
AcDbLinetypeTableRecord
  2
BYBLOCK
 70
0
  3

 72
65
 73
0
 40
0.0
  0
LTYPE
  5
15
100
AcDbSymbolTableRecord
100
AcDbLinetypeTableRecord
  2
BYLAYER
 70
0
  3

 72
65
 73
0
 40
0.0
  0
LTYPE
  5
16
100
AcDbSymbolTableRecord
100
AcDbLinetypeTableRecord
  2
CONTINUOUS
 70
64
  3
Solid line
 72
65
 73
0
 40
0.0
  0
LTYPE
  5
1F5
100
AcDbSymbolTableRecord
100
AcDbLinetypeTableRecord
  2
CENTER
 70
64
  3
____ _ ____ _ ____ _ ____ _ ____ _ ____ _ ____
 72
65
 73
4
 40
0.6
 49
0.375
 74
0
 49
-0.075
 74
0
 49
0.075
 74
0
 49
-0.075
 74
0
  0
LTYPE
  5
1F6
100
AcDbSymbolTableRecord
100
AcDbLinetypeTableRecord
  2
HIDDEN
 70
64
  3
- - - - - - - - - - - - - - - - - - - -
 72
65
 73
2
 40
0.2
 49
0.1
 74
0
 49
-0.1
 74
0
  0
LTYPE
  5
1F7
100
AcDbSymbolTableRecord
100
AcDbLinetypeTableRecord
  2
PHANTOM
 70
64
  3
_____ _ _ _____ _ _ _____ _ _ _____
 72
65
 73
6
 40
0.8
 49
0.45
 74
0
 49
-0.05
 74
0
 49
0.1
 74
0
 49
-0.05
 74
0
 49
0.1
 74
0
 49
-0.05
 74
0
  0
LTYPE
  5
1F8
100
AcDbSymbolTableRecord
100
AcDbLinetypeTableRecord
  2
DOT
 70
64
  3
. . . . . . . . . . . . . . . . . . . .
 72
65
 73
2
 40
0.2
 49
0.1
 74
0
 49
-0.1
 74
0
  0
LTYPE
  5
1F9
100
AcDbSymbolTableRecord
100
AcDbLinetypeTableRecord
  2
DASHED
 70
64
  3
- - - - - - - - - - - - - - - - - - - -
 72
65
 73
2
 40
0.2
 49
0.1
 74
0
 49
-0.1
 74
0
  0
ENDTAB
  0
TABLE
  2
LAYER
  5
2
100
AcDbSymbolTable
 70
36
  0
LAYER
  5
10
100
AcDbSymbolTableRecord
100
AcDbLayerTableRecord
  2
0
 70
0
 62
7
  6
CONTINUOUS
370
-3
390
F
  0
LAYER
  5
1FA
100
AcDbSymbolTableRecord
100
AcDbLayerTableRecord
  2
DEFAULT_1
 70
0
 62
7
  6
CENTER
370
-3
390
F
  0
LAYER
  5
1FB
100
AcDbSymbolTableRecord
100
AcDbLayerTableRecord
  2
DEFAULT_2
 70
0
 62
8
  6
HIDDEN
370
-3
390
F
  0
LAYER
  5
1FC
100
AcDbSymbolTableRecord
100
AcDbLayerTableRecord
  2
DEFAULT_3
 70
0
 62
7
  6
PHANTOM
370
-3
390
F
  0
LAYER
  5
1FD
100
AcDbSymbolTableRecord
100
AcDbLayerTableRecord
  2
2-100_ASSY_DATUMS
 70
0
 62
7
  6
CONTINUOUS
370
-3
390
F
  0
LAYER
  5
1FE
100
AcDbSymbolTableRecord
100
AcDbLayerTableRecord
  2
2-110_ASSY_DATUMS
 70
0
 62
7
  6
CONTINUOUS
370
-3
390
F
  0
LAYER
  5
1FF
100
AcDbSymbolTableRecord
100
AcDbLayerTableRecord
  2
2-120_ASSY_PLANES
 70
0
 62
7
  6
CONTINUOUS
370
-3
390
F
  0
LAYER
  5
200
100
AcDbSymbolTableRecord
100
AcDbLayerTableRecord
  2
2-127_ASSY_PLANES
 70
0
 62
7
  6
CONTINUOUS
370
-3
390
F
  0
LAYER
  5
201
100
AcDbSymbolTableRecord
100
AcDbLayerTableRecord
  2
2-247_ASSY_DATUMS
 70
0
 62
7
  6
CONTINUOUS
370
-3
390
F
  0
LAYER
  5
202
100
AcDbSymbolTableRecord
100
AcDbLayerTableRecord
  2
3-227_ASSY_DATUMS
 70
0
 62
7
  6
CONTINUOUS
370
-3
390
F
  0
LAYER
  5
203
100
AcDbSymbolTableRecord
100
AcDbLayerTableRecord
  2
3-229_ASSY_PLANES
 70
0
 62
7
  6
CONTINUOUS
370
-3
390
F
  0
LAYER
  5
204
100
AcDbSymbolTableRecord
100
AcDbLayerTableRecord
  2
3-991_ASSY_PLANES
 70
0
 62
7
  6
CONTINUOUS
370
-3
390
F
  0
LAYER
  5
205
100
AcDbSymbolTableRecord
100
AcDbLayerTableRecord
  2
ALL_ASSEMBLY_MEMBERS
 70
0
 62
7
  6
CONTINUOUS
370
-3
390
F
  0
LAYER
  5
206
100
AcDbSymbolTableRecord
100
AcDbLayerTableRecord
  2
ALL_FEATURES
 70
0
 62
7
  6
CONTINUOUS
370
-3
390
F
  0
LAYER
  5
207
100
AcDbSymbolTableRecord
100
AcDbLayerTableRecord
  2
AXES_FEATURES
 70
0
 62
7
  6
CONTINUOUS
370
-3
390
F
  0
LAYER
  5
208
100
AcDbSymbolTableRecord
100
AcDbLayerTableRecord
  2
CHAMFER_FEATURES
 70
0
 62
7
  6
CONTINUOUS
370
-3
390
F
  0
LAYER
  5
209
100
AcDbSymbolTableRecord
100
AcDbLayerTableRecord
  2
CUT_FEATURES
 70
0
 62
7
  6
CONTINUOUS
370
-3
390
F
  0
LAYER
  5
20A
100
AcDbSymbolTableRecord
100
AcDbLayerTableRecord
  2
DATUM_CURVES
 70
0
 62
7
  6
CONTINUOUS
370
-3
390
F
  0
LAYER
  5
20B
100
AcDbSymbolTableRecord
100
AcDbLayerTableRecord
  2
DATUM_PLANES
 70
0
 62
7
  6
CONTINUOUS
370
-3
390
F
  0
LAYER
  5
20C
100
AcDbSymbolTableRecord
100
AcDbLayerTableRecord
  2
DEFAULT_COORDINATE_SYSTEM
 70
0
 62
7
  6
CONTINUOUS
370
-3
390
F
  0
LAYER
  5
20D
100
AcDbSymbolTableRecord
100
AcDbLayerTableRecord
  2
DEFAULT_DATUM_AXES
 70
0
 62
7
  6
CONTINUOUS
370
-3
390
F
  0
LAYER
  5
20E
100
AcDbSymbolTableRecord
100
AcDbLayerTableRecord
  2
DEFAULT_DATUM_CURVES
 70
0
 62
7
  6
CONTINUOUS
370
-3
390
F
  0
LAYER
  5
20F
100
AcDbSymbolTableRecord
100
AcDbLayerTableRecord
  2
DEFAULT_DATUM_PLANES
 70
0
 62
7
  6
CONTINUOUS
370
-3
390
F
  0
LAYER
  5
210
100
AcDbSymbolTableRecord
100
AcDbLayerTableRecord
  2
DEFAULT_SURFACES
 70
0
 62
7
  6
CONTINUOUS
370
-3
390
F
  0
LAYER
  5
211
100
AcDbSymbolTableRecord
100
AcDbLayerTableRecord
  2
DIMENSIONS
 70
0
 62
7
  6
CONTINUOUS
370
-3
390
F
  0
LAYER
  5
212
100
AcDbSymbolTableRecord
100
AcDbLayerTableRecord
  2
HIDE_91208
 70
0
 62
7
  6
CONTINUOUS
370
-3
390
F
  0
LAYER
  5
213
100
AcDbSymbolTableRecord
100
AcDbLayerTableRecord
  2
PART_REFERENCE_DIMENSIONS
 70
0
 62
7
  6
CONTINUOUS
370
-3
390
F
  0
LAYER
  5
214
100
AcDbSymbolTableRecord
100
AcDbLayerTableRecord
  2
PLATED_SURFACE
 70
0
 62
7
  6
CONTINUOUS
370
-3
390
F
  0
LAYER
  5
215
100
AcDbSymbolTableRecord
100
AcDbLayerTableRecord
  2
PLATED_SURFACE_AREA
 70
0
 62
7
  6
CONTINUOUS
370
-3
390
F
  0
LAYER
  5
216
100
AcDbSymbolTableRecord
100
AcDbLayerTableRecord
  2
PROTRUSION_FEATURES
 70
0
 62
7
  6
CONTINUOUS
370
-3
390
F
  0
LAYER
  5
217
100
AcDbSymbolTableRecord
100
AcDbLayerTableRecord
  2
QUILT
 70
0
 62
7
  6
CONTINUOUS
370
-3
390
F
  0
LAYER
  5
218
100
AcDbSymbolTableRecord
100
AcDbLayerTableRecord
  2
QUILTS
 70
0
 62
7
  6
CONTINUOUS
370
-3
390
F
  0
LAYER
  5
219
100
AcDbSymbolTableRecord
100
AcDbLayerTableRecord
  2
REFERENCE_DIMENSIONS
 70
0
 62
7
  6
CONTINUOUS
370
-3
390
F
  0
LAYER
  5
21A
100
AcDbSymbolTableRecord
100
AcDbLayerTableRecord
  2
ROUND_FEATURES
 70
0
 62
7
  6
CONTINUOUS
370
-3
390
F
  0
LAYER
  5
21B
100
AcDbSymbolTableRecord
100
AcDbLayerTableRecord
  2
SHELL_FEATURES
 70
0
 62
7
  6
CONTINUOUS
370
-3
390
F
  0
LAYER
  5
21C
100
AcDbSymbolTableRecord
100
AcDbLayerTableRecord
  2
WETTED_SURFACE_AREA
 70
0
 62
7
  6
CONTINUOUS
370
-3
390
F
  0
ENDTAB
  0
TABLE
  2
STYLE
  5
3
100
AcDbSymbolTable
 70
1
  0
STYLE
  5
11
100
AcDbSymbolTableRecord
100
AcDbTextStyleTableRecord
  2
STANDARD
 70
0
 40
0.0
 41
0.8
 50
0.0
 71
0
 42
0.2
  3
txt
  4

  0
STYLE
  5
21D
100
AcDbSymbolTableRecord
100
AcDbTextStyleTableRecord
  2
TEXTSTYLE_1
 70
0
 40
0.0
 41
0.8
 50
0.0
 71
0
 42
0.2
  3
gdt
  4

  0
ENDTAB
  0
TABLE
  2
VIEW
  5
6
100
AcDbSymbolTable
 70
0
  0
ENDTAB
  0
TABLE
  2
UCS
  5
7
100
AcDbSymbolTable
 70
0
  0
ENDTAB
  0
TABLE
  2
APPID
  5
9
100
AcDbSymbolTable
 70
1
  0
APPID
  5
21E
100
AcDbSymbolTableRecord
100
AcDbRegAppTableRecord
  2
ACAD
 70
0
  0
ENDTAB
  0
TABLE
  2
BLOCK_RECORD
  5
1
100
AcDbSymbolTable
 70
0
  0
BLOCK_RECORD
  5
21F
100
AcDbSymbolTableRecord
100
AcDbBlockTableRecord
  2
*Model_Space
  0
BLOCK_RECORD
  5
220
100
AcDbSymbolTableRecord
100
AcDbBlockTableRecord
  2
*Paper_Space
  0
BLOCK_RECORD
  5
221
100
AcDbSymbolTableRecord
100
AcDbBlockTableRecord
  2
_FILLED
  0
ENDTAB
  0
TABLE
  2
DIMSTYLE
  5
A
100
AcDbSymbolTable
 70
1
100
AcDbDimStyleTable
 71
0
  0
DIMSTYLE
105
222
100
AcDbSymbolTableRecord
100
AcDbDimStyleTableRecord
  2
STANDARD
 70
0
  3

  4

 40
1.0
 41
0.1
 42
0.0625
 43
0.38
 44
0.125
 45
0.0
 46
0.0
 47
0.001
 48
0.001
140
0.08
141
0.09
142
0.0
143
25.4
144
1.0
145
0.0
146
1.0
147
0.09
 71
1.0
 72
0.0
 73
1
 74
1
 75
0
 76
0
 77
0
 78
4
 79
1
170
1
171
2
172
0
173
0
174
0
175
0
176
0
177
0
178
0
270
2
179
3
271
3
272
3
273
2
274
2
275
0
280
0
281
0
282
0
283
1
284
4
285
0
286
0
287
3
288
0
340
11
278
46
341
221
342
221
343
221
344
221
  0
ENDTAB
  0
ENDSEC
  0
SECTION
  2
BLOCKS
  0
BLOCK
  5
20
100
AcDbEntity
  8
0
100
AcDbBlockBegin
  2
*Model_Space
 70
0
 10
0.0
 20
0.0
 30
0.0
  3
*Model_Space
  1

  0
ENDBLK
  5
21
100
AcDbEntity
  8
0
100
AcDbBlockEnd
  0
BLOCK
  5
1C
100
AcDbEntity
  8
0
100
AcDbBlockBegin
  2
*Paper_Space
 70
0
 10
0.0
 20
0.0
 30
0.0
  3
*Paper_Space
  1

  0
ENDBLK
  5
1D
100
AcDbEntity
  8
0
100
AcDbBlockEnd
  0
BLOCK
  5
223
100
AcDbEntity
  8
0
100
AcDbBlockBegin
  2
_FILLED
 70
64
 10
0.0
 20
0.0
  3
_FILLED
  1

  0
SOLID
  5
224
100
AcDbEntity
  8
0
  6
BYBLOCK
 62
0
100
AcDbTrace
 10
0.0
 20
0.0
 11
-1.0
 21
0.2
 12
-1.0
 22
-0.2
 13
-1.0
 23
-0.2
  0
ENDBLK
  5
225
100
AcDbEntity
  8
0
  6
BYBLOCK
 62
0
100
AcDbBlockEnd
  0
ENDSEC
  0
SECTION
  2
ENTITIES
  0
MTEXT
  5
226
100
AcDbEntity
  8
0
100
AcDbMText
 62
2
  6
CONTINUOUS
  7
STANDARD
 71
3
 72
1
 10
2.6866921118
 20
1.5388858696
 30
0.0
 11
1.0
 21
0.0
 31
0.0
 73
2
 44
0.9
  1
SCALE  .500
 40
0.08
 41
0.704
  0
LINE
  5
227
100
AcDbEntity
  8
0
100
AcDbLine
 62
7
  6
CONTINUOUS
 10
0.0
 20
0.0
 11
0.0
 21
8.5
  0
LINE
  5
228
100
AcDbEntity
  8
0
100
AcDbLine
 62
7
  6
CONTINUOUS
 10
0.0
 20
0.0
 11
11.0
 21
0.0
  0
LINE
  5
229
100
AcDbEntity
  8
0
100
AcDbLine
 62
7
  6
CONTINUOUS
 10
0.0
 20
8.5
 11
11.0
 21
8.5
  0
LINE
  5
22A
100
AcDbEntity
  8
0
100
AcDbLine
 62
7
  6
CONTINUOUS
 10
11.0
 20
0.0
 11
11.0
 21
8.5
  0
LINE
  5
22B
100
AcDbEntity
  8
ALL_ASSEMBLY_MEMBERS
100
AcDbLine
 62
7
  6
CONTINUOUS
 10
3.0283579193
 20
2.7637771739
 11
3.0283579193
 21
3.4837771739
  0
LINE
  5
22C
100
AcDbEntity
  8
ALL_ASSEMBLY_MEMBERS
100
AcDbLine
 62
7
  6
CONTINUOUS
 10
3.4658579193
 20
2.7637771739
 11
3.4658579193
 21
3.4837771739
  0
LINE
  5
22D
100
AcDbEntity
  8
ALL_ASSEMBLY_MEMBERS
100
AcDbLine
 62
7
  6
CONTINUOUS
 10
3.0283579193
 20
2.7637771739
 11
3.4658579193
 21
2.7637771739
  0
LINE
  5
22E
100
AcDbEntity
  8
ALL_ASSEMBLY_MEMBERS
100
AcDbLine
 62
7
  6
CONTINUOUS
 10
4.2471079193
 20
4.7025271739
 11
4.2471079193
 21
4.2650271739
  0
LINE
  5
22F
100
AcDbEntity
  8
ALL_ASSEMBLY_MEMBERS
100
AcDbLine
 62
7
  6
CONTINUOUS
 10
3.0283579193
 20
3.1687771739
 11
3.4658579193
 21
3.1687771739
  0
LINE
  5
230
100
AcDbEntity
  8
ALL_ASSEMBLY_MEMBERS
100
AcDbLine
 62
7
  6
CONTINUOUS
 10
3.0283579193
 20
3.4837771739
 11
3.4658579193
 21
3.4837771739
  0
LINE
  5
231
100
AcDbEntity
  8
ALL_ASSEMBLY_MEMBERS
100
AcDbLine
 62
7
  6
CONTINUOUS
 10
5.8593598638
 20
3.7962771739
 11
6.0818559748
 21
3.7962771739
  0
LINE
  5
232
100
AcDbEntity
  8
ALL_ASSEMBLY_MEMBERS
100
AcDbLine
 62
7
  6
CONTINUOUS
 10
7.1846079193
 20
3.8900271739
 11
7.3721079193
 21
3.8900271739
  0
LINE
  5
233
100
AcDbEntity
  8
ALL_ASSEMBLY_MEMBERS
100
AcDbLine
 62
7
  6
CONTINUOUS
 10
7.1846079193
 20
4.1400271739
 11
6.1221079193
 21
4.1400271739
  0
LINE
  5
234
100
AcDbEntity
  8
ALL_ASSEMBLY_MEMBERS
100
AcDbLine
 62
7
  6
CONTINUOUS
 10
6.4006079193
 20
4.1556521739
 11
6.4778579193
 21
4.1556521739
  0
LINE
  5
235
100
AcDbEntity
  8
ALL_ASSEMBLY_MEMBERS
100
AcDbLine
 62
7
  6
CONTINUOUS
 10
6.5633579193
 20
4.1556521739
 11
6.6206079193
 21
4.1556521739
  0
LINE
  5
236
100
AcDbEntity
  8
ALL_ASSEMBLY_MEMBERS
100
AcDbLine
 62
7
  6
CONTINUOUS
 10
6.6306079193
 20
4.1556521739
 11
7.1846079193
 21
4.1556521739
  0
LINE
  5
237
100
AcDbEntity
  8
ALL_ASSEMBLY_MEMBERS
100
AcDbLine
 62
7
  6
CONTINUOUS
 10
4.2471079193
 20
4.2650271739
 11
5.8593579193
 21
4.2650271739
  0
LINE
  5
238
100
AcDbEntity
  8
ALL_ASSEMBLY_MEMBERS
100
AcDbLine
 62
7
  6
CONTINUOUS
 10
6.0818579193
 20
4.2650271739
 11
6.1221079193
 21
4.2650271739
  0
LINE
  5
239
100
AcDbEntity
  8
ALL_ASSEMBLY_MEMBERS
100
AcDbLine
 62
7
  6
CONTINUOUS
 10
5.8206079193
 20
4.2962771739
 11
5.8531079193
 21
4.2962771739
  0
LINE
  5
23A
100
AcDbEntity
  8
ALL_ASSEMBLY_MEMBERS
100
AcDbLine
 62
7
  6
CONTINUOUS
 10
6.0881079193
 20
4.2962771739
 11
6.1206079193
 21
4.2962771739
  0
LINE
  5
23B
100
AcDbEntity
  8
ALL_ASSEMBLY_MEMBERS
100
AcDbLine
 62
7
  6
CONTINUOUS
 10
6.1206079193
 20
4.3587771739
 11
6.4006079193
 21
4.3587771739
  0
LINE
  5
23C
100
AcDbEntity
  8
ALL_ASSEMBLY_MEMBERS
100
AcDbLine
 62
7
  6
CONTINUOUS
 10
5.8206079193
 20
4.2962804512
 11
5.8206079193
 21
4.6712738967
  0
LINE
  5
23D
100
AcDbEntity
  8
ALL_ASSEMBLY_MEMBERS
100
AcDbLine
 62
7
  6
CONTINUOUS
 10
5.8593579193
 20
5.1712771739
 11
5.8593579193
 21
4.6674253695
  0
LINE
  5
23E
100
AcDbEntity
  8
ALL_ASSEMBLY_MEMBERS
100
AcDbLine
 62
7
  6
CONTINUOUS
 10
5.8593579193
 20
3.7962771739
 11
5.8593579193
 21
4.3001289783
  0
LINE
  5
23F
100
AcDbEntity
  8
ALL_ASSEMBLY_MEMBERS
100
AcDbLine
 62
7
  6
CONTINUOUS
 10
6.1206079193
 20
4.6087771739
 11
6.4006079193
 21
4.6087771739
  0
LINE
  5
240
100
AcDbEntity
  8
ALL_ASSEMBLY_MEMBERS
100
AcDbLine
 62
7
  6
CONTINUOUS
 10
5.8206079193
 20
4.6712771739
 11
5.8531079193
 21
4.6712771739
  0
LINE
  5
241
100
AcDbEntity
  8
ALL_ASSEMBLY_MEMBERS
100
AcDbLine
 62
7
  6
CONTINUOUS
 10
6.0881079193
 20
4.6712771739
 11
6.1206079193
 21
4.6712771739
  0
LINE
  5
242
100
AcDbEntity
  8
ALL_ASSEMBLY_MEMBERS
100
AcDbLine
 62
7
  6
CONTINUOUS
 10
4.2471079193
 20
4.7025271739
 11
5.8593579193
 21
4.7025271739
  0
LINE
  5
243
100
AcDbEntity
  8
ALL_ASSEMBLY_MEMBERS
100
AcDbLine
 62
7
  6
CONTINUOUS
 10
6.0818579193
 20
4.7025271739
 11
6.1221079193
 21
4.7025271739
  0
LINE
  5
244
100
AcDbEntity
  8
ALL_ASSEMBLY_MEMBERS
100
AcDbLine
 62
7
  6
CONTINUOUS
 10
6.4006079193
 20
4.8119021739
 11
6.6206079193
 21
4.8119021739
  0
LINE
  5
245
100
AcDbEntity
  8
ALL_ASSEMBLY_MEMBERS
100
AcDbLine
 62
7
  6
CONTINUOUS
 10
6.6306079193
 20
4.8119021739
 11
7.1846079193
 21
4.8119021739
  0
LINE
  5
246
100
AcDbEntity
  8
ALL_ASSEMBLY_MEMBERS
100
AcDbLine
 62
7
  6
CONTINUOUS
 10
6.0818579193
 20
5.1712771739
 11
6.0818579193
 21
4.66742537
  0
LINE
  5
247
100
AcDbEntity
  8
ALL_ASSEMBLY_MEMBERS
100
AcDbLine
 62
7
  6
CONTINUOUS
 10
6.0818579193
 20
3.7962771739
 11
6.0818579193
 21
4.3001289778
  0
LINE
  5
248
100
AcDbEntity
  8
ALL_ASSEMBLY_MEMBERS
100
AcDbLine
 62
7
  6
CONTINUOUS
 10
6.1206079193
 20
4.2962804512
 11
6.1206079193
 21
4.6712738967
  0
LINE
  5
249
100
AcDbEntity
  8
ALL_ASSEMBLY_MEMBERS
100
AcDbLine
 62
7
  6
CONTINUOUS
 10
6.1221079193
 20
4.8275271739
 11
6.1221079193
 21
4.6087771739
  0
LINE
  5
24A
100
AcDbEntity
  8
ALL_ASSEMBLY_MEMBERS
100
AcDbLine
 62
7
  6
CONTINUOUS
 10
6.1221079193
 20
4.3587771739
 11
6.1221079193
 21
4.1400271739
  0
LINE
  5
24B
100
AcDbEntity
  8
ALL_ASSEMBLY_MEMBERS
100
AcDbLine
 62
7
  6
CONTINUOUS
 10
7.1846079193
 20
4.8275271739
 11
6.1221079193
 21
4.8275271739
  0
LINE
  5
24C
100
AcDbEntity
  8
ALL_ASSEMBLY_MEMBERS
100
AcDbLine
 62
7
  6
CONTINUOUS
 10
7.1846079193
 20
5.0775271739
 11
7.3721079193
 21
5.0775271739
  0
LINE
  5
24D
100
AcDbEntity
  8
ALL_ASSEMBLY_MEMBERS
100
AcDbLine
 62
7
  6
CONTINUOUS
 10
6.4006079193
 20
4.1556521739
 11
6.4006079193
 21
4.8119021739
  0
LINE
  5
24E
100
AcDbEntity
  8
ALL_ASSEMBLY_MEMBERS
100
AcDbLine
 62
7
  6
CONTINUOUS
 10
5.8593598638
 20
5.1712771739
 11
6.0818559748
 21
5.1712771739
  0
LINE
  5
24F
100
AcDbEntity
  8
ALL_ASSEMBLY_MEMBERS
100
AcDbLine
 62
7
  6
CONTINUOUS
 10
6.6206079193
 20
4.1556521739
 11
6.6206079193
 21
4.8119021739
  0
LINE
  5
250
100
AcDbEntity
  8
ALL_ASSEMBLY_MEMBERS
100
AcDbLine
 62
7
  6
CONTINUOUS
 10
6.6306079193
 20
4.1556521739
 11
6.6306079193
 21
4.8119021739
  0
LINE
  5
251
100
AcDbEntity
  8
ALL_ASSEMBLY_MEMBERS
100
AcDbLine
 62
7
  6
CONTINUOUS
 10
7.1846079193
 20
3.8900280766
 11
7.1846079193
 21
5.0775262712
  0
LINE
  5
252
100
AcDbEntity
  8
ALL_ASSEMBLY_MEMBERS
100
AcDbLine
 62
7
  6
CONTINUOUS
 10
7.3721079193
 20
3.8900280766
 11
7.3721079193
 21
5.0775262712
  0
ARC
  5
253
100
AcDbEntity
  8
ALL_ASSEMBLY_MEMBERS
100
AcDbCircle
 62
7
  6
CONTINUOUS
 10
4.2471079193
 20
3.4837771739
 40
1.21875
100
AcDbArc
 50
90.0
 51
180.0
  0
ARC
  5
254
100
AcDbEntity
  8
ALL_ASSEMBLY_MEMBERS
100
AcDbCircle
 62
7
  6
CONTINUOUS
 10
4.2471079193
 20
3.4837771739
 40
0.78125
100
AcDbArc
 50
90.0
 51
180.0
  0
ARC
  5
255
100
AcDbEntity
  8
ALL_ASSEMBLY_MEMBERS
100
AcDbCircle
 62
7
  6
CONTINUOUS
 10
5.993572919
 20
4.1075045354
 40
0.233550353
100
AcDbArc
 50
111.4210777775
 51
111.699818565
  0
ARC
  5
256
100
AcDbEntity
  8
ALL_ASSEMBLY_MEMBERS
100
AcDbCircle
 62
7
  6
CONTINUOUS
 10
5.9476434657
 20
4.8600484175
 40
0.233548855
100
AcDbArc
 50
291.4207708907
 51
291.6998203836
  0
ARC
  5
257
100
AcDbEntity
  8
ALL_ASSEMBLY_MEMBERS
100
AcDbCircle
 62
7
  6
CONTINUOUS
 10
5.9926799071
 20
4.1097765549
 40
0.2311091359
100
AcDbArc
 50
111.2859719505
 51
111.4206963143
  0
ARC
  5
258
100
AcDbEntity
  8
ALL_ASSEMBLY_MEMBERS
100
AcDbCircle
 62
7
  6
CONTINUOUS
 10
5.9485365835
 20
4.8577761068
 40
0.2311073282
100
AcDbArc
 50
291.2859701839
 51
291.4203881202
  0
CIRCLE
  5
259
100
AcDbEntity
  8
ALL_ASSEMBLY_MEMBERS
100
AcDbCircle
 62
7
  6
CONTINUOUS
 10
5.9706079193
 20
4.4837771739
 40
0.1175
  0
CIRCLE
  5
25A
100
AcDbEntity
  8
ALL_ASSEMBLY_MEMBERS
100
AcDbCircle
 62
7
  6
CONTINUOUS
 10
5.9706079193
 20
4.4837771739
 40
0.11125
  0
SPLINE
  5
25B
100
AcDbEntity
  8
ALL_ASSEMBLY_MEMBERS
100
AcDbSpline
 62
7
  6
CONTINUOUS
 70
0
 71
3
 72
15
 73
11
 74
0
 42
0.0000001
 43
0.0000001
 44
0.0000000001
 40
0.0
 40
0.0
 40
0.0
 40
0.0
 40
0.0383049204
 40
0.146951847
 40
0.3090012156
 40
0.4999997186
 40
0.6909982258
 40
0.8530477286
 40
0.9616949248
 40
1.0
 40
1.0
 40
1.0
 40
1.0
 10
6.4778579193
 20
4.1556521739
 30
0.0
 10
6.4789434516
 20
4.1557936148
 30
0.0
 10
6.4831106026
 20
4.1563162338
 30
0.0
 10
6.4918928858
 20
4.1572525828
 30
0.0
 10
6.505057918
 20
4.1581944843
 30
0.0
 10
6.5206078952
 20
4.1585864319
 30
0.0
 10
6.5361578764
 20
4.1581944863
 30
0.0
 10
6.5493229203
 20
4.1572525857
 30
0.0
 10
6.5581052195
 20
4.1563162362
 30
0.0
 10
6.5622723825
 20
4.1557936155
 30
0.0
 10
6.5633579193
 20
4.1556521739
 30
0.0
  0
SPLINE
  5
25C
100
AcDbEntity
  8
ALL_ASSEMBLY_MEMBERS
100
AcDbSpline
 62
7
  6
CONTINUOUS
 70
0
 71
3
 72
47
 73
43
 74
0
 42
0.0000001
 43
0.0000001
 44
0.0000000001
 40
0.0
 40
0.0
 40
0.0
 40
0.0
 40
0.0470163117
 40
0.0939659227
 40
0.1406949402
 40
0.1870562189
 40
0.2329578074
 40
0.27831716
 40
0.3230422427
 40
0.3670578691
 40
0.4526851131
 40
0.5346202262
 40
0.6123181256
 40
0.6851798058
 40
0.7525276112
 40
0.7839056041
 40
0.8136145944
 40
0.8415450362
 40
0.8675859977
 40
0.8916241454
 40
0.913542975
 40
0.9332250625
 40
0.9505536625
 40
0.958302744
 40
0.965426036
 40
0.9719118284
 40
0.977748398
 40
0.9829240092
 40
0.9874271314
 40
0.9912499706
 40
0.9943879021
 40
0.995698613
 40
0.9968363995
 40
0.9978006955
 40
0.9985909348
 40
0.9992065513
 40
0.999448699
 40
0.9996469787
 40
0.9998013194
 40
0.9999116504
 40
0.9999779009
 40
1.0
 40
1.0
 40
1.0
 40
1.0
 10
5.9706079193
 20
4.337660782
 30
0.0
 10
5.9725864383
 20
4.337660782
 30
0.0
 10
5.9765411232
 20
4.337578861
 30
0.0
 10
5.982452289
 20
4.3372188153
 30
0.0
 10
5.9883174253
 20
4.3366298609
 30
0.0
 10
5.9941113424
 20
4.3358187841
 30
0.0
 10
5.9998143617
 20
4.3348039888
 30
0.0
 10
6.0054110032
 20
4.3336051597
 30
0.0
 10
6.0108877267
 20
4.3322406723
 30
0.0
 10
6.0179500415
 20
4.3302458517
 30
0.0
 10
6.0264112144
 20
4.3274592488
 30
0.0
 10
6.036047264
 20
4.3237528014
 30
0.0
 10
6.0450262382
 20
4.3198610088
 30
0.0
 10
6.0533110993
 20
4.31592719
 30
0.0
 10
6.0597419842
 20
4.3126417
 30
0.0
 10
6.0645101827
 20
4.3100968423
 30
0.0
 10
6.0677959346
 20
4.3082977272
 30
0.0
 10
6.0708680921
 20
4.3065765514
 30
0.0
 10
6.0737181321
 20
4.3049474305
 30
0.0
 10
6.0763371627
 20
4.3034241353
 30
0.0
 10
6.0787153154
 20
4.3020190695
 30
0.0
 10
6.0808427032
 20
4.3007447406
 30
0.0
 10
6.0824537386
 20
4.2997688358
 30
0.0
 10
6.0836104194
 20
4.2990629338
 30
0.0
 10
6.0843766648
 20
4.2985931648
 30
0.0
 10
6.0850734938
 20
4.2981641543
 30
0.0
 10
6.0856998771
 20
4.2977770579
 30
0.0
 10
6.0862547862
 20
4.2974330158
 30
0.0
 10
6.0867373562
 20
4.2971331161
 30
0.0
 10
6.0871468832
 20
4.2968781341
 30
0.0
 10
6.087442205
 20
4.2966939027
 30
0.0
 10
6.0876415794
 20
4.2965693374
 30
0.0
 10
6.0877633391
 20
4.2964931928
 30
0.0
 10
6.0878665227
 20
4.2964285997
 30
0.0
 10
6.0879509982
 20
4.2963756793
 30
0.0
 10
6.0880098521
 20
4.2963387493
 30
0.0
 10
6.0880473375
 20
4.2963152531
 30
0.0
 10
6.0880688598
 20
4.2963016751
 30
0.0
 10
6.0880845147
 20
4.2962920054
 30
0.0
 10
6.0880982112
 20
4.2962830246
 30
0.0
 10
6.0881019433
 20
4.2962813311
 30
0.0
 10
6.0881085559
 20
4.296276496
 30
0.0
 10
6.0881079193
 20
4.2962771739
 30
0.0
  0
SPLINE
  5
25D
100
AcDbEntity
  8
ALL_ASSEMBLY_MEMBERS
100
AcDbSpline
 62
7
  6
CONTINUOUS
 70
0
 71
3
 72
46
 73
42
 74
0
 42
0.0000001
 43
0.0000001
 44
0.0000000001
 40
0.0
 40
0.0
 40
0.0
 40
0.0
 40
0.0470168174
 40
0.0939669383
 40
0.1406964673
 40
0.1870582506
 40
0.2329603308
 40
0.2783201675
 40
0.3670511084
 40
0.4526792673
 40
0.5346152599
 40
0.6123139896
 40
0.6851764496
 40
0.7525249737
 40
0.7839033011
 40
0.813612609
 40
0.8415433496
 40
0.8675845887
 40
0.8916229922
 40
0.9135420551
 40
0.9332243528
 40
0.950553138
 40
0.9583023014
 40
0.9654256685
 40
0.9719115292
 40
0.9777481605
 40
0.9829238272
 40
0.9874269984
 40
0.9912498786
 40
0.9943878431
 40
0.9956985676
 40
0.9968363658
 40
0.9978006717
 40
0.9985909192
 40
0.9992065421
 40
0.9994486924
 40
0.9996469742
 40
0.9998013166
 40
0.999911649
 40
0.9999779004
 40
1.0
 40
1.0
 40
1.0
 40
1.0
 10
5.9706079193
 20
4.6298935659
 30
0.0
 10
5.9686294001
 20
4.6298935659
 30
0.0
 10
5.9646747147
 20
4.6299754872
 30
0.0
 10
5.9587635488
 20
4.6303355327
 30
0.0
 10
5.9528984091
 20
4.6309244892
 30
0.0
 10
5.9471044998
 20
4.6317355574
 30
0.0
 10
5.9414014485
 20
4.6327503829
 30
0.0
 10
5.9339938958
 20
4.6343370076
 30
0.0
 10
5.9250532645
 20
4.6367196077
 30
0.0
 10
5.9148047962
 20
4.6400950939
 30
0.0
 10
5.9051685288
 20
4.6438015488
 30
0.0
 10
5.8961896087
 20
4.6476933396
 30
0.0
 10
5.8879047347
 20
4.6516271589
 30
0.0
 10
5.8814738529
 20
4.6549126486
 30
0.0
 10
5.8767056544
 20
4.6574575064
 30
0.0
 10
5.8734199026
 20
4.6592566214
 30
0.0
 10
5.8703477451
 20
4.6609777971
 30
0.0
 10
5.8674977054
 20
4.6626069179
 30
0.0
 10
5.8648786749
 20
4.6641302131
 30
0.0
 10
5.8625005224
 20
4.6655352788
 30
0.0
 10
5.8603731347
 20
4.6668096075
 30
0.0
 10
5.8587620994
 20
4.6677855124
 30
0.0
 10
5.8576054187
 20
4.6684914143
 30
0.0
 10
5.8568391734
 20
4.6689611832
 30
0.0
 10
5.8561423445
 20
4.6693901937
 30
0.0
 10
5.8555159612
 20
4.66977729
 30
0.0
 10
5.8549610522
 20
4.670121332
 30
0.0
 10
5.8544784821
 20
4.670421232
 30
0.0
 10
5.8540689555
 20
4.6706762135
 30
0.0
 10
5.8537736325
 20
4.6708604462
 30
0.0
 10
5.8535742603
 20
4.6709850092
 30
0.0
 10
5.8534524957
 20
4.671061159
 30
0.0
 10
5.8533493264
 20
4.6711257368
 30
0.0
 10
5.8532648114
 20
4.6711786993
 30
0.0
 10
5.8532060483
 20
4.6712155326
 30
0.0
 10
5.8531684241
 20
4.6712391766
 30
0.0
 10
5.8531471931
 20
4.6712524444
 30
0.0
 10
5.8531307855
 20
4.6712629156
 30
0.0
 10
5.8531187935
 20
4.6712700814
 30
0.0
 10
5.8531120693
 20
4.671274961
 30
0.0
 10
5.8531085559
 20
4.671276496
 30
0.0
 10
5.8531079193
 20
4.6712771739
 30
0.0
  0
SPLINE
  5
25E
100
AcDbEntity
  8
ALL_ASSEMBLY_MEMBERS
100
AcDbSpline
 62
7
  6
CONTINUOUS
 70
0
 71
3
 72
36
 73
32
 74
0
 42
0.0000001
 43
0.0000001
 44
0.0000000001
 40
0.0
 40
0.0
 40
0.0
 40
0.0
 40
0.000074677
 40
0.0002985048
 40
0.0006711771
 40
0.001192388
 40
0.0018618313
 40
0.002679201
 40
0.0047564953
 40
0.0074218233
 40
0.0106727377
 40
0.0145067919
 40
0.0189215397
 40
0.0239145356
 40
0.0294833346
 40
0.0423351513
 40
0.0574337083
 40
0.0747282781
 40
0.0941681878
 40
0.1157028388
 40
0.1392812921
 40
0.164845639
 40
0.2216773915
 40
0.2856902636
 40
0.3563824338
 40
0.4332682334
 40
0.5158720059
 40
0.6037362184
 40
0.696454139
 40
0.7936441249
 40
1.0
 40
1.0
 40
1.0
 40
1.0
 10
6.0881079193
 20
4.6712771739
 30
0.0
 10
6.0881089594
 20
4.6712782839
 30
0.0
 10
6.088098147
 20
4.6712703734
 30
0.0
 10
6.0880920404
 20
4.6712676077
 30
0.0
 10
6.0880696466
 20
4.6712529258
 30
0.0
 10
6.0880440517
 20
4.6712371253
 30
0.0
 10
6.0880088722
 20
4.6712149439
 30
0.0
 10
6.0879476179
 20
4.6711765777
 30
0.0
 10
6.0878514746
 20
4.6711163059
 30
0.0
 10
6.0877135142
 20
4.6710299841
 30
0.0
 10
6.0875450624
 20
4.670924689
 30
0.0
 10
6.0873463581
 20
4.6708006434
 30
0.0
 10
6.08711746
 20
4.6706579218
 30
0.0
 10
6.0868584899
 20
4.6704966501
 30
0.0
 10
6.0864534853
 20
4.6702447513
 30
0.0
 10
6.0858733652
 20
4.6698846325
 30
0.0
 10
6.0850894683
 20
4.6693998862
 30
0.0
 10
6.0841902359
 20
4.6688464895
 30
0.0
 10
6.0831778267
 20
4.6682268527
 30
0.0
 10
6.0820543971
 20
4.6675434075
 30
0.0
 10
6.0808222643
 20
4.666798613
 30
0.0
 10
6.0789712232
 20
4.6656877834
 30
0.0
 10
6.0764051845
 20
4.6641677114
 30
0.0
 10
6.0730310186
 20
4.662208403
 30
0.0
 10
6.0692823786
 20
4.6600808277
 30
0.0
 10
6.0651773777
 20
4.6578144731
 30
0.0
 10
6.0607337836
 20
4.6554385048
 30
0.0
 10
6.0559683029
 20
4.6529817448
 30
0.0
 10
6.0508942042
 20
4.6504766937
 30
0.0
 10
6.0435871137
 20
4.6470459478
 30
0.0
 10
6.0379024272
 20
4.6446045434
 30
0.0
 10
6.0339967173
 20
4.6430502986
 30
0.0
  0
SPLINE
  5
25F
100
AcDbEntity
  8
ALL_ASSEMBLY_MEMBERS
100
AcDbSpline
 62
7
  6
CONTINUOUS
 70
0
 71
3
 72
14
 73
10
 74
0
 42
0.0000001
 43
0.0000001
 44
0.0000000001
 40
0.0
 40
0.0
 40
0.0
 40
0.0
 40
0.2346306655
 40
0.3568803269
 40
0.4818971907
 40
0.6092462517
 40
0.7384537132
 40
0.8689768463
 40
1.0
 40
1.0
 40
1.0
 40
1.0
 10
6.0324338775
 20
4.6424348864
 30
0.0
 10
6.0278100291
 20
4.6406334337
 30
0.0
 10
6.0206847863
 20
4.6381182501
 30
0.0
 10
6.0108918636
 20
4.6352858077
 30
0.0
 10
6.003189246
 20
4.6334177795
 30
0.0
 10
5.9952619984
 20
4.6318885986
 30
0.0
 10
5.9871506842
 20
4.6307516621
 30
0.0
 10
5.97891184
 20
4.6300540884
 30
0.0
 10
5.9733790257
 20
4.6298935659
 30
0.0
 10
5.9706079193
 20
4.6298935659
 30
0.0
  0
SPLINE
  5
260
100
AcDbEntity
  8
ALL_ASSEMBLY_MEMBERS
100
AcDbSpline
 62
7
  6
CONTINUOUS
 70
0
 71
3
 72
35
 73
31
 74
0
 42
0.0000001
 43
0.0000001
 44
0.0000000001
 40
0.0
 40
0.0
 40
0.0
 40
0.0
 40
0.0000746784
 40
0.0002985088
 40
0.0006711848
 40
0.0011924005
 40
0.0018618499
 40
0.0026792268
 40
0.0047565393
 40
0.0074218906
 40
0.0106728336
 40
0.0145069219
 40
0.0189217096
 40
0.0239147512
 40
0.0294836021
 40
0.0423355382
 40
0.0574342324
 40
0.0747289579
 40
0.0941690429
 40
0.1157038897
 40
0.1392825596
 40
0.1648471404
 40
0.2216794111
 40
0.2856928662
 40
0.3563856827
 40
0.4332721865
 40
0.5158767126
 40
0.6037417266
 40
0.7936422367
 40
1.0
 40
1.0
 40
1.0
 40
1.0
 10
5.8531079193
 20
4.2962771739
 30
0.0
 10
5.8531089595
 20
4.2962782839
 30
0.0
 10
5.8531147088
 20
4.2962807915
 30
0.0
 10
5.8531257028
 20
4.2962887726
 30
0.0
 10
5.853145313
 20
4.2963004841
 30
0.0
 10
5.8531721368
 20
4.2963175959
 30
0.0
 10
5.8532068409
 20
4.2963392701
 30
0.0
 10
5.8532683215
 20
4.2963778778
 30
0.0
 10
5.8533643167
 20
4.2964379916
 30
0.0
 10
5.8535023415
 20
4.2965243821
 30
0.0
 10
5.8536707701
 20
4.2966296523
 30
0.0
 10
5.8538694823
 20
4.2967537064
 30
0.0
 10
5.8540983777
 20
4.2968964252
 30
0.0
 10
5.8543573486
 20
4.2970576978
 30
0.0
 10
5.854762353
 20
4.2973095963
 30
0.0
 10
5.8553424733
 20
4.2976697154
 30
0.0
 10
5.8561263701
 20
4.2981544615
 30
0.0
 10
5.8570256024
 20
4.2987078582
 30
0.0
 10
5.8580380115
 20
4.2993274949
 30
0.0
 10
5.8591614411
 20
4.3000109401
 30
0.0
 10
5.8603935738
 20
4.3007557347
 30
0.0
 10
5.8622446149
 20
4.3018665642
 30
0.0
 10
5.8648106536
 20
4.3033866361
 30
0.0
 10
5.8681848192
 20
4.3053459446
 30
0.0
 10
5.8719334598
 20
4.3074735196
 30
0.0
 10
5.8760384583
 20
4.3097398755
 30
0.0
 10
5.8804820623
 20
4.3121158376
 30
0.0
 10
5.8870071303
 20
4.3154797871
 30
0.0
 10
5.8958928245
 20
4.3197630257
 30
0.0
 10
5.9033134105
 20
4.3229498043
 30
0.0
 10
5.9072191205
 20
4.3245040489
 30
0.0
  0
SPLINE
  5
261
100
AcDbEntity
  8
ALL_ASSEMBLY_MEMBERS
100
AcDbSpline
 62
7
  6
CONTINUOUS
 70
0
 71
3
 72
14
 73
10
 74
0
 42
0.0000001
 43
0.0000001
 44
0.0000000001
 40
0.0
 40
0.0
 40
0.0
 40
0.0
 40
0.2346306526
 40
0.3568803015
 40
0.4818971575
 40
0.6092462089
 40
0.7384536866
 40
0.8689768417
 40
1.0
 40
1.0
 40
1.0
 40
1.0
 10
5.9087819502
 20
4.3251194572
 30
0.0
 10
5.9134057992
 20
4.3269209102
 30
0.0
 10
5.9205310425
 20
4.3294360947
 30
0.0
 10
5.9303239662
 20
4.3322685377
 30
0.0
 10
5.9380265846
 20
4.3341365665
 30
0.0
 10
5.9459538334
 20
4.3356657488
 30
0.0
 10
5.9540651498
 20
4.3368026847
 30
0.0
 10
5.9623039963
 20
4.3375002589
 30
0.0
 10
5.9678368122
 20
4.337660782
 30
0.0
 10
5.9706079193
 20
4.337660782
 30
0.0
  0
ENDSEC
  0
SECTION
  2
OBJECTS
  0
DICTIONARY
  5
C
100
AcDbDictionary
280
0
281
1
  3
ACAD_GROUP
350
D
  3
ACAD_MLINESTYLE
350
17
  3
ACAD_LAYOUT
350
1A
  3
ACAD_PLOTSETTINGS
350
19
  3
ACAD_PLOTSTYLENAME
350
E
  0
DICTIONARY
  5
D
102
{ACAD_REACTORS
330
C
102
}
100
AcDbDictionary
280
0
281
1
  0
ACDBDICTIONARYWDFLT
  5
E
102
{ACAD_REACTORS
330
C
102
}
100
AcDbDictionary
281
1
  3
Normal
350
F
100
AcDbDictionaryWithDefault
340
F
  0
DICTIONARY
  5
17
102
{ACAD_REACTORS
330
C
102
}
100
AcDbDictionary
280
0
281
1
  3
Standard
350
18
  0
DICTIONARY
  5
19
102
{ACAD_REACTORS
330
C
102
}
100
AcDbDictionary
281
1
  0
DICTIONARY
  5
1A
102
{ACAD_REACTORS
330
C
102
}
100
AcDbDictionary
281
1
  3
Model
350
262
  3
Layout1
350
263
  0
ACDBPLACEHOLDER
  5
F
102
{ACAD_REACTORS
330
E
102
}
  0
MLINESTYLE
  5
18
102
{ACAD_REACTORS
330
17
102
}
100
AcDbMlineStyle
  2
STANDARD
 70
0
  3

 62
256
 51
90.0
 52
90.0
 71
2
 49
0.5
 62
256
  6
BYLAYER
 49
-0.5
 62
256
  6
BYLAYER
  0
LAYOUT
  5
262
102
{ACAD_REACTORS
330
1A
102
}
100
AcDbPlotSettings
  1

  2
none_device
  4
ANSI_A_(11.00_x_8.50_Inches)
  6

 40
0.0
 41
0.0
 42
0.0
 43
0.0
 44
279.4
 45
215.9
 46
0.0
 47
0.0
 48
0.0
 49
0.0
140
0.0
141
0.0
142
1.0
143
1.0
 70
1024
 72
0
 73
0
 74
0
  7

 75
0
147
1.0
148
0.0
149
0.0
100
AcDbLayout
  1
Model
 70
0
 71
0
 10
0.0
 20
0.0
 11
11.0
 21
8.5
 12
0.0
 22
0.0
 32
0.0
 14
0.0
 24
0.0
 34
0.0
 15
0.0
 25
0.0
 35
0.0
146
0.0
 13
0.0
 23
0.0
 33
0.0
 16
1.0
 26
0.0
 36
0.0
 17
0.0
 27
1.0
 37
0.0
 76
0
330
21F
345
0
346
0
  0
LAYOUT
  5
263
102
{ACAD_REACTORS
330
1A
102
}
100
AcDbPlotSettings
  1

  2
none_device
  4
ANSI_A_(11.00_x_8.50_Inches)
  6

 40
0.0
 41
0.0
 42
0.0
 43
0.0
 44
279.4
 45
215.9
 46
0.0
 47
0.0
 48
0.0
 49
0.0
140
0.0
141
0.0
142
1.0
143
1.0
 70
0
 72
0
 73
0
 74
0
  7

 75
0
147
1.0
148
0.0
149
0.0
100
AcDbLayout
  1
Layout1
 70
0
 71
1
 10
0.0
 20
0.0
 11
11.0
 21
8.5
 12
0.0
 22
0.0
 32
0.0
 14
0.0
 24
0.0
 34
0.0
 15
0.0
 25
0.0
 35
0.0
146
0.0
 13
0.0
 23
0.0
 33
0.0
 16
1.0
 26
0.0
 36
0.0
 17
0.0
 27
1.0
 37
0.0
 76
0
330
220
345
0
346
0
  0
ENDSEC
  0
EOF
