999
DXF file: E:\BT Custom\CADOUTPUT\_TOP.dxf
999
Pro/ENGINEER 2018400 by Parametric Technology Corporation
  0
SECTION
  2
HEADER
  9
$ACADVER
  1
AC1018
  9
$DWGCODEPAGE
  3
ANSI_1252
  9
$EXTMAX
 10
22.0
 20
17.0
 30
0.0
  9
$EXTMIN
 10
0.0
 20
0.0
 30
0.0
  9
$LIMMIN
 10
0.0
 20
0.0
  9
$LIMMAX
 10
22.0
 20
17.0
  9
$VIEWCTR
 10
11.0
 20
8.5
  9
$VIEWSIZE
 40
17.0
  9
$CLAYER
  8
0
  9
$LTSCALE
 40
1.21
  9
$CELTYPE
  6
BYLAYER
  9
$DIMSCALE
 40
1.0
  9
$DIMASZ
 40
0.1
  9
$DIMEXO
 40
0.0625
  9
$DIMDLI
 40
0.836
  9
$DIMEXE
 40
0.125
  9
$DIMCEN
 40
0.198
  9
$DIMLFAC
 40
1.0
  9
$DIMBLK
  1
_FILLED
  9
$DIMALT
 70
1
  9
$DIMALTD
 70
2
  9
$DIMALTTD
 70
2
  9
$DIMALTF
 40
25.4
  9
$DIMTXT
 40
0.08
  9
$DIMTOL
 70
1
  9
$DIMLIM
 70
0
  9
$DIMTFAC
 40
1.0
  9
$DIMTP
 40
0.001
  9
$DIMTM
 40
0.001
  9
$DIMGAP
 40
0.09
  9
$DIMDSEP
 70
46
  9
$AUNITS
 70
0
  9
$PDMODE
 70
3
  9
$PDSIZE
 40
0.06
  9
$HANDSEED
  5
2CA
  9
$TILEMODE
 70
1
  9
$MEASUREMENT
 70
0
  9
$INSUNITS
 70
1
  0
ENDSEC
  0
SECTION
  2
CLASSES
  0
CLASS
  1
ACDBDICTIONARYWDFLT
  2
AcDbDictionaryWithDefault
  3
AutoCAD 2000
 90
0
 91
1
280
0
281
0
  0
CLASS
  1
ACDBPLACEHOLDER
  2
AcDbPlaceHolder
  3
AutoCAD 2000
 90
0
 91
1
280
0
281
0
  0
CLASS
  1
LAYOUT
  2
AcDbLayout
  3
AutoCAD 2000
 90
0
 91
0
280
0
281
0
  0
ENDSEC
  0
SECTION
  2
TABLES
  0
TABLE
  2
VPORT
  5
8
100
AcDbSymbolTable
 70
2
  0
VPORT
  5
1F4
100
AcDbSymbolTableRecord
100
AcDbViewportTableRecord
  2
*ACTIVE
 70
0
 10
0.0
 20
0.0
 11
1.0
 21
1.0
 12
11.0
 22
8.5
 13
0.0
 23
0.0
 14
1.0
 24
1.0
 15
0.0
 25
0.0
 16
0.0
 26
0.0
 36
1.0
 17
0.0
 27
0.0
 37
0.0
 40
17.0
 41
1.2941176471
 42
50.0
 43
0.0
 44
0.0
 50
0.0
 51
0.0
 71
0
 72
100
 73
1
 74
1
 75
0
 76
0
 77
0
 78
0
  0
ENDTAB
  0
TABLE
  2
LTYPE
  5
5
100
AcDbSymbolTable
 70
6
  0
LTYPE
  5
14
100
AcDbSymbolTableRecord
100
AcDbLinetypeTableRecord
  2
BYBLOCK
 70
0
  3

 72
65
 73
0
 40
0.0
  0
LTYPE
  5
15
100
AcDbSymbolTableRecord
100
AcDbLinetypeTableRecord
  2
BYLAYER
 70
0
  3

 72
65
 73
0
 40
0.0
  0
LTYPE
  5
16
100
AcDbSymbolTableRecord
100
AcDbLinetypeTableRecord
  2
CONTINUOUS
 70
64
  3
Solid line
 72
65
 73
0
 40
0.0
  0
LTYPE
  5
1F5
100
AcDbSymbolTableRecord
100
AcDbLinetypeTableRecord
  2
CENTER
 70
64
  3
____ _ ____ _ ____ _ ____ _ ____ _ ____ _ ____
 72
65
 73
4
 40
0.6
 49
0.375
 74
0
 49
-0.075
 74
0
 49
0.075
 74
0
 49
-0.075
 74
0
  0
LTYPE
  5
1F6
100
AcDbSymbolTableRecord
100
AcDbLinetypeTableRecord
  2
HIDDEN
 70
64
  3
- - - - - - - - - - - - - - - - - - - -
 72
65
 73
2
 40
0.2
 49
0.1
 74
0
 49
-0.1
 74
0
  0
LTYPE
  5
1F7
100
AcDbSymbolTableRecord
100
AcDbLinetypeTableRecord
  2
PHANTOM
 70
64
  3
_____ _ _ _____ _ _ _____ _ _ _____
 72
65
 73
6
 40
0.8
 49
0.45
 74
0
 49
-0.05
 74
0
 49
0.1
 74
0
 49
-0.05
 74
0
 49
0.1
 74
0
 49
-0.05
 74
0
  0
LTYPE
  5
1F8
100
AcDbSymbolTableRecord
100
AcDbLinetypeTableRecord
  2
DOT
 70
64
  3
. . . . . . . . . . . . . . . . . . . .
 72
65
 73
2
 40
0.2
 49
0.1
 74
0
 49
-0.1
 74
0
  0
LTYPE
  5
1F9
100
AcDbSymbolTableRecord
100
AcDbLinetypeTableRecord
  2
DASHED
 70
64
  3
- - - - - - - - - - - - - - - - - - - -
 72
65
 73
2
 40
0.2
 49
0.1
 74
0
 49
-0.1
 74
0
  0
ENDTAB
  0
TABLE
  2
LAYER
  5
2
100
AcDbSymbolTable
 70
36
  0
LAYER
  5
10
100
AcDbSymbolTableRecord
100
AcDbLayerTableRecord
  2
0
 70
0
 62
7
  6
CONTINUOUS
370
-3
390
F
  0
LAYER
  5
1FA
100
AcDbSymbolTableRecord
100
AcDbLayerTableRecord
  2
DEFAULT_1
 70
0
 62
7
  6
CENTER
370
-3
390
F
  0
LAYER
  5
1FB
100
AcDbSymbolTableRecord
100
AcDbLayerTableRecord
  2
DEFAULT_2
 70
0
 62
8
  6
HIDDEN
370
-3
390
F
  0
LAYER
  5
1FC
100
AcDbSymbolTableRecord
100
AcDbLayerTableRecord
  2
DEFAULT_3
 70
0
 62
7
  6
PHANTOM
370
-3
390
F
  0
LAYER
  5
1FD
100
AcDbSymbolTableRecord
100
AcDbLayerTableRecord
  2
ALL_FEATURES
 70
0
 62
7
  6
CONTINUOUS
370
-3
390
F
  0
LAYER
  5
1FE
100
AcDbSymbolTableRecord
100
AcDbLayerTableRecord
  2
AXES_FEATURES
 70
0
 62
7
  6
CONTINUOUS
370
-3
390
F
  0
LAYER
  5
1FF
100
AcDbSymbolTableRecord
100
AcDbLayerTableRecord
  2
DEFAULT_COORDINATE_SYSTEM
 70
0
 62
7
  6
CONTINUOUS
370
-3
390
F
  0
LAYER
  5
200
100
AcDbSymbolTableRecord
100
AcDbLayerTableRecord
  2
DEFAULT_DATUM_AXES
 70
0
 62
7
  6
CONTINUOUS
370
-3
390
F
  0
LAYER
  5
201
100
AcDbSymbolTableRecord
100
AcDbLayerTableRecord
  2
DEFAULT_DATUM_PLANES
 70
0
 62
7
  6
CONTINUOUS
370
-3
390
F
  0
LAYER
  5
202
100
AcDbSymbolTableRecord
100
AcDbLayerTableRecord
  2
DIMENSIONS
 70
0
 62
7
  6
CONTINUOUS
370
-3
390
F
  0
ENDTAB
  0
TABLE
  2
STYLE
  5
3
100
AcDbSymbolTable
 70
1
  0
STYLE
  5
11
100
AcDbSymbolTableRecord
100
AcDbTextStyleTableRecord
  2
STANDARD
 70
0
 40
0.0
 41
0.8
 50
0.0
 71
0
 42
0.2
  3
txt
  4

  0
STYLE
  5
203
100
AcDbSymbolTableRecord
100
AcDbTextStyleTableRecord
  2
TEXTSTYLE_1
 70
0
 40
0.0
 41
0.8
 50
0.0
 71
0
 42
0.2
  3
gdt
  4

  0
ENDTAB
  0
TABLE
  2
VIEW
  5
6
100
AcDbSymbolTable
 70
0
  0
ENDTAB
  0
TABLE
  2
UCS
  5
7
100
AcDbSymbolTable
 70
0
  0
ENDTAB
  0
TABLE
  2
APPID
  5
9
100
AcDbSymbolTable
 70
1
  0
APPID
  5
204
100
AcDbSymbolTableRecord
100
AcDbRegAppTableRecord
  2
ACAD
 70
0
  0
ENDTAB
  0
TABLE
  2
BLOCK_RECORD
  5
1
100
AcDbSymbolTable
 70
0
  0
BLOCK_RECORD
  5
205
100
AcDbSymbolTableRecord
100
AcDbBlockTableRecord
  2
*Model_Space
  0
BLOCK_RECORD
  5
206
100
AcDbSymbolTableRecord
100
AcDbBlockTableRecord
  2
*Paper_Space
  0
BLOCK_RECORD
  5
207
100
AcDbSymbolTableRecord
100
AcDbBlockTableRecord
  2
_FILLED
  0
ENDTAB
  0
TABLE
  2
DIMSTYLE
  5
A
100
AcDbSymbolTable
 70
1
100
AcDbDimStyleTable
 71
0
  0
DIMSTYLE
105
208
100
AcDbSymbolTableRecord
100
AcDbDimStyleTableRecord
  2
STANDARD
 70
0
  3

  4

 40
1.0
 41
0.1
 42
0.0625
 43
0.38
 44
0.125
 45
0.0
 46
0.0
 47
0.001
 48
0.001
140
0.08
141
0.09
142
0.0
143
25.4
144
1.0
145
0.0
146
1.0
147
0.09
 71
1.0
 72
0.0
 73
1
 74
1
 75
0
 76
0
 77
0
 78
4
 79
1
170
1
171
2
172
0
173
0
174
0
175
0
176
0
177
0
178
0
270
2
179
3
271
3
272
3
273
2
274
2
275
0
280
0
281
0
282
0
283
1
284
4
285
0
286
0
287
3
288
0
340
11
278
46
341
207
342
207
343
207
344
207
  0
ENDTAB
  0
ENDSEC
  0
SECTION
  2
BLOCKS
  0
BLOCK
  5
20
100
AcDbEntity
  8
0
100
AcDbBlockBegin
  2
*Model_Space
 70
0
 10
0.0
 20
0.0
 30
0.0
  3
*Model_Space
  1

  0
ENDBLK
  5
21
100
AcDbEntity
  8
0
100
AcDbBlockEnd
  0
BLOCK
  5
1C
100
AcDbEntity
  8
0
100
AcDbBlockBegin
  2
*Paper_Space
 70
0
 10
0.0
 20
0.0
 30
0.0
  3
*Paper_Space
  1

  0
ENDBLK
  5
1D
100
AcDbEntity
  8
0
100
AcDbBlockEnd
  0
BLOCK
  5
209
100
AcDbEntity
  8
0
100
AcDbBlockBegin
  2
_FILLED
 70
64
 10
0.0
 20
0.0
  3
_FILLED
  1

  0
SOLID
  5
20A
100
AcDbEntity
  8
0
  6
BYBLOCK
 62
0
100
AcDbTrace
 10
0.0
 20
0.0
 11
-1.0
 21
0.2
 12
-1.0
 22
-0.2
 13
-1.0
 23
-0.2
  0
ENDBLK
  5
20B
100
AcDbEntity
  8
0
  6
BYBLOCK
 62
0
100
AcDbBlockEnd
  0
ENDSEC
  0
SECTION
  2
ENTITIES
  0
LINE
  5
20C
100
AcDbEntity
  8
0
100
AcDbLine
 62
7
  6
CONTINUOUS
 10
7.7973183383
 20
11.4303077147
 11
7.7973183383
 21
11.5697709751
  0
LINE
  5
20D
100
AcDbEntity
  8
0
100
AcDbLine
 62
7
  6
CONTINUOUS
 10
9.0473183383
 20
5.4293944618
 11
9.0473183383
 21
4.8325377656
  0
LINE
  5
20E
100
AcDbEntity
  8
0
100
AcDbLine
 62
7
  6
CONTINUOUS
 10
9.6723183383
 20
8.2312709751
 11
9.6723183383
 21
8.6762709751
  0
LINE
  5
20F
100
AcDbEntity
  8
0
100
AcDbLine
 62
7
  6
CONTINUOUS
 10
9.8573183383
 20
11.5697709751
 11
9.8573183383
 21
11.3375977279
  0
LINE
  5
210
100
AcDbEntity
  8
0
100
AcDbLine
 62
7
  6
CONTINUOUS
 10
9.8598183383
 20
11.2567709751
 11
9.8598183383
 21
10.8817709751
  0
LINE
  5
211
100
AcDbEntity
  8
0
100
AcDbLine
 62
7
  6
CONTINUOUS
 10
10.3598183383
 20
9.0697709751
 11
10.3598183383
 21
10.8817709751
  0
LINE
  5
212
100
AcDbEntity
  8
0
100
AcDbLine
 62
7
  6
CONTINUOUS
 10
10.3910683383
 20
10.8817709751
 11
10.3910683383
 21
9.7737709751
  0
LINE
  5
213
100
AcDbEntity
  8
0
100
AcDbLine
 62
7
  6
CONTINUOUS
 10
10.3910683383
 20
9.7537709751
 11
10.3910683383
 21
9.3137709751
  0
LINE
  5
214
100
AcDbEntity
  8
0
100
AcDbLine
 62
7
  6
CONTINUOUS
 10
11.0467417378
 20
6.4967724438
 11
11.0478241373
 21
6.4967723756
  0
LINE
  5
215
100
AcDbEntity
  8
0
100
AcDbLine
 62
7
  6
CONTINUOUS
 10
10.4723183383
 20
6.5833927287
 11
10.4723183383
 21
5.9187123544
  0
LINE
  5
216
100
AcDbEntity
  8
0
100
AcDbLine
 62
7
  6
CONTINUOUS
 10
10.5948183383
 20
7.099580679
 11
10.5948183383
 21
6.8718018917
  0
LINE
  5
217
100
AcDbEntity
  8
0
100
AcDbLine
 62
7
  6
CONTINUOUS
 10
10.6098183383
 20
7.180706859
 11
10.6098183383
 21
8.2312709751
  0
LINE
  5
218
100
AcDbEntity
  8
0
100
AcDbLine
 62
7
  6
CONTINUOUS
 10
10.6098183383
 20
8.6762709751
 11
10.6098183383
 21
9.0697709751
  0
LINE
  5
219
100
AcDbEntity
  8
0
100
AcDbLine
 62
7
  6
CONTINUOUS
 10
10.6410683383
 20
11.1529138728
 11
10.6410683383
 21
7.3050312398
  0
LINE
  5
21A
100
AcDbEntity
  8
0
100
AcDbLine
 62
7
  6
CONTINUOUS
 10
10.6410683383
 20
7.2229198375
 11
10.6410683383
 21
7.2055226075
  0
LINE
  5
21B
100
AcDbEntity
  8
0
100
AcDbLine
 62
7
  6
CONTINUOUS
 10
10.6410683383
 20
7.1716912649
 11
10.6410683383
 21
7.1558051891
  0
LINE
  5
21C
100
AcDbEntity
  8
0
100
AcDbLine
 62
7
  6
CONTINUOUS
 10
10.6410683383
 20
7.1203914145
 11
10.6410683383
 21
7.1060759891
  0
LINE
  5
21D
100
AcDbEntity
  8
0
100
AcDbLine
 62
7
  6
CONTINUOUS
 10
10.6410685839
 20
7.2745153568
 11
10.6410683383
 21
7.2553113224
  0
LINE
  5
21E
100
AcDbEntity
  8
0
100
AcDbLine
 62
9
  6
CONTINUOUS
 10
10.6410685839
 20
7.2745153568
 11
10.6434357041
 21
7.2754798898
  0
LINE
  5
21F
100
AcDbEntity
  8
0
100
AcDbLine
 62
7
  6
CONTINUOUS
 10
11.1568904109
 20
6.70074893
 11
11.1568904109
 21
6.5613584903
  0
LINE
  5
220
100
AcDbEntity
  8
0
100
AcDbLine
 62
7
  6
CONTINUOUS
 10
11.1770814628
 20
6.187295183
 11
11.1770814628
 21
5.9398078096
  0
LINE
  5
221
100
AcDbEntity
  8
0
100
AcDbLine
 62
7
  6
CONTINUOUS
 10
11.3727462656
 20
6.7888717137
 11
11.3727462656
 21
6.649481274
  0
LINE
  5
222
100
AcDbEntity
  8
0
100
AcDbLine
 62
7
  6
CONTINUOUS
 10
11.4535683383
 20
7.248564301
 11
11.4535683383
 21
7.2304236074
  0
LINE
  5
223
100
AcDbEntity
  8
0
100
AcDbLine
 62
7
  6
CONTINUOUS
 10
11.4535683383
 20
7.1972989
 11
11.4535683383
 21
7.1807444905
  0
LINE
  5
224
100
AcDbEntity
  8
0
100
AcDbLine
 62
7
  6
CONTINUOUS
 10
11.4535683383
 20
7.1459607326
 11
11.4535683383
 21
7.1309424461
  0
LINE
  5
225
100
AcDbEntity
  8
0
100
AcDbLine
 62
7
  6
CONTINUOUS
 10
11.4675552138
 20
6.3058805952
 11
11.4675552138
 21
6.0583932218
  0
LINE
  5
226
100
AcDbEntity
  8
0
100
AcDbLine
 62
7
  6
CONTINUOUS
 10
11.4848183383
 20
7.1807071678
 11
11.4848183383
 21
8.2312709751
  0
LINE
  5
227
100
AcDbEntity
  8
0
100
AcDbLine
 62
7
  6
CONTINUOUS
 10
11.4848183383
 20
8.6762709751
 11
11.4848183383
 21
9.0697709751
  0
LINE
  5
228
100
AcDbEntity
  8
0
100
AcDbLine
 62
7
  6
CONTINUOUS
 10
11.4998183383
 20
7.099580679
 11
11.4998183383
 21
6.8718018917
  0
LINE
  5
229
100
AcDbEntity
  8
0
100
AcDbLine
 62
7
  6
CONTINUOUS
 10
11.6223183383
 20
6.5833927287
 11
11.6223183383
 21
5.9187123544
  0
LINE
  5
22A
100
AcDbEntity
  8
0
100
AcDbLine
 62
7
  6
CONTINUOUS
 10
11.7035683383
 20
10.8817709751
 11
11.7035683383
 21
9.7737709751
  0
LINE
  5
22B
100
AcDbEntity
  8
0
100
AcDbLine
 62
7
  6
CONTINUOUS
 10
11.7035683383
 20
9.7537709751
 11
11.7035683383
 21
9.3137709751
  0
LINE
  5
22C
100
AcDbEntity
  8
0
100
AcDbLine
 62
7
  6
CONTINUOUS
 10
11.7348183383
 20
9.0697709751
 11
11.7348183383
 21
10.8817709751
  0
LINE
  5
22D
100
AcDbEntity
  8
0
100
AcDbLine
 62
7
  6
CONTINUOUS
 10
11.4535683383
 20
11.1529138728
 11
11.4535680927
 21
7.304715385
  0
LINE
  5
22E
100
AcDbEntity
  8
0
100
AcDbLine
 62
7
  6
CONTINUOUS
 10
10.6410683383
 20
8.2312709751
 11
9.6723183383
 21
8.2312709751
  0
LINE
  5
22F
100
AcDbEntity
  8
0
100
AcDbLine
 62
7
  6
CONTINUOUS
 10
11.4535683383
 20
8.2312709751
 11
12.4223183383
 21
8.2312709751
  0
LINE
  5
230
100
AcDbEntity
  8
0
100
AcDbLine
 62
7
  6
CONTINUOUS
 10
12.2348183383
 20
11.2567709751
 11
12.2348183383
 21
10.8817709751
  0
LINE
  5
231
100
AcDbEntity
  8
0
100
AcDbLine
 62
7
  6
CONTINUOUS
 10
12.2373183383
 20
11.5697709751
 11
12.2373183383
 21
11.3375977279
  0
LINE
  5
232
100
AcDbEntity
  8
0
100
AcDbLine
 62
7
  6
CONTINUOUS
 10
12.4223183383
 20
8.2312709751
 11
12.4223183383
 21
8.6762709751
  0
LINE
  5
233
100
AcDbEntity
  8
0
100
AcDbLine
 62
7
  6
CONTINUOUS
 10
11.4675552138
 20
6.3058805952
 11
11.1770814628
 21
6.187295183
  0
LINE
  5
234
100
AcDbEntity
  8
0
100
AcDbLine
 62
7
  6
CONTINUOUS
 10
10.6410683383
 20
8.6762709751
 11
9.6723183383
 21
8.6762709751
  0
LINE
  5
235
100
AcDbEntity
  8
0
100
AcDbLine
 62
7
  6
CONTINUOUS
 10
11.4535683383
 20
8.6762709751
 11
12.4223183383
 21
8.6762709751
  0
LINE
  5
236
100
AcDbEntity
  8
0
100
AcDbLine
 62
7
  6
CONTINUOUS
 10
11.4675552138
 20
6.0583932218
 11
11.1770814628
 21
5.9398078096
  0
LINE
  5
237
100
AcDbEntity
  8
0
100
AcDbLine
 62
7
  6
CONTINUOUS
 10
10.6410683383
 20
9.0697709751
 11
10.3598183383
 21
9.0697709751
  0
LINE
  5
238
100
AcDbEntity
  8
0
100
AcDbLine
 62
7
  6
CONTINUOUS
 10
11.4535683383
 20
9.0697709751
 11
11.7348183383
 21
9.0697709751
  0
LINE
  5
239
100
AcDbEntity
  8
0
100
AcDbLine
 62
7
  6
CONTINUOUS
 10
13.0473183383
 20
5.4293944618
 11
13.0473183383
 21
4.8325377656
  0
LINE
  5
23A
100
AcDbEntity
  8
0
100
AcDbLine
 62
7
  6
CONTINUOUS
 10
11.7035683383
 20
9.3137709751
 11
11.4535683383
 21
9.3137709751
  0
LINE
  5
23B
100
AcDbEntity
  8
0
100
AcDbLine
 62
7
  6
CONTINUOUS
 10
10.6410683383
 20
9.3137709751
 11
10.3910683383
 21
9.3137709751
  0
LINE
  5
23C
100
AcDbEntity
  8
0
100
AcDbLine
 62
9
  6
CONTINUOUS
 10
11.4535683383
 20
9.3197709751
 11
10.6410683383
 21
9.3197709751
  0
LINE
  5
23D
100
AcDbEntity
  8
0
100
AcDbLine
 62
7
  6
CONTINUOUS
 10
11.7035683383
 20
9.7537709751
 11
11.4535683383
 21
9.7537709751
  0
LINE
  5
23E
100
AcDbEntity
  8
0
100
AcDbLine
 62
7
  6
CONTINUOUS
 10
10.6410683383
 20
9.7537709751
 11
10.3910683383
 21
9.7537709751
  0
LINE
  5
23F
100
AcDbEntity
  8
0
100
AcDbLine
 62
7
  6
CONTINUOUS
 10
11.7035683383
 20
9.7737709751
 11
11.4535683383
 21
9.7737709751
  0
LINE
  5
240
100
AcDbEntity
  8
0
100
AcDbLine
 62
7
  6
CONTINUOUS
 10
10.6410683383
 20
9.7737709751
 11
10.3910683383
 21
9.7737709751
  0
LINE
  5
241
100
AcDbEntity
  8
0
100
AcDbLine
 62
7
  6
CONTINUOUS
 10
14.2973183383
 20
11.4303077147
 11
14.2973183383
 21
11.5697709751
  0
LINE
  5
242
100
AcDbEntity
  8
0
100
AcDbLine
 62
7
  6
CONTINUOUS
 10
9.8598183383
 20
10.8817709751
 11
10.6410683383
 21
10.8817709751
  0
LINE
  5
243
100
AcDbEntity
  8
0
100
AcDbLine
 62
7
  6
CONTINUOUS
 10
11.4535683383
 20
10.8817709751
 11
12.2348183383
 21
10.8817709751
  0
LINE
  5
244
100
AcDbEntity
  8
0
100
AcDbLine
 62
7
  6
CONTINUOUS
 10
11.4945333056
 20
11.1529138728
 11
11.4978849088
 21
11.1531016814
  0
LINE
  5
245
100
AcDbEntity
  8
0
100
AcDbLine
 62
7
  6
CONTINUOUS
 10
10.600103371
 20
11.1529138728
 11
11.4945333056
 21
11.1529138728
  0
LINE
  5
246
100
AcDbEntity
  8
0
100
AcDbLine
 62
9
  6
CONTINUOUS
 10
11.4978849088
 20
11.1531016814
 11
10.5967517678
 21
11.1531016814
  0
LINE
  5
247
100
AcDbEntity
  8
0
100
AcDbLine
 62
7
  6
CONTINUOUS
 10
14.1301615496
 20
11.2567709751
 11
12.0755935853
 21
11.2567709751
  0
LINE
  5
248
100
AcDbEntity
  8
0
100
AcDbLine
 62
7
  6
CONTINUOUS
 10
10.0190430912
 20
11.2567709751
 11
7.964475127
 21
11.2567709751
  0
LINE
  5
249
100
AcDbEntity
  8
0
100
AcDbLine
 62
9
  6
CONTINUOUS
 10
12.2007135508
 20
11.2894254508
 11
9.8939231258
 21
11.2894254508
  0
LINE
  5
24A
100
AcDbEntity
  8
0
100
AcDbLine
 62
9
  6
CONTINUOUS
 10
14.1895364896
 20
11.2987079848
 11
12.218658852
 21
11.2987079848
  0
LINE
  5
24B
100
AcDbEntity
  8
0
100
AcDbLine
 62
9
  6
CONTINUOUS
 10
9.8759778246
 20
11.2987079848
 11
7.9051001869
 21
11.2987079848
  0
LINE
  5
24C
100
AcDbEntity
  8
0
100
AcDbLine
 62
9
  6
CONTINUOUS
 10
12.2373183383
 20
11.3375977279
 11
9.8573183383
 21
11.3375977279
  0
LINE
  5
24D
100
AcDbEntity
  8
0
100
AcDbLine
 62
7
  6
CONTINUOUS
 10
10.600103371
 20
11.1529138728
 11
10.5967517678
 21
11.1531016814
  0
LINE
  5
24E
100
AcDbEntity
  8
0
100
AcDbLine
 62
9
  6
CONTINUOUS
 10
14.2588700226
 20
11.3722886248
 11
12.2373183383
 21
11.3722886248
  0
LINE
  5
24F
100
AcDbEntity
  8
0
100
AcDbLine
 62
9
  6
CONTINUOUS
 10
9.8573183383
 20
11.3722886248
 11
7.8357666539
 21
11.3722886248
  0
LINE
  5
250
100
AcDbEntity
  8
0
100
AcDbLine
 62
9
  6
CONTINUOUS
 10
14.2973183383
 20
11.4303077147
 11
12.2373183383
 21
11.4303077147
  0
LINE
  5
251
100
AcDbEntity
  8
0
100
AcDbLine
 62
9
  6
CONTINUOUS
 10
9.8573183383
 20
11.4303077147
 11
7.7973183383
 21
11.4303077147
  0
LINE
  5
252
100
AcDbEntity
  8
0
100
AcDbLine
 62
7
  6
CONTINUOUS
 10
7.7973183383
 20
11.5697709751
 11
14.2973183383
 21
11.5697709751
  0
ARC
  5
253
100
AcDbEntity
  8
0
100
AcDbCircle
 62
7
  6
CONTINUOUS
 10
11.0994922504
 20
15.6249303909
 40
4.5
100
AcDbArc
 50
254.4604045096
 51
263.5855182739
  0
ARC
  5
254
100
AcDbEntity
  8
0
100
AcDbCircle
 62
7
  6
CONTINUOUS
 10
10.9951444261
 20
15.6249303909
 40
4.5
100
AcDbArc
 50
276.4144817261
 51
285.5395954904
  0
ARC
  5
255
100
AcDbEntity
  8
0
100
AcDbCircle
 62
9
  6
CONTINUOUS
 10
10.9949948214
 20
6.5585736938
 40
2.4249289744
100
AcDbArc
 50
251.3261000786
 51
257.2399672602
  0
ARC
  5
256
100
AcDbEntity
  8
0
100
AcDbCircle
 62
9
  6
CONTINUOUS
 10
10.9755984083
 20
4.9451555595
 40
1.3580196838
100
AcDbArc
 50
111.7577038304
 51
112.2075119285
  0
ARC
  5
257
100
AcDbEntity
  8
0
100
AcDbCircle
 62
9
  6
CONTINUOUS
 10
10.0475240719
 20
4.8325378142
 40
1.0002057178
100
AcDbArc
 50
180.0000027875
 51
182.3019621674
  0
ARC
  5
258
100
AcDbEntity
  8
0
100
AcDbCircle
 62
7
  6
CONTINUOUS
 10
11.0760957639
 20
6.8083913528
 40
0.5621671206
100
AcDbArc
 50
291.1903979432
 51
292.206924975
  0
ARC
  5
259
100
AcDbEntity
  8
0
100
AcDbCircle
 62
7
  6
CONTINUOUS
 10
11.0782955758
 20
6.7766486107
 40
0.529922096
100
AcDbArc
 50
292.2054397019
 51
293.2834796607
  0
ARC
  5
25A
100
AcDbEntity
  8
0
100
AcDbCircle
 62
7
  6
CONTINUOUS
 10
11.0473076729
 20
6.4165089798
 40
0.4890124998
100
AcDbArc
 50
28.6907444767
 51
34.9050359592
  0
ARC
  5
25B
100
AcDbEntity
  8
0
100
AcDbCircle
 62
7
  6
CONTINUOUS
 10
11.0473251952
 20
6.4165112969
 40
0.4890080465
100
AcDbArc
 50
145.1152517632
 51
151.3092794554
  0
ARC
  5
25C
100
AcDbEntity
  8
0
100
AcDbCircle
 62
7
  6
CONTINUOUS
 10
11.2759852728
 20
6.5336944074
 40
0.2338414103
100
AcDbArc
 50
4.5204271334
 51
8.6289806147
  0
ARC
  5
25D
100
AcDbEntity
  8
0
100
AcDbCircle
 62
7
  6
CONTINUOUS
 10
10.8180577183
 20
6.533763166
 40
0.2332441152
100
AcDbArc
 50
171.3629596976
 51
175.7530346565
  0
ARC
  5
25E
100
AcDbEntity
  8
0
100
AcDbCircle
 62
9
  6
CONTINUOUS
 10
10.8210658588
 20
6.8718017726
 40
0.2262475175
100
AcDbArc
 50
179.9999698549
 51
181.4501753584
  0
ARC
  5
25F
100
AcDbEntity
  8
0
100
AcDbCircle
 62
7
  6
CONTINUOUS
 10
11.2378689002
 20
7.2485390636
 40
0.2156994183
100
AcDbArc
 50
0.0067037615
 51
7.8361999957
  0
ARC
  5
260
100
AcDbEntity
  8
0
100
AcDbCircle
 62
7
  6
CONTINUOUS
 10
11.2380049245
 20
7.2304585615
 40
0.2155633953
100
AcDbArc
 50
351.2786723388
 51
359.9907093725
  0
ARC
  5
261
100
AcDbEntity
  8
0
100
AcDbCircle
 62
7
  6
CONTINUOUS
 10
11.2383053991
 20
7.145952405
 40
0.215262918
100
AcDbArc
 50
0.0022165281
 51
4.6412499377
  0
ARC
  5
262
100
AcDbEntity
  8
0
100
AcDbCircle
 62
7
  6
CONTINUOUS
 10
11.2384165029
 20
7.1972919487
 40
0.2151518141
100
AcDbArc
 50
0.0018511653
 51
4.4205032969
  0
ARC
  5
263
100
AcDbEntity
  8
0
100
AcDbCircle
 62
7
  6
CONTINUOUS
 10
11.2385003071
 20
7.2485662497
 40
0.2150680099
100
AcDbArc
 50
355.1824622389
 51
359.9994808542
  0
ARC
  5
264
100
AcDbEntity
  8
0
100
AcDbCircle
 62
7
  6
CONTINUOUS
 10
11.2385264186
 20
7.1459617244
 40
0.2150418983
100
AcDbArc
 50
356.0104121953
 51
359.9997357359
  0
ARC
  5
265
100
AcDbEntity
  8
0
100
AcDbCircle
 62
7
  6
CONTINUOUS
 10
11.2385618164
 20
7.1973003118
 40
0.2150065006
100
AcDbArc
 50
355.6022009366
 51
359.9996237871
  0
ARC
  5
266
100
AcDbEntity
  8
0
100
AcDbCircle
 62
7
  6
CONTINUOUS
 10
10.8452046863
 20
7.3050641553
 40
0.2041363505
100
AcDbArc
 50
180.0092385327
 51
188.6028627131
  0
ARC
  5
267
100
AcDbEntity
  8
0
100
AcDbCircle
 62
7
  6
CONTINUOUS
 10
10.8333080985
 20
7.1203782427
 40
0.1922397607
100
AcDbArc
 50
174.7352678244
 51
179.996074224
  0
ARC
  5
268
100
AcDbEntity
  8
0
100
AcDbCircle
 62
7
  6
CONTINUOUS
 10
10.8332612532
 20
7.2229309108
 40
0.1921928939
100
AcDbArc
 50
180.0033011187
 51
185.1704573124
  0
ARC
  5
269
100
AcDbEntity
  8
0
100
AcDbCircle
 62
7
  6
CONTINUOUS
 10
10.8331756638
 20
7.1716993426
 40
0.1921073044
100
AcDbArc
 50
180.0024091567
 51
184.7232873877
  0
ARC
  5
26A
100
AcDbEntity
  8
0
100
AcDbCircle
 62
7
  6
CONTINUOUS
 10
10.8330507606
 20
7.1716891151
 40
0.1919824009
100
AcDbArc
 50
174.9438725764
 51
179.9993583931
  0
ARC
  5
26B
100
AcDbEntity
  8
0
100
AcDbCircle
 62
7
  6
CONTINUOUS
 10
10.833039202
 20
7.2742052484
 40
0.1919708686
100
AcDbArc
 50
175.5245800186
 51
179.9074447539
  0
ARC
  5
26C
100
AcDbEntity
  8
0
100
AcDbCircle
 62
7
  6
CONTINUOUS
 10
10.8330320185
 20
7.2229180378
 40
0.1919636589
100
AcDbArc
 50
175.2040361743
 51
179.9994628322
  0
ARC
  5
26D
100
AcDbEntity
  8
0
100
AcDbCircle
 62
7
  6
CONTINUOUS
 10
10.8330041754
 20
7.1203935095
 40
0.1919358372
100
AcDbArc
 50
180.0006253808
 51
184.2698840324
  0
ARC
  5
26E
100
AcDbEntity
  8
0
100
AcDbCircle
 62
7
  6
CONTINUOUS
 10
7.7868835557
 20
11.2567709751
 40
0.1254347826
100
AcDbArc
 50
19.5319940446
 51
67.0635891141
  0
ARC
  5
26F
100
AcDbEntity
  8
0
100
AcDbCircle
 62
7
  6
CONTINUOUS
 10
14.3077531209
 20
11.2567709751
 40
0.1254347826
100
AcDbArc
 50
112.9364108859
 51
160.4680059554
  0
ARC
  5
270
100
AcDbEntity
  8
0
100
AcDbCircle
 62
7
  6
CONTINUOUS
 10
14.2343183383
 20
11.4303077147
 40
0.063
100
AcDbArc
 50
292.9364108859
 51
360.0
  0
ARC
  5
271
100
AcDbEntity
  8
0
100
AcDbCircle
 62
7
  6
CONTINUOUS
 10
7.8603183383
 20
11.4303077147
 40
0.063
100
AcDbArc
 50
180.0
 51
247.0635891141
  0
ARC
  5
272
100
AcDbEntity
  8
0
100
AcDbCircle
 62
7
  6
CONTINUOUS
 10
14.130161828
 20
11.3197709751
 40
0.063
100
AcDbArc
 50
270.0
 51
340.4680059554
  0
ARC
  5
273
100
AcDbEntity
  8
0
100
AcDbCircle
 62
7
  6
CONTINUOUS
 10
7.9644748485
 20
11.3197709751
 40
0.063
100
AcDbArc
 50
199.5319940446
 51
270.0
  0
ARC
  5
274
100
AcDbEntity
  8
0
100
AcDbCircle
 62
7
  6
CONTINUOUS
 10
12.1873183383
 20
11.3375977279
 40
0.05
100
AcDbArc
 50
285.5395954903
 51
360.0
  0
ARC
  5
275
100
AcDbEntity
  8
0
100
AcDbCircle
 62
7
  6
CONTINUOUS
 10
9.9073183383
 20
11.3375977279
 40
0.05
100
AcDbArc
 50
180.0
 51
254.4604045097
  0
SPLINE
  5
276
100
AcDbEntity
  8
0
100
AcDbSpline
 62
7
  6
CONTINUOUS
 70
0
 71
3
 72
28
 73
24
 74
0
 42
0.0000001
 43
0.0000001
 44
0.0000000001
 40
0.0
 40
0.0
 40
0.0
 40
0.0
 40
0.0253211388
 40
0.0507083231
 40
0.0762264633
 40
0.1019382616
 40
0.1279032089
 40
0.154176719
 40
0.1808094222
 40
0.2078466364
 40
0.2353279627
 40
0.2632870179
 40
0.3207201282
 40
0.3803188131
 40
0.4421386933
 40
0.5061509542
 40
0.5722515867
 40
0.6402720075
 40
0.7099889591
 40
0.781134852
 40
0.8534069835
 40
0.9264766866
 40
1.0
 40
1.0
 40
1.0
 40
1.0
 10
10.6410683555
 20
7.1060759891
 30
0.0
 10
10.6410683667
 20
7.1015042125
 30
0.0
 10
10.6413956868
 20
7.0923453824
 30
0.0
 10
10.6428669307
 20
7.0786503439
 30
0.0
 10
10.6453148339
 20
7.065023554
 30
0.0
 10
10.6487331775
 20
7.0515001125
 30
0.0
 10
10.65311335
 20
7.0381136091
 30
0.0
 10
10.6584444166
 20
7.0248975449
 30
0.0
 10
10.6647130718
 20
7.0118847507
 30
0.0
 10
10.6719036792
 20
6.9991076032
 30
0.0
 10
10.6799988696
 20
6.9865973833
 30
0.0
 10
10.6920775376
 20
6.9701704781
 30
0.0
 10
10.7094039113
 20
6.9504666036
 30
0.0
 10
10.7332430202
 20
6.9286020217
 30
0.0
 10
10.7600881055
 20
6.9085087539
 30
0.0
 10
10.7896785947
 20
6.8903837745
 30
0.0
 10
10.821731427
 20
6.8744026949
 30
0.0
 10
10.8559401207
 20
6.8607229321
 30
0.0
 10
10.891978055
 20
6.849480346
 30
0.0
 10
10.9295009442
 20
6.8407885844
 30
0.0
 10
10.9681509315
 20
6.8347371788
 30
0.0
 10
11.0075563496
 20
6.8313909632
 30
0.0
 10
11.0340460921
 20
6.8309904567
 30
0.0
 10
11.0473183383
 20
6.8312490384
 30
0.0
  0
SPLINE
  5
277
100
AcDbEntity
  8
0
100
AcDbSpline
 62
7
  6
CONTINUOUS
 70
0
 71
3
 72
15
 73
11
 74
0
 42
0.0000001
 43
0.0000001
 44
0.0000000001
 40
0.0
 40
0.0
 40
0.0
 40
0.0
 40
0.1196855468
 40
0.2399227117
 40
0.3612465607
 40
0.4841601919
 40
0.6091213861
 40
0.7365326818
 40
0.8667343302
 40
1.0
 40
1.0
 40
1.0
 40
1.0
 10
10.6410683383
 20
7.1558051891
 30
0.0
 10
10.6410683403
 20
7.1497169192
 30
0.0
 10
10.6416501375
 20
7.137504429
 30
0.0
 10
10.6442621389
 20
7.1192886546
 30
0.0
 10
10.648601899
 20
7.1012356911
 30
0.0
 10
10.6546493527
 20
7.0834284389
 30
0.0
 10
10.6623767988
 20
7.0659454725
 30
0.0
 10
10.6717496361
 20
7.04886377
 30
0.0
 10
10.6827252409
 20
7.0322592772
 30
0.0
 10
10.6909807057
 20
7.0216817416
 30
0.0
 10
10.6953467171
 20
7.0164958174
 30
0.0
  0
SPLINE
  5
278
100
AcDbEntity
  8
0
100
AcDbSpline
 62
7
  6
CONTINUOUS
 70
0
 71
3
 72
28
 73
24
 74
0
 42
0.0000001
 43
0.0000001
 44
0.0000000001
 40
0.0
 40
0.0
 40
0.0
 40
0.0
 40
0.0253216808
 40
0.0507093252
 40
0.0762278514
 40
0.101939963
 40
0.1279051455
 40
0.1541788183
 40
0.1808116283
 40
0.2078488958
 40
0.2353302167
 40
0.2632892182
 40
0.3207221245
 40
0.3803204846
 40
0.4421399868
 40
0.5061518385
 40
0.5722520817
 40
0.6402721566
 40
0.7099888375
 40
0.7811345604
 40
0.8534066456
 40
0.9264764255
 40
1.0
 40
1.0
 40
1.0
 40
1.0
 10
10.6410683596
 20
7.2055226075
 30
0.0
 10
10.6410683596
 20
7.2009507542
 30
0.0
 10
10.6413957077
 20
7.1917917866
 30
0.0
 10
10.6428669173
 20
7.1780965575
 30
0.0
 10
10.6453148312
 20
7.1644696208
 30
0.0
 10
10.6487331925
 20
7.1509460766
 30
0.0
 10
10.6531133733
 20
7.1375595098
 30
0.0
 10
10.658444426
 20
7.1243434126
 30
0.0
 10
10.6647130979
 20
7.111330635
 30
0.0
 10
10.6719037239
 20
7.0985535439
 30
0.0
 10
10.6799989198
 20
7.0860434111
 30
0.0
 10
10.6920775776
 20
7.0696166736
 30
0.0
 10
10.7094039825
 20
7.049913124
 30
0.0
 10
10.7332430941
 20
7.0280490051
 30
0.0
 10
10.7600882129
 20
7.0079563702
 30
0.0
 10
10.7896787055
 20
6.9898321068
 30
0.0
 10
10.8217315529
 20
6.9738518863
 30
0.0
 10
10.8559402437
 20
6.9601730609
 30
0.0
 10
10.891978176
 20
6.9489315258
 30
0.0
 10
10.9295010538
 20
6.9402408897
 30
0.0
 10
10.9681510236
 20
6.9341906974
 30
0.0
 10
11.0075564202
 20
6.9308457607
 30
0.0
 10
11.0340461155
 20
6.9304461508
 30
0.0
 10
11.0473183383
 20
6.9307051892
 30
0.0
  0
SPLINE
  5
279
100
AcDbEntity
  8
0
100
AcDbSpline
 62
7
  6
CONTINUOUS
 70
0
 71
3
 72
23
 73
19
 74
0
 42
0.0000001
 43
0.0000001
 44
0.0000000001
 40
0.0
 40
0.0
 40
0.0
 40
0.0
 40
0.061551624
 40
0.1231125399
 40
0.184691758
 40
0.2463039987
 40
0.3079685577
 40
0.369710636
 40
0.4315624751
 40
0.4935620277
 40
0.5557526766
 40
0.6181805616
 40
0.6808924857
 40
0.7439325433
 40
0.8073393461
 40
0.8711424905
 40
0.9353610878
 40
1.0
 40
1.0
 40
1.0
 40
1.0
 10
11.4998183383
 20
6.8718018917
 30
0.0
 10
11.4998183383
 20
6.8626892253
 30
0.0
 10
11.4990390998
 20
6.844452958
 30
0.0
 10
11.4955459362
 20
6.8173019374
 30
0.0
 10
11.4897668841
 20
6.7905333929
 30
0.0
 10
11.4817642317
 20
6.7643288757
 30
0.0
 10
11.4716200978
 20
6.7388516495
 30
0.0
 10
11.4594329596
 20
6.7142478943
 30
0.0
 10
11.4453128329
 20
6.6906439477
 30
0.0
 10
11.4293770568
 20
6.6681460653
 30
0.0
 10
11.4117462539
 20
6.6468414186
 30
0.0
 10
11.3925411761
 20
6.6267999083
 30
0.0
 10
11.3718805443
 20
6.6080768197
 30
0.0
 10
11.3498797923
 20
6.5907156033
 30
0.0
 10
11.3266509781
 20
6.5747508031
 30
0.0
 10
11.3023026535
 20
6.5602102106
 30
0.0
 10
11.2769427661
 20
6.547117822
 30
0.0
 10
11.2594855139
 20
6.5393922242
 30
0.0
 10
11.2506256592
 20
6.5357752037
 30
0.0
  0
SPLINE
  5
27A
100
AcDbEntity
  8
0
100
AcDbSpline
 62
7
  6
CONTINUOUS
 70
0
 71
3
 72
32
 73
28
 74
0
 42
0.0000001
 43
0.0000001
 44
0.0000000001
 40
0.0
 40
0.0
 40
0.0
 40
0.0
 40
0.0654490609
 40
0.1307316326
 40
0.1956965297
 40
0.2280255755
 40
0.2602306689
 40
0.3242166531
 40
0.3876163095
 40
0.4191001458
 40
0.4504382537
 40
0.5126825332
 40
0.5744301026
 40
0.6051541354
 40
0.6357879087
 40
0.6663432824
 40
0.6968321225
 40
0.7272655824
 40
0.7576538888
 40
0.788006336
 40
0.8183310711
 40
0.8486346742
 40
0.8789229556
 40
0.9092003058
 40
0.939470693
 40
0.9697359697
 40
1.0
 40
1.0
 40
1.0
 40
1.0
 10
11.0467417377
 20
6.4967724455
 30
0.0
 10
11.0325208426
 20
6.4967870454
 30
0.0
 10
11.004104198
 20
6.4978943056
 30
0.0
 10
10.9618262093
 20
6.5027844208
 30
0.0
 10
10.9271140737
 20
6.5095462564
 30
0.0
 10
10.89985673
 20
6.5165560397
 30
0.0
 10
10.8731056026
 20
6.5245904974
 30
0.0
 10
10.8405242084
 20
6.5365812296
 30
0.0
 10
10.8092071223
 20
6.5512099966
 30
0.0
 10
10.7851727379
 20
6.5644374304
 30
0.0
 10
10.7619719069
 20
6.5786012336
 30
0.0
 10
10.7344014671
 20
6.5981587737
 30
0.0
 10
10.7089423878
 20
6.6202025828
 30
0.0
 10
10.6901037354
 20
6.6392059659
 30
0.0
 10
10.6767913875
 20
6.6541057929
 30
0.0
 10
10.6643200803
 20
6.6696508649
 30
0.0
 10
10.6527347106
 20
6.6858140656
 30
0.0
 10
10.6420806483
 20
6.7025631701
 30
0.0
 10
10.6324024753
 20
6.7198609716
 30
0.0
 10
10.6237434234
 20
6.7376648978
 30
0.0
 10
10.61614454
 20
6.7559268952
 30
0.0
 10
10.6096437261
 20
6.774593528
 30
0.0
 10
10.604274999
 20
6.7936062669
 30
0.0
 10
10.6000673691
 20
6.8129019788
 30
0.0
 10
10.5970445927
 20
6.8324137331
 30
0.0
 10
10.5952237327
 20
6.852070535
 30
0.0
 10
10.5948183383
 20
6.8652260627
 30
0.0
 10
10.5948183383
 20
6.8718018917
 30
0.0
  0
SPLINE
  5
27B
100
AcDbEntity
  8
0
100
AcDbSpline
 62
7
  6
CONTINUOUS
 70
0
 71
3
 72
13
 73
9
 74
0
 42
0.0000001
 43
0.0000001
 44
0.0000000001
 40
0.0
 40
0.0
 40
0.0
 40
0.0
 40
0.1277913289
 40
0.2553055253
 40
0.445448787
 40
0.6334847319
 40
0.8185849488
 40
1.0
 40
1.0
 40
1.0
 40
1.0
 10
11.0478241373
 20
6.4967723757
 30
0.0
 10
11.056469746
 20
6.4967801585
 30
0.0
 10
11.0737447162
 20
6.4971941687
 30
0.0
 10
11.1038161876
 20
6.4993084584
 30
0.0
 10
11.1377771114
 20
6.5036879443
 30
0.0
 10
11.1751638039
 20
6.5112355996
 30
0.0
 10
11.2113327764
 20
6.5213265587
 30
0.0
 10
11.2346733423
 20
6.5297840555
 30
0.0
 10
11.2460363757
 20
6.5344229945
 30
0.0
  0
SPLINE
  5
27C
100
AcDbEntity
  8
0
100
AcDbSpline
 62
7
  6
CONTINUOUS
 70
0
 71
3
 72
11
 73
7
 74
0
 42
0.0000001
 43
0.0000001
 44
0.0000000001
 40
0.0
 40
0.0
 40
0.0
 40
0.0
 40
0.2470586032
 40
0.4965273317
 40
0.7477859621
 40
1.0
 40
1.0
 40
1.0
 40
1.0
 10
11.2506256592
 20
6.5357752037
 30
0.0
 10
11.2347883807
 20
6.5293096618
 30
0.0
 10
11.2022629971
 20
6.5179603344
 30
0.0
 10
11.1518566
 20
6.505792757
 30
0.0
 10
11.1001678586
 20
6.4984440372
 30
0.0
 10
11.065287306
 20
6.4967880806
 30
0.0
 10
11.0478241373
 20
6.4967723766
 30
0.0
  0
SPLINE
  5
27D
100
AcDbEntity
  8
0
100
AcDbSpline
 62
7
  6
CONTINUOUS
 70
0
 71
3
 72
15
 73
11
 74
0
 42
0.0000001
 43
0.0000001
 44
0.0000000001
 40
0.0
 40
0.0
 40
0.0
 40
0.0
 40
0.1211620899
 40
0.2427142102
 40
0.3650375781
 40
0.4884965376
 40
0.6134309562
 40
0.7401501782
 40
0.8689281719
 40
1.0
 40
1.0
 40
1.0
 40
1.0
 10
11.4998183227
 20
7.099580679
 30
0.0
 10
11.4998183088
 20
7.1056488978
 30
0.0
 10
11.4993283595
 20
7.1178105126
 30
0.0
 10
11.4971271804
 20
7.1359785409
 30
0.0
 10
11.4934669827
 20
7.1540279112
 30
0.0
 10
11.4883602768
 20
7.1718978699
 30
0.0
 10
11.4818244954
 20
7.1895303826
 30
0.0
 10
11.4738815496
 20
7.2068682229
 30
0.0
 10
11.4645586961
 20
7.2238543255
 30
0.0
 10
11.4575083165
 20
7.2348076248
 30
0.0
 10
11.4537729839
 20
7.2402058081
 30
0.0
  0
SPLINE
  5
27E
100
AcDbEntity
  8
0
100
AcDbSpline
 62
7
  6
CONTINUOUS
 70
0
 71
3
 72
15
 73
11
 74
0
 42
0.0000001
 43
0.0000001
 44
0.0000000001
 40
0.0
 40
0.0
 40
0.0
 40
0.0
 40
0.1210999943
 40
0.2425967539
 40
0.364877969
 40
0.4883138007
 40
0.6132491739
 40
0.7399974246
 40
0.8688354511
 40
1.0
 40
1.0
 40
1.0
 40
1.0
 10
10.5948183539
 20
7.099580679
 30
0.0
 10
10.5948183399
 20
7.1057030833
 30
0.0
 10
10.5953171627
 20
7.1179737459
 30
0.0
 10
10.5975578862
 20
7.1363033152
 30
0.0
 10
10.6012837003
 20
7.1545109842
 30
0.0
 10
10.6064815983
 20
7.1725343607
 30
0.0
 10
10.6131335198
 20
7.1903138606
 30
0.0
 10
10.6212167637
 20
7.2077907454
 30
0.0
 10
10.6307030788
 20
7.2249064877
 30
0.0
 10
10.6378752222
 20
7.2359369659
 30
0.0
 10
10.6416746596
 20
7.2413718109
 30
0.0
  0
SPLINE
  5
27F
100
AcDbEntity
  8
0
100
AcDbSpline
 62
7
  6
CONTINUOUS
 70
0
 71
3
 72
21
 73
17
 74
0
 42
0.0000001
 43
0.0000001
 44
0.0000000001
 40
0.0
 40
0.0
 40
0.0
 40
0.0
 40
0.0554312031
 40
0.1110880256
 40
0.1671897009
 40
0.2239431625
 40
0.2815378378
 40
0.3401416093
 40
0.399897769
 40
0.4609232357
 40
0.5233076776
 40
0.587113528
 40
0.7190404524
 40
0.7872256249
 40
0.8568296748
 40
1.0
 40
1.0
 40
1.0
 40
1.0
 10
11.5098183224
 20
6.5692505931
 30
0.0
 10
11.5098183383
 20
6.5622708672
 30
0.0
 10
11.5091835098
 20
6.5482747969
 30
0.0
 10
11.5063330604
 20
6.527389468
 30
0.0
 10
11.5015963129
 20
6.5066776882
 30
0.0
 10
11.4949940838
 20
6.4862279473
 30
0.0
 10
11.4865550718
 20
6.4661242482
 30
0.0
 10
11.4763155845
 20
6.4464494419
 30
0.0
 10
11.4643191126
 20
6.4272838467
 30
0.0
 10
11.4506164329
 20
6.4087056709
 30
0.0
 10
11.4352637768
 20
6.3907893396
 30
0.0
 10
11.4124318485
 20
6.3676291085
 30
0.0
 10
11.386750634
 20
6.3463686356
 30
0.0
 10
11.3587294835
 20
6.3271543154
 30
0.0
 10
11.3284198257
 20
6.30887762
 30
0.0
 10
11.3043228484
 20
6.2970093292
 30
0.0
 10
11.2877635351
 20
6.2898831622
 30
0.0
  0
SPLINE
  5
280
100
AcDbEntity
  8
0
100
AcDbSpline
 62
7
  6
CONTINUOUS
 70
0
 71
3
 72
22
 73
18
 74
0
 42
0.0000001
 43
0.0000001
 44
0.0000000001
 40
0.0
 40
0.0
 40
0.0
 40
0.0
 40
0.0552228286
 40
0.1106806267
 40
0.1666014018
 40
0.2231997994
 40
0.2806715102
 40
0.3391889028
 40
0.3988979335
 40
0.4599162348
 40
0.5223324088
 40
0.5862061066
 40
0.651568928
 40
0.7184257296
 40
0.786756279
 40
0.8565174249
 40
1.0
 40
1.0
 40
1.0
 40
1.0
 10
11.6223183224
 20
5.9187123544
 30
0.0
 10
11.6223183395
 20
5.9098388533
 30
0.0
 10
11.6214928812
 20
5.8920431849
 30
0.0
 10
11.6177868167
 20
5.8654944075
 30
0.0
 10
11.6116291433
 20
5.8391765486
 30
0.0
 10
11.6030482181
 20
5.8132072279
 30
0.0
 10
11.5920831165
 20
5.7876979919
 30
0.0
 10
11.5787831957
 20
5.7627586904
 30
0.0
 10
11.5632076329
 20
5.7384957786
 30
0.0
 10
11.545425007
 20
5.7150123827
 30
0.0
 10
11.5255129241
 20
5.69240793
 30
0.0
 10
11.5035577104
 20
5.6707779384
 30
0.0
 10
11.4796539003
 20
5.6502136233
 30
0.0
 10
11.4539046244
 20
5.6308020107
 30
0.0
 10
11.4264183634
 20
5.6126240498
 30
0.0
 10
11.3872561992
 20
5.589928136
 30
0.0
 10
11.3561636315
 20
5.5753123834
 30
0.0
 10
11.3348183383
 20
5.5665982039
 30
0.0
  0
SPLINE
  5
281
100
AcDbEntity
  8
0
100
AcDbSpline
 62
7
  6
CONTINUOUS
 70
0
 71
3
 72
21
 73
17
 74
0
 42
0.0000001
 43
0.0000001
 44
0.0000000001
 40
0.0
 40
0.0
 40
0.0
 40
0.0
 40
0.0587104048
 40
0.1175236649
 40
0.176541405
 40
0.2358627176
 40
0.2955831048
 40
0.3557934352
 40
0.4165789201
 40
0.4780184139
 40
0.5401838175
 40
0.6031395016
 40
0.6669419825
 40
0.7316397592
 40
0.8638385895
 40
1.0
 40
1.0
 40
1.0
 40
1.0
 10
10.4723183563
 20
6.5833927287
 30
0.0
 10
10.4723183475
 20
6.5890742137
 30
0.0
 10
10.4726558315
 20
6.6004500113
 30
0.0
 10
10.4741730389
 20
6.6174761494
 30
0.0
 10
10.4766987392
 20
6.6344424213
 30
0.0
 10
10.4802282537
 20
6.6513179757
 30
0.0
 10
10.4847551763
 20
6.6680731654
 30
0.0
 10
10.4902714003
 20
6.6846783023
 30
0.0
 10
10.4967669391
 20
6.7011041215
 30
0.0
 10
10.504230081
 20
6.7173217091
 30
0.0
 10
10.5126475415
 20
6.7333025528
 30
0.0
 10
10.5220042222
 20
6.7490185328
 30
0.0
 10
10.5322836565
 20
6.7644424182
 30
0.0
 10
10.5473012062
 20
6.7847249407
 30
0.0
 10
10.5683422227
 20
6.8092054657
 30
0.0
 10
10.587011681
 20
6.8273120435
 30
0.0
 10
10.5968478476
 20
6.8360796309
 30
0.0
  0
SPLINE
  5
282
100
AcDbEntity
  8
0
100
AcDbSpline
 62
7
  6
CONTINUOUS
 70
0
 71
3
 72
38
 73
34
 74
0
 42
0.0000001
 43
0.0000001
 44
0.0000000001
 40
0.0
 40
0.0
 40
0.0
 40
0.0
 40
0.0627498115
 40
0.0951677384
 40
0.1282097751
 40
0.161817171
 40
0.195921121
 40
0.2304445146
 40
0.2653032326
 40
0.3004076242
 40
0.3356639653
 40
0.3709757146
 40
0.4062449889
 40
0.441373911
 40
0.4762658971
 40
0.5108271553
 40
0.544968012
 40
0.5786043271
 40
0.6116590521
 40
0.6440636572
 40
0.675759706
 40
0.7067005268
 40
0.7368527685
 40
0.7661980904
 40
0.7947348165
 40
0.8224793281
 40
0.8494673826
 40
0.8757549324
 40
0.9014182535
 40
0.9265533745
 40
0.951274269
 40
0.9757098741
 40
1.0
 40
1.0
 40
1.0
 40
1.0
 10
11.3431286757
 20
7.0773044706
 30
0.0
 10
11.3289737351
 20
7.066269172
 30
0.0
 10
11.3062572847
 20
7.0510728375
 30
0.0
 10
11.2739492023
 20
7.0336943895
 30
0.0
 10
11.2481906802
 20
7.0218386389
 30
0.0
 10
11.2213229445
 20
7.011372135
 30
0.0
 10
11.193491554
 20
7.0023470905
 30
0.0
 10
11.1648514053
 20
6.9948103936
 30
0.0
 10
11.1355607733
 20
6.9888000946
 30
0.0
 10
11.1057818456
 20
6.9843460535
 30
0.0
 10
11.0756794491
 20
6.9814695133
 30
0.0
 10
11.0454202243
 20
6.9801830471
 30
0.0
 10
11.0151716795
 20
6.9804904643
 30
0.0
 10
10.9851012616
 20
6.9823867882
 30
0.0
 10
10.9553754135
 20
6.9858582889
 30
0.0
 10
10.9261586578
 20
6.9908825651
 30
0.0
 10
10.897612674
 20
6.9974286816
 30
0.0
 10
10.8698954002
 20
7.0054573486
 30
0.0
 10
10.8431601674
 20
7.0149211665
 30
0.0
 10
10.8175548618
 20
7.0257649225
 30
0.0
 10
10.793221135
 20
7.0379259262
 30
0.0
 10
10.7702936677
 20
7.0513343852
 30
0.0
 10
10.7488994845
 20
7.0659138162
 30
0.0
 10
10.7291573448
 20
7.0815814777
 30
0.0
 10
10.7111772045
 20
7.0982487997
 30
0.0
 10
10.695059725
 20
7.1158217905
 30
0.0
 10
10.6808958622
 20
7.1342014244
 30
0.0
 10
10.6687664504
 20
7.1532839178
 30
0.0
 10
10.6587417452
 20
7.1729611016
 30
0.0
 10
10.6508808724
 20
7.1931202573
 30
0.0
 10
10.6452311128
 20
7.2136458838
 30
0.0
 10
10.6418271319
 20
7.2344149722
 30
0.0
 10
10.6410683224
 20
7.2483636429
 30
0.0
 10
10.6410683455
 20
7.2553113223
 30
0.0
  0
SPLINE
  5
283
100
AcDbEntity
  8
0
100
AcDbSpline
 62
7
  6
CONTINUOUS
 70
0
 71
3
 72
18
 73
14
 74
0
 42
0.0000001
 43
0.0000001
 44
0.0000000001
 40
0.0
 40
0.0
 40
0.0
 40
0.0
 40
0.0580917139
 40
0.116458721
 40
0.1751861524
 40
0.2343549257
 40
0.3542732772
 40
0.4767958535
 40
0.5391921768
 40
0.6023932312
 40
0.7313184879
 40
0.8638183578
 40
1.0
 40
1.0
 40
1.0
 40
1.0
 10
11.4449684678
 20
7.2462990603
 30
0.0
 10
11.4445131577
 20
7.2424071541
 30
0.0
 10
11.4433791284
 20
7.2346289931
 30
0.0
 10
11.4410207931
 20
7.2230440502
 30
0.0
 10
11.4380063627
 20
7.2115365814
 30
0.0
 10
11.4330994195
 20
7.1962572427
 30
0.0
 10
11.4253198204
 20
7.1774151005
 30
0.0
 10
11.4155425639
 20
7.1592851213
 30
0.0
 10
11.4065417008
 20
7.145168679
 30
0.0
 10
11.3966286746
 20
7.131144508
 30
0.0
 10
11.3827472199
 20
7.1141672266
 30
0.0
 10
11.3639960526
 20
7.094949909
 30
0.0
 10
11.3502924797
 20
7.0830542049
 30
0.0
 10
11.3431286757
 20
7.0773044706
 30
0.0
  0
SPLINE
  5
284
100
AcDbEntity
  8
0
100
AcDbSpline
 62
7
  6
CONTINUOUS
 70
0
 71
3
 72
15
 73
11
 74
0
 42
0.0000001
 43
0.0000001
 44
0.0000000001
 40
0.0
 40
0.0
 40
0.0
 40
0.0
 40
0.1226655628
 40
0.2455747503
 40
0.3689374429
 40
0.4929811138
 40
0.6179164241
 40
0.7439423129
 40
0.8712462619
 40
1.0
 40
1.0
 40
1.0
 40
1.0
 10
11.4535680927
 20
7.304715385
 30
0.0
 10
11.4535616526
 20
7.3005737909
 30
0.0
 10
11.4532948209
 20
7.2922805456
 30
0.0
 10
11.4521343727
 20
7.2798707919
 30
0.0
 10
11.4502154936
 20
7.267508008
 30
0.0
 10
11.44754206
 20
7.2552164112
 30
0.0
 10
11.4441192859
 20
7.2430188059
 30
0.0
 10
11.4399536508
 20
7.2309381078
 30
0.0
 10
11.4350533364
 20
7.2189974846
 30
0.0
 10
11.4313250574
 20
7.2111915427
 30
0.0
 10
11.4293453112
 20
7.2073213525
 30
0.0
  0
SPLINE
  5
285
100
AcDbEntity
  8
0
100
AcDbSpline
 62
7
  6
CONTINUOUS
 70
0
 71
3
 72
21
 73
17
 74
0
 42
0.0000001
 43
0.0000001
 44
0.0000000001
 40
0.0
 40
0.0
 40
0.0
 40
0.0
 40
0.0525036382
 40
0.1063082459
 40
0.1615372481
 40
0.2182728521
 40
0.3363112845
 40
0.3976697995
 40
0.4604866795
 40
0.5246701094
 40
0.5901031243
 40
0.6566468384
 40
0.7241439468
 40
0.7924217956
 40
0.8612958867
 40
1.0
 40
1.0
 40
1.0
 40
1.0
 10
11.4293453112
 20
7.2073213525
 30
0.0
 10
11.425783156
 20
7.2003577231
 30
0.0
 10
11.4178741487
 20
7.1866037905
 30
0.0
 10
11.403982568
 20
7.166915341
 30
0.0
 10
11.3880074986
 20
7.1480406901
 30
0.0
 10
11.3637483978
 20
7.1237972773
 30
0.0
 10
11.3359476618
 20
7.1019843738
 30
0.0
 10
11.3053639994
 20
7.0828005175
 30
0.0
 10
11.2806189894
 20
7.0695194549
 30
0.0
 10
11.2545185672
 20
7.0576159111
 30
0.0
 10
11.2272116882
 20
7.0471562386
 30
0.0
 10
11.1988579119
 20
7.0382013871
 30
0.0
 10
11.1696225429
 20
7.0308029697
 30
0.0
 10
11.1396736525
 20
7.0250035795
 30
0.0
 10
11.0989420358
 20
7.0194364512
 30
0.0
 10
11.0679820591
 20
7.0177691099
 30
0.0
 10
11.0473183383
 20
7.0177691099
 30
0.0
  0
SPLINE
  5
286
100
AcDbEntity
  8
0
100
AcDbSpline
 62
7
  6
CONTINUOUS
 70
0
 71
3
 72
26
 73
22
 74
0
 42
0.0000001
 43
0.0000001
 44
0.0000000001
 40
0.0
 40
0.0
 40
0.0
 40
0.0
 40
0.0717254646
 40
0.1431507971
 40
0.2139843972
 40
0.2839454944
 40
0.3527729743
 40
0.4202315669
 40
0.4861185961
 40
0.5502711367
 40
0.6125730718
 40
0.6729625012
 40
0.7314383714
 40
0.7880668219
 40
0.8429852848
 40
0.8698773824
 40
0.8964269448
 40
0.9226711655
 40
0.9486512025
 40
0.974411741
 40
1.0
 40
1.0
 40
1.0
 40
1.0
 10
11.0473183383
 20
7.0177691099
 30
0.0
 10
11.0349349671
 20
7.0177691099
 30
0.0
 10
11.0102125248
 20
7.0185678869
 30
0.0
 10
10.9734177111
 20
7.0221550144
 30
0.0
 10
10.9372360592
 20
7.0281005495
 30
0.0
 10
10.9019703594
 20
7.0363555206
 30
0.0
 10
10.8679133392
 20
7.0468517747
 30
0.0
 10
10.835348287
 20
7.0595030554
 30
0.0
 10
10.8045458426
 20
7.0742053963
 30
0.0
 10
10.7757622597
 20
7.0908384437
 30
0.0
 10
10.7492373084
 20
7.1092664555
 30
0.0
 10
10.7251927247
 20
7.1293390584
 30
0.0
 10
10.7038304488
 20
7.1508938492
 30
0.0
 10
10.6853330708
 20
7.1737527719
 30
0.0
 10
10.6723448272
 20
7.1938813191
 30
0.0
 10
10.6635836239
 20
7.2104214331
 30
0.0
 10
10.6578610161
 20
7.2229416562
 30
0.0
 10
10.6529546563
 20
7.2356348865
 30
0.0
 10
10.6488748114
 20
7.2484750546
 30
0.0
 10
10.6456305917
 20
7.2614342784
 30
0.0
 10
10.6440247924
 20
7.2701602026
 30
0.0
 10
10.6433650926
 20
7.2745284713
 30
0.0
  0
SPLINE
  5
287
100
AcDbEntity
  8
0
100
AcDbSpline
 62
7
  6
CONTINUOUS
 70
0
 71
3
 72
32
 73
28
 74
0
 42
0.0000001
 43
0.0000001
 44
0.0000000001
 40
0.0
 40
0.0
 40
0.0
 40
0.0
 40
0.0281035379
 40
0.0562314215
 40
0.0844075501
 40
0.112655889
 40
0.1409998249
 40
0.1694622604
 40
0.1980654424
 40
0.2268308333
 40
0.2557789985
 40
0.2849294944
 40
0.3143007772
 40
0.3439101061
 40
0.3737734589
 40
0.4039054594
 40
0.434319326
 40
0.4650268226
 40
0.5273520364
 40
0.5909558741
 40
0.6232550448
 40
0.6558865537
 40
0.722141366
 40
0.7897209065
 40
0.8585945847
 40
0.9287109214
 40
1.0
 40
1.0
 40
1.0
 40
1.0
 10
13.0473183383
 20
4.8325377656
 30
0.0
 10
13.0473183383
 20
4.8165696748
 30
0.0
 10
13.0465820365
 20
4.7846147779
 30
0.0
 10
13.0432710479
 20
4.7367537516
 30
0.0
 10
13.0377586637
 20
4.6890123079
 30
0.0
 10
13.0300537545
 20
4.6414514229
 30
0.0
 10
13.0201684146
 20
4.5941294137
 30
0.0
 10
13.0081180799
 20
4.5471040013
 30
0.0
 10
12.9939211885
 20
4.5004314528
 30
0.0
 10
12.9775989582
 20
4.4541666262
 30
0.0
 10
12.9591751866
 20
4.4083628272
 30
0.0
 10
12.9386761304
 20
4.3630717179
 30
0.0
 10
12.9161302639
 20
4.3183432878
 30
0.0
 10
12.8915680531
 20
4.2742259058
 30
0.0
 10
12.8650217558
 20
4.2307662991
 30
0.0
 10
12.8365255541
 20
4.1880097965
 30
0.0
 10
12.8061146366
 20
4.1459995292
 30
0.0
 10
12.7628545412
 20
4.0907701732
 30
0.0
 10
12.7040930967
 20
4.0238154866
 30
0.0
 10
12.640102424
 20
3.9605595021
 30
0.0
 10
12.5856297463
 20
3.9118969337
 30
0.0
 10
12.5284206156
 20
3.8640972577
 30
0.0
 10
12.452911993
 20
3.8070212047
 30
0.0
 10
12.3568531139
 20
3.7433502043
 30
0.0
 10
12.2552896709
 20
3.6843883629
 30
0.0
 10
12.1486568634
 20
3.6303636789
 30
0.0
 10
12.0750563886
 20
3.5980267563
 30
0.0
 10
12.0375554962
 20
3.5827170811
 30
0.0
  0
SPLINE
  5
288
100
AcDbEntity
  8
0
100
AcDbSpline
 62
7
  6
CONTINUOUS
 70
0
 71
3
 72
49
 73
45
 74
0
 42
0.0000001
 43
0.0000001
 44
0.0000000001
 40
0.0
 40
0.0
 40
0.0
 40
0.0
 40
0.0329322054
 40
0.0663094608
 40
0.1000793725
 40
0.1341839759
 40
0.1685610829
 40
0.2031450559
 40
0.2378676844
 40
0.2726590503
 40
0.3074483954
 40
0.3421649868
 40
0.3767389808
 40
0.4111022881
 40
0.4451894461
 40
0.478938486
 40
0.5122918159
 40
0.5451970905
 40
0.5776080914
 40
0.6094855898
 40
0.6407981863
 40
0.6715231272
 40
0.6866625081
 40
0.7016507923
 40
0.7164878874
 40
0.7311743576
 40
0.760096742
 40
0.7884401158
 40
0.8024057956
 40
0.816238604
 40
0.8299438897
 40
0.8435276548
 40
0.8569965354
 40
0.8703577758
 40
0.8836191937
 40
0.8967891445
 40
0.9098764803
 40
0.9228905044
 40
0.9358409214
 40
0.9487377899
 40
0.9615914618
 40
0.9744125055
 40
0.9872117553
 40
1.0
 40
1.0
 40
1.0
 40
1.0
 10
12.0375554962
 20
3.5827170811
 30
0.0
 10
11.9996200642
 20
3.5672300058
 30
0.0
 10
11.9223902931
 20
3.5380794804
 30
0.0
 10
11.8037389179
 20
3.5001338959
 30
0.0
 10
11.6819266046
 20
3.4677956835
 30
0.0
 10
11.5574646739
 20
3.4411931827
 30
0.0
 10
11.430870887
 20
3.4204308164
 30
0.0
 10
11.30267391
 20
3.4055908097
 30
0.0
 10
11.1734092044
 20
3.396732075
 30
0.0
 10
11.0436171894
 20
3.3938898854
 30
0.0
 10
10.9138406526
 20
3.3970755134
 30
0.0
 10
10.7846223244
 20
3.4062763508
 30
0.0
 10
10.6565023788
 20
3.4214556748
 30
0.0
 10
10.5300160383
 20
3.4425533611
 30
0.0
 10
10.4056911352
 20
3.4694857951
 30
0.0
 10
10.2840459301
 20
3.5021470719
 30
0.0
 10
10.1655868744
 20
3.5404091319
 30
0.0
 10
10.0508067114
 20
3.584123293
 30
0.0
 10
9.9401829007
 20
3.6331204844
 30
0.0
 10
9.8341751305
 20
3.6872135394
 30
0.0
 10
9.7332282457
 20
3.7461948587
 30
0.0
 10
9.6532789285
 20
3.7994990944
 30
0.0
 10
9.5922986793
 20
3.844394759
 30
0.0
 10
9.5483085127
 20
3.8789768792
 30
0.0
 10
9.5058893319
 20
3.9145996741
 30
0.0
 10
9.4517681259
 20
3.9631860979
 30
0.0
 10
9.3881948498
 20
4.0263244985
 30
0.0
 10
9.3298252453
 20
4.0931276931
 30
0.0
 10
9.2868564008
 20
4.1482190667
 30
0.0
 10
9.2566508589
 20
4.1901194973
 30
0.0
 10
9.2283482559
 20
4.2327587389
 30
0.0
 10
9.2019833103
 20
4.2760940354
 30
0.0
 10
9.1775898055
 20
4.3200804972
 30
0.0
 10
9.1551995827
 20
4.3646718276
 30
0.0
 10
9.1348426961
 20
4.4098201008
 30
0.0
 10
9.1165472247
 20
4.4554757948
 30
0.0
 10
9.1003391148
 20
4.5015877646
 30
0.0
 10
9.0862418392
 20
4.5481032259
 30
0.0
 10
9.0742763125
 20
4.5949678641
 30
0.0
 10
9.0644607096
 20
4.6421259814
 30
0.0
 10
9.0568102774
 20
4.6895204572
 30
0.0
 10
9.0513369346
 20
4.7370935855
 30
0.0
 10
9.0480494199
 20
4.7847850248
 30
0.0
 10
9.0473183383
 20
4.8166263597
 30
0.0
 10
9.0473183383
 20
4.8325377656
 30
0.0
  0
SPLINE
  5
289
100
AcDbEntity
  8
0
100
AcDbSpline
 62
7
  6
CONTINUOUS
 70
0
 71
3
 72
32
 73
28
 74
0
 42
0.0000001
 43
0.0000001
 44
0.0000000001
 40
0.0
 40
0.0
 40
0.0
 40
0.0
 40
0.0281035379
 40
0.0562314215
 40
0.0844075501
 40
0.112655889
 40
0.1409998249
 40
0.1694622604
 40
0.1980654424
 40
0.2268308333
 40
0.2557789985
 40
0.2849294944
 40
0.3143007772
 40
0.3439101061
 40
0.3737734589
 40
0.4039054594
 40
0.434319326
 40
0.4650268226
 40
0.5273520364
 40
0.5909558741
 40
0.6232550448
 40
0.6558865537
 40
0.722141366
 40
0.7897209065
 40
0.8585945847
 40
0.9287109214
 40
1.0
 40
1.0
 40
1.0
 40
1.0
 10
9.0473183383
 20
5.4293944618
 30
0.0
 10
9.0473183383
 20
5.4453625526
 30
0.0
 10
9.0480546401
 20
5.4773174495
 30
0.0
 10
9.0513656287
 20
5.5251784758
 30
0.0
 10
9.0568780128
 20
5.5729199196
 30
0.0
 10
9.0645829221
 20
5.6204808045
 30
0.0
 10
9.074468262
 20
5.6678028137
 30
0.0
 10
9.0865185966
 20
5.7148282261
 30
0.0
 10
9.100715488
 20
5.7615007746
 30
0.0
 10
9.1170377184
 20
5.8077656012
 30
0.0
 10
9.13546149
 20
5.8535694002
 30
0.0
 10
9.1559605462
 20
5.8988605095
 30
0.0
 10
9.1785064127
 20
5.9435889396
 30
0.0
 10
9.2030686235
 20
5.9877063216
 30
0.0
 10
9.2296149208
 20
6.0311659283
 30
0.0
 10
9.2581111224
 20
6.0739224309
 30
0.0
 10
9.28852204
 20
6.1159326982
 30
0.0
 10
9.3317821354
 20
6.1711620542
 30
0.0
 10
9.3905435799
 20
6.2381167408
 30
0.0
 10
9.4545342525
 20
6.3013727253
 30
0.0
 10
9.5090069303
 20
6.3500352938
 30
0.0
 10
9.566216061
 20
6.3978349697
 30
0.0
 10
9.6417246836
 20
6.4549110227
 30
0.0
 10
9.7377835627
 20
6.5185820231
 30
0.0
 10
9.8393470057
 20
6.5775438646
 30
0.0
 10
9.9459798133
 20
6.6315685486
 30
0.0
 10
10.019580288
 20
6.6639054711
 30
0.0
 10
10.0570811804
 20
6.6792151464
 30
0.0
  0
SPLINE
  5
28A
100
AcDbEntity
  8
0
100
AcDbSpline
 62
7
  6
CONTINUOUS
 70
0
 71
3
 72
11
 73
7
 74
0
 42
0.0000001
 43
0.0000001
 44
0.0000000001
 40
0.0
 40
0.0
 40
0.0
 40
0.0
 40
0.2450843506
 40
0.4937761007
 40
0.7455927342
 40
1.0
 40
1.0
 40
1.0
 40
1.0
 10
10.0570811804
 20
6.6792151464
 30
0.0
 10
10.0989403154
 20
6.6963040667
 30
0.0
 10
10.1843069896
 20
6.7282574582
 30
0.0
 10
10.315707109
 20
6.7691447583
 30
0.0
 10
10.450818407
 20
6.8031816088
 30
0.0
 10
10.5425197685
 20
6.8211201426
 30
0.0
 10
10.5887998086
 20
6.8289212226
 30
0.0
  0
SPLINE
  5
28B
100
AcDbEntity
  8
0
100
AcDbSpline
 62
7
  6
CONTINUOUS
 70
0
 71
3
 72
34
 73
30
 74
0
 42
0.0000001
 43
0.0000001
 44
0.0000000001
 40
0.0
 40
0.0
 40
0.0
 40
0.0
 40
0.0722827425
 40
0.1081102207
 40
0.1436909438
 40
0.2140067712
 40
0.2830628345
 40
0.3170762501
 40
0.3507219793
 40
0.4168484222
 40
0.4493214762
 40
0.4813887944
 40
0.5442838088
 40
0.5751278845
 40
0.6055719814
 40
0.6356250287
 40
0.6652990031
 40
0.694608933
 40
0.7235728422
 40
0.7522116457
 40
0.7805490421
 40
0.8086113553
 40
0.8364273183
 40
0.8640278542
 40
0.8914458214
 40
0.918715717
 40
0.9458733625
 40
0.9729556223
 40
1.0
 40
1.0
 40
1.0
 40
1.0
 10
11.5058375794
 20
6.8289211124
 30
0.0
 10
11.5594847086
 20
6.8198782195
 30
0.0
 10
11.6393419227
 20
6.8039111446
 30
0.0
 10
11.7442933392
 20
6.77775026
 30
0.0
 10
11.8469426594
 20
6.7486836785
 30
0.0
 10
11.9718661858
 20
6.70673972
 30
0.0
 10
12.092643056
 20
6.6570294296
 30
0.0
 10
12.1856393259
 20
6.6129382604
 30
0.0
 10
12.2750516549
 20
6.5665919241
 30
0.0
 10
12.3609052598
 20
6.5160132779
 30
0.0
 10
12.4426397537
 20
6.4612789196
 30
0.0
 10
12.5201931847
 20
6.4048103863
 30
0.0
 10
12.5933504262
 20
6.3444886432
 30
0.0
 10
12.6614965548
 20
6.2804841079
 30
0.0
 10
12.7095052073
 20
6.2312417459
 30
0.0
 10
12.7546479418
 20
6.1805331284
 30
0.0
 10
12.7968411562
 20
6.1284372625
 30
0.0
 10
12.8360030573
 20
6.0750379273
 30
0.0
 10
12.8720560551
 20
6.0204220386
 30
0.0
 10
12.9049264021
 20
5.9646803992
 30
0.0
 10
12.9345446714
 20
5.9079078147
 30
0.0
 10
12.9608461461
 20
5.8502033435
 30
0.0
 10
12.9837713542
 20
5.7916704215
 30
0.0
 10
13.0032666835
 20
5.732416919
 30
0.0
 10
13.0192850783
 20
5.6725549325
 30
0.0
 10
13.0317867399
 20
5.6122008215
 30
0.0
 10
13.0407398494
 20
5.5514735115
 30
0.0
 10
13.0461211546
 20
5.4904983032
 30
0.0
 10
13.0473183383
 20
5.4497495366
 30
0.0
 10
13.0473183383
 20
5.4293944618
 30
0.0
  0
SPLINE
  5
28C
100
AcDbEntity
  8
0
100
AcDbSpline
 62
7
  6
CONTINUOUS
 70
0
 71
3
 72
20
 73
16
 74
0
 42
0.0000001
 43
0.0000001
 44
0.0000000001
 40
0.0
 40
0.0
 40
0.0
 40
0.0
 40
0.0536614201
 40
0.1086677724
 40
0.1650482397
 40
0.2228078809
 40
0.3423209529
 40
0.4040319398
 40
0.466935226
 40
0.5309417991
 40
0.5959494548
 40
0.7284643759
 40
0.7957567969
 40
0.8635448484
 40
1.0
 40
1.0
 40
1.0
 40
1.0
 10
10.6953467171
 20
7.0164958174
 30
0.0
 10
10.6998294566
 20
7.0111739298
 30
0.0
 10
10.7093207698
 20
7.0007386466
 30
0.0
 10
10.7248291162
 20
6.9859662798
 30
0.0
 10
10.7417179845
 20
6.9719454259
 30
0.0
 10
10.7662513902
 20
6.9541387815
 30
0.0
 10
10.7930048644
 20
6.9383266622
 30
0.0
 10
10.8215279203
 20
6.9245711634
 30
0.0
 10
10.8441193286
 20
6.9151651568
 30
0.0
 10
10.8675784947
 20
6.9068255362
 30
0.0
 10
10.9000836307
 20
6.8971171088
 30
0.0
 10
10.9336953918
 20
6.8897780678
 30
0.0
 10
10.9680470198
 20
6.8848087629
 30
0.0
 10
11.003102769
 20
6.8814143741
 30
0.0
 10
11.0296276176
 20
6.8807114516
 30
0.0
 10
11.0473183383
 20
6.8810576983
 30
0.0
  0
SPLINE
  5
28D
100
AcDbEntity
  8
0
100
AcDbSpline
 62
7
  6
CONTINUOUS
 70
0
 71
3
 72
13
 73
9
 74
0
 42
0.0000001
 43
0.0000001
 44
0.0000000001
 40
0.0
 40
0.0
 40
0.0
 40
0.0
 40
0.2570894649
 40
0.384854041
 40
0.511522945
 40
0.6367171199
 40
0.7600859915
 40
1.0
 40
1.0
 40
1.0
 40
1.0
 10
11.0473183383
 20
6.8312490384
 30
0.0
 10
11.0692824125
 20
6.831676962
 30
0.0
 10
11.1021677693
 20
6.8342018317
 30
0.0
 10
11.1453092739
 20
6.8413320178
 30
0.0
 10
11.176966085
 20
6.8485049213
 30
0.0
 10
11.207773324
 20
6.8574713914
 30
0.0
 10
11.2470644636
 20
6.8716061383
 30
0.0
 10
11.2752511989
 20
6.8849004649
 30
0.0
 10
11.2931241043
 20
6.8949420773
 30
0.0
  0
SPLINE
  5
28E
100
AcDbEntity
  8
0
100
AcDbSpline
 62
7
  6
CONTINUOUS
 70
0
 71
3
 72
21
 73
17
 74
0
 42
0.0000001
 43
0.0000001
 44
0.0000000001
 40
0.0
 40
0.0
 40
0.0
 40
0.0
 40
0.1403439093
 40
0.208726169
 40
0.2758646577
 40
0.4063434803
 40
0.4697809593
 40
0.5320545408
 40
0.5932303034
 40
0.6533931542
 40
0.7126464569
 40
0.7711110204
 40
0.8289233913
 40
0.8862337184
 40
0.9432030628
 40
1.0
 40
1.0
 40
1.0
 40
1.0
 10
11.2931241043
 20
6.8949420773
 30
0.0
 10
11.3053275315
 20
6.901798382
 30
0.0
 10
11.3230001359
 20
6.9128924028
 30
0.0
 10
11.3450622566
 20
6.929351485
 30
0.0
 10
11.3654277843
 20
6.9463701073
 30
0.0
 10
11.3839668142
 20
6.9647571229
 30
0.0
 10
11.4003526627
 20
6.9843813773
 30
0.0
 10
11.4113620932
 20
6.9994396377
 30
0.0
 10
11.4211659867
 20
7.0149239865
 30
0.0
 10
11.429731903
 20
7.0307855666
 30
0.0
 10
11.4370305398
 20
7.0469732831
 30
0.0
 10
11.4430369601
 20
7.0634350251
 30
0.0
 10
11.4477304329
 20
7.0801173662
 30
0.0
 10
11.451094674
 20
7.0969664153
 30
0.0
 10
11.4531179465
 20
7.1139257381
 30
0.0
 10
11.4535683169
 20
7.1252776453
 30
0.0
 10
11.4535683169
 20
7.1309424461
 30
0.0
  0
SPLINE
  5
28F
100
AcDbEntity
  8
0
100
AcDbSpline
 62
7
  6
CONTINUOUS
 70
0
 71
3
 72
28
 73
24
 74
0
 42
0.0000001
 43
0.0000001
 44
0.0000000001
 40
0.0
 40
0.0
 40
0.0
 40
0.0
 40
0.0717758711
 40
0.1433044497
 40
0.2142516731
 40
0.2842991612
 40
0.3531545241
 40
0.4205600344
 40
0.4863011609
 40
0.550216067
 40
0.6122043682
 40
0.6722362119
 40
0.7303597688
 40
0.7587553098
 40
0.7867305702
 40
0.8143154961
 40
0.8415452452
 40
0.8684599334
 40
0.8951042583
 40
0.9215269734
 40
0.9477802631
 40
0.9739190182
 40
1.0
 40
1.0
 40
1.0
 40
1.0
 10
11.0473183383
 20
6.8810576983
 30
0.0
 10
11.0606085492
 20
6.8813178173
 30
0.0
 10
11.0871344397
 20
6.8827571212
 30
0.0
 10
11.1265404441
 20
6.8876601913
 30
0.0
 10
11.1651914769
 20
6.8952683544
 30
0.0
 10
11.202715716
 20
6.9055169406
 30
0.0
 10
11.2387550901
 20
6.9183166475
 30
0.0
 10
11.272964986
 20
6.9335540382
 30
0.0
 10
11.3050183665
 20
6.9510933125
 30
0.0
 10
11.3346081941
 20
6.9707770696
 30
0.0
 10
11.3614507778
 20
6.9924293164
 30
0.0
 10
11.3852850695
 20
7.0158525855
 30
0.0
 10
11.4025848855
 20
7.0368415763
 30
0.0
 10
11.4146475441
 20
7.0542922053
 30
0.0
 10
11.4227414086
 20
7.0675786442
 30
0.0
 10
11.4299306049
 20
7.0811316727
 30
0.0
 10
11.4361978035
 20
7.0949199931
 30
0.0
 10
11.4415274068
 20
7.1089112142
 30
0.0
 10
11.4459062431
 20
7.1230724853
 30
0.0
 10
11.4493234473
 20
7.137370342
 30
0.0
 10
11.4517704694
 20
7.1517712307
 30
0.0
 10
11.4532411164
 20
7.1662401716
 30
0.0
 10
11.453568317
 20
7.1759143418
 30
0.0
 10
11.4535683169
 20
7.1807444905
 30
0.0
  0
SPLINE
  5
290
100
AcDbEntity
  8
0
100
AcDbSpline
 62
7
  6
CONTINUOUS
 70
0
 71
3
 72
26
 73
22
 74
0
 42
0.0000001
 43
0.0000001
 44
0.0000000001
 40
0.0
 40
0.0
 40
0.0
 40
0.0
 40
0.0708949425
 40
0.1415846048
 40
0.2117833213
 40
0.2812161046
 40
0.3496274767
 40
0.4167873808
 40
0.482497528
 40
0.5465983033
 40
0.6089752903
 40
0.6695660805
 40
0.7283664837
 40
0.7854357172
 40
0.8409003454
 40
0.8680998318
 40
0.8949767555
 40
0.921565579
 40
0.9479043815
 40
0.9740344877
 40
1.0
 40
1.0
 40
1.0
 40
1.0
 10
11.0473183383
 20
6.9307051892
 30
0.0
 10
11.0596719751
 20
6.9309462993
 30
0.0
 10
11.0843353954
 20
6.9322231348
 30
0.0
 10
11.1210211033
 20
6.9365122803
 30
0.0
 10
11.1570993256
 20
6.9431459995
 30
0.0
 10
11.192269903
 20
6.9520759996
 30
0.0
 10
11.2262425869
 20
6.9632349716
 30
0.0
 10
11.2587364096
 20
6.9765376856
 30
0.0
 10
11.2894827808
 20
6.9918815151
 30
0.0
 10
11.3182273503
 20
7.0091473614
 30
0.0
 10
11.3447318902
 20
7.0282010283
 30
0.0
 10
11.3687759746
 20
7.0488936957
 30
0.0
 10
11.3901588524
 20
7.0710643295
 30
0.0
 10
11.4086987474
 20
7.0945366767
 30
0.0
 10
11.4217354462
 20
7.1151689513
 30
0.0
 10
11.4305506032
 20
7.1321131287
 30
0.0
 10
11.4363226256
 20
7.1449412561
 30
0.0
 10
11.4412842617
 20
7.1579434846
 30
0.0
 10
11.4454252601
 20
7.1710939647
 30
0.0
 10
11.4487366578
 20
7.1843651406
 30
0.0
 10
11.4503908697
 20
7.193299671
 30
0.0
 10
11.4510758709
 20
7.1977729502
 30
0.0
  0
SPLINE
  5
291
100
AcDbEntity
  8
0
100
AcDbSpline
 62
7
  6
CONTINUOUS
 70
0
 71
3
 72
18
 73
14
 74
0
 42
0.0000001
 43
0.0000001
 44
0.0000000001
 40
0.0
 40
0.0
 40
0.0
 40
0.0
 40
0.141158433
 40
0.2778199368
 40
0.4096261043
 40
0.5364312763
 40
0.6583366948
 40
0.7175896757
 40
0.7757813139
 40
0.8330024168
 40
0.8893608913
 40
0.9449806556
 40
1.0
 40
1.0
 40
1.0
 40
1.0
 10
11.2201279562
 20
6.44947808
 30
0.0
 10
11.2311156647
 20
6.4539637933
 30
0.0
 10
11.2523636042
 20
6.4637601621
 30
0.0
 10
11.2821647882
 20
6.4811295804
 30
0.0
 10
11.3090651668
 20
6.5007525624
 30
0.0
 10
11.3327234274
 20
6.5223894568
 30
0.0
 10
11.3496536806
 20
6.5420781729
 30
0.0
 10
11.3612243456
 20
6.5585582638
 30
0.0
 10
11.3688423072
 20
6.5711269355
 30
0.0
 10
11.3754555598
 20
6.5839790893
 30
0.0
 10
11.3810433131
 20
6.5970753545
 30
0.0
 10
11.3855871084
 20
6.6103735201
 30
0.0
 10
11.3879216105
 20
6.6193890969
 30
0.0
 10
11.3889064787
 20
6.6239088627
 30
0.0
  0
SPLINE
  5
292
100
AcDbEntity
  8
0
100
AcDbSpline
 62
7
  6
CONTINUOUS
 70
0
 71
3
 72
36
 73
32
 74
0
 42
0.0000001
 43
0.0000001
 44
0.0000000001
 40
0.0
 40
0.0
 40
0.0
 40
0.0
 40
0.0667160692
 40
0.1007472017
 40
0.1351375592
 40
0.204705522
 40
0.239759588
 40
0.2748887484
 40
0.3100179107
 40
0.3450719742
 40
0.4146399343
 40
0.4490302978
 40
0.4830614102
 40
0.5166704239
 40
0.5497994495
 40
0.5823964506
 40
0.6144161478
 40
0.6458209136
 40
0.6765817301
 40
0.7066790774
 40
0.7361038753
 40
0.7648583041
 40
0.7929565873
 40
0.8204255849
 40
0.8473051747
 40
0.8736483233
 40
0.8995207256
 40
0.9249999873
 40
0.9501741978
 40
0.9751399873
 40
1.0
 40
1.0
 40
1.0
 40
1.0
 10
11.2785683383
 20
6.2860283416
 30
0.0
 10
11.2608348319
 20
6.2787886679
 30
0.0
 10
11.2334462052
 20
6.26928279
 30
0.0
 10
11.1959400027
 20
6.2593126943
 30
0.0
 10
11.1571888906
 20
6.2510098083
 30
0.0
 10
11.1175938995
 20
6.2454650504
 30
0.0
 10
11.0775571153
 20
6.242679731
 30
0.0
 10
11.047318343
 20
6.2419804505
 30
0.0
 10
11.0170795434
 20
6.2426797375
 30
0.0
 10
10.9770428719
 20
6.2454650271
 30
0.0
 10
10.9374472191
 20
6.2510099858
 30
0.0
 10
10.8986976377
 20
6.2593124123
 30
0.0
 10
10.8703754604
 20
6.2668413332
 30
0.0
 10
10.8428093024
 20
6.2756628263
 30
0.0
 10
10.8161157027
 20
6.2857396856
 30
0.0
 10
10.7904088461
 20
6.2970291178
 30
0.0
 10
10.7657983622
 20
6.3094833043
 30
0.0
 10
10.7423893296
 20
6.3230495308
 30
0.0
 10
10.7202817378
 20
6.3376704331
 30
0.0
 10
10.6995701231
 20
6.3532842515
 30
0.0
 10
10.6803432072
 20
6.369825079
 30
0.0
 10
10.6626835639
 20
6.3872231243
 30
0.0
 10
10.6466673299
 20
6.4054049656
 30
0.0
 10
10.6323639159
 20
6.4242937848
 30
0.0
 10
10.6198357499
 20
6.4438096065
 30
0.0
 10
10.6091379909
 20
6.4638694792
 30
0.0
 10
10.6003182368
 20
6.4843877777
 30
0.0
 10
10.5934161857
 20
6.5052761428
 30
0.0
 10
10.5884632738
 20
6.526444854
 30
0.0
 10
10.5854822883
 20
6.5477993047
 30
0.0
 10
10.5848183705
 20
6.5621132117
 30
0.0
 10
10.5848183542
 20
6.5692505931
 30
0.0
  0
SPLINE
  5
293
100
AcDbEntity
  8
0
100
AcDbSpline
 62
7
  6
CONTINUOUS
 70
0
 71
3
 72
38
 73
34
 74
0
 42
0.0000001
 43
0.0000001
 44
0.0000000001
 40
0.0
 40
0.0
 40
0.0
 40
0.0
 40
0.066713459
 40
0.1007433074
 40
0.1351323209
 40
0.1698136198
 40
0.2047169559
 40
0.2397696626
 40
0.2748974637
 40
0.3100252602
 40
0.3450779716
 40
0.3799813055
 40
0.4146626033
 40
0.4490516325
 40
0.4830814267
 40
0.5166891392
 40
0.549816878
 40
0.5824126199
 40
0.614431073
 40
0.6458346276
 40
0.6765942491
 40
0.7066904362
 40
0.7361140926
 40
0.7648674118
 40
0.7929646076
 40
0.8204325408
 40
0.8473110915
 40
0.8736532153
 40
0.8995246183
 40
0.9250028888
 40
0.9501761278
 40
0.9751409474
 40
1.0
 40
1.0
 40
1.0
 40
1.0
 10
11.3348183383
 20
5.5665982039
 30
0.0
 10
11.3127712847
 20
5.557597532
 30
0.0
 10
11.2787201554
 20
5.5457793329
 30
0.0
 10
11.2320919049
 20
5.5333843118
 30
0.0
 10
11.1960912427
 20
5.5256707272
 30
0.0
 10
11.1594575649
 20
5.5196374726
 30
0.0
 10
11.1223447182
 20
5.5153094593
 30
0.0
 10
11.0849117779
 20
5.5127052913
 30
0.0
 10
11.047318337
 20
5.511835996
 30
0.0
 10
11.0097249046
 20
5.5127052841
 30
0.0
 10
10.9722919337
 20
5.5153094561
 30
0.0
 10
10.935179199
 20
5.5196374341
 30
0.0
 10
10.8985451008
 20
5.5256708128
 30
0.0
 10
10.8625459847
 20
5.5333839411
 30
0.0
 10
10.8273354732
 20
5.5427440397
 30
0.0
 10
10.7930638131
 20
5.5537113513
 30
0.0
 10
10.7598772348
 20
5.5662393296
 30
0.0
 10
10.7279173449
 20
5.5802748428
 30
0.0
 10
10.6973205298
 20
5.5957584271
 30
0.0
 10
10.6682174065
 20
5.6126245445
 30
0.0
 10
10.6407322884
 20
5.6308018814
 30
0.0
 10
10.6149827109
 20
5.6502136528
 30
0.0
 10
10.5910789713
 20
5.6707779223
 30
0.0
 10
10.569123736
 20
5.6924079234
 30
0.0
 10
10.5492116573
 20
5.715012374
 30
0.0
 10
10.5314290364
 20
5.7384957737
 30
0.0
 10
10.5158534816
 20
5.7627586883
 30
0.0
 10
10.5025535704
 20
5.7876979928
 30
0.0
 10
10.4915884754
 20
5.8132072288
 30
0.0
 10
10.4830075504
 20
5.8391765495
 30
0.0
 10
10.4768498783
 20
5.8654944062
 30
0.0
 10
10.4731437888
 20
5.8920431839
 30
0.0
 10
10.4723183714
 20
5.9098388521
 30
0.0
 10
10.4723183542
 20
5.9187123544
 30
0.0
  0
SPLINE
  5
294
100
AcDbEntity
  8
0
100
AcDbSpline
 62
7
  6
CONTINUOUS
 70
0
 71
3
 72
21
 73
17
 74
0
 42
0.0000001
 43
0.0000001
 44
0.0000000001
 40
0.0
 40
0.0
 40
0.0
 40
0.0
 40
0.1361618256
 40
0.2683601904
 40
0.3330578723
 40
0.396860256
 40
0.4598158486
 40
0.5219812151
 40
0.583420711
 40
0.6442061841
 40
0.7044165306
 40
0.7641369851
 40
0.8234583547
 40
0.8824761521
 40
0.9412895021
 40
1.0
 40
1.0
 40
1.0
 40
1.0
 10
11.4977935707
 20
6.8360753784
 30
0.0
 10
11.5076294449
 20
6.8273078368
 30
0.0
 10
11.5262982818
 20
6.80920144
 30
0.0
 10
11.5473384593
 20
6.7847211494
 30
0.0
 10
11.5623554484
 20
6.764438981
 30
0.0
 10
11.5726344717
 20
6.7490153419
 30
0.0
 10
11.5819907497
 20
6.7332996153
 30
0.0
 10
11.5904078953
 20
6.7173190683
 30
0.0
 10
11.5978707505
 20
6.7011017839
 30
0.0
 10
11.6043659929
 20
6.6846762636
 30
0.0
 10
11.6098819988
 20
6.6680714528
 30
0.0
 10
11.61440877
 20
6.6513166022
 30
0.0
 10
11.6179381092
 20
6.6344413786
 30
0.0
 10
11.6204636893
 20
6.6174754516
 30
0.0
 10
11.6219808969
 20
6.6004496653
 30
0.0
 10
11.6223183115
 20
6.5890740981
 30
0.0
 10
11.6223183203
 20
6.5833927287
 30
0.0
  0
SPLINE
  5
295
100
AcDbEntity
  8
0
100
AcDbSpline
 62
7
  6
CONTINUOUS
 70
0
 71
3
 72
29
 73
25
 74
0
 42
0.0000001
 43
0.0000001
 44
0.0000000001
 40
0.0
 40
0.0
 40
0.0
 40
0.0
 40
0.026011751
 40
0.0521332334
 40
0.0784154708
 40
0.1049070838
 40
0.1316536529
 40
0.1586971562
 40
0.1860755184
 40
0.2138222698
 40
0.2419662731
 40
0.2705315793
 40
0.2995374223
 40
0.3289982139
 40
0.3893009076
 40
0.4514807837
 40
0.5154913629
 40
0.5812247539
 40
0.6485194704
 40
0.7171682545
 40
0.7869262073
 40
0.8575182666
 40
0.9286465731
 40
1.0
 40
1.0
 40
1.0
 40
1.0
 10
11.4530472082
 20
7.1310001439
 30
0.0
 10
11.452721057
 20
7.1263215793
 30
0.0
 10
11.4517609906
 20
7.1169632352
 30
0.0
 10
11.4494087679
 20
7.1030125251
 30
0.0
 10
11.446147812
 20
7.0891565068
 30
0.0
 10
11.4419857808
 20
7.0754265962
 30
0.0
 10
11.4369322819
 20
7.0618528827
 30
0.0
 10
11.4309990582
 20
7.048465276
 30
0.0
 10
11.4241998432
 20
7.0352931035
 30
0.0
 10
11.4165502432
 20
7.0223652062
 30
0.0
 10
11.4080677288
 20
7.0097098114
 30
0.0
 10
11.3987718054
 20
6.9973545176
 30
0.0
 10
11.3886833464
 20
6.9853259028
 30
0.0
 10
11.3740950989
 20
6.9696389195
 30
0.0
 10
11.3539548536
 20
6.9509993049
 30
0.0
 10
11.3272276622
 20
6.9305239835
 30
0.0
 10
11.2979911125
 20
6.9119348636
 30
0.0
 10
11.2665096054
 20
6.8953903242
 30
0.0
 10
11.2330650742
 20
6.8810285368
 30
0.0
 10
11.1979571492
 20
6.8689696962
 30
0.0
 10
11.1615004109
 20
6.8593135116
 30
0.0
 10
11.124020832
 20
6.8521387582
 30
0.0
 10
11.0858562649
 20
6.8475022227
 30
0.0
 10
11.0601807892
 20
6.8461262306
 30
0.0
 10
11.0473183383
 20
6.8458689443
 30
0.0
  0
SPLINE
  5
296
100
AcDbEntity
  8
0
100
AcDbSpline
 62
7
  6
CONTINUOUS
 70
0
 71
3
 72
21
 73
17
 74
0
 42
0.0000001
 43
0.0000001
 44
0.0000000001
 40
0.0
 40
0.0
 40
0.0
 40
0.0
 40
0.0579602342
 40
0.1160477954
 40
0.1743880787
 40
0.2331026152
 40
0.292307403
 40
0.3521113147
 40
0.4126147965
 40
0.4739088316
 40
0.5360740807
 40
0.5991803556
 40
0.6632862637
 40
0.7284392257
 40
0.8619773327
 40
1.0
 40
1.0
 40
1.0
 40
1.0
 10
11.6223183203
 20
6.5833927287
 30
0.0
 10
11.6223183301
 20
6.5770281905
 30
0.0
 10
11.6218946162
 20
6.5642810942
 30
0.0
 10
11.6199901735
 20
6.5452133597
 30
0.0
 10
11.616820944
 20
6.5262299697
 30
0.0
 10
11.6123941988
 20
6.5073743311
 30
0.0
 10
11.6067201061
 20
6.488688062
 30
0.0
 10
11.5998116125
 20
6.4702126858
 30
0.0
 10
11.5916843884
 20
6.4519890553
 30
0.0
 10
11.582356774
 20
6.4340574172
 30
0.0
 10
11.5718497603
 20
6.4164572194
 30
0.0
 10
11.5601869906
 20
6.3992272267
 30
0.0
 10
11.547394188
 20
6.3824048891
 30
0.0
 10
11.5287180882
 20
6.3603905593
 30
0.0
 10
11.5026263118
 20
6.3341006602
 30
0.0
 10
11.4796384875
 20
6.3150294514
 30
0.0
 10
11.4675552138
 20
6.3058805952
 30
0.0
  0
SPLINE
  5
297
100
AcDbEntity
  8
0
100
AcDbSpline
 62
7
  6
CONTINUOUS
 70
0
 71
3
 72
29
 73
25
 74
0
 42
0.0000001
 43
0.0000001
 44
0.0000000001
 40
0.0
 40
0.0
 40
0.0
 40
0.0
 40
0.0259985277
 40
0.0521170476
 40
0.0784053971
 40
0.1049109101
 40
0.1316778375
 40
0.1587468236
 40
0.1861544532
 40
0.2139329524
 40
0.2421099709
 40
0.27070843
 40
0.2997465201
 40
0.3292377223
 40
0.3895930226
 40
0.4518100036
 40
0.515839042
 40
0.5815708214
 40
0.6488439633
 40
0.7174526351
 40
0.7871544318
 40
0.8576776534
 40
0.9287284078
 40
1.0
 40
1.0
 40
1.0
 40
1.0
 10
11.4528085246
 20
7.2305042237
 30
0.0
 10
11.4524174106
 20
7.2258601598
 30
0.0
 10
11.451331467
 20
7.2165732545
 30
0.0
 10
11.4488047269
 20
7.2027380278
 30
0.0
 10
11.4453831289
 20
7.1890024219
 30
0.0
 10
11.4410746564
 20
7.1753971257
 30
0.0
 10
11.4358891313
 20
7.1619515136
 30
0.0
 10
11.4298383566
 20
7.148694812
 30
0.0
 10
11.4229361568
 20
7.1356556398
 30
0.0
 10
11.4151981736
 20
7.1228621239
 30
0.0
 10
11.4066417971
 20
7.1103418163
 30
0.0
 10
11.3972864002
 20
7.0981216475
 30
0.0
 10
11.3871527217
 20
7.0862275191
 30
0.0
 10
11.3725233155
 20
7.0707202658
 30
0.0
 10
11.3523676948
 20
7.052300802
 30
0.0
 10
11.3256726891
 20
7.032073077
 30
0.0
 10
11.2965164683
 20
7.0137140853
 30
0.0
 10
11.2651590796
 20
6.997378039
 30
0.0
 10
11.2318774675
 20
6.9831995105
 30
0.0
 10
11.1969657204
 20
6.9712955093
 30
0.0
 10
11.1607323894
 20
6.9617630399
 30
0.0
 10
11.1234970186
 20
6.954678768
 30
0.0
 10
11.0855906685
 20
6.9500978945
 30
0.0
 10
11.0600919277
 20
6.9487351601
 30
0.0
 10
11.0473183383
 20
6.9484784872
 30
0.0
  0
SPLINE
  5
298
100
AcDbEntity
  8
0
100
AcDbSpline
 62
7
  6
CONTINUOUS
 70
0
 71
3
 72
21
 73
17
 74
0
 42
0.0000001
 43
0.0000001
 44
0.0000000001
 40
0.0
 40
0.0
 40
0.0
 40
0.0
 40
0.1178334534
 40
0.1787114557
 40
0.2406796908
 40
0.3035683518
 40
0.3671931771
 40
0.4313592525
 40
0.4958642541
 40
0.5605018537
 40
0.6250652345
 40
0.6893501534
 40
0.7531584861
 40
0.8163015274
 40
0.8786032774
 40
1.0
 40
1.0
 40
1.0
 40
1.0
 10
10.8146876181
 20
6.9279520236
 30
0.0
 10
10.8310191921
 20
6.919390421
 30
0.0
 10
10.8567528792
 20
6.9081633585
 30
0.0
 10
10.8925587818
 20
6.8964352263
 30
0.0
 10
10.9207055234
 20
6.8891046223
 30
0.0
 10
10.9496590971
 20
6.8833908906
 30
0.0
 10
10.9792382247
 20
6.8793330436
 30
0.0
 10
11.0092532243
 20
6.8769612839
 30
0.0
 10
11.0395128052
 20
6.8762946703
 30
0.0
 10
11.069823805
 20
6.8773415495
 30
0.0
 10
11.0999927407
 20
6.880099304
 30
0.0
 10
11.1298273436
 20
6.8845545897
 30
0.0
 10
11.1591364018
 20
6.8906828514
 30
0.0
 10
11.1877361667
 20
6.8984505827
 30
0.0
 10
11.2243453564
 20
6.9108191745
 30
0.0
 10
11.2507060995
 20
6.9225511611
 30
0.0
 10
11.2674893969
 20
6.9314515891
 30
0.0
  0
SPLINE
  5
299
100
AcDbEntity
  8
0
100
AcDbSpline
 62
9
  6
CONTINUOUS
 70
0
 71
3
 72
49
 73
45
 74
0
 42
0.0000001
 43
0.0000001
 44
0.0000000001
 40
0.0
 40
0.0
 40
0.0
 40
0.0
 40
0.036261127
 40
0.0718853982
 40
0.1068294095
 40
0.1410592884
 40
0.174551725
 40
0.2072950008
 40
0.239289978
 40
0.270550961
 40
0.3011064001
 40
0.3309993672
 40
0.3602876698
 40
0.3747303307
 40
0.3890500701
 40
0.4032580054
 40
0.4173660156
 40
0.4313866676
 40
0.4453331403
 40
0.4592191534
 40
0.4730588659
 40
0.4868667789
 40
0.5006576343
 40
0.5144463013
 40
0.5282476653
 40
0.5420765156
 40
0.5559474372
 40
0.5698747006
 40
0.5838721605
 40
0.5979531688
 40
0.6121304787
 40
0.6264161738
 40
0.6408216091
 40
0.6700268168
 40
0.6998269746
 40
0.7302820299
 40
0.7614372199
 40
0.7933231299
 40
0.8259560985
 40
0.8593389051
 40
0.8934616321
 40
0.9283026373
 40
0.9638292933
 40
1.0
 40
1.0
 40
1.0
 40
1.0
 10
11.6225026936
 20
6.2064013814
 30
0.0
 10
11.6446462669
 20
6.1975618744
 30
0.0
 10
11.6880949347
 20
6.1788834398
 30
0.0
 10
11.7510470103
 20
6.1476419289
 30
0.0
 10
11.8109699823
 20
6.1135411125
 30
0.0
 10
11.8676032171
 20
6.0767275087
 30
0.0
 10
11.9207029671
 20
6.0373578093
 30
0.0
 10
11.9700395264
 20
5.995599752
 30
0.0
 10
12.0153992136
 20
5.9516310984
 30
0.0
 10
12.0565846837
 20
5.905639313
 30
0.0
 10
12.0934161699
 20
5.8578196427
 30
0.0
 10
12.1257304077
 20
5.8083791026
 30
0.0
 10
12.1488863513
 20
5.7657979275
 30
0.0
 10
12.1649676914
 20
5.7311702934
 30
0.0
 10
12.1757660907
 20
5.7050511647
 30
0.0
 10
12.1853440915
 20
5.6786945065
 30
0.0
 10
12.1936915821
 20
5.6521284211
 30
0.0
 10
12.2007993243
 20
5.625381827
 30
0.0
 10
12.206659414
 20
5.5984836805
 30
0.0
 10
12.2112654986
 20
5.5714632195
 30
0.0
 10
12.2146124766
 20
5.5443497858
 30
0.0
 10
12.216696569
 20
5.5171728471
 30
0.0
 10
12.2175155942
 20
5.4899619666
 30
0.0
 10
12.2170685868
 20
5.4627467334
 30
0.0
 10
12.2153559945
 20
5.4355567565
 30
0.0
 10
12.2123798227
 20
5.4084215969
 30
0.0
 10
12.2081432684
 20
5.3813707613
 30
0.0
 10
12.2026510018
 20
5.3544336471
 30
0.0
 10
12.1959091728
 20
5.3276394915
 30
0.0
 10
12.1879250738
 20
5.3010173588
 30
0.0
 10
12.1787076017
 20
5.2745962342
 30
0.0
 10
12.1682666216
 20
5.2484042262
 30
0.0
 10
12.1526604148
 20
5.2136710417
 30
0.0
 10
12.1300888315
 20
5.1709350943
 30
0.0
 10
12.0984506156
 20
5.1212738292
 30
0.0
 10
12.0622729656
 20
5.0732027089
 30
0.0
 10
12.0217163985
 20
5.0269299378
 30
0.0
 10
11.9769580166
 20
4.9826520766
 30
0.0
 10
11.9281927236
 20
4.9405578911
 30
0.0
 10
11.8756318724
 20
4.9008265
 30
0.0
 10
11.819502829
 20
4.8636272296
 30
0.0
 10
11.7600473019
 20
4.8291185135
 30
0.0
 10
11.6975239121
 20
4.7974483301
 30
0.0
 10
11.6543373529
 20
4.7784764796
 30
0.0
 10
11.6323183383
 20
4.7694872546
 30
0.0
  0
SPLINE
  5
29A
100
AcDbEntity
  8
0
100
AcDbSpline
 62
9
  6
CONTINUOUS
 70
0
 71
3
 72
60
 73
56
 74
0
 42
0.0000001
 43
0.0000001
 44
0.0000000001
 40
0.0
 40
0.0
 40
0.0
 40
0.0
 40
0.0335620649
 40
0.0500049593
 40
0.0662061464
 40
0.0821574779
 40
0.0978529141
 40
0.1284540175
 40
0.143368455
 40
0.1580264618
 40
0.1724344503
 40
0.186601643
 40
0.2005401185
 40
0.2142648145
 40
0.2277934821
 40
0.2411465809
 40
0.2543471086
 40
0.2674203606
 40
0.2803936182
 40
0.293295769
 40
0.306156869
 40
0.3190076581
 40
0.3318790495
 40
0.3448016111
 40
0.3578050611
 40
0.3709177979
 40
0.3841664796
 40
0.3975756669
 40
0.4111675349
 40
0.4249616558
 40
0.4389748515
 40
0.4532211089
 40
0.4677115518
 40
0.4824544596
 40
0.5127074572
 40
0.5282300289
 40
0.5440113002
 40
0.5600466925
 40
0.5763294506
 40
0.5928507928
 40
0.6096000629
 40
0.6265648816
 40
0.6437312978
 40
0.6785999548
 40
0.6962739567
 40
0.7140809761
 40
0.7500092033
 40
0.7862257172
 40
0.822558643
 40
0.858833285
 40
0.8948763543
 40
0.9305202217
 40
0.9481456721
 40
0.9656132677
 40
1.0
 40
1.0
 40
1.0
 40
1.0
 10
10.4623183383
 20
6.2024387541
 30
0.0
 10
10.4295890969
 20
6.1890770972
 30
0.0
 10
10.3815699824
 20
6.1672464251
 30
0.0
 10
10.3200175936
 20
6.1344353503
 30
0.0
 10
10.2759099114
 20
6.1084293227
 30
0.0
 10
10.2336568579
 20
6.0809227276
 30
0.0
 10
10.1803881474
 20
6.0426661445
 30
0.0
 10
10.130695583
 20
6.0013912876
 30
0.0
 10
10.0851625686
 20
5.9572675721
 30
0.0
 10
10.0536137995
 20
5.9233137847
 30
0.0
 10
10.0244573199
 20
5.8883033525
 30
0.0
 10
9.9977626904
 20
5.8523189277
 30
0.0
 10
9.9735952811
 20
5.8154469561
 30
0.0
 10
9.9520141127
 20
5.7777757842
 30
0.0
 10
9.9330722178
 20
5.7393959471
 30
0.0
 10
9.9168163413
 20
5.7003998789
 30
0.0
 10
9.9032868106
 20
5.66088176
 30
0.0
 10
9.8925173597
 20
5.6209373051
 30
0.0
 10
9.8845349715
 20
5.5806635371
 30
0.0
 10
9.8793597302
 20
5.5401585278
 30
0.0
 10
9.8770046989
 20
5.4995211085
 30
0.0
 10
9.8774758337
 20
5.4588505555
 30
0.0
 10
9.8807719426
 20
5.418246257
 30
0.0
 10
9.8868846936
 20
5.3778073774
 30
0.0
 10
9.8957986717
 20
5.3376325287
 30
0.0
 10
9.9074914783
 20
5.2978194637
 30
0.0
 10
9.9219338633
 20
5.2584647965
 30
0.0
 10
9.9390898752
 20
5.2196637554
 30
0.0
 10
9.9589170342
 20
5.1815099557
 30
0.0
 10
9.9813664623
 20
5.1440952357
 30
0.0
 10
10.0063831858
 20
5.107509353
 30
0.0
 10
10.0339057692
 20
5.0718402951
 30
0.0
 10
10.0638685009
 20
5.0371722805
 30
0.0
 10
10.107339691
 20
4.9920142271
 30
0.0
 10
10.1551035392
 20
4.9496063355
 30
0.0
 10
10.2065696442
 20
4.9101414935
 30
0.0
 10
10.2475295572
 20
4.8816710694
 30
0.0
 10
10.2904111115
 20
4.8546584998
 30
0.0
 10
10.3351131358
 20
4.8291665887
 30
0.0
 10
10.3815276128
 20
4.8052567808
 30
0.0
 10
10.4295427681
 20
4.7829862774
 30
0.0
 10
10.4790442561
 20
4.7624080004
 30
0.0
 10
10.5472139579
 20
4.7371647426
 30
0.0
 10
10.6175110452
 20
4.715672005
 30
0.0
 10
10.6894728903
 20
4.6979447178
 30
0.0
 10
10.7631272029
 20
4.6826197909
 30
0.0
 10
10.8568801061
 20
4.6683370061
 30
0.0
 10
10.9708576266
 20
4.6590880424
 30
0.0
 10
11.0855689034
 20
4.6577637826
 30
0.0
 10
11.1999144797
 20
4.6643775968
 30
0.0
 10
11.3127983781
 20
4.6788658008
 30
0.0
 10
11.405107734
 20
4.6974587687
 30
0.0
 10
11.4772449599
 20
4.7161701547
 30
0.0
 10
11.5473635548
 20
4.7371703801
 30
0.0
 10
11.5987848931
 20
4.7557972829
 30
0.0
 10
11.6323183383
 20
4.7694872546
 30
0.0
  0
SPLINE
  5
29B
100
AcDbEntity
  8
0
100
AcDbSpline
 62
9
  6
CONTINUOUS
 70
0
 71
3
 72
30
 73
26
 74
0
 42
0.0000001
 43
0.0000001
 44
0.0000000001
 40
0.0
 40
0.0
 40
0.0
 40
0.0
 40
0.0723988532
 40
0.1435151471
 40
0.2132658457
 40
0.2815863167
 40
0.3484332082
 40
0.4137863497
 40
0.4776505867
 40
0.5400575121
 40
0.6010667756
 40
0.6310795718
 40
0.6607786276
 40
0.6901795571
 40
0.7192997505
 40
0.7481583196
 40
0.7767760332
 40
0.8051752387
 40
0.8333797474
 40
0.8614147056
 40
0.8893064496
 40
0.917082344
 40
0.9447705947
 40
0.9724000512
 40
1.0
 40
1.0
 40
1.0
 40
1.0
 10
12.0473183383
 20
3.6077928942
 30
0.0
 10
12.0847863926
 20
3.6230891633
 30
0.0
 10
12.1582804405
 20
3.655364633
 30
0.0
 10
12.2647016238
 20
3.7092195448
 30
0.0
 10
12.3659304383
 20
3.7678845589
 30
0.0
 10
12.461530685
 20
3.8311099679
 30
0.0
 10
12.5510944813
 20
3.8986292842
 30
0.0
 10
12.6342378046
 20
3.9701569741
 30
0.0
 10
12.7106042237
 20
4.0453924461
 30
0.0
 10
12.7798621518
 20
4.1240142537
 30
0.0
 10
12.8316915036
 20
4.1924603281
 30
0.0
 10
12.8692289421
 20
4.2485557152
 30
0.0
 10
12.8952809236
 20
4.2910292737
 30
0.0
 10
12.9193536792
 20
4.3340840529
 30
0.0
 10
12.9414217452
 20
4.3776746265
 30
0.0
 10
12.9614610928
 20
4.4217541677
 30
0.0
 10
12.9794499944
 20
4.4662755147
 30
0.0
 10
12.9953689561
 20
4.5111908993
 30
0.0
 10
13.0092006935
 20
4.5564521226
 30
0.0
 10
13.0209301262
 20
4.6020105699
 30
0.0
 10
13.0305444244
 20
4.6478173002
 30
0.0
 10
13.0380331448
 20
4.6938229282
 30
0.0
 10
13.0433881103
 20
4.7399782815
 30
0.0
 10
13.0466034469
 20
4.7862323484
 30
0.0
 10
13.0473183108
 20
4.8171097125
 30
0.0
 10
13.0473183225
 20
4.8325377656
 30
0.0
  0
SPLINE
  5
29C
100
AcDbEntity
  8
0
100
AcDbSpline
 62
9
  6
CONTINUOUS
 70
0
 71
3
 72
11
 73
7
 74
0
 42
0.0000001
 43
0.0000001
 44
0.0000000001
 40
0.0
 40
0.0
 40
0.0
 40
0.0
 40
0.2450387087
 40
0.4936883236
 40
0.7455040496
 40
1.0
 40
1.0
 40
1.0
 40
1.0
 10
10.0873183383
 20
6.6617180809
 30
0.0
 10
10.1246080273
 20
6.6769415327
 30
0.0
 10
10.2005845178
 20
6.7055766662
 30
0.0
 10
10.3174003491
 20
6.7427627537
 30
0.0
 10
10.4374565649
 20
6.7743614276
 30
0.0
 10
10.5189299599
 20
6.7915306608
 30
0.0
 10
10.56006009
 20
6.7991612752
 30
0.0
  0
SPLINE
  5
29D
100
AcDbEntity
  8
0
100
AcDbSpline
 62
9
  6
CONTINUOUS
 70
0
 71
3
 72
53
 73
49
 74
0
 42
0.0000001
 43
0.0000001
 44
0.0000000001
 40
0.0
 40
0.0
 40
0.0
 40
0.0
 40
0.0378905053
 40
0.0753976172
 40
0.1124536037
 40
0.1489958775
 40
0.1849679078
 40
0.2203201614
 40
0.2550110367
 40
0.2890078485
 40
0.3222877667
 40
0.3548387863
 40
0.3866606104
 40
0.4177654747
 40
0.4481788212
 40
0.4779397467
 40
0.4925944504
 40
0.5071070553
 40
0.5214862943
 40
0.5357417123
 40
0.5498836246
 40
0.563923072
 40
0.5778717719
 40
0.5917420537
 40
0.6055467838
 40
0.6192992869
 40
0.6330132597
 40
0.6467026753
 40
0.6603816836
 40
0.6740645105
 40
0.6877653539
 40
0.7014982816
 40
0.7152771305
 40
0.7291154083
 40
0.7430262045
 40
0.7570221077
 40
0.7711151265
 40
0.7853166217
 40
0.7996372521
 40
0.8140869251
 40
0.8286747517
 40
0.8434090207
 40
0.8733403818
 40
0.903936007
 40
0.9194969375
 40
0.9352360611
 40
0.9672528721
 40
1.0
 40
1.0
 40
1.0
 40
1.0
 10
11.5347975523
 20
6.799120258
 30
0.0
 10
11.5745598813
 20
6.7917398242
 30
0.0
 10
11.6533510544
 20
6.7751948662
 30
0.0
 10
11.7695391271
 20
6.7449129264
 30
0.0
 10
11.8827338329
 20
6.7093995959
 30
0.0
 10
11.9924622835
 20
6.6688020607
 30
0.0
 10
12.0982702468
 20
6.6232874803
 30
0.0
 10
12.1997186464
 20
6.573043519
 30
0.0
 10
12.2963865515
 20
6.5182768169
 30
0.0
 10
12.3878727179
 20
6.4592127038
 30
0.0
 10
12.4737969089
 20
6.3960937028
 30
0.0
 10
12.5538016362
 20
6.3291789047
 30
0.0
 10
12.6275529947
 20
6.2587430964
 30
0.0
 10
12.6947428642
 20
6.1850742063
 30
0.0
 10
12.7550866913
 20
6.1084786067
 30
0.0
 10
12.7996895922
 20
6.0421218419
 30
0.0
 10
12.8316262031
 20
5.9879215642
 30
0.0
 10
12.8536015478
 20
5.9469514733
 30
0.0
 10
12.8736962996
 20
5.9055003543
 30
0.0
 10
12.8918898602
 20
5.8636107313
 30
0.0
 10
12.9081629414
 20
5.821326405
 30
0.0
 10
12.9224983502
 20
5.7786913883
 30
0.0
 10
12.9348809437
 20
5.7357501823
 30
0.0
 10
12.9452976664
 20
5.6925476308
 30
0.0
 10
12.9537374595
 20
5.649128871
 30
0.0
 10
12.9601913138
 20
5.6055392974
 30
0.0
 10
12.9646524381
 20
5.5618245291
 30
0.0
 10
12.9671161062
 20
5.5180303231
 30
0.0
 10
12.9675796433
 20
5.4742025328
 30
0.0
 10
12.966042557
 20
5.4303870605
 30
0.0
 10
12.9625065368
 20
5.3866297867
 30
0.0
 10
12.9569753262
 20
5.34297652
 30
0.0
 10
12.9494547388
 20
5.2994729557
 30
0.0
 10
12.9399528139
 20
5.2561645912
 30
0.0
 10
12.9284796451
 20
5.2130966888
 30
0.0
 10
12.9150473353
 20
5.1703142446
 30
0.0
 10
12.8996700727
 20
5.127861915
 30
0.0
 10
12.8823641583
 20
5.085783962
 30
0.0
 10
12.8631477975
 20
5.0441241878
 30
0.0
 10
12.8420412812
 20
5.0029261455
 30
0.0
 10
12.8190663954
 20
4.9622321011
 30
0.0
 10
12.7858044601
 20
4.9084264068
 30
0.0
 10
12.7395827424
 20
4.8426259565
 30
0.0
 10
12.6880320887
 20
4.7797775747
 30
0.0
 10
12.6434728049
 20
4.7309895008
 30
0.0
 10
12.5961786366
 20
4.6826992652
 30
0.0
 10
12.5329362471
 20
4.62443569
 30
0.0
 10
12.4791178695
 20
4.5809719851
 30
0.0
 10
12.451263514
 20
4.5598588329
 30
0.0
  0
SPLINE
  5
29E
100
AcDbEntity
  8
0
100
AcDbSpline
 62
9
  6
CONTINUOUS
 70
0
 71
3
 72
11
 73
7
 74
0
 42
0.0000001
 43
0.0000001
 44
0.0000000001
 40
0.0
 40
0.0
 40
0.0
 40
0.0
 40
0.2414953414
 40
0.4888534245
 40
0.7418099028
 40
1.0
 40
1.0
 40
1.0
 40
1.0
 10
12.451263514
 20
4.5598588329
 30
0.0
 10
12.4185025311
 20
4.5350265362
 30
0.0
 10
12.3503447158
 20
4.4871447978
 30
0.0
 10
12.2422464741
 20
4.4217037566
 30
0.0
 10
12.1276123819
 20
4.3621046869
 30
0.0
 10
12.0480086614
 20
4.3268196826
 30
0.0
 10
12.0073183383
 20
4.3102079278
 30
0.0
  0
SPLINE
  5
29F
100
AcDbEntity
  8
0
100
AcDbSpline
 62
9
  6
CONTINUOUS
 70
0
 71
3
 72
50
 73
46
 74
0
 42
0.0000001
 43
0.0000001
 44
0.0000000001
 40
0.0
 40
0.0
 40
0.0
 40
0.0
 40
0.0733820455
 40
0.1092166594
 40
0.1444357477
 40
0.1790190045
 40
0.2129531973
 40
0.2462327469
 40
0.2788602385
 40
0.310846889
 40
0.3422129352
 40
0.3729878933
 40
0.4032106734
 40
0.4181320421
 40
0.4329342246
 40
0.4476246511
 40
0.4622112766
 40
0.4767025651
 40
0.4911074451
 40
0.505435285
 40
0.5196958514
 40
0.5338992587
 40
0.5480559295
 40
0.5621765366
 40
0.5762719473
 40
0.5903531693
 40
0.6044312872
 40
0.6185174023
 40
0.6326225724
 40
0.6467577516
 40
0.6609337276
 40
0.6751610694
 40
0.6894500712
 40
0.703810698
 40
0.7182525473
 40
0.7327847985
 40
0.7474161771
 40
0.7770039951
 40
0.8070806493
 40
0.837696927
 40
0.8688943642
 40
0.9007051006
 40
0.9331519401
 40
0.9662485866
 40
1.0
 40
1.0
 40
1.0
 40
1.0
 10
10.0873183383
 20
6.6617180809
 30
0.0
 10
10.0259719604
 20
6.6366735271
 30
0.0
 10
9.9362486576
 20
6.5952818638
 30
0.0
 10
9.8220766996
 20
6.5321609224
 30
0.0
 10
9.7409642731
 20
6.4818840931
 30
0.0
 10
9.6639672713
 20
6.4284645629
 30
0.0
 10
9.5913245109
 20
6.3720671642
 30
0.0
 10
9.5232663771
 20
6.312868515
 30
0.0
 10
9.4600078491
 20
6.2510531896
 30
0.0
 10
9.4017496895
 20
6.1868143671
 30
0.0
 10
9.3486768004
 20
6.1203520047
 30
0.0
 10
9.3009599699
 20
6.0518765613
 30
0.0
 10
9.2656332865
 20
5.9930575877
 30
0.0
 10
9.2402484404
 20
5.9452386056
 30
0.0
 10
9.2227147263
 20
5.9091601687
 30
0.0
 10
9.2066211716
 20
5.8727471961
 30
0.0
 10
9.191980346
 20
5.8360279321
 30
0.0
 10
9.1788038769
 20
5.7990315549
 30
0.0
 10
9.1671023617
 20
5.7617872258
 30
0.0
 10
9.1568851255
 20
5.7243244167
 30
0.0
 10
9.1481602575
 20
5.6866727792
 30
0.0
 10
9.1409348774
 20
5.648862084
 30
0.0
 10
9.1352146504
 20
5.6109222992
 30
0.0
 10
9.1310041842
 20
5.5728834704
 30
0.0
 10
9.128306938
 20
5.5347757364
 30
0.0
 10
9.1271249334
 20
5.4966293116
 30
0.0
 10
9.1274592344
 20
5.4584744285
 30
0.0
 10
9.1293095476
 20
5.4203413397
 30
0.0
 10
9.1326743072
 20
5.3822602641
 30
0.0
 10
9.1375509598
 20
5.3442613967
 30
0.0
 10
9.1439354768
 20
5.306374834
 30
0.0
 10
9.151822769
 20
5.2686305795
 30
0.0
 10
9.1612066023
 20
5.2310585492
 30
0.0
 10
9.172079358
 20
5.1936884021
 30
0.0
 10
9.1844323742
 20
5.1565498665
 30
0.0
 10
9.1982560779
 20
5.1196717645
 30
0.0
 10
9.218707067
 20
5.0707105762
 30
0.0
 10
9.2479553239
 20
5.0102645986
 30
0.0
 10
9.2885991231
 20
4.9395246283
 30
0.0
 10
9.3347918211
 20
4.8705218766
 30
0.0
 10
9.3863838876
 20
4.8034755233
 30
0.0
 10
9.4432104527
 20
4.7385947141
 30
0.0
 10
9.5050911598
 20
4.6760818147
 30
0.0
 10
9.5718269659
 20
4.6161340019
 30
0.0
 10
9.6189602838
 20
4.578366968
 30
0.0
 10
9.6432463348
 20
4.5599549576
 30
0.0
  0
SPLINE
  5
2A0
100
AcDbEntity
  8
0
100
AcDbSpline
 62
9
  6
CONTINUOUS
 70
0
 71
3
 72
13
 73
9
 74
0
 42
0.0000001
 43
0.0000001
 44
0.0000000001
 40
0.0
 40
0.0
 40
0.0
 40
0.0
 40
0.2396714313
 40
0.3622651377
 40
0.4866121342
 40
0.6126465382
 40
0.7402907194
 40
1.0
 40
1.0
 40
1.0
 40
1.0
 10
9.6432463348
 20
4.5599549576
 30
0.0
 10
9.6845512702
 20
4.5286404016
 30
0.0
 10
9.7491844484
 20
4.4841296357
 30
0.0
 10
9.8394543241
 20
4.429996349
 30
0.0
 10
9.9102970583
 20
4.3913739788
 30
0.0
 10
9.9836026693
 20
4.3551279756
 30
0.0
 10
10.0849868984
 20
4.3098160502
 30
0.0
 10
10.1633937267
 20
4.2800281309
 30
0.0
 10
10.21658146
 20
4.2619784921
 30
0.0
  0
LINE
  5
2A1
100
AcDbEntity
  8
0
100
AcDbLine
 62
9
  6
CONTINUOUS
 10
10.21658146
 20
4.2619784921
 11
10.2185774918
 21
4.2613021249
  0
SPLINE
  5
2A2
100
AcDbEntity
  8
0
100
AcDbSpline
 62
9
  6
CONTINUOUS
 70
0
 71
3
 72
21
 73
17
 74
0
 42
0.0000001
 43
0.0000001
 44
0.0000000001
 40
0.0
 40
0.0
 40
0.0
 40
0.0
 40
0.1249910016
 40
0.1880433682
 40
0.2513496108
 40
0.3148250458
 40
0.3783838294
 40
0.4419395503
 40
0.5054058188
 40
0.5686968551
 40
0.6317280781
 40
0.6944167032
 40
0.7566823518
 40
0.8184476217
 40
0.8796388406
 40
1.0
 40
1.0
 40
1.0
 40
1.0
 10
10.4594050793
 20
4.1935315887
 30
0.0
 10
10.5234200532
 20
4.178971743
 30
0.0
 10
10.6206314699
 20
4.1608077746
 30
0.0
 10
10.7515818195
 20
4.1438968583
 30
0.0
 10
10.8509011629
 20
4.134821985
 30
0.0
 10
10.9507511376
 20
4.1294199272
 30
0.0
 10
11.0508641612
 20
4.1277047513
 30
0.0
 10
11.1509673493
 20
4.1296812541
 30
0.0
 10
11.2507890708
 20
4.1353440345
 30
0.0
 10
11.3500581582
 20
4.1446777649
 30
0.0
 10
11.4485049333
 20
4.1576571278
 30
0.0
 10
11.5458623212
 20
4.1742470574
 30
0.0
 10
11.6418648012
 20
4.1944022405
 30
0.0
 10
11.7362558116
 20
4.218069403
 30
0.0
 10
11.8589171366
 20
4.2540162238
 30
0.0
 10
11.9487897407
 20
4.2863137279
 30
0.0
 10
12.0073183383
 20
4.3102079278
 30
0.0
  0
SPLINE
  5
2A3
100
AcDbEntity
  8
0
100
AcDbSpline
 62
9
  6
CONTINUOUS
 70
0
 71
3
 72
39
 73
35
 74
0
 42
0.0000001
 43
0.0000001
 44
0.0000000001
 40
0.0
 40
0.0
 40
0.0
 40
0.0
 40
0.0360782004
 40
0.0715074763
 40
0.1062492542
 40
0.1402745337
 40
0.1735648701
 40
0.2061133374
 40
0.2379254336
 40
0.2690198504
 40
0.2994290717
 40
0.3291997187
 40
0.3583925402
 40
0.3870819308
 40
0.4153549157
 40
0.4433095411
 40
0.4710526522
 40
0.4986971242
 40
0.5263586996
 40
0.5541526223
 40
0.5821903037
 40
0.6105762589
 40
0.6394054948
 40
0.6687614566
 40
0.6987145921
 40
0.7293215121
 40
0.7606246633
 40
0.7926524161
 40
0.8254194961
 40
0.8589276517
 40
0.8931664711
 40
0.9281143431
 40
0.963739084
 40
1.0
 40
1.0
 40
1.0
 40
1.0
 10
11.6224771554
 20
6.1766966067
 30
0.0
 10
11.6429148804
 20
6.1679805682
 30
0.0
 10
11.6829787734
 20
6.1496390987
 30
0.0
 10
11.7409232531
 20
6.1191725963
 30
0.0
 10
11.7959628851
 20
6.0861123828
 30
0.0
 10
11.8478646042
 20
6.050596661
 30
0.0
 10
11.8964109728
 20
6.0127724821
 30
0.0
 10
11.9413975265
 20
5.9727966537
 30
0.0
 10
11.9826344902
 20
5.9308348409
 30
0.0
 10
12.0199471529
 20
5.8870610018
 30
0.0
 10
12.0531765416
 20
5.8416568144
 30
0.0
 10
12.0821800359
 20
5.7948111857
 30
0.0
 10
12.106832108
 20
5.7467198093
 30
0.0
 10
12.1270249189
 20
5.697584589
 30
0.0
 10
12.1426690841
 20
5.6476130777
 30
0.0
 10
12.153694558
 20
5.5970177728
 30
0.0
 10
12.1600515462
 20
5.546015168
 30
0.0
 10
12.1617111009
 20
5.4948245064
 30
0.0
 10
12.158665593
 20
5.4436663655
 30
0.0
 10
12.1509289278
 20
5.3927610994
 30
0.0
 10
12.1385363274
 20
5.3423272762
 30
0.0
 10
12.1215436619
 20
5.2925803115
 30
0.0
 10
12.1000266909
 20
5.2437313539
 30
0.0
 10
12.0740803174
 20
5.1959863695
 30
0.0
 10
12.0438177267
 20
5.1495454614
 30
0.0
 10
12.0093695632
 20
5.1046023587
 30
0.0
 10
11.9708832655
 20
5.0613439367
 30
0.0
 10
11.9285225202
 20
5.0199496462
 30
0.0
 10
11.8824665971
 20
4.980591032
 30
0.0
 10
11.8329096186
 20
4.943431183
 30
0.0
 10
11.7800600969
 20
4.9086242144
 30
0.0
 10
11.7241394624
 20
4.8763143811
 30
0.0
 10
11.6653843235
 20
4.8466365214
 30
0.0
 10
11.6248233874
 20
4.8288353466
 30
0.0
 10
11.604148705
 20
4.8203949429
 30
0.0
  0
SPLINE
  5
2A4
100
AcDbEntity
  8
0
100
AcDbSpline
 62
9
  6
CONTINUOUS
 70
0
 71
3
 72
58
 73
54
 74
0
 42
0.0000001
 43
0.0000001
 44
0.0000000001
 40
0.0
 40
0.0
 40
0.0
 40
0.0
 40
0.0334098821
 40
0.0497721261
 40
0.0658907189
 40
0.0817584126
 40
0.0973700017
 40
0.1278061968
 40
0.1426413636
 40
0.1572233517
 40
0.1715594142
 40
0.1856595833
 40
0.1995367023
 40
0.213206415
 40
0.2266871036
 40
0.2399997676
 40
0.2531678364
 40
0.2662169146
 40
0.2791744574
 40
0.2920693831
 40
0.3049316307
 40
0.3177916791
 40
0.3306800436
 40
0.3436267714
 40
0.3566609559
 40
0.3698102879
 40
0.3831006598
 40
0.3965558313
 40
0.4101971643
 40
0.4240434262
 40
0.4381106598
 40
0.452412113
 40
0.4669582211
 40
0.4817566334
 40
0.5121181521
 40
0.5276926105
 40
0.5435237382
 40
0.5759267145
 40
0.592490241
 40
0.609278805
 40
0.6434731905
 40
0.6608561709
 40
0.678405791
 40
0.7139274191
 40
0.7498918673
 40
0.7861358321
 40
0.8224892386
 40
0.8587793952
 40
0.8948351201
 40
0.9304908828
 40
0.9481226056
 40
0.9655970101
 40
1.0
 40
1.0
 40
1.0
 40
1.0
 10
10.4721402672
 20
6.1766883753
 30
0.0
 10
10.441532728
 20
6.1636345604
 30
0.0
 10
10.396666653
 20
6.1423833654
 30
0.0
 10
10.339243412
 20
6.1105862797
 30
0.0
 10
10.2981505401
 20
6.085453264
 30
0.0
 10
10.2588370672
 20
6.0589315245
 30
0.0
 10
10.2093447071
 20
6.0221210994
 30
0.0
 10
10.1632787197
 20
5.98250964
 30
0.0
 10
10.1211877904
 20
5.9402666086
 30
0.0
 10
10.0920845376
 20
5.9078039799
 30
0.0
 10
10.0652532469
 20
5.874373511
 30
0.0
 10
10.0407571676
 20
5.840053173
 30
0.0
 10
10.0186556278
 20
5.8049244608
 30
0.0
 10
9.9990020031
 20
5.7690705722
 30
0.0
 10
9.9818440606
 20
5.7325766904
 30
0.0
 10
9.9672236784
 20
5.6955297082
 30
0.0
 10
9.9551767274
 20
5.6580180831
 30
0.0
 10
9.9457329107
 20
5.6201316355
 30
0.0
 10
9.9389156212
 20
5.5819613317
 30
0.0
 10
9.9347418113
 20
5.5435990367
 30
0.0
 10
9.9332218898
 20
5.5051372412
 30
0.0
 10
9.9343596533
 20
5.4666687662
 30
0.0
 10
9.93815226
 20
5.4282864548
 30
0.0
 10
9.9445902494
 20
5.3900828639
 30
0.0
 10
9.9536576051
 20
5.3521499662
 30
0.0
 10
9.9653318534
 20
5.3145788734
 30
0.0
 10
9.9795841908
 20
5.2774595852
 30
0.0
 10
9.9963796232
 20
5.2408807678
 30
0.0
 10
10.0156771271
 20
5.2049295495
 30
0.0
 10
10.037429769
 20
5.1696913729
 30
0.0
 10
10.0615849837
 20
5.1352497177
 30
0.0
 10
10.0880842369
 20
5.101686383
 30
0.0
 10
10.116865035
 20
5.0690796634
 30
0.0
 10
10.1585366236
 20
5.0266279367
 30
0.0
 10
10.2042096393
 20
4.9867880227
 30
0.0
 10
10.2533355658
 20
4.9497330866
 30
0.0
 10
10.3058019169
 20
4.9138376463
 30
0.0
 10
10.3614887435
 20
4.8810305005
 30
0.0
 10
10.4198986953
 20
4.8513829348
 30
0.0
 10
10.4810989719
 20
4.8234108727
 30
0.0
 10
10.5446944954
 20
4.7988544652
 30
0.0
 10
10.6102367464
 20
4.7777378919
 30
0.0
 10
10.6777968683
 20
4.7587253057
 30
0.0
 10
10.7644349965
 20
4.7394323935
 30
0.0
 10
10.8706431377
 20
4.7236031023
 30
0.0
 10
10.9785229715
 20
4.7151479321
 30
0.0
 10
11.0870516433
 20
4.7141469331
 30
0.0
 10
11.1952059644
 20
4.7206094564
 30
0.0
 10
11.3019605797
 20
4.734474256
 30
0.0
 10
11.3892529793
 20
4.7521567858
 30
0.0
 10
11.4574718955
 20
4.7699092063
 30
0.0
 10
11.5237886338
 20
4.7898122581
 30
0.0
 10
11.5724263438
 20
4.8074443431
 30
0.0
 10
11.604148705
 20
4.8203949429
 30
0.0
  0
SPLINE
  5
2A5
100
AcDbEntity
  8
0
100
AcDbSpline
 62
7
  6
CONTINUOUS
 70
0
 71
3
 72
11
 73
7
 74
0
 42
0.0000001
 43
0.0000001
 44
0.0000000001
 40
0.0
 40
0.0
 40
0.0
 40
0.0
 40
0.2451116396
 40
0.492894127
 40
0.7442542133
 40
1.0
 40
1.0
 40
1.0
 40
1.0
 10
10.5874587072
 20
6.5687904888
 30
0.0
 10
10.5885478965
 20
6.5759672068
 30
0.0
 10
10.5914089694
 20
6.5903055583
 30
0.0
 10
10.5976714395
 20
6.6114675647
 30
0.0
 10
10.6058935254
 20
6.6322859698
 30
0.0
 10
10.6125942207
 20
6.6457491563
 30
0.0
 10
10.6162428976
 20
6.6523861731
 30
0.0
  0
SPLINE
  5
2A6
100
AcDbEntity
  8
0
100
AcDbSpline
 62
7
  6
CONTINUOUS
 70
0
 71
3
 72
9
 73
5
 74
0
 42
0.0000001
 43
0.0000001
 44
0.0000000001
 40
0.0
 40
0.0
 40
0.0
 40
0.0
 40
0.4938819592
 40
1.0
 40
1.0
 40
1.0
 40
1.0
 10
10.6162428976
 20
6.6523861731
 30
0.0
 10
10.620464556
 20
6.6600654547
 30
0.0
 10
10.6297518949
 20
6.6752173061
 30
0.0
 10
10.6403501423
 20
6.6894787398
 30
0.0
 10
10.6460031331
 20
6.6964565458
 30
0.0
  0
SPLINE
  5
2A7
100
AcDbEntity
  8
0
100
AcDbSpline
 62
9
  6
CONTINUOUS
 70
0
 71
3
 72
47
 73
43
 74
0
 42
0.0000001
 43
0.0000001
 44
0.0000000001
 40
0.0
 40
0.0
 40
0.0
 40
0.0
 40
0.0124010406
 40
0.0248262425
 40
0.037288243
 40
0.0497994157
 40
0.0623717866
 40
0.0750169539
 40
0.0877460146
 40
0.1005695032
 40
0.1134973362
 40
0.1265387612
 40
0.1397023178
 40
0.1529958112
 40
0.1799950295
 40
0.2075887243
 40
0.2216219826
 40
0.2358157369
 40
0.250172366
 40
0.2646935046
 40
0.2942284049
 40
0.3244233593
 40
0.355266653
 40
0.3867368245
 40
0.418803532
 40
0.4514284292
 40
0.4845660326
 40
0.5181645929
 40
0.5521669277
 40
0.5865112622
 40
0.6211320254
 40
0.6559606563
 40
0.6909263758
 40
0.7259569642
 40
0.7609795232
 40
0.7959212375
 40
0.830710139
 40
0.8652758706
 40
0.899550462
 40
0.9334691099
 40
0.9669708901
 40
1.0
 40
1.0
 40
1.0
 40
1.0
 10
9.0481254999
 20
4.7923635402
 30
0.0
 10
9.0487371929
 20
4.7771439964
 30
0.0
 10
9.0506576063
 20
4.7466986745
 30
0.0
 10
9.0556189121
 20
4.7011530888
 30
0.0
 10
9.0626575172
 20
4.6557442387
 30
0.0
 10
9.071765881
 20
4.6105209341
 30
0.0
 10
9.0829343675
 20
4.5655301795
 30
0.0
 10
9.0961511668
 20
4.520819142
 30
0.0
 10
9.1114022253
 20
4.4764345136
 30
0.0
 10
9.1286713964
 20
4.432422661
 30
0.0
 10
9.1479405168
 20
4.3888294812
 30
0.0
 10
9.1691891458
 20
4.3457005953
 30
0.0
 10
9.1923953238
 20
4.303080302
 30
0.0
 10
9.2260840907
 20
4.2467058452
 30
0.0
 10
9.2730658999
 20
4.1777114351
 30
0.0
 10
9.3256631791
 20
4.1117414259
 30
0.0
 10
9.3712268942
 20
4.0604927634
 30
0.0
 10
9.407340574
 20
4.0226419168
 30
0.0
 10
9.4451619746
 20
3.9856362076
 30
0.0
 10
9.4981095865
 20
3.9372034521
 30
0.0
 10
9.5684218225
 20
3.8790116139
 30
0.0
 10
9.6584620201
 20
3.813559008
 30
0.0
 10
9.7542732456
 20
3.7523546387
 30
0.0
 10
9.8554543377
 20
3.6956525191
 30
0.0
 10
9.9615855066
 20
3.6436854445
 30
0.0
 10
10.0722257134
 20
3.596667774
 30
0.0
 10
10.1869155258
 20
3.5547933259
 30
0.0
 10
10.305178728
 20
3.5182350899
 30
0.0
 10
10.4265242179
 20
3.4871439718
 30
0.0
 10
10.5504481318
 20
3.4616486603
 30
0.0
 10
10.6764357978
 20
3.4418544555
 30
0.0
 10
10.8039639856
 20
3.4278434257
 30
0.0
 10
10.9325029932
 20
3.4196734256
 30
0.0
 10
11.0615189206
 20
3.4173784015
 30
0.0
 10
11.1904758595
 20
3.4209677659
 30
0.0
 10
11.3188381614
 20
3.430426713
 30
0.0
 10
11.4460726307
 20
3.4457160571
 30
0.0
 10
11.5716508991
 20
3.4667725228
 30
0.0
 10
11.6950511029
 20
3.4935089181
 30
0.0
 10
11.8157618307
 20
3.5258150121
 30
0.0
 10
11.9332778601
 20
3.5635556803
 30
0.0
 10
12.0097590407
 20
3.5924593751
 30
0.0
 10
12.0473183383
 20
3.6077928942
 30
0.0
  0
SPLINE
  5
2A8
100
AcDbEntity
  8
0
100
AcDbSpline
 62
9
  6
CONTINUOUS
 70
0
 71
3
 72
46
 73
42
 74
0
 42
0.0000001
 43
0.0000001
 44
0.0000000001
 40
0.0
 40
0.0
 40
0.0
 40
0.0
 40
0.012425403
 40
0.02486409
 40
0.0373292462
 40
0.0498338599
 40
0.0623906283
 40
0.0750118702
 40
0.0877094441
 40
0.1004946708
 40
0.1133782682
 40
0.1263702964
 40
0.1394801086
 40
0.1527163085
 40
0.1660867222
 40
0.1795983792
 40
0.2070645442
 40
0.2351599273
 40
0.2639113921
 40
0.2933331515
 40
0.3234273974
 40
0.3541850369
 40
0.3855865665
 40
0.4176029579
 40
0.4501965985
 40
0.4833222056
 40
0.5169277511
 40
0.5509553545
 40
0.5853421663
 40
0.6200212277
 40
0.6549223133
 40
0.6899727634
 40
0.7250982986
 40
0.7602238341
 40
0.795274284
 40
0.8301753696
 40
0.8648544312
 40
0.8992412441
 40
0.9332688484
 40
0.9668743127
 40
1.0
 40
1.0
 40
1.0
 40
1.0
 10
9.0473183541
 20
5.4293944618
 30
0.0
 10
9.0473183424
 20
5.4139664089
 30
0.0
 10
9.0480332714
 20
5.3830890462
 30
0.0
 10
9.0512485579
 20
5.3368349782
 30
0.0
 10
9.0566035085
 20
5.2906796217
 30
0.0
 10
9.0640922572
 20
5.2446739971
 30
0.0
 10
9.0737065764
 20
5.1988672723
 30
0.0
 10
9.085435971
 20
5.1533088165
 30
0.0
 10
9.0992677007
 20
5.1080475899
 30
0.0
 10
9.1151866921
 20
5.0631322141
 30
0.0
 10
9.1331756058
 20
5.0186108732
 30
0.0
 10
9.1532149142
 20
4.9745313158
 30
0.0
 10
9.1752829831
 20
4.9309407426
 30
0.0
 10
9.1993557661
 20
4.8878859766
 30
0.0
 10
9.2254077506
 20
4.8454124217
 30
0.0
 10
9.2629451424
 20
4.7893170021
 30
0.0
 10
9.3147745565
 20
4.7208709783
 30
0.0
 10
9.384032423
 20
4.6422491121
 30
0.0
 10
9.4603988965
 20
4.567013703
 30
0.0
 10
9.5435421789
 20
4.4954859431
 30
0.0
 10
9.6331059777
 20
4.4279667142
 30
0.0
 10
9.7287063505
 20
4.3647411678
 30
0.0
 10
9.8299346269
 20
4.3060764341
 30
0.0
 10
9.9363583202
 20
4.2522204659
 30
0.0
 10
10.0475231742
 20
4.203401315
 30
0.0
 10
10.1629547521
 20
4.1598257325
 30
0.0
 10
10.2821605413
 20
4.1216785836
 30
0.0
 10
10.4046318883
 20
4.0891217225
 30
0.0
 10
10.5298462082
 20
4.0622934574
 30
0.0
 10
10.6572691573
 20
4.0413077899
 30
0.0
 10
10.7863569273
 20
4.0262539334
 30
0.0
 10
10.9165585666
 20
4.0171959443
 30
0.0
 10
11.0473183386
 20
4.0141723045
 30
0.0
 10
11.1780781085
 20
4.0171959485
 30
0.0
 10
11.3082797533
 20
4.026253925
 30
0.0
 10
11.4373675057
 20
4.0413077984
 30
0.0
 10
11.5647905159
 20
4.0622934566
 30
0.0
 10
11.6900046313
 20
4.08912168
 30
0.0
 10
11.8124766228
 20
4.1216787755
 30
0.0
 10
11.9316797361
 20
4.1598248451
 30
0.0
 10
12.0092387589
 20
4.1891036673
 30
0.0
 10
12.0473183383
 20
4.2046495904
 30
0.0
  0
SPLINE
  5
2A9
100
AcDbEntity
  8
0
100
AcDbSpline
 62
9
  6
CONTINUOUS
 70
0
 71
3
 72
30
 73
26
 74
0
 42
0.0000001
 43
0.0000001
 44
0.0000000001
 40
0.0
 40
0.0
 40
0.0
 40
0.0
 40
0.0275999488
 40
0.0552294053
 40
0.082917656
 40
0.1106935504
 40
0.1385852944
 40
0.1666202526
 40
0.1948247613
 40
0.2232239668
 40
0.2518416804
 40
0.2807002495
 40
0.3098204429
 40
0.3392213724
 40
0.3689204282
 40
0.3989332244
 40
0.4599424879
 40
0.5223494133
 40
0.5862136503
 40
0.6515667918
 40
0.7184136833
 40
0.7867341543
 40
0.8564848529
 40
0.9276011468
 40
1.0
 40
1.0
 40
1.0
 40
1.0
 10
13.0473183225
 20
5.4293944618
 30
0.0
 10
13.0473183108
 20
5.4139664087
 30
0.0
 10
13.0466034469
 20
5.3830890447
 30
0.0
 10
13.0433881103
 20
5.3368349778
 30
0.0
 10
13.0380331448
 20
5.2906796245
 30
0.0
 10
13.0305444244
 20
5.2446739965
 30
0.0
 10
13.0209301262
 20
5.1988672662
 30
0.0
 10
13.0092006935
 20
5.1533088189
 30
0.0
 10
12.9953689561
 20
5.1080475956
 30
0.0
 10
12.9794499944
 20
5.063132211
 30
0.0
 10
12.9614610928
 20
5.0186108639
 30
0.0
 10
12.9414217452
 20
4.9745313227
 30
0.0
 10
12.9193536792
 20
4.9309407492
 30
0.0
 10
12.8952809236
 20
4.88788597
 30
0.0
 10
12.8692289421
 20
4.8454124114
 30
0.0
 10
12.8316915036
 20
4.7893170244
 30
0.0
 10
12.7798621518
 20
4.72087095
 30
0.0
 10
12.7106042237
 20
4.6422491424
 30
0.0
 10
12.6342378046
 20
4.5670136704
 30
0.0
 10
12.5510944813
 20
4.4954859805
 30
0.0
 10
12.461530685
 20
4.4279666642
 30
0.0
 10
12.3659304383
 20
4.3647412551
 30
0.0
 10
12.2647016238
 20
4.3060762411
 30
0.0
 10
12.1582804405
 20
4.2522213293
 30
0.0
 10
12.0847863926
 20
4.2199458596
 30
0.0
 10
12.0473183383
 20
4.2046495904
 30
0.0
  0
SPLINE
  5
2AA
100
AcDbEntity
  8
0
100
AcDbSpline
 62
7
  6
CONTINUOUS
 70
0
 71
3
 72
23
 73
19
 74
0
 42
0.0000001
 43
0.0000001
 44
0.0000000001
 40
0.0
 40
0.0
 40
0.0
 40
0.0
 40
0.1171446059
 40
0.1475216274
 40
0.1782792216
 40
0.2408181275
 40
0.3045369267
 40
0.3691676733
 40
0.43441935
 40
0.4999855438
 40
0.5655522569
 40
0.6308054747
 40
0.6954387504
 40
0.7591610004
 40
0.8217041921
 40
0.8524642056
 40
0.8828438074
 40
1.0
 40
1.0
 40
1.0
 40
1.0
 10
10.7759673127
 20
7.0912189227
 30
0.0
 10
10.7942688402
 20
7.0782917287
 30
0.0
 10
10.8189238208
 20
7.0641661914
 30
0.0
 10
10.8500519106
 20
7.0502490063
 30
0.0
 10
10.8720220132
 20
7.0414603971
 30
0.0
 10
10.9005430386
 20
7.0319530463
 30
0.0
 10
10.9359771351
 20
7.0230149187
 30
0.0
 10
10.9724745019
 20
7.0165680859
 30
0.0
 10
11.0096858864
 20
7.0126736663
 30
0.0
 10
11.0472564913
 20
7.0113686004
 30
0.0
 10
11.0848276864
 20
7.0126651204
 30
0.0
 10
11.1220408359
 20
7.0165510783
 30
0.0
 10
11.1585411262
 20
7.0229896041
 30
0.0
 10
11.1939792741
 20
7.0319196728
 30
0.0
 10
11.2225045158
 20
7.041420494
 30
0.0
 10
11.2444785433
 20
7.0502040659
 30
0.0
 10
11.2756132278
 20
7.0641142754
 30
0.0
 10
11.3002745003
 20
7.0782341607
 30
0.0
 10
11.3185817661
 20
7.0911570704
 30
0.0
  0
SPLINE
  5
2AB
100
AcDbEntity
  8
0
100
AcDbSpline
 62
7
  6
CONTINUOUS
 70
0
 71
3
 72
23
 73
19
 74
0
 42
0.0000001
 43
0.0000001
 44
0.0000000001
 40
0.0
 40
0.0
 40
0.0
 40
0.0
 40
0.0572532418
 40
0.1162308569
 40
0.1767890374
 40
0.2387446938
 40
0.3018828165
 40
0.3659629259
 40
0.4307256834
 40
0.4958991759
 40
0.5612049057
 40
0.6263640268
 40
0.6911030868
 40
0.7551603274
 40
0.818291525
 40
0.84944506
 40
0.8802868513
 40
1.0
 40
1.0
 40
1.0
 40
1.0
 10
10.7855476081
 20
7.0423593057
 30
0.0
 10
10.7942803102
 20
7.0368005043
 30
0.0
 10
10.812509637
 20
7.0262855585
 30
0.0
 10
10.8414273217
 20
7.0125923719
 30
0.0
 10
10.8721029852
 20
7.0008502255
 30
0.0
 10
10.9042727283
 20
6.9911655847
 30
0.0
 10
10.9376634877
 20
6.9836257893
 30
0.0
 10
10.9719908058
 20
6.9783007719
 30
0.0
 10
11.0069624876
 20
6.9752416279
 30
0.0
 10
11.0422807659
 20
6.9744805405
 30
0.0
 10
11.077644972
 20
6.9760300953
 30
0.0
 10
11.1127540013
 20
6.9798833674
 30
0.0
 10
11.1473092871
 20
6.9860141462
 30
0.0
 10
11.1810160181
 20
6.99437653
 30
0.0
 10
11.2082816177
 20
7.0031908472
 30
0.0
 10
11.2294047451
 20
7.0113096354
 30
0.0
 10
11.2596163281
 20
7.0242155161
 30
0.0
 10
11.2836996223
 20
7.0372403024
 30
0.0
 10
11.3017939321
 20
7.0491190522
 30
0.0
  0
SPLINE
  5
2AC
100
AcDbEntity
  8
0
100
AcDbSpline
 62
7
  6
CONTINUOUS
 70
0
 71
3
 72
22
 73
18
 74
0
 42
0.0000001
 43
0.0000001
 44
0.0000000001
 40
0.0
 40
0.0
 40
0.0
 40
0.0
 40
0.0577573711
 40
0.1170881797
 40
0.1778503414
 40
0.2398710561
 40
0.3029521062
 40
0.3668754451
 40
0.4314080259
 40
0.4963069165
 40
0.5613241783
 40
0.6262114889
 40
0.6907251771
 40
0.7546307281
 40
0.8177078233
 40
0.879755192
 40
1.0
 40
1.0
 40
1.0
 40
1.0
 10
10.7988289293
 20
6.9854115987
 30
0.0
 10
10.8073573404
 20
6.9804423054
 30
0.0
 10
10.825057005
 20
6.9710581162
 30
0.0
 10
10.8529226545
 20
6.958857813
 30
0.0
 10
10.8822728888
 20
6.9484280984
 30
0.0
 10
10.9128819358
 20
6.9398540199
 30
0.0
 10
10.9445173349
 20
6.9332051363
 30
0.0
 10
10.9769380051
 20
6.9285370872
 30
0.0
 10
11.0098970845
 20
6.9258904071
 30
0.0
 10
11.0431435325
 20
6.9252903505
 30
0.0
 10
11.07642418
 20
6.9267467431
 30
0.0
 10
11.1094855204
 20
6.9302538216
 30
0.0
 10
11.1420761836
 20
6.9357904056
 30
0.0
 10
11.1739469221
 20
6.9433193147
 30
0.0
 10
11.204859699
 20
6.9527910502
 30
0.0
 10
11.2440515125
 20
6.9677545947
 30
0.0
 10
11.2719784409
 20
6.9818893061
 30
0.0
 10
11.2895287841
 20
6.9925787921
 30
0.0
  0
SPLINE
  5
2AD
100
AcDbEntity
  8
0
100
AcDbSpline
 62
7
  6
CONTINUOUS
 70
0
 71
3
 72
39
 73
35
 74
0
 42
0.0000001
 43
0.0000001
 44
0.0000000001
 40
0.0
 40
0.0
 40
0.0
 40
0.0
 40
0.0248343483
 40
0.0498052692
 40
0.0750449863
 40
0.1006749287
 40
0.1268029937
 40
0.1535202278
 40
0.1808992337
 40
0.2089932989
 40
0.2233226761
 40
0.2378420102
 40
0.2674498906
 40
0.2978204114
 40
0.3289354239
 40
0.3607620588
 40
0.3932543049
 40
0.4263546019
 40
0.4599953014
 40
0.4941002652
 40
0.5285863041
 40
0.5633645836
 40
0.5983421224
 40
0.6334230903
 40
0.668510212
 40
0.7035061618
 40
0.7383148339
 40
0.7728428004
 40
0.8070006572
 40
0.8407043911
 40
0.8738769133
 40
0.906449401
 40
0.9383630181
 40
1.0
 40
1.0
 40
1.0
 40
1.0
 10
10.6410683385
 20
7.274199502
 30
0.0
 10
10.6410683462
 20
7.2670552492
 30
0.0
 10
10.6418266802
 20
7.2527160689
 30
0.0
 10
10.6452291999
 20
7.2313594478
 30
0.0
 10
10.6508766397
 20
7.2102456864
 30
0.0
 10
10.6587348831
 20
7.1894974695
 30
0.0
 10
10.6687568541
 20
7.1692304108
 30
0.0
 10
10.6808839035
 20
7.1495571814
 30
0.0
 10
10.6950453428
 20
7.1305867721
 30
0.0
 10
10.708388333
 20
7.1155477869
 30
0.0
 10
10.7199742046
 20
7.1039623973
 30
0.0
 10
10.7323231688
 20
7.0925419036
 30
0.0
 10
10.7488824874
 20
7.0789033837
 30
0.0
 10
10.770275888
 20
7.063732832
 30
0.0
 10
10.7932034586
 20
7.0497328643
 30
0.0
 10
10.8175373065
 20
7.0369806891
 30
0.0
 10
10.8431429048
 20
7.0255459135
 30
0.0
 10
10.8698784792
 20
7.0154912761
 30
0.0
 10
10.8975961152
 20
7.0068719568
 30
0.0
 10
10.9261424408
 20
6.9997353357
 30
0.0
 10
10.9553594877
 20
6.9941206677
 30
0.0
 10
10.9850855612
 20
6.9900588632
 30
0.0
 10
11.0151561259
 20
6.9875722972
 30
0.0
 10
11.0454047304
 20
6.9866746716
 30
0.0
 10
11.0756639299
 20
6.9873709359
 30
0.0
 10
11.1057662164
 20
6.9896572548
 30
0.0
 10
11.135544957
 20
6.9935210276
 30
0.0
 10
11.1648353411
 20
6.9989409832
 30
0.0
 10
11.1934751969
 20
7.0058872332
 30
0.0
 10
11.2213062864
 20
7.0143217016
 30
0.0
 10
11.2481737224
 20
7.0241974958
 30
0.0
 10
11.2739320747
 20
7.0354623297
 30
0.0
 10
11.3062164761
 20
7.0520494168
 30
0.0
 10
11.3289515656
 20
7.0666547968
 30
0.0
 10
11.3431286757
 20
7.0773044706
 30
0.0
  0
SPLINE
  5
2AE
100
AcDbEntity
  8
0
100
AcDbSpline
 62
7
  6
CONTINUOUS
 70
0
 71
3
 72
15
 73
11
 74
0
 42
0.0000001
 43
0.0000001
 44
0.0000000001
 40
0.0
 40
0.0
 40
0.0
 40
0.0
 40
0.1209750212
 40
0.2423604414
 40
0.3645569471
 40
0.4879464684
 40
0.612883976
 40
0.7396907887
 40
0.8686494594
 40
1.0
 40
1.0
 40
1.0
 40
1.0
 10
10.5848183542
 20
6.5692505931
 30
0.0
 10
10.5848183396
 20
6.5756188511
 30
0.0
 10
10.5853464254
 20
6.5883832121
 30
0.0
 10
10.5877184538
 20
6.6074473838
 30
0.0
 10
10.5916622485
 20
6.6263801654
 30
0.0
 10
10.5971635271
 20
6.6451143464
 30
0.0
 10
10.6042024683
 20
6.6635857841
 30
0.0
 10
10.6127541677
 20
6.6817312889
 30
0.0
 10
10.6227876735
 20
6.6994879652
 30
0.0
 10
10.6303694745
 20
6.7109181274
 30
0.0
 10
10.6343851576
 20
6.7165469572
 30
0.0
  0
SPLINE
  5
2AF
100
AcDbEntity
  8
0
100
AcDbSpline
 62
9
  6
CONTINUOUS
 70
0
 71
3
 72
28
 73
24
 74
0
 42
0.0000001
 43
0.0000001
 44
0.0000000001
 40
0.0
 40
0.0
 40
0.0
 40
0.0
 40
0.025710763
 40
0.0514832412
 40
0.0773781177
 40
0.1034540574
 40
0.1297667939
 40
0.1563683155
 40
0.1833062106
 40
0.2106231451
 40
0.2383564687
 40
0.2665379388
 40
0.3243220788
 40
0.3841398585
 40
0.4460434333
 40
0.5100037134
 40
0.5759188348
 40
0.6436238062
 40
0.7129000445
 40
0.7834850515
 40
0.8550815321
 40
0.9273661605
 40
1.0
 40
1.0
 40
1.0
 40
1.0
 10
11.4535683383
 20
8.082334108
 30
0.0
 10
11.4535683383
 20
8.0776328492
 30
0.0
 10
11.4532410467
 20
8.0682157871
 30
0.0
 10
11.451770109
 20
8.0541329575
 30
0.0
 10
11.4493227047
 20
8.0401182977
 30
0.0
 10
11.4459049837
 20
8.0262068541
 30
0.0
 10
11.4415254795
 20
8.0124322167
 30
0.0
 10
11.4361951787
 20
7.9988278432
 30
0.0
 10
11.4299273159
 20
7.9854265712
 30
0.0
 10
11.4227374587
 20
7.9722608083
 30
0.0
 10
11.4146429273
 20
7.9593618703
 30
0.0
 10
11.4025725558
 20
7.9424223498
 30
0.0
 10
11.3852598459
 20
7.9220748988
 30
0.0
 10
11.3614230779
 20
7.8994300426
 30
0.0
 10
11.3345791955
 20
7.8785565415
 30
0.0
 10
11.3049889212
 20
7.8596517503
 30
0.0
 10
11.2729357265
 20
7.8428913753
 30
0.0
 10
11.2387263184
 20
7.8284329113
 30
0.0
 10
11.202687568
 20
7.8164121349
 30
0.0
 10
11.1651638976
 20
7.8069426361
 30
0.0
 10
11.1265132756
 20
7.8001138161
 30
0.0
 10
11.0871074468
 20
7.7959904583
 30
0.0
 10
11.0605995654
 20
7.7950719782
 30
0.0
 10
11.0473183383
 20
7.7950719782
 30
0.0
  0
SPLINE
  5
2B0
100
AcDbEntity
  8
0
100
AcDbSpline
 62
7
  6
CONTINUOUS
 70
0
 71
3
 72
15
 73
11
 74
0
 42
0.0000001
 43
0.0000001
 44
0.0000000001
 40
0.0
 40
0.0
 40
0.0
 40
0.0
 40
0.1291893653
 40
0.2567714641
 40
0.3829307457
 40
0.507870005
 40
0.6318084558
 40
0.7549791231
 40
0.8776258439
 40
1.0
 40
1.0
 40
1.0
 40
1.0
 10
11.4762810385
 20
6.6512749792
 30
0.0
 10
11.4787965495
 20
6.6466785483
 30
0.0
 10
11.483537516
 20
6.6373982068
 30
0.0
 10
11.489781538
 20
6.6231679062
 30
0.0
 10
11.4950983403
 20
6.6087485161
 30
0.0
 10
11.4994760958
 20
6.5941709026
 30
0.0
 10
11.5029054563
 20
6.5794657084
 30
0.0
 10
11.5053789838
 20
6.5646638125
 30
0.0
 10
11.5068912602
 20
6.5497973359
 30
0.0
 10
11.507256522
 20
6.5398581166
 30
0.0
 10
11.5072781029
 20
6.5348948301
 30
0.0
  0
SPLINE
  5
2B1
100
AcDbEntity
  8
0
100
AcDbSpline
 62
7
  6
CONTINUOUS
 70
0
 71
3
 72
29
 73
25
 74
0
 42
0.0000001
 43
0.0000001
 44
0.0000000001
 40
0.0
 40
0.0
 40
0.0
 40
0.0
 40
0.0260032402
 40
0.0521213453
 40
0.0784047842
 40
0.1049015666
 40
0.1316566275
 40
0.1587112863
 40
0.1861028191
 40
0.2138641271
 40
0.2420234808
 40
0.2706043655
 40
0.2996254995
 40
0.3291008401
 40
0.3894290676
 40
0.4516274225
 40
0.5156478461
 40
0.5813816716
 40
0.648667405
 40
0.7172984273
 40
0.7870309806
 40
0.857591597
 40
0.9286842785
 40
1.0
 40
1.0
 40
1.0
 40
1.0
 10
11.452935273
 20
7.1808134569
 30
0.0
 10
11.4525770111
 20
7.1761523036
 30
0.0
 10
11.45155472
 20
7.1668299826
 30
0.0
 10
11.4491161817
 20
7.1529374432
 30
0.0
 10
11.4457757497
 20
7.1391420267
 30
0.0
 10
11.4415412412
 20
7.1254747853
 30
0.0
 10
11.4364223685
 20
7.1119654553
 30
0.0
 10
11.430430907
 20
7.0986436087
 30
0.0
 10
11.4235806403
 20
7.0855382187
 30
0.0
 10
11.4158871928
 20
7.0726777685
 30
0.0
 10
11.4073679907
 20
7.0600901529
 30
0.0
 10
11.3980424829
 20
7.0478026348
 30
0.0
 10
11.3879314763
 20
7.0358414573
 30
0.0
 10
11.373322565
 20
7.0202445287
 30
0.0
 10
11.3531743006
 20
7.001715199
 30
0.0
 10
11.3264625677
 20
6.9813639264
 30
0.0
 10
11.2972652663
 20
6.9628900616
 30
0.0
 10
11.2658446487
 20
6.9464499031
 30
0.0
 10
11.2324801892
 20
6.9321798198
 30
0.0
 10
11.1974687831
 20
6.9201984114
 30
0.0
 10
11.1611220328
 20
6.910604027
 30
0.0
 10
11.1237627379
 20
6.9034743775
 30
0.0
 10
11.0857253928
 20
6.8988654436
 30
0.0
 10
11.0601370067
 20
6.8974958543
 30
0.0
 10
11.0473183383
 20
6.8972387401
 30
0.0
  0
SPLINE
  5
2B2
100
AcDbEntity
  8
0
100
AcDbSpline
 62
9
  6
CONTINUOUS
 70
0
 71
3
 72
31
 73
27
 74
0
 42
0.0000001
 43
0.0000001
 44
0.0000000001
 40
0.0
 40
0.0
 40
0.0
 40
0.0
 40
0.0251465429
 40
0.050396837
 40
0.0758271563
 40
0.1015099307
 40
0.1275123528
 40
0.1538952269
 40
0.1807120858
 40
0.2080085793
 40
0.2358221149
 40
0.2641817214
 40
0.3225886168
 40
0.3526784208
 40
0.3833496459
 40
0.4145926445
 40
0.4463912733
 40
0.4787233923
 40
0.5115613711
 40
0.5786033268
 40
0.6472233074
 40
0.7170534571
 40
0.7876852089
 40
0.858683951
 40
0.9296033207
 40
1.0
 40
1.0
 40
1.0
 40
1.0
 10
10.594890806
 20
6.8660759836
 30
0.0
 10
10.595042558
 20
6.860081409
 30
0.0
 10
10.5958250234
 20
6.84807423
 30
0.0
 10
10.5984259163
 20
6.8301624228
 30
0.0
 10
10.6024465539
 20
6.8123830799
 30
0.0
 10
10.6078735181
 20
6.7947945045
 30
0.0
 10
10.6146888583
 20
6.7774522558
 30
0.0
 10
10.6228701778
 20
6.760411403
 30
0.0
 10
10.6323908629
 20
6.7437256383
 30
0.0
 10
10.6432199211
 20
6.7274476068
 30
0.0
 10
10.65532326
 20
6.7116276498
 30
0.0
 10
10.6732793767
 20
6.6910142178
 30
0.0
 10
10.6935005865
 20
6.6717294133
 30
0.0
 10
10.7156412457
 20
6.6539007579
 30
0.0
 10
10.7334595743
 20
6.6410809564
 30
0.0
 10
10.7522646528
 20
6.6289903682
 30
0.0
 10
10.7719983378
 20
6.6176656487
 30
0.0
 10
10.7925986255
 20
6.6071422865
 30
0.0
 10
10.8213288401
 20
6.5941356654
 30
0.0
 10
10.8590445338
 20
6.5801091848
 30
0.0
 10
10.9063352393
 20
6.5670563496
 30
0.0
 10
10.9553883986
 20
6.557823541
 30
0.0
 10
11.0055886089
 20
6.5525257546
 30
0.0
 10
11.0563110121
 20
6.5512283256
 30
0.0
 10
11.1069176066
 20
6.5539465623
 30
0.0
 10
11.1403589324
 20
6.558441069
 30
0.0
 10
11.1568904109
 20
6.5613584903
 30
0.0
  0
SPLINE
  5
2B3
100
AcDbEntity
  8
0
100
AcDbSpline
 62
7
  6
CONTINUOUS
 70
0
 71
3
 72
15
 73
11
 74
0
 42
0.0000001
 43
0.0000001
 44
0.0000000001
 40
0.0
 40
0.0
 40
0.0
 40
0.0
 40
0.1194658493
 40
0.2397611983
 40
0.3613054336
 40
0.4844883429
 40
0.6096632157
 40
0.7371387843
 40
0.8671809707
 40
1.0
 40
1.0
 40
1.0
 40
1.0
 10
10.6416010742
 20
7.1061030087
 30
0.0
 10
10.6420105778
 20
7.1006148116
 30
0.0
 10
10.6433061165
 20
7.0896299662
 30
0.0
 10
10.6466532122
 20
7.0733065972
 30
0.0
 10
10.6513964829
 20
7.0571537519
 30
0.0
 10
10.6575182677
 20
7.0412314614
 30
0.0
 10
10.6649962117
 20
7.0255967483
 30
0.0
 10
10.6738033664
 20
7.0103054167
 30
0.0
 10
10.6839075588
 20
6.9954129997
 30
0.0
 10
10.691403755
 20
6.9858884683
 30
0.0
 10
10.6953467171
 20
6.9812097639
 30
0.0
  0
SPLINE
  5
2B4
100
AcDbEntity
  8
0
100
AcDbSpline
 62
7
  6
CONTINUOUS
 70
0
 71
3
 72
20
 73
16
 74
0
 42
0.0000001
 43
0.0000001
 44
0.0000000001
 40
0.0
 40
0.0
 40
0.0
 40
0.0
 40
0.1364609703
 40
0.2042502834
 40
0.2715430426
 40
0.4040564191
 40
0.469062541
 40
0.5330672778
 40
0.5959685996
 40
0.6576776782
 40
0.7771878403
 40
0.8349469564
 40
0.8913278022
 40
0.9463356741
 40
1.0
 40
1.0
 40
1.0
 40
1.0
 10
11.0473183383
 20
6.8458689443
 30
0.0
 10
11.0296280856
 20
6.845515088
 30
0.0
 10
11.0031035913
 20
6.8462071029
 30
0.0
 10
10.9680477225
 20
6.8495881824
 30
0.0
 10
10.9336964046
 20
6.8545450477
 30
0.0
 10
10.9000846297
 20
6.8618728901
 30
0.0
 10
10.867579355
 20
6.8715714835
 30
0.0
 10
10.8441201479
 20
6.8799044538
 30
0.0
 10
10.8215286686
 20
6.8893045397
 30
0.0
 10
10.793005429
 20
6.9030532421
 30
0.0
 10
10.7662517026
 20
6.9188600448
 30
0.0
 10
10.7417182272
 20
6.9366628192
 30
0.0
 10
10.7248292006
 20
6.9506817046
 30
0.0
 10
10.7093206989
 20
6.9654529517
 30
0.0
 10
10.6998294278
 20
6.9758879105
 30
0.0
 10
10.6953467171
 20
6.9812097639
 30
0.0
  0
SPLINE
  5
2B5
100
AcDbEntity
  8
0
100
AcDbSpline
 62
7
  6
CONTINUOUS
 70
0
 71
3
 72
27
 73
23
 74
0
 42
0.0000001
 43
0.0000001
 44
0.0000000001
 40
0.0
 40
0.0
 40
0.0
 40
0.0
 40
0.0730380093
 40
0.1456508214
 40
0.2175205726
 40
0.2883419456
 40
0.3578320235
 40
0.4257378672
 40
0.4918444624
 40
0.5559833926
 40
0.6180414892
 40
0.6779698049
 40
0.7357919944
 40
0.7916118526
 40
0.8188382743
 40
0.8456422166
 40
0.8720607067
 40
0.8981358463
 40
0.9239144796
 40
0.9494477168
 40
0.9747903209
 40
1.0
 40
1.0
 40
1.0
 40
1.0
 10
11.0473183383
 20
6.8972387401
 30
0.0
 10
11.0345240171
 20
6.8969821142
 30
0.0
 10
11.0089844644
 20
6.8973217846
 30
0.0
 10
10.9709685606
 20
6.9003836625
 30
0.0
 10
10.9336299734
 20
6.9059630383
 30
0.0
 10
10.89730252
 20
6.9140039473
 30
0.0
 10
10.8623083032
 20
6.9244286534
 30
0.0
 10
10.8289582097
 20
6.9371388444
 30
0.0
 10
10.7975482282
 20
6.9520162042
 30
0.0
 10
10.7683574132
 20
6.9689242261
 30
0.0
 10
10.7416456093
 20
6.9877087399
 30
0.0
 10
10.7176510925
 20
7.008200895
 30
0.0
 10
10.696591613
 20
7.0302139805
 30
0.0
 10
10.6815192863
 20
7.0498306714
 30
0.0
 10
10.671166149
 20
7.0660669577
 30
0.0
 10
10.6643060565
 20
7.0783904914
 30
0.0
 10
10.658303806
 20
7.0909305946
 30
0.0
 10
10.6531729381
 20
7.1036587301
 30
0.0
 10
10.6489253826
 20
7.1165452854
 30
0.0
 10
10.6455709177
 20
7.1295606012
 30
0.0
 10
10.6431174677
 20
7.1426735925
 30
0.0
 10
10.6420843474
 20
7.1514785753
 30
0.0
 10
10.6417207556
 20
7.15588054
 30
0.0
  0
SPLINE
  5
2B6
100
AcDbEntity
  8
0
100
AcDbSpline
 62
7
  6
CONTINUOUS
 70
0
 71
3
 72
27
 73
23
 74
0
 42
0.0000001
 43
0.0000001
 44
0.0000000001
 40
0.0
 40
0.0
 40
0.0
 40
0.0
 40
0.0729882503
 40
0.1455540788
 40
0.2173820727
 40
0.2881691292
 40
0.3576342277
 40
0.4255258796
 40
0.491629941
 40
0.5557781651
 40
0.6178567155
 40
0.6778150008
 40
0.7356739737
 40
0.7915335792
 40
0.8187793504
 40
0.8456014641
 40
0.8720361854
 40
0.8981248292
 40
0.9239134503
 40
0.9494523617
 40
0.974795549
 40
1.0
 40
1.0
 40
1.0
 40
1.0
 10
11.0473183383
 20
6.9484784872
 30
0.0
 10
11.0345693699
 20
6.9482223089
 30
0.0
 10
11.0091200024
 20
6.9485568701
 30
0.0
 10
10.9712361437
 20
6.9515931805
 30
0.0
 10
10.9340224731
 20
6.9571295732
 30
0.0
 10
10.8978093509
 20
6.9651108839
 30
0.0
 10
10.8629156076
 20
6.9754604444
 30
0.0
 10
10.8296490611
 20
6.9880813107
 30
0.0
 10
10.7983028835
 20
7.0028567794
 30
0.0
 10
10.7691535882
 20
7.0196521684
 30
0.0
 10
10.7424588225
 20
7.0383153818
 30
0.0
 10
10.7184549573
 20
7.0586797397
 30
0.0
 10
10.6973582336
 20
7.0805609933
 30
0.0
 10
10.6822302016
 20
7.1000654616
 30
0.0
 10
10.6718168522
 20
7.1162135066
 30
0.0
 10
10.6649045415
 20
7.1284721147
 30
0.0
 10
10.6588426329
 20
7.1409484094
 30
0.0
 10
10.6536447069
 20
7.1536142056
 30
0.0
 10
10.649322721
 20
7.1664402419
 30
0.0
 10
10.6458865625
 20
7.179397226
 30
0.0
 10
10.6433443213
 20
7.1924544453
 30
0.0
 10
10.6422470707
 20
7.2012251807
 30
0.0
 10
10.6418503926
 20
7.2056106653
 30
0.0
  0
SPLINE
  5
2B7
100
AcDbEntity
  8
0
100
AcDbSpline
 62
9
  6
CONTINUOUS
 70
0
 71
3
 72
28
 73
24
 74
0
 42
0.0000001
 43
0.0000001
 44
0.0000000001
 40
0.0
 40
0.0
 40
0.0
 40
0.0
 40
0.0726338395
 40
0.1449184679
 40
0.2165149485
 40
0.2870999555
 40
0.3563761938
 40
0.4240811652
 40
0.4899962866
 40
0.5539565667
 40
0.6158601415
 40
0.6756779212
 40
0.7334620612
 40
0.7616435313
 40
0.7893768549
 40
0.8166937894
 40
0.8436316845
 40
0.8702332061
 40
0.8965459426
 40
0.9226218823
 40
0.9485167588
 40
0.974289237
 40
1.0
 40
1.0
 40
1.0
 40
1.0
 10
11.0473183383
 20
7.7950719782
 30
0.0
 10
11.0340371111
 20
7.7950719782
 30
0.0
 10
11.0075292298
 20
7.7959904583
 30
0.0
 10
10.9681234009
 20
7.8001138161
 30
0.0
 10
10.929472779
 20
7.8069426361
 30
0.0
 10
10.8919491085
 20
7.8164121349
 30
0.0
 10
10.8559103581
 20
7.8284329113
 30
0.0
 10
10.8217009501
 20
7.8428913753
 30
0.0
 10
10.7896477554
 20
7.8596517503
 30
0.0
 10
10.760057481
 20
7.8785565415
 30
0.0
 10
10.7332135986
 20
7.8994300426
 30
0.0
 10
10.7093768306
 20
7.9220748988
 30
0.0
 10
10.6920641208
 20
7.9424223498
 30
0.0
 10
10.6799937493
 20
7.9593618703
 30
0.0
 10
10.6718992179
 20
7.9722608083
 30
0.0
 10
10.6647093606
 20
7.9854265712
 30
0.0
 10
10.6584414979
 20
7.9988278432
 30
0.0
 10
10.6531111971
 20
8.0124322167
 30
0.0
 10
10.6487316929
 20
8.0262068541
 30
0.0
 10
10.6453139719
 20
8.0401182977
 30
0.0
 10
10.6428665676
 20
8.0541329575
 30
0.0
 10
10.6413956298
 20
8.0682157871
 30
0.0
 10
10.6410683383
 20
8.0776328492
 30
0.0
 10
10.6410683383
 20
8.082334108
 30
0.0
  0
SPLINE
  5
2B8
100
AcDbEntity
  8
0
100
AcDbSpline
 62
7
  6
CONTINUOUS
 70
0
 71
3
 72
27
 73
23
 74
0
 42
0.0000001
 43
0.0000001
 44
0.0000000001
 40
0.0
 40
0.0
 40
0.0
 40
0.0
 40
0.0491130012
 40
0.0755289522
 40
0.1031025877
 40
0.1317324961
 40
0.1612949117
 40
0.191657069
 40
0.2226894227
 40
0.2542716391
 40
0.2862939785
 40
0.351284655
 40
0.4170630988
 40
0.4831887138
 40
0.5493476647
 40
0.6153152973
 40
0.6809274018
 40
0.7460598526
 40
0.81061332
 40
0.8745036623
 40
0.9376603926
 40
1.0
 40
1.0
 40
1.0
 40
1.0
 10
11.3727462656
 20
6.649481274
 30
0.0
 10
11.3727462656
 20
6.6469718455
 30
0.0
 10
11.3722594734
 20
6.6431041802
 30
0.0
 10
11.3708808897
 20
6.6380172609
 30
0.0
 10
11.3694378697
 20
6.6340444215
 30
0.0
 10
11.367640525
 20
6.6300442323
 30
0.0
 10
11.3655206078
 20
6.6260436193
 30
0.0
 10
11.3631108038
 20
6.6220671217
 30
0.0
 10
11.360442973
 20
6.6181340734
 30
0.0
 10
11.3575470028
 20
6.6142597721
 30
0.0
 10
11.3533977513
 20
6.6091630909
 30
0.0
 10
11.3477858319
 20
6.6030136813
 30
0.0
 10
11.340546541
 20
6.5960200336
 30
0.0
 10
11.3328929524
 20
6.5893922197
 30
0.0
 10
11.3249223639
 20
6.5831351412
 30
0.0
 10
11.3167090349
 20
6.5772461645
 30
0.0
 10
11.3083106816
 20
6.5717198001
 30
0.0
 10
11.299772832
 20
6.5665501739
 30
0.0
 10
11.2911323791
 20
6.5617324732
 30
0.0
 10
11.2824197417
 20
6.5572637974
 30
0.0
 10
11.2736615593
 20
6.5531446138
 30
0.0
 10
11.2677672992
 20
6.5506159784
 30
0.0
 10
11.2648183383
 20
6.5494120702
 30
0.0
  0
SPLINE
  5
2B9
100
AcDbEntity
  8
0
100
AcDbSpline
 62
7
  6
CONTINUOUS
 70
0
 71
3
 72
28
 73
24
 74
0
 42
0.0000001
 43
0.0000001
 44
0.0000000001
 40
0.0
 40
0.0
 40
0.0
 40
0.0
 40
0.0756305715
 40
0.1500700407
 40
0.22318966
 40
0.2948616289
 40
0.3649278663
 40
0.4332044503
 40
0.4994806414
 40
0.5635187768
 40
0.6250645375
 40
0.6838763352
 40
0.7397944378
 40
0.7666974259
 40
0.7929372569
 40
0.818598681
 40
0.8438183033
 40
0.8687912285
 40
0.8937719064
 40
0.9190649023
 40
0.9449977632
 40
0.9718887099
 40
1.0
 40
1.0
 40
1.0
 40
1.0
 10
11.2648183383
 20
6.5494120702
 30
0.0
 10
11.2619114166
 20
6.5482253244
 30
0.0
 10
11.2561017999
 20
6.5459706938
 30
0.0
 10
11.2473454927
 20
6.5429341804
 30
0.0
 10
11.2386357982
 20
6.5402842812
 30
0.0
 10
11.2299994683
 20
6.5380420149
 30
0.0
 10
11.2214666112
 20
6.5362346972
 30
0.0
 10
11.2130736447
 20
6.5348967791
 30
0.0
 10
11.2048652044
 20
6.5340707785
 30
0.0
 10
11.1968973432
 20
6.5338087397
 30
0.0
 10
11.1892405173
 20
6.5341740237
 30
0.0
 10
11.1819871047
 20
6.5352422101
 30
0.0
 10
11.1762986766
 20
6.5368155133
 30
0.0
 10
11.1721064683
 20
6.5385391695
 30
0.0
 10
11.1692003305
 20
6.5400526914
 30
0.0
 10
11.1665201523
 20
6.5418153513
 30
0.0
 10
11.1640966841
 20
6.5438380066
 30
0.0
 10
11.1619638756
 20
6.5461285137
 30
0.0
 10
11.1601574017
 20
6.5486894781
 30
0.0
 10
11.1587125263
 20
6.5515161503
 30
0.0
 10
11.1576602745
 20
6.5545953843
 30
0.0
 10
11.1570244871
 20
6.5579048778
 30
0.0
 10
11.1568904109
 20
6.5601914385
 30
0.0
 10
11.1568904109
 20
6.5613584903
 30
0.0
  0
SPLINE
  5
2BA
100
AcDbEntity
  8
0
100
AcDbSpline
 62
9
  6
CONTINUOUS
 70
0
 71
3
 72
20
 73
16
 74
0
 42
0.0000001
 43
0.0000001
 44
0.0000000001
 40
0.0
 40
0.0
 40
0.0
 40
0.0
 40
0.1384067188
 40
0.2722305995
 40
0.4016121211
 40
0.4647563592
 40
0.5269278875
 40
0.5881972978
 40
0.6486468536
 40
0.7083698844
 40
0.767469948
 40
0.8260597313
 40
0.8842596622
 40
0.9421962093
 40
1.0
 40
1.0
 40
1.0
 40
1.0
 10
11.3727462656
 20
6.649481274
 30
0.0
 10
11.3826422913
 20
6.6567240641
 30
0.0
 10
11.4014797998
 20
6.671857121
 30
0.0
 10
11.4269543477
 20
6.6967827542
 30
0.0
 10
11.4454367093
 20
6.7191026407
 30
0.0
 10
11.4583152908
 20
6.7376468125
 30
0.0
 10
11.4669510055
 20
6.7517556807
 30
0.0
 10
11.4746192759
 20
6.7661428785
 30
0.0
 10
11.4813024709
 20
6.7807756766
 30
0.0
 10
11.4869847037
 20
6.7956202097
 30
0.0
 10
11.491652471
 20
6.8106422003
 30
0.0
 10
11.4952946031
 20
6.8258067352
 30
0.0
 10
11.4979024171
 20
6.8410787943
 30
0.0
 10
11.4994696593
 20
6.8564218599
 30
0.0
 10
11.4998183231
 20
6.866680268
 30
0.0
 10
11.4998183353
 20
6.8718018917
 30
0.0
  0
SPLINE
  5
2BB
100
AcDbEntity
  8
0
100
AcDbSpline
 62
7
  6
CONTINUOUS
 70
0
 71
3
 72
21
 73
17
 74
0
 42
0.0000001
 43
0.0000001
 44
0.0000000001
 40
0.0
 40
0.0
 40
0.0
 40
0.0
 40
0.1434925068
 40
0.2132583799
 40
0.2815936583
 40
0.4137535785
 40
0.4776316706
 40
0.5400521331
 40
0.601074637
 40
0.6607877623
 40
0.7193091866
 40
0.7767848408
 40
0.8333871351
 40
0.8893117567
 40
0.9447733679
 40
1.0
 40
1.0
 40
1.0
 40
1.0
 10
11.2735683383
 20
6.8224821519
 30
0.0
 10
11.2903661631
 20
6.8293398351
 30
0.0
 10
11.3148340658
 20
6.840841332
 30
0.0
 10
11.3456545435
 20
6.8587032269
 30
0.0
 10
11.3741703141
 20
6.8775614273
 30
0.0
 10
11.4003406781
 20
6.8985376719
 30
0.0
 10
11.423636185
 20
6.9214884885
 30
0.0
 10
11.4393067666
 20
6.9392777693
 30
0.0
 10
11.4533007495
 20
6.9577580378
 30
0.0
 10
11.4655580787
 20
6.9768519344
 30
0.0
 10
11.4760245223
 20
6.9964780705
 30
0.0
 10
11.4846535803
 20
7.0165527337
 30
0.0
 10
11.4914063949
 20
7.0369894579
 30
0.0
 10
11.4962522195
 20
7.0577004682
 30
0.0
 10
11.4991687315
 20
7.0785932015
 30
0.0
 10
11.4998183387
 20
7.0925976189
 30
0.0
 10
11.4998183227
 20
7.099580679
 30
0.0
  0
SPLINE
  5
2BC
100
AcDbEntity
  8
0
100
AcDbSpline
 62
7
  6
CONTINUOUS
 70
0
 71
3
 72
36
 73
32
 74
0
 42
0.0000001
 43
0.0000001
 44
0.0000000001
 40
0.0
 40
0.0
 40
0.0
 40
0.0
 40
0.0667160363
 40
0.1007471522
 40
0.1351374929
 40
0.1698201145
 40
0.2047247881
 40
0.2748891035
 40
0.3100182484
 40
0.3450722949
 40
0.4146402209
 40
0.4490305675
 40
0.4830616633
 40
0.5166706605
 40
0.5497996699
 40
0.582396655
 40
0.6144163366
 40
0.645821087
 40
0.6765818884
 40
0.706679221
 40
0.7361040045
 40
0.7648584192
 40
0.7929566887
 40
0.8204256728
 40
0.8473052495
 40
0.8736483851
 40
0.8995207748
 40
0.925000024
 40
0.9501742222
 40
0.9751399995
 40
1.0
 40
1.0
 40
1.0
 40
1.0
 10
11.2735683383
 20
6.8224821519
 30
0.0
 10
11.2562182591
 20
6.8153990117
 30
0.0
 10
11.2294215271
 20
6.8060985995
 30
0.0
 10
11.1927270605
 20
6.7963442544
 30
0.0
 10
11.1643962932
 20
6.7902740159
 30
0.0
 10
11.1355664951
 20
6.7855260253
 30
0.0
 10
11.0965641951
 20
6.7809776777
 30
0.0
 10
11.0571577086
 20
6.7791591234
 30
0.0
 10
11.0177338956
 20
6.7800707994
 30
0.0
 10
10.9785620284
 20
6.7827958909
 30
0.0
 10
10.9398228604
 20
6.7882209482
 30
0.0
 10
10.9019110492
 20
6.7963438645
 30
0.0
 10
10.8742012548
 20
6.8037099976
 30
0.0
 10
10.8472311188
 20
6.8123407557
 30
0.0
 10
10.8211146789
 20
6.8221997371
 30
0.0
 10
10.795963646
 20
6.8332450734
 30
0.0
 10
10.7718852807
 20
6.8454299802
 30
0.0
 10
10.7489823893
 20
6.8587028829
 30
0.0
 10
10.7273527995
 20
6.8730076576
 30
0.0
 10
10.7070890035
 20
6.8882838799
 30
0.0
 10
10.6882778046
 20
6.9044670679
 30
0.0
 10
10.6709999915
 20
6.9214889392
 30
0.0
 10
10.6553300544
 20
6.9392776597
 30
0.0
 10
10.6413359034
 20
6.9577580719
 30
0.0
 10
10.6290786167
 20
6.97685193
 30
0.0
 10
10.6186121606
 20
6.9964780756
 30
0.0
 10
10.6099831039
 20
7.0165527353
 30
0.0
 10
10.6032302864
 20
7.03698946
 30
0.0
 10
10.5983844643
 20
7.0577004694
 30
0.0
 10
10.5954679327
 20
7.0785932022
 30
0.0
 10
10.5948183698
 20
7.0925976193
 30
0.0
 10
10.5948183539
 20
7.099580679
 30
0.0
  0
SPLINE
  5
2BD
100
AcDbEntity
  8
0
100
AcDbSpline
 62
9
  6
CONTINUOUS
 70
0
 71
3
 72
30
 73
26
 74
0
 42
0.0000001
 43
0.0000001
 44
0.0000000001
 40
0.0
 40
0.0
 40
0.0
 40
0.0
 40
0.0656104529
 40
0.0990386686
 40
0.1328078703
 40
0.2011257608
 40
0.2701051703
 40
0.33924506
 40
0.4080384672
 40
0.475991285
 40
0.5426412387
 40
0.6075773424
 40
0.6393035418
 40
0.670481237
 40
0.7310635571
 40
0.7604583599
 40
0.7892390115
 40
0.8174101328
 40
0.8449859043
 40
0.8719904778
 40
0.8984582288
 40
0.9244337903
 40
0.9499718062
 40
0.9751363547
 40
1.0
 40
1.0
 40
1.0
 40
1.0
 10
11.2201279562
 20
6.44947808
 30
0.0
 10
11.2078581278
 20
6.4444689436
 30
0.0
 10
11.1889473937
 20
6.4378217087
 30
0.0
 10
11.1630791467
 20
6.4306930707
 30
0.0
 10
11.1363782582
 20
6.4246239336
 30
0.0
 10
11.1021982671
 20
6.4192317155
 30
0.0
 10
11.0605509111
 20
6.4163175993
 30
0.0
 10
11.0187095068
 20
6.4169754461
 30
0.0
 10
10.9772845764
 20
6.4211960468
 30
0.0
 10
10.9368769091
 20
6.4289189804
 30
0.0
 10
10.8980762445
 20
6.4400325783
 30
0.0
 10
10.867306796
 20
6.4520830441
 30
0.0
 10
10.8440330492
 20
6.4632948205
 30
0.0
 10
10.8221449558
 20
6.4752735277
 30
0.0
 10
10.8016299636
 20
6.4887284906
 30
0.0
 10
10.7827953926
 20
6.5036031143
 30
0.0
 10
10.7697789846
 20
6.5152300343
 30
0.0
 10
10.7577816577
 20
6.5273951421
 30
0.0
 10
10.7468472089
 20
6.5400547151
 30
0.0
 10
10.7370164713
 20
6.5531625885
 30
0.0
 10
10.7283261702
 20
6.5666710664
 30
0.0
 10
10.7208090713
 20
6.5805306736
 30
0.0
 10
10.7144936378
 20
6.5946909489
 30
0.0
 10
10.7094043828
 20
6.6090983083
 30
0.0
 10
10.7068286291
 20
6.6188841889
 30
0.0
 10
10.7057560207
 20
6.6237906259
 30
0.0
  0
SPLINE
  5
2BE
100
AcDbEntity
  8
0
100
AcDbSpline
 62
7
  6
CONTINUOUS
 70
0
 71
3
 72
15
 73
11
 74
0
 42
0.0000001
 43
0.0000001
 44
0.0000000001
 40
0.0
 40
0.0
 40
0.0
 40
0.0
 40
0.1223887069
 40
0.2450360982
 40
0.3681985868
 40
0.4921250058
 40
0.6170531692
 40
0.743206848
 40
0.8707930978
 40
1.0
 40
1.0
 40
1.0
 40
1.0
 10
10.5873564168
 20
6.5338061887
 30
0.0
 10
10.5873544659
 20
6.5388145021
 30
0.0
 10
10.5876785603
 20
6.5488449168
 30
0.0
 10
10.5891469098
 20
6.5638505499
 30
0.0
 10
10.5915944839
 20
6.5787921635
 30
0.0
 10
10.5950158185
 20
6.5936367175
 30
0.0
 10
10.5994032798
 20
6.608352474
 30
0.0
 10
10.6047472997
 20
6.6229079422
 30
0.0
 10
10.6110358757
 20
6.637271349
 30
0.0
 10
10.6158173074
 20
6.6466368083
 30
0.0
 10
10.618355654
 20
6.6512749748
 30
0.0
  0
SPLINE
  5
2BF
100
AcDbEntity
  8
0
100
AcDbSpline
 62
7
  6
CONTINUOUS
 70
0
 71
3
 72
15
 73
11
 74
0
 42
0.0000001
 43
0.0000001
 44
0.0000000001
 40
0.0
 40
0.0
 40
0.0
 40
0.0
 40
0.1313521208
 40
0.2603118185
 40
0.3871191456
 40
0.5120566731
 40
0.6354458101
 40
0.7576415843
 40
0.8790260577
 40
1.0
 40
1.0
 40
1.0
 40
1.0
 10
11.4602371935
 20
6.7165670085
 30
0.0
 10
11.4642540032
 20
6.7109375557
 30
0.0
 10
11.4718379547
 20
6.6995060852
 30
0.0
 10
11.4818743516
 20
6.6817471955
 30
0.0
 10
11.4904285374
 20
6.663599308
 30
0.0
 10
11.4974695388
 20
6.6451253424
 30
0.0
 10
11.5029724325
 20
6.6263885157
 30
0.0
 10
11.5069173791
 20
6.607452999
 30
0.0
 10
11.5092901187
 20
6.5883860346
 30
0.0
 10
11.5098183078
 20
6.5756197874
 30
0.0
 10
11.5098183224
 20
6.5692505931
 30
0.0
  0
SPLINE
  5
2C0
100
AcDbEntity
  8
0
100
AcDbSpline
 62
7
  6
CONTINUOUS
 70
0
 71
3
 72
9
 73
5
 74
0
 42
0.0000001
 43
0.0000001
 44
0.0000000001
 40
0.0
 40
0.0
 40
0.0
 40
0.0
 40
0.5061214428
 40
1.0
 40
1.0
 40
1.0
 40
1.0
 10
11.4485631977
 20
6.6965433314
 30
0.0
 10
11.4542208086
 20
6.689564815
 30
0.0
 10
11.4648279658
 20
6.6753016139
 30
0.0
 10
11.4741239088
 20
6.6601471393
 30
0.0
 10
11.4783496755
 20
6.6524663991
 30
0.0
  0
SPLINE
  5
2C1
100
AcDbEntity
  8
0
100
AcDbSpline
 62
7
  6
CONTINUOUS
 70
0
 71
3
 72
11
 73
7
 74
0
 42
0.0000001
 43
0.0000001
 44
0.0000000001
 40
0.0
 40
0.0
 40
0.0
 40
0.0
 40
0.2557546156
 40
0.5071165419
 40
0.7548954605
 40
1.0
 40
1.0
 40
1.0
 40
1.0
 10
11.4783496755
 20
6.6524663991
 30
0.0
 10
11.482004912
 20
6.645822653
 30
0.0
 10
11.4887174398
 20
6.6323454474
 30
0.0
 10
11.4969533753
 20
6.6115042751
 30
0.0
 10
11.5032252798
 20
6.5903185415
 30
0.0
 10
11.5060896947
 20
6.5759638085
 30
0.0
 10
11.5071797429
 20
6.5687789073
 30
0.0
  0
SPLINE
  5
2C2
100
AcDbEntity
  8
0
100
AcDbSpline
 62
7
  6
CONTINUOUS
 70
0
 71
3
 72
10
 73
6
 74
0
 42
0.0000001
 43
0.0000001
 44
0.0000000001
 40
0.0
 40
0.0
 40
0.0
 40
0.0
 40
0.4887328342
 40
0.7417534297
 40
1.0
 40
1.0
 40
1.0
 40
1.0
 10
11.4675552138
 20
6.0583932218
 30
0.0
 10
11.4477321813
 20
6.0433842038
 30
0.0
 10
11.4159396802
 20
6.0227719739
 30
0.0
 10
11.3707812464
 20
5.9993050713
 30
0.0
 10
11.3469819434
 20
5.9887569758
 30
0.0
 10
11.3348183383
 20
5.9837912048
 30
0.0
  0
SPLINE
  5
2C3
100
AcDbEntity
  8
0
100
AcDbSpline
 62
7
  6
CONTINUOUS
 70
0
 71
3
 72
11
 73
7
 74
0
 42
0.0000001
 43
0.0000001
 44
0.0000000001
 40
0.0
 40
0.0
 40
0.0
 40
0.0
 40
0.2446557474
 40
0.4932515703
 40
0.7452341505
 40
1.0
 40
1.0
 40
1.0
 40
1.0
 10
11.3348183383
 20
5.9837912048
 30
0.0
 10
11.3224300842
 20
5.9787337213
 30
0.0
 10
11.2971410207
 20
5.9692879205
 30
0.0
 10
11.2581796414
 20
5.9572463896
 30
0.0
 10
11.2180691537
 20
5.9472717683
 30
0.0
 10
11.1908320037
 20
5.9420601754
 30
0.0
 10
11.1770814628
 20
5.9398078096
 30
0.0
  0
SPLINE
  5
2C4
100
AcDbEntity
  8
0
100
AcDbSpline
 62
7
  6
CONTINUOUS
 70
0
 71
3
 72
49
 73
45
 74
0
 42
0.0000001
 43
0.0000001
 44
0.0000000001
 40
0.0
 40
0.0
 40
0.0
 40
0.0
 40
0.0695785637
 40
0.1051402184
 40
0.1410712892
 40
0.1772625765
 40
0.2136006251
 40
0.2499696024
 40
0.2862531833
 40
0.3223364115
 40
0.3581075915
 40
0.3934601623
 40
0.4282946798
 40
0.4625207511
 40
0.496059089
 40
0.5288436024
 40
0.5608235304
 40
0.5919655729
 40
0.607220354
 40
0.6222622923
 40
0.651708903
 40
0.6803427293
 40
0.694375154
 40
0.7082272606
 40
0.7219098323
 40
0.7354351858
 40
0.7488170907
 40
0.7620706774
 40
0.7752123793
 40
0.7882597661
 40
0.8012313901
 40
0.8141466354
 40
0.8270254977
 40
0.8398883715
 40
0.8527558334
 40
0.8656484103
 40
0.8785863479
 40
0.8915893891
 40
0.9046765734
 40
0.9178660384
 40
0.9311748617
 40
0.9446189107
 40
0.9719608491
 40
1.0
 40
1.0
 40
1.0
 40
1.0
 10
11.2793013681
 20
6.2842355039
 30
0.0
 10
11.2563445938
 20
6.2753345995
 30
0.0
 10
11.2207371677
 20
6.2641225193
 30
0.0
 10
11.1719595286
 20
6.2534174319
 30
0.0
 10
11.1343018318
 20
6.2474337
 30
0.0
 10
11.0960927475
 20
6.2435957365
 30
0.0
 10
11.0575719897
 20
6.2419268721
 30
0.0
 10
11.0189860949
 20
6.2424380041
 30
0.0
 10
10.9805807228
 20
6.2451257796
 30
0.0
 10
10.9426007128
 20
6.2499731603
 30
0.0
 10
10.9052880874
 20
6.2569494425
 30
0.0
 10
10.8688806036
 20
6.266010456
 30
0.0
 10
10.8336102077
 20
6.2770988142
 30
0.0
 10
10.7997015523
 20
6.2901444575
 30
0.0
 10
10.767370761
 20
6.305065023
 30
0.0
 10
10.7368235353
 20
6.3217667627
 30
0.0
 10
10.7082558429
 20
6.3401436773
 30
0.0
 10
10.686096942
 20
6.3568742849
 30
0.0
 10
10.6695569423
 20
6.3709934878
 30
0.0
 10
10.654046771
 20
6.3853674483
 30
0.0
 10
10.6361798037
 20
6.4041310129
 30
0.0
 10
10.6202669496
 20
6.424129898
 30
0.0
 10
10.6089496364
 20
6.4406281095
 30
0.0
 10
10.6012194935
 20
6.4531497087
 30
0.0
 10
10.5942040802
 20
6.4658807699
 30
0.0
 10
10.5879145385
 20
6.4788011391
 30
0.0
 10
10.5823611182
 20
6.4918900417
 30
0.0
 10
10.5775529861
 20
6.5051265445
 30
0.0
 10
10.5734979173
 20
6.518489336
 30
0.0
 10
10.5702025843
 20
6.5319569279
 30
0.0
 10
10.5676724961
 20
6.545507631
 30
0.0
 10
10.565911702
 20
6.5591195549
 30
0.0
 10
10.5649231916
 20
6.5727707286
 30
0.0
 10
10.5647086188
 20
6.5864390778
 30
0.0
 10
10.5652682344
 20
6.6001025015
 30
0.0
 10
10.5666012336
 20
6.6137389044
 30
0.0
 10
10.5687053566
 20
6.6273262487
 30
0.0
 10
10.5715770752
 20
6.6408426049
 30
0.0
 10
10.5752117915
 20
6.6542661651
 30
0.0
 10
10.5796033707
 20
6.6675752623
 30
0.0
 10
10.584744822
 20
6.6807487781
 30
0.0
 10
10.5926314621
 20
6.6981995556
 30
0.0
 10
10.6043672013
 20
6.7195901942
 30
0.0
 10
10.6154461933
 20
6.7357968017
 30
0.0
 10
10.6214142618
 20
6.7437235809
 30
0.0
  0
SPLINE
  5
2C5
100
AcDbEntity
  8
0
100
AcDbSpline
 62
7
  6
CONTINUOUS
 70
0
 71
3
 72
33
 73
29
 74
0
 42
0.0000001
 43
0.0000001
 44
0.0000000001
 40
0.0
 40
0.0
 40
0.0
 40
0.0
 40
0.0310824701
 40
0.0616817712
 40
0.0918314403
 40
0.1215707968
 40
0.1509446465
 40
0.1800029121
 40
0.208800112
 40
0.2373946735
 40
0.265848178
 40
0.2942244256
 40
0.3225884415
 40
0.3510054525
 40
0.3795398411
 40
0.4082541171
 40
0.437207994
 40
0.4664575578
 40
0.4960545009
 40
0.5260455996
 40
0.5564722649
 40
0.587370226
 40
0.6506701457
 40
0.716139469
 40
0.7838545477
 40
0.8538057448
 40
0.9259056681
 40
1.0
 40
1.0
 40
1.0
 40
1.0
 10
11.4732538442
 20
6.7436818056
 30
0.0
 10
11.4768518605
 20
6.7389013145
 30
0.0
 10
11.4837319416
 20
6.729215275
 30
0.0
 10
11.493129457
 20
6.7142318096
 30
0.0
 10
11.5015000123
 20
6.6989442923
 30
0.0
 10
11.5088235184
 20
6.6833884668
 30
0.0
 10
11.5150828178
 20
6.6676000586
 30
0.0
 10
11.5202630267
 20
6.6516155987
 30
0.0
 10
11.5243517719
 20
6.6354721182
 30
0.0
 10
11.5273392507
 20
6.6192071374
 30
0.0
 10
11.5292183183
 20
6.6028585478
 30
0.0
 10
11.5299844494
 20
6.5864644915
 30
0.0
 10
11.5296357704
 20
6.5700632568
 30
0.0
 10
11.5281730978
 20
6.5536931617
 30
0.0
 10
11.5256000008
 20
6.537392419
 30
0.0
 10
11.521922682
 20
6.5211990209
 30
0.0
 10
11.5171499444
 20
6.5051506307
 30
0.0
 10
11.5112931595
 20
6.4892845045
 30
0.0
 10
11.50436626
 20
6.4736373161
 30
0.0
 10
11.4963857444
 20
6.4582452809
 30
0.0
 10
11.4873700247
 20
6.4431434096
 30
0.0
 10
11.4738914623
 20
6.4232846816
 30
0.0
 10
11.4544891525
 20
6.3993610767
 30
0.0
 10
11.4276635579
 20
6.3726087735
 30
0.0
 10
11.397353138
 20
6.3478109447
 30
0.0
 10
11.3638395517
 20
6.3251915655
 30
0.0
 10
11.3274330536
 20
6.3049532637
 30
0.0
 10
11.301773095
 20
6.2933138479
 30
0.0
 10
11.2885683383
 20
6.2879230285
 30
0.0
  0
SPLINE
  5
2C6
100
AcDbEntity
  8
0
100
AcDbSpline
 62
7
  6
CONTINUOUS
 70
0
 71
3
 72
30
 73
26
 74
0
 42
0.0000001
 43
0.0000001
 44
0.0000000001
 40
0.0
 40
0.0
 40
0.0
 40
0.0
 40
0.0707239168
 40
0.1419059238
 40
0.2130993044
 40
0.2838567527
 40
0.3537449073
 40
0.4223587805
 40
0.489336588
 40
0.5221235155
 40
0.5543935909
 40
0.6172640186
 40
0.6478501886
 40
0.6778511995
 40
0.7360779603
 40
0.7643518203
 40
0.7920858555
 40
0.8193118589
 40
0.8460700165
 40
0.872408723
 40
0.8983841079
 40
0.9240593783
 40
0.949503807
 40
0.9747915149
 40
1.0
 40
1.0
 40
1.0
 40
1.0
 10
11.1770814628
 20
6.187295183
 30
0.0
 10
11.155987414
 20
6.183839936
 30
0.0
 10
11.1133598436
 20
6.1786376291
 30
0.0
 10
11.0489456386
 20
6.1759546335
 30
0.0
 10
10.9845066328
 20
6.1783808687
 30
0.0
 10
10.9208542023
 20
6.1858871241
 30
0.0
 10
10.8587814834
 20
6.1983806994
 30
0.0
 10
10.7990677562
 20
6.2157061026
 30
0.0
 10
10.7515484683
 20
6.2341267132
 30
0.0
 10
10.7154238359
 20
6.251113481
 30
0.0
 10
10.6812489388
 20
6.2692190577
 30
0.0
 10
10.6489948143
 20
6.28945635
 30
0.0
 10
10.6190610457
 20
6.3117600578
 30
0.0
 10
10.5914771892
 20
6.3347726217
 30
0.0
 10
10.5663784051
 20
6.3596094271
 30
0.0
 10
10.5442050079
 20
6.3860981952
 30
0.0
 10
10.5293204593
 20
6.4064015936
 30
0.0
 10
10.5160713323
 20
6.4272674834
 30
0.0
 10
10.5044994435
 20
6.4486312261
 30
0.0
 10
10.4946426002
 20
6.4704252693
 30
0.0
 10
10.4865329782
 20
6.4925807866
 30
0.0
 10
10.4801973177
 20
6.5150272502
 30
0.0
 10
10.4756566484
 20
6.5376935802
 30
0.0
 10
10.4729261277
 20
6.5605052923
 30
0.0
 10
10.4723183681
 20
6.5757738705
 30
0.0
 10
10.4723183563
 20
6.5833927287
 30
0.0
  0
ELLIPSE
  5
2C7
100
AcDbEntity
  8
0
100
AcDbEllipse
 62
7
  6
CONTINUOUS
 10
11.0473183383
 20
6.7036008815
 30
0.0
 11
0.4522967215
 21
0.1611958191
 31
0.0
 40
0.084133201
 41
-1.3561925479
 42
-0.7981537211
  0
ENDSEC
  0
SECTION
  2
OBJECTS
  0
DICTIONARY
  5
C
100
AcDbDictionary
280
0
281
1
  3
ACAD_GROUP
350
D
  3
ACAD_MLINESTYLE
350
17
  3
ACAD_LAYOUT
350
1A
  3
ACAD_PLOTSETTINGS
350
19
  3
ACAD_PLOTSTYLENAME
350
E
  0
DICTIONARY
  5
D
102
{ACAD_REACTORS
330
C
102
}
100
AcDbDictionary
280
0
281
1
  0
ACDBDICTIONARYWDFLT
  5
E
102
{ACAD_REACTORS
330
C
102
}
100
AcDbDictionary
281
1
  3
Normal
350
F
100
AcDbDictionaryWithDefault
340
F
  0
DICTIONARY
  5
17
102
{ACAD_REACTORS
330
C
102
}
100
AcDbDictionary
280
0
281
1
  3
Standard
350
18
  0
DICTIONARY
  5
19
102
{ACAD_REACTORS
330
C
102
}
100
AcDbDictionary
281
1
  0
DICTIONARY
  5
1A
102
{ACAD_REACTORS
330
C
102
}
100
AcDbDictionary
281
1
  3
Model
350
2C8
  3
Layout1
350
2C9
  0
ACDBPLACEHOLDER
  5
F
102
{ACAD_REACTORS
330
E
102
}
  0
MLINESTYLE
  5
18
102
{ACAD_REACTORS
330
17
102
}
100
AcDbMlineStyle
  2
STANDARD
 70
0
  3

 62
256
 51
90.0
 52
90.0
 71
2
 49
0.5
 62
256
  6
BYLAYER
 49
-0.5
 62
256
  6
BYLAYER
  0
LAYOUT
  5
2C8
102
{ACAD_REACTORS
330
1A
102
}
100
AcDbPlotSettings
  1

  2
none_device
  4
ANSI_C_(22.00_x_17.00_Inches)
  6

 40
0.0
 41
0.0
 42
0.0
 43
0.0
 44
558.8
 45
431.8
 46
0.0
 47
0.0
 48
0.0
 49
0.0
140
0.0
141
0.0
142
1.0
143
1.0
 70
1024
 72
0
 73
0
 74
0
  7

 75
0
147
1.0
148
0.0
149
0.0
100
AcDbLayout
  1
Model
 70
0
 71
0
 10
0.0
 20
0.0
 11
22.0
 21
17.0
 12
0.0
 22
0.0
 32
0.0
 14
0.0
 24
0.0
 34
0.0
 15
0.0
 25
0.0
 35
0.0
146
0.0
 13
0.0
 23
0.0
 33
0.0
 16
1.0
 26
0.0
 36
0.0
 17
0.0
 27
1.0
 37
0.0
 76
0
330
205
345
0
346
0
  0
LAYOUT
  5
2C9
102
{ACAD_REACTORS
330
1A
102
}
100
AcDbPlotSettings
  1

  2
none_device
  4
ANSI_C_(22.00_x_17.00_Inches)
  6

 40
0.0
 41
0.0
 42
0.0
 43
0.0
 44
558.8
 45
431.8
 46
0.0
 47
0.0
 48
0.0
 49
0.0
140
0.0
141
0.0
142
1.0
143
1.0
 70
0
 72
0
 73
0
 74
0
  7

 75
0
147
1.0
148
0.0
149
0.0
100
AcDbLayout
  1
Layout1
 70
0
 71
1
 10
0.0
 20
0.0
 11
22.0
 21
17.0
 12
0.0
 22
0.0
 32
0.0
 14
0.0
 24
0.0
 34
0.0
 15
0.0
 25
0.0
 35
0.0
146
0.0
 13
0.0
 23
0.0
 33
0.0
 16
1.0
 26
0.0
 36
0.0
 17
0.0
 27
1.0
 37
0.0
 76
0
330
206
345
0
346
0
  0
ENDSEC
  0
EOF
