999
DXF file: 3-993tr_RIGHT.dxf
999
Pro/ENGINEER 2013150 by Parametric Technology Corporation
  0
SECTION
  2
HEADER
  9
$ACADVER
  1
AC1021
  9
$DWGCODEPAGE
  3
ANSI_1252
  9
$EXTMAX
 10
11.0
 20
8.5
 30
0.0
  9
$EXTMIN
 10
0.0
 20
0.0
 30
0.0
  9
$LIMMIN
 10
0.0
 20
0.0
  9
$LIMMAX
 10
11.0
 20
8.5
  9
$VIEWCTR
 10
5.5
 20
4.25
  9
$VIEWSIZE
 40
8.5
  9
$CLAYER
  8
0
  9
$LTSCALE
 40
0.605
  9
$CELTYPE
  6
BYLAYER
  9
$DIMSCALE
 40
1.0
  9
$DIMASZ
 40
0.1
  9
$DIMEXO
 40
0.0625
  9
$DIMDLI
 40
0.418
  9
$DIMEXE
 40
0.125
  9
$DIMCEN
 40
0.099
  9
$DIMLFAC
 40
1.0
  9
$DIMBLK
  1
_FILLED
  9
$DIMTXT
 40
0.08
  9
$DIMTOL
 70
1
  9
$DIMLIM
 70
0
  9
$DIMTFAC
 40
1.0
  9
$DIMTP
 40
0.001
  9
$DIMTM
 40
0.001
  9
$DIMGAP
 40
0.09
  9
$DIMDSEP
 70
46
  9
$PDMODE
 70
3
  9
$PDSIZE
 40
0.06
  9
$HANDSEED
  5
294
  9
$TILEMODE
 70
1
  9
$MEASUREMENT
 70
0
  9
$INSUNITS
 70
1
  0
ENDSEC
  0
SECTION
  2
CLASSES
  0
CLASS
  1
ACDBDICTIONARYWDFLT
  2
AcDbDictionaryWithDefault
  3
AutoCAD 2000
 90
0
 91
1
280
0
281
0
  0
CLASS
  1
ACDBPLACEHOLDER
  2
AcDbPlaceHolder
  3
AutoCAD 2000
 90
0
 91
1
280
0
281
0
  0
CLASS
  1
LAYOUT
  2
AcDbLayout
  3
AutoCAD 2000
 90
0
 91
0
280
0
281
0
  0
ENDSEC
  0
SECTION
  2
TABLES
  0
TABLE
  2
VPORT
  5
8
100
AcDbSymbolTable
 70
2
  0
VPORT
  5
1F4
100
AcDbSymbolTableRecord
100
AcDbViewportTableRecord
  2
*ACTIVE
 70
0
 10
0.0
 20
0.0
 11
1.0
 21
1.0
 12
5.5
 22
4.25
 13
0.0
 23
0.0
 14
1.0
 24
1.0
 15
0.0
 25
0.0
 16
0.0
 26
0.0
 36
1.0
 17
0.0
 27
0.0
 37
0.0
 40
8.5
 41
1.2941176471
 42
50.0
 43
0.0
 44
0.0
 50
0.0
 51
0.0
 71
0
 72
100
 73
1
 74
1
 75
0
 76
0
 77
0
 78
0
  0
ENDTAB
  0
TABLE
  2
LTYPE
  5
5
100
AcDbSymbolTable
 70
6
  0
LTYPE
  5
14
100
AcDbSymbolTableRecord
100
AcDbLinetypeTableRecord
  2
BYBLOCK
 70
0
  3

 72
65
 73
0
 40
0.0
  0
LTYPE
  5
15
100
AcDbSymbolTableRecord
100
AcDbLinetypeTableRecord
  2
BYLAYER
 70
0
  3

 72
65
 73
0
 40
0.0
  0
LTYPE
  5
16
100
AcDbSymbolTableRecord
100
AcDbLinetypeTableRecord
  2
CONTINUOUS
 70
64
  3
Solid line
 72
65
 73
0
 40
0.0
  0
LTYPE
  5
1F5
100
AcDbSymbolTableRecord
100
AcDbLinetypeTableRecord
  2
CENTER
 70
64
  3
____ _ ____ _ ____ _ ____ _ ____ _ ____ _ ____
 72
65
 73
4
 40
0.6
 49
0.375
 74
0
 49
-0.075
 74
0
 49
0.075
 74
0
 49
-0.075
 74
0
  0
LTYPE
  5
1F6
100
AcDbSymbolTableRecord
100
AcDbLinetypeTableRecord
  2
HIDDEN
 70
64
  3
- - - - - - - - - - - - - - - - - - - -
 72
65
 73
2
 40
0.2
 49
0.1
 74
0
 49
-0.1
 74
0
  0
LTYPE
  5
1F7
100
AcDbSymbolTableRecord
100
AcDbLinetypeTableRecord
  2
PHANTOM
 70
64
  3
_____ _ _ _____ _ _ _____ _ _ _____
 72
65
 73
6
 40
0.8
 49
0.45
 74
0
 49
-0.05
 74
0
 49
0.1
 74
0
 49
-0.05
 74
0
 49
0.1
 74
0
 49
-0.05
 74
0
  0
LTYPE
  5
1F8
100
AcDbSymbolTableRecord
100
AcDbLinetypeTableRecord
  2
DOT
 70
64
  3
. . . . . . . . . . . . . . . . . . . .
 72
65
 73
2
 40
0.2
 49
0.1
 74
0
 49
-0.1
 74
0
  0
LTYPE
  5
1F9
100
AcDbSymbolTableRecord
100
AcDbLinetypeTableRecord
  2
DASHED
 70
64
  3
- - - - - - - - - - - - - - - - - - - -
 72
65
 73
2
 40
0.2
 49
0.1
 74
0
 49
-0.1
 74
0
  0
ENDTAB
  0
TABLE
  2
LAYER
  5
2
100
AcDbSymbolTable
 70
36
  0
LAYER
  5
10
100
AcDbSymbolTableRecord
100
AcDbLayerTableRecord
  2
0
 70
0
 62
7
  6
CONTINUOUS
370
-3
390
F
  0
LAYER
  5
1FA
100
AcDbSymbolTableRecord
100
AcDbLayerTableRecord
  2
DEFAULT_1
 70
0
 62
7
  6
CENTER
370
-3
390
F
  0
LAYER
  5
1FB
100
AcDbSymbolTableRecord
100
AcDbLayerTableRecord
  2
DEFAULT_2
 70
0
 62
8
  6
HIDDEN
370
-3
390
F
  0
LAYER
  5
1FC
100
AcDbSymbolTableRecord
100
AcDbLayerTableRecord
  2
DEFAULT_3
 70
0
 62
7
  6
PHANTOM
370
-3
390
F
  0
LAYER
  5
1FD
100
AcDbSymbolTableRecord
100
AcDbLayerTableRecord
  2
2-110_ASSY_DATUMS
 70
0
 62
7
  6
CONTINUOUS
370
-3
390
F
  0
LAYER
  5
1FE
100
AcDbSymbolTableRecord
100
AcDbLayerTableRecord
  2
ALL_ASSEMBLY_MEMBERS
 70
0
 62
7
  6
CONTINUOUS
370
-3
390
F
  0
LAYER
  5
1FF
100
AcDbSymbolTableRecord
100
AcDbLayerTableRecord
  2
ALL_FEATURES
 70
0
 62
7
  6
CONTINUOUS
370
-3
390
F
  0
LAYER
  5
200
100
AcDbSymbolTableRecord
100
AcDbLayerTableRecord
  2
AXES_FEATURES
 70
0
 62
7
  6
CONTINUOUS
370
-3
390
F
  0
LAYER
  5
201
100
AcDbSymbolTableRecord
100
AcDbLayerTableRecord
  2
CHAMFER_FEATURES
 70
0
 62
7
  6
CONTINUOUS
370
-3
390
F
  0
LAYER
  5
202
100
AcDbSymbolTableRecord
100
AcDbLayerTableRecord
  2
CUT_FEATURES
 70
0
 62
7
  6
CONTINUOUS
370
-3
390
F
  0
LAYER
  5
203
100
AcDbSymbolTableRecord
100
AcDbLayerTableRecord
  2
DATUM_CURVES
 70
0
 62
7
  6
CONTINUOUS
370
-3
390
F
  0
LAYER
  5
204
100
AcDbSymbolTableRecord
100
AcDbLayerTableRecord
  2
DATUM_PLANES
 70
0
 62
7
  6
CONTINUOUS
370
-3
390
F
  0
LAYER
  5
205
100
AcDbSymbolTableRecord
100
AcDbLayerTableRecord
  2
DATUM_POINTS
 70
0
 62
7
  6
CONTINUOUS
370
-3
390
F
  0
LAYER
  5
206
100
AcDbSymbolTableRecord
100
AcDbLayerTableRecord
  2
DEFAULT_COORDINATE_SYSTEM
 70
0
 62
7
  6
CONTINUOUS
370
-3
390
F
  0
LAYER
  5
207
100
AcDbSymbolTableRecord
100
AcDbLayerTableRecord
  2
DEFAULT_DATUM_AXES
 70
0
 62
7
  6
CONTINUOUS
370
-3
390
F
  0
LAYER
  5
208
100
AcDbSymbolTableRecord
100
AcDbLayerTableRecord
  2
DEFAULT_DATUM_CURVES
 70
0
 62
7
  6
CONTINUOUS
370
-3
390
F
  0
LAYER
  5
209
100
AcDbSymbolTableRecord
100
AcDbLayerTableRecord
  2
DEFAULT_DATUM_PLANES
 70
0
 62
7
  6
CONTINUOUS
370
-3
390
F
  0
LAYER
  5
20A
100
AcDbSymbolTableRecord
100
AcDbLayerTableRecord
  2
DEFAULT_SURFACES
 70
0
 62
7
  6
CONTINUOUS
370
-3
390
F
  0
LAYER
  5
20B
100
AcDbSymbolTableRecord
100
AcDbLayerTableRecord
  2
DIMENSIONS
 70
0
 62
7
  6
CONTINUOUS
370
-3
390
F
  0
LAYER
  5
20C
100
AcDbSymbolTableRecord
100
AcDbLayerTableRecord
  2
HOLE_FEATURES
 70
0
 62
7
  6
CONTINUOUS
370
-3
390
F
  0
LAYER
  5
20D
100
AcDbSymbolTableRecord
100
AcDbLayerTableRecord
  2
INTFCLR_1
 70
0
 62
7
  6
CONTINUOUS
370
-3
390
F
  0
LAYER
  5
20E
100
AcDbSymbolTableRecord
100
AcDbLayerTableRecord
  2
NOTES
 70
0
 62
7
  6
CONTINUOUS
370
-3
390
F
  0
LAYER
  5
20F
100
AcDbSymbolTableRecord
100
AcDbLayerTableRecord
  2
PART_REFERENCE_DIMENSIONS
 70
0
 62
7
  6
CONTINUOUS
370
-3
390
F
  0
LAYER
  5
210
100
AcDbSymbolTableRecord
100
AcDbLayerTableRecord
  2
PLATED_SURFACE
 70
0
 62
7
  6
CONTINUOUS
370
-3
390
F
  0
LAYER
  5
211
100
AcDbSymbolTableRecord
100
AcDbLayerTableRecord
  2
PLATED_SURFACE_AREA
 70
0
 62
7
  6
CONTINUOUS
370
-3
390
F
  0
LAYER
  5
212
100
AcDbSymbolTableRecord
100
AcDbLayerTableRecord
  2
POINTS
 70
0
 62
7
  6
CONTINUOUS
370
-3
390
F
  0
LAYER
  5
213
100
AcDbSymbolTableRecord
100
AcDbLayerTableRecord
  2
PROTRUSION
 70
0
 62
7
  6
CONTINUOUS
370
-3
390
F
  0
LAYER
  5
214
100
AcDbSymbolTableRecord
100
AcDbLayerTableRecord
  2
PROTRUSION_FEATURES
 70
0
 62
7
  6
CONTINUOUS
370
-3
390
F
  0
LAYER
  5
215
100
AcDbSymbolTableRecord
100
AcDbLayerTableRecord
  2
QUILT
 70
0
 62
7
  6
CONTINUOUS
370
-3
390
F
  0
LAYER
  5
216
100
AcDbSymbolTableRecord
100
AcDbLayerTableRecord
  2
QUILTS
 70
0
 62
7
  6
CONTINUOUS
370
-3
390
F
  0
LAYER
  5
217
100
AcDbSymbolTableRecord
100
AcDbLayerTableRecord
  2
REFERENCE_DIMENSIONS
 70
0
 62
7
  6
CONTINUOUS
370
-3
390
F
  0
LAYER
  5
218
100
AcDbSymbolTableRecord
100
AcDbLayerTableRecord
  2
ROUND_FEATURES
 70
0
 62
7
  6
CONTINUOUS
370
-3
390
F
  0
LAYER
  5
219
100
AcDbSymbolTableRecord
100
AcDbLayerTableRecord
  2
SIZE_REF
 70
0
 62
7
  6
CONTINUOUS
370
-3
390
F
  0
ENDTAB
  0
TABLE
  2
STYLE
  5
3
100
AcDbSymbolTable
 70
1
  0
STYLE
  5
11
100
AcDbSymbolTableRecord
100
AcDbTextStyleTableRecord
  2
STANDARD
 70
0
 40
0.0
 41
0.8
 50
0.0
 71
0
 42
0.2
  3
txt
  4

  0
STYLE
  5
21A
100
AcDbSymbolTableRecord
100
AcDbTextStyleTableRecord
  2
TEXTSTYLE_1
 70
0
 40
0.0
 41
0.8
 50
0.0
 71
0
 42
0.2
  3
gdt
  4

  0
ENDTAB
  0
TABLE
  2
VIEW
  5
6
100
AcDbSymbolTable
 70
0
  0
ENDTAB
  0
TABLE
  2
UCS
  5
7
100
AcDbSymbolTable
 70
0
  0
ENDTAB
  0
TABLE
  2
APPID
  5
9
100
AcDbSymbolTable
 70
1
  0
APPID
  5
21B
100
AcDbSymbolTableRecord
100
AcDbRegAppTableRecord
  2
ACAD
 70
0
  0
ENDTAB
  0
TABLE
  2
BLOCK_RECORD
  5
1
100
AcDbSymbolTable
 70
0
  0
BLOCK_RECORD
  5
21C
100
AcDbSymbolTableRecord
100
AcDbBlockTableRecord
  2
*Model_Space
  0
BLOCK_RECORD
  5
21D
100
AcDbSymbolTableRecord
100
AcDbBlockTableRecord
  2
*Paper_Space
  0
ENDTAB
  0
TABLE
  2
DIMSTYLE
  5
A
100
AcDbSymbolTable
 70
1
100
AcDbDimStyleTable
 71
0
  0
DIMSTYLE
105
21E
100
AcDbSymbolTableRecord
100
AcDbDimStyleTableRecord
  2
STANDARD
 70
0
  3

  4

 40
1.0
 41
0.1
 42
0.0625
 43
0.38
 44
0.125
 45
0.0
 46
0.0
 47
0.001
 48
0.001
140
0.08
141
0.09
142
0.0
143
25.4
144
1.0
145
0.0
146
1.0
147
0.09
 71
1.0
 72
0.0
 73
1
 74
1
 75
0
 76
0
 77
0
 78
4
170
0
171
2
172
0
173
0
174
0
175
0
176
0
177
0
178
0
270
2
271
3
272
3
273
2
274
2
275
0
280
0
281
0
282
0
283
1
284
4
285
0
286
0
287
3
288
0
340
11
278
46
  0
ENDTAB
  0
ENDSEC
  0
SECTION
  2
BLOCKS
  0
BLOCK
  5
20
100
AcDbEntity
  8
0
100
AcDbBlockBegin
  2
*Model_Space
 70
0
 10
0.0
 20
0.0
 30
0.0
  3
*Model_Space
  1

  0
ENDBLK
  5
21
100
AcDbEntity
  8
0
100
AcDbBlockEnd
  0
BLOCK
  5
1C
100
AcDbEntity
  8
0
100
AcDbBlockBegin
  2
*Paper_Space
 70
0
 10
0.0
 20
0.0
 30
0.0
  3
*Paper_Space
  1

  0
ENDBLK
  5
1D
100
AcDbEntity
  8
0
100
AcDbBlockEnd
  0
ENDSEC
  0
SECTION
  2
ENTITIES
  0
LINE
  5
21F
100
AcDbEntity
  8
0
100
AcDbLine
 62
7
  6
CONTINUOUS
 10
0.0
 20
0.0
 11
0.0
 21
8.5
  0
LINE
  5
220
100
AcDbEntity
  8
0
100
AcDbLine
 62
7
  6
CONTINUOUS
 10
0.0
 20
0.0
 11
11.0
 21
0.0
  0
LINE
  5
221
100
AcDbEntity
  8
0
100
AcDbLine
 62
7
  6
CONTINUOUS
 10
0.0
 20
8.5
 11
11.0
 21
8.5
  0
LINE
  5
222
100
AcDbEntity
  8
0
100
AcDbLine
 62
7
  6
CONTINUOUS
 10
11.0
 20
0.0
 11
11.0
 21
8.5
  0
LINE
  5
223
100
AcDbEntity
  8
0
100
AcDbLine
 62
7
  6
CONTINUOUS
 10
6.2510498146
 20
1.7870083747
 11
6.0350498146
 21
1.7870083747
  0
LINE
  5
224
100
AcDbEntity
  8
0
100
AcDbLine
 62
7
  6
CONTINUOUS
 10
6.3260498146
 20
1.7907299056
 11
6.2510498146
 21
1.7907299056
  0
LINE
  5
225
100
AcDbEntity
  8
ALL_ASSEMBLY_MEMBERS
100
AcDbLine
 62
7
  6
CONTINUOUS
 10
3.3301511926
 20
2.2332583747
 11
3.6639011926
 21
2.2332583747
  0
LINE
  5
226
100
AcDbEntity
  8
ALL_ASSEMBLY_MEMBERS
100
AcDbLine
 62
7
  6
CONTINUOUS
 10
3.2720261926
 20
3.5457583747
 11
3.2720261926
 21
2.9832583747
  0
LINE
  5
227
100
AcDbEntity
  8
ALL_ASSEMBLY_MEMBERS
100
AcDbLine
 62
7
  6
CONTINUOUS
 10
3.3301511926
 20
4.2957583747
 11
3.3301511926
 21
3.539981857
  0
LINE
  5
228
100
AcDbEntity
  8
ALL_ASSEMBLY_MEMBERS
100
AcDbLine
 62
7
  6
CONTINUOUS
 10
3.3301511926
 20
2.9890348912
 11
3.3301511926
 21
2.2332583747
  0
LINE
  5
229
100
AcDbEntity
  8
0
100
AcDbLine
 62
7
  6
CONTINUOUS
 10
5.8250261926
 20
2.6444296345
 11
4.6970261926
 21
2.6444296345
  0
LINE
  5
22A
100
AcDbEntity
  8
ALL_FEATURES
100
AcDbLine
 62
7
  6
CONTINUOUS
 10
4.6970261926
 20
2.6444296345
 11
5.8250261926
 21
2.6444296345
  0
LINE
  5
22B
100
AcDbEntity
  8
0
100
AcDbLine
 62
7
  6
CONTINUOUS
 10
5.8695537516
 20
2.6444296345
 11
5.9975498146
 21
2.6444296345
  0
LINE
  5
22C
100
AcDbEntity
  8
ALL_ASSEMBLY_MEMBERS
100
AcDbLine
 62
7
  6
CONTINUOUS
 10
4.4720261926
 20
2.7723208747
 11
4.3861511926
 21
2.7723208747
  0
LINE
  5
22D
100
AcDbEntity
  8
ALL_ASSEMBLY_MEMBERS
100
AcDbLine
 62
7
  6
CONTINUOUS
 10
4.2579011926
 20
2.7723208747
 11
4.1420261926
 21
2.7723208747
  0
LINE
  5
22E
100
AcDbEntity
  8
ALL_FEATURES
100
AcDbLine
 62
7
  6
CONTINUOUS
 10
4.6970261926
 20
2.7732583747
 11
4.5095261926
 21
2.7732583747
  0
LINE
  5
22F
100
AcDbEntity
  8
ALL_ASSEMBLY_MEMBERS
100
AcDbLine
 62
7
  6
CONTINUOUS
 10
3.7220261926
 20
2.9832583747
 11
3.6732761926
 21
2.9832583747
  0
LINE
  5
230
100
AcDbEntity
  8
ALL_ASSEMBLY_MEMBERS
100
AcDbLine
 62
7
  6
CONTINUOUS
 10
3.3207761926
 20
2.9832583747
 11
3.2720261926
 21
2.9832583747
  0
LINE
  5
231
100
AcDbEntity
  8
ALL_ASSEMBLY_MEMBERS
100
AcDbLine
 62
7
  6
CONTINUOUS
 10
3.6639011926
 20
4.2957583747
 11
3.6639011926
 21
3.5399819125
  0
LINE
  5
232
100
AcDbEntity
  8
ALL_ASSEMBLY_MEMBERS
100
AcDbLine
 62
7
  6
CONTINUOUS
 10
3.6639011926
 20
2.9890348368
 11
3.6639011926
 21
2.2332583747
  0
LINE
  5
233
100
AcDbEntity
  8
ALL_ASSEMBLY_MEMBERS
100
AcDbLine
 62
7
  6
CONTINUOUS
 10
3.7220261926
 20
3.5457583747
 11
3.7220261926
 21
2.9832583747
  0
LINE
  5
234
100
AcDbEntity
  8
ALL_ASSEMBLY_MEMBERS
100
AcDbLine
 62
7
  6
CONTINUOUS
 10
4.1420261926
 20
3.0770083747
 11
3.7220261926
 21
3.0770083747
  0
LINE
  5
235
100
AcDbEntity
  8
0
100
AcDbLine
 62
7
  6
CONTINUOUS
 10
4.5095261926
 20
3.1257583747
 11
4.4720261926
 21
3.1257583747
  0
LINE
  5
236
100
AcDbEntity
  8
ALL_ASSEMBLY_MEMBERS
100
AcDbLine
 62
7
  6
CONTINUOUS
 10
3.9095261926
 20
5.1575083747
 11
3.9095261926
 21
6.096503942
  0
LINE
  5
237
100
AcDbEntity
  8
ALL_ASSEMBLY_MEMBERS
100
AcDbLine
 62
9
  6
CONTINUOUS
 10
3.9320261926
 20
5.1350083747
 11
3.9320261926
 21
6.1190083747
  0
LINE
  5
238
100
AcDbEntity
  8
ALL_ASSEMBLY_MEMBERS
100
AcDbLine
 62
7
  6
CONTINUOUS
 10
4.3051116339
 20
3.2352114997
 11
4.3389407512
 21
3.2352114997
  0
LINE
  5
239
100
AcDbEntity
  8
ALL_ASSEMBLY_MEMBERS
100
AcDbLine
 62
7
  6
CONTINUOUS
 10
4.3389407512
 20
3.2938052497
 11
4.3051116339
 21
3.2938052497
  0
LINE
  5
23A
100
AcDbEntity
  8
0
100
AcDbLine
 62
7
  6
CONTINUOUS
 10
4.5095261926
 20
3.4032583747
 11
4.4720261926
 21
3.4032583747
  0
LINE
  5
23B
100
AcDbEntity
  8
ALL_ASSEMBLY_MEMBERS
100
AcDbLine
 62
7
  6
CONTINUOUS
 10
4.2881970752
 20
3.2645083747
 11
4.3051116339
 21
3.2352114997
  0
LINE
  5
23C
100
AcDbEntity
  8
ALL_ASSEMBLY_MEMBERS
100
AcDbLine
 62
7
  6
CONTINUOUS
 10
4.3558553099
 20
3.2645083747
 11
4.3389407512
 21
3.2938052497
  0
LINE
  5
23D
100
AcDbEntity
  8
ALL_ASSEMBLY_MEMBERS
100
AcDbLine
 62
7
  6
CONTINUOUS
 10
4.1420261926
 20
3.7566958747
 11
4.1420261926
 21
2.7723208747
  0
LINE
  5
23E
100
AcDbEntity
  8
ALL_ASSEMBLY_MEMBERS
100
AcDbLine
 62
7
  6
CONTINUOUS
 10
4.1420261926
 20
3.4520083747
 11
3.7220261926
 21
3.4520083747
  0
LINE
  5
23F
100
AcDbEntity
  8
ALL_ASSEMBLY_MEMBERS
100
AcDbLine
 62
7
  6
CONTINUOUS
 10
3.7220261926
 20
3.5457583747
 11
3.6732761926
 21
3.5457583747
  0
LINE
  5
240
100
AcDbEntity
  8
ALL_ASSEMBLY_MEMBERS
100
AcDbLine
 62
7
  6
CONTINUOUS
 10
3.3207761926
 20
3.5457583747
 11
3.2720261926
 21
3.5457583747
  0
LINE
  5
241
100
AcDbEntity
  8
ALL_ASSEMBLY_MEMBERS
100
AcDbLine
 62
7
  6
CONTINUOUS
 10
4.2170261926
 20
4.5948208747
 11
4.2170261926
 21
5.137929552
  0
LINE
  5
242
100
AcDbEntity
  8
ALL_FEATURES
100
AcDbLine
 62
7
  6
CONTINUOUS
 10
4.6970261926
 20
3.7557583747
 11
4.5095261926
 21
3.7557583747
  0
LINE
  5
243
100
AcDbEntity
  8
ALL_ASSEMBLY_MEMBERS
100
AcDbLine
 62
7
  6
CONTINUOUS
 10
4.4720261926
 20
3.7566958747
 11
4.1420261926
 21
3.7566958747
  0
LINE
  5
244
100
AcDbEntity
  8
ALL_ASSEMBLY_MEMBERS
100
AcDbLine
 62
7
  6
CONTINUOUS
 10
4.4720261926
 20
3.7566958747
 11
4.4720261926
 21
2.7723208747
  0
LINE
  5
245
100
AcDbEntity
  8
ALL_FEATURES
100
AcDbLine
 62
7
  6
CONTINUOUS
 10
4.5095261926
 20
3.7557583747
 11
4.5095261926
 21
2.7732583747
  0
LINE
  5
246
100
AcDbEntity
  8
ALL_ASSEMBLY_MEMBERS
100
AcDbLine
 62
7
  6
CONTINUOUS
 10
4.5920261926
 20
4.5948208747
 11
4.5920261926
 21
5.1379295942
  0
LINE
  5
247
100
AcDbEntity
  8
0
100
AcDbLine
 62
7
  6
CONTINUOUS
 10
5.9975498146
 20
3.8841915303
 11
5.9156641564
 21
3.8841915303
  0
LINE
  5
248
100
AcDbEntity
  8
ALL_FEATURES
100
AcDbLine
 62
7
  6
CONTINUOUS
 10
4.8926824426
 20
3.8845871148
 11
4.6970261926
 21
3.8845871148
  0
LINE
  5
249
100
AcDbEntity
  8
0
100
AcDbLine
 62
7
  6
CONTINUOUS
 10
5.1973699426
 20
3.8845871148
 11
5.8250261926
 21
3.8845871148
  0
LINE
  5
24A
100
AcDbEntity
  8
ALL_FEATURES
100
AcDbLine
 62
7
  6
CONTINUOUS
 10
5.1973699426
 20
3.8845871148
 11
5.8250261926
 21
3.8845871148
  0
LINE
  5
24B
100
AcDbEntity
  8
0
100
AcDbLine
 62
7
  6
CONTINUOUS
 10
5.8695537516
 20
3.8845871148
 11
5.8931684783
 21
3.8845871148
  0
LINE
  5
24C
100
AcDbEntity
  8
0
100
AcDbLine
 62
9
  6
CONTINUOUS
 10
4.9006511926
 20
3.9820871148
 11
5.1894011926
 21
3.9820871148
  0
LINE
  5
24D
100
AcDbEntity
  8
0
100
AcDbLine
 62
7
  6
CONTINUOUS
 10
4.9081527968
 20
3.9895871148
 11
5.1818995884
 21
3.9895871148
  0
LINE
  5
24E
100
AcDbEntity
  8
ALL_FEATURES
100
AcDbLine
 62
7
  6
CONTINUOUS
 10
4.6970261926
 20
3.8845871148
 11
4.6970261926
 21
2.6444296345
  0
LINE
  5
24F
100
AcDbEntity
  8
ALL_ASSEMBLY_MEMBERS
100
AcDbLine
 62
7
  6
CONTINUOUS
 10
4.7495261926
 20
5.1350112464
 11
4.7495261926
 21
6.119005503
  0
LINE
  5
250
100
AcDbEntity
  8
ALL_FEATURES
100
AcDbLine
 62
7
  6
CONTINUOUS
 10
4.7870261926
 20
5.1413862092
 11
4.7870261926
 21
6.1126305402
  0
LINE
  5
251
100
AcDbEntity
  8
0
100
AcDbLine
 62
7
  6
CONTINUOUS
 10
4.9006511926
 20
3.8826813266
 11
4.9006511926
 21
3.9820871148
  0
LINE
  5
252
100
AcDbEntity
  8
0
100
AcDbLine
 62
7
  6
CONTINUOUS
 10
5.0135498146
 20
5.006934494
 11
5.0135498146
 21
6.2470822554
  0
LINE
  5
253
100
AcDbEntity
  8
ALL_ASSEMBLY_MEMBERS
100
AcDbLine
 62
7
  6
CONTINUOUS
 10
4.3051116339
 20
3.2938052497
 11
4.2881970752
 21
3.2645083747
  0
LINE
  5
254
100
AcDbEntity
  8
ALL_ASSEMBLY_MEMBERS
100
AcDbLine
 62
7
  6
CONTINUOUS
 10
4.3389407512
 20
3.2352114997
 11
4.3558553099
 21
3.2645083747
  0
LINE
  5
255
100
AcDbEntity
  8
ALL_ASSEMBLY_MEMBERS
100
AcDbLine
 62
7
  6
CONTINUOUS
 10
3.3301511926
 20
4.2957583747
 11
3.6639011926
 21
4.2957583747
  0
LINE
  5
256
100
AcDbEntity
  8
0
100
AcDbLine
 62
7
  6
CONTINUOUS
 10
5.1894011926
 20
3.8826813611
 11
5.1894011926
 21
3.9820871148
  0
LINE
  5
257
100
AcDbEntity
  8
ALL_ASSEMBLY_MEMBERS
100
AcDbLine
 62
7
  6
CONTINUOUS
 10
4.5695242867
 20
4.5723208747
 11
4.2395280984
 21
4.5723208747
  0
LINE
  5
258
100
AcDbEntity
  8
ALL_ASSEMBLY_MEMBERS
100
AcDbLine
 62
9
  6
CONTINUOUS
 10
4.5920261926
 20
4.5948208747
 11
4.2170261926
 21
4.5948208747
  0
LINE
  5
259
100
AcDbEntity
  8
0
100
AcDbLine
 62
7
  6
CONTINUOUS
 10
5.9975498146
 20
5.0069308747
 11
5.0135498146
 21
5.0069308747
  0
LINE
  5
25A
100
AcDbEntity
  8
0
100
AcDbLine
 62
7
  6
CONTINUOUS
 10
5.8250261926
 20
3.8845871148
 11
5.8250261926
 21
2.6444296345
  0
LINE
  5
25B
100
AcDbEntity
  8
0
100
AcDbLine
 62
7
  6
CONTINUOUS
 10
5.8547899721
 20
3.8698233353
 11
5.8547899721
 21
2.6591934141
  0
LINE
  5
25C
100
AcDbEntity
  8
0
100
AcDbLine
 62
9
  6
CONTINUOUS
 10
5.8695537516
 20
2.6444296499
 11
5.8695537516
 21
3.8845871148
  0
LINE
  5
25D
100
AcDbEntity
  8
ALL_ASSEMBLY_MEMBERS
100
AcDbLine
 62
7
  6
CONTINUOUS
 10
3.9320261926
 20
5.1350083747
 11
4.2095356086
 21
5.1350083747
  0
LINE
  5
25E
100
AcDbEntity
  8
ALL_ASSEMBLY_MEMBERS
100
AcDbLine
 62
7
  6
CONTINUOUS
 10
4.5995227747
 20
5.1350083747
 11
4.7495261926
 21
5.1350083747
  0
LINE
  5
25F
100
AcDbEntity
  8
ALL_FEATURES
100
AcDbLine
 62
7
  6
CONTINUOUS
 10
4.7870261926
 20
5.1413833747
 11
5.0135498146
 21
5.1413833747
  0
LINE
  5
260
100
AcDbEntity
  8
0
100
AcDbLine
 62
7
  6
CONTINUOUS
 10
5.9975498146
 20
1.8245297363
 11
5.9975498146
 21
7.0669870131
  0
LINE
  5
261
100
AcDbEntity
  8
0
100
AcDbLine
 62
9
  6
CONTINUOUS
 10
6.0350498146
 20
1.7870083747
 11
6.0350498146
 21
7.1045083747
  0
LINE
  5
262
100
AcDbEntity
  8
0
100
AcDbLine
 62
7
  6
CONTINUOUS
 10
4.7870261926
 20
5.4882583747
 11
4.7495261926
 21
5.4882583747
  0
LINE
  5
263
100
AcDbEntity
  8
0
100
AcDbLine
 62
7
  6
CONTINUOUS
 10
6.2510498146
 20
1.7870083747
 11
6.2510498146
 21
1.7907299056
  0
LINE
  5
264
100
AcDbEntity
  8
0
100
AcDbLine
 62
7
  6
CONTINUOUS
 10
6.3260498146
 20
1.7907299056
 11
6.3260498146
 21
7.1045083747
  0
LINE
  5
265
100
AcDbEntity
  8
0
100
AcDbLine
 62
7
  6
CONTINUOUS
 10
4.7870261926
 20
5.7657583747
 11
4.7495261926
 21
5.7657583747
  0
LINE
  5
266
100
AcDbEntity
  8
ALL_FEATURES
100
AcDbLine
 62
7
  6
CONTINUOUS
 10
4.7870261926
 20
6.1126333747
 11
5.0135498146
 21
6.1126333747
  0
LINE
  5
267
100
AcDbEntity
  8
ALL_ASSEMBLY_MEMBERS
100
AcDbLine
 62
7
  6
CONTINUOUS
 10
3.9320261926
 20
6.1190083747
 11
4.7495261926
 21
6.1190083747
  0
LINE
  5
268
100
AcDbEntity
  8
0
100
AcDbLine
 62
7
  6
CONTINUOUS
 10
5.9975498146
 20
6.2470858747
 11
5.0135498146
 21
6.2470858747
  0
LINE
  5
269
100
AcDbEntity
  8
0
100
AcDbLine
 62
7
  6
CONTINUOUS
 10
6.3260498146
 20
7.1045083747
 11
6.0350498146
 21
7.1045083747
  0
CIRCLE
  5
26A
100
AcDbEntity
  8
ALL_ASSEMBLY_MEMBERS
100
AcDbCircle
 62
7
  6
CONTINUOUS
 10
3.4970261926
 20
3.2645083747
 40
0.17625
  0
CIRCLE
  5
26B
100
AcDbEntity
  8
ALL_ASSEMBLY_MEMBERS
100
AcDbCircle
 62
7
  6
CONTINUOUS
 10
3.4970261926
 20
3.2645083747
 40
0.166875
  0
CIRCLE
  5
26C
100
AcDbEntity
  8
ALL_ASSEMBLY_MEMBERS
100
AcDbCircle
 62
7
  6
CONTINUOUS
 10
4.3220261926
 20
3.2645083747
 40
0.064125
  0
ARC
  5
26D
100
AcDbEntity
  8
ALL_ASSEMBLY_MEMBERS
100
AcDbCircle
 62
7
  6
CONTINUOUS
 10
4.3220261926
 20
3.2645083747
 40
0.0615
100
AcDbArc
 50
307.1892029486
 51
306.9446978797
  0
ARC
  5
26E
100
AcDbEntity
  8
ALL_ASSEMBLY_MEMBERS
100
AcDbCircle
 62
7
  6
CONTINUOUS
 10
4.3203160115
 20
3.2628660527
 40
0.0612605646
100
AcDbArc
 50
309.146806475
 51
309.3933112981
  0
ARC
  5
26F
100
AcDbEntity
  8
ALL_ASSEMBLY_MEMBERS
100
AcDbCircle
 62
7
  6
CONTINUOUS
 10
4.3220261926
 20
3.2645083747
 40
0.054
100
AcDbArc
 50
310.544423655
 51
128.6553637346
  0
ARC
  5
270
100
AcDbEntity
  8
ALL_ASSEMBLY_MEMBERS
100
AcDbCircle
 62
7
  6
CONTINUOUS
 10
4.3220316957
 20
3.2645434473
 40
0.0488529616
100
AcDbArc
 50
262.0927400283
 51
262.3929804592
  0
ARC
  5
271
100
AcDbEntity
  8
ALL_ASSEMBLY_MEMBERS
100
AcDbCircle
 62
7
  6
CONTINUOUS
 10
4.3220261882
 20
3.2645083624
 40
0.0488174787
100
AcDbArc
 50
175.6980609701
 51
262.0934776249
  0
ARC
  5
272
100
AcDbEntity
  8
ALL_ASSEMBLY_MEMBERS
100
AcDbCircle
 62
7
  6
CONTINUOUS
 10
4.3220257778
 20
3.2644975903
 40
0.0488067246
100
AcDbArc
 50
262.4642864652
 51
264.5847721018
  0
ARC
  5
273
100
AcDbEntity
  8
ALL_ASSEMBLY_MEMBERS
100
AcDbCircle
 62
7
  6
CONTINUOUS
 10
4.3219569036
 20
3.2645150572
 40
0.0487478896
100
AcDbArc
 50
174.6144584821
 51
175.6997990045
  0
ARC
  5
274
100
AcDbEntity
  8
ALL_ASSEMBLY_MEMBERS
100
AcDbCircle
 62
7
  6
CONTINUOUS
 10
4.3220140069
 20
3.2643788003
 40
0.0486873539
100
AcDbArc
 50
263.488307427
 51
264.5853697254
  0
ARC
  5
275
100
AcDbEntity
  8
ALL_ASSEMBLY_MEMBERS
100
AcDbCircle
 62
7
  6
CONTINUOUS
 10
4.3218789279
 20
3.2645221973
 40
0.048669588
100
AcDbArc
 50
174.0092067171
 51
174.6142113047
  0
ARC
  5
276
100
AcDbEntity
  8
ALL_ASSEMBLY_MEMBERS
100
AcDbCircle
 62
7
  6
CONTINUOUS
 10
4.2395261926
 20
4.5948208747
 40
0.0225
100
AcDbArc
 50
180.0
 51
270.0000010562
  0
ARC
  5
277
100
AcDbEntity
  8
ALL_ASSEMBLY_MEMBERS
100
AcDbCircle
 62
7
  6
CONTINUOUS
 10
4.5695261926
 20
4.5948208747
 40
0.0225
100
AcDbArc
 50
269.9999989438
 51
360.0
  0
ARC
  5
278
100
AcDbEntity
  8
ALL_ASSEMBLY_MEMBERS
100
AcDbCircle
 62
7
  6
CONTINUOUS
 10
3.9320261926
 20
5.1575083747
 40
0.0225
100
AcDbArc
 50
179.9999982136
 51
270.0
  0
ARC
  5
279
100
AcDbEntity
  8
ALL_ASSEMBLY_MEMBERS
100
AcDbCircle
 62
7
  6
CONTINUOUS
 10
3.9320261926
 20
6.0965083747
 40
0.0225
100
AcDbArc
 50
90.0
 51
180.0000017864
  0
ARC
  5
27A
100
AcDbEntity
  8
0
100
AcDbCircle
 62
7
  6
CONTINUOUS
 10
6.0350498146
 20
1.8245083747
 40
0.0375
100
AcDbArc
 50
180.0
 51
270.0
  0
ARC
  5
27B
100
AcDbEntity
  8
0
100
AcDbCircle
 62
7
  6
CONTINUOUS
 10
5.8695537516
 20
2.6591934141
 40
0.0147637795
100
AcDbArc
 50
180.0000000785
 51
270.0
  0
ARC
  5
27C
100
AcDbEntity
  8
0
100
AcDbCircle
 62
7
  6
CONTINUOUS
 10
5.8695537516
 20
3.8698233353
 40
0.0147637795
100
AcDbArc
 50
90.0
 51
179.9999999215
  0
ARC
  5
27D
100
AcDbEntity
  8
0
100
AcDbCircle
 62
7
  6
CONTINUOUS
 10
4.9081511926
 20
3.9820871148
 40
0.0075
100
AcDbArc
 50
90.0
 51
180.0
  0
ARC
  5
27E
100
AcDbEntity
  8
0
100
AcDbCircle
 62
7
  6
CONTINUOUS
 10
5.1819011926
 20
3.9820871148
 40
0.0075
100
AcDbArc
 50
0.0
 51
90.0
  0
ARC
  5
27F
100
AcDbEntity
  8
0
100
AcDbCircle
 62
7
  6
CONTINUOUS
 10
5.9156685471
 20
4.52388369
 40
0.6396921648
100
AcDbArc
 50
267.9855100181
 51
269.9996067101
  0
ARC
  5
280
100
AcDbEntity
  8
0
100
AcDbCircle
 62
7
  6
CONTINUOUS
 10
6.0350498146
 20
7.0670083747
 40
0.0375
100
AcDbArc
 50
90.0
 51
180.0
  0
SPLINE
  5
281
100
AcDbEntity
  8
ALL_ASSEMBLY_MEMBERS
100
AcDbSpline
 62
7
  6
CONTINUOUS
 70
0
 71
3
 72
8
 73
4
 74
0
 42
0.0000001
 43
0.0000001
 44
0.0000000001
 40
0.0
 40
0.0
 40
0.0
 40
0.0
 40
1.0
 40
1.0
 40
1.0
 40
1.0
 10
4.3155646468
 20
3.2161204245
 30
0.0
 10
4.3155847849
 20
3.2161177478
 30
0.0
 10
4.3156049231
 20
3.2161150711
 30
0.0
 10
4.3156250613
 20
3.2161123943
 30
0.0
  0
SPLINE
  5
282
100
AcDbEntity
  8
ALL_ASSEMBLY_MEMBERS
100
AcDbSpline
 62
7
  6
CONTINUOUS
 70
0
 71
3
 72
21
 73
17
 74
0
 42
0.0000001
 43
0.0000001
 44
0.0000000001
 40
0.0
 40
0.0
 40
0.0
 40
0.0
 40
0.1249675496
 40
0.1874782833
 40
0.2499807154
 40
0.312482071
 40
0.3749863092
 40
0.4374911187
 40
0.499995924
 40
0.562500754
 40
0.6250072984
 40
0.6875135588
 40
0.7500174804
 40
0.812522036
 40
0.8750347512
 40
1.0
 40
1.0
 40
1.0
 40
1.0
 10
4.2882959311
 20
3.306677907
 30
0.0
 10
4.2870822239
 20
3.3054437717
 30
0.0
 10
4.2853495942
 20
3.3035022282
 30
0.0
 10
4.283239482
 20
3.3007557693
 30
0.0
 10
4.281759852
 20
3.2986197434
 30
0.0
 10
4.2803880547
 20
3.2964131419
 30
0.0
 10
4.2791280108
 20
3.2941407872
 30
0.0
 10
4.2779834844
 20
3.2918080522
 30
0.0
 10
4.2769583367
 20
3.2894204198
 30
0.0
 10
4.2760557557
 20
3.2869837698
 30
0.0
 10
4.2752791064
 20
3.2845040715
 30
0.0
 10
4.2746310672
 20
3.2819876882
 30
0.0
 10
4.2741143163
 20
3.2794411488
 30
0.0
 10
4.2737311378
 20
3.2768708682
 30
0.0
 10
4.2734010464
 20
3.2734230319
 30
0.0
 10
4.2733591624
 20
3.2708200839
 30
0.0
 10
4.2734242027
 20
3.2690903919
 30
0.0
  0
SPLINE
  5
283
100
AcDbEntity
  8
ALL_ASSEMBLY_MEMBERS
100
AcDbSpline
 62
7
  6
CONTINUOUS
 70
0
 71
3
 72
8
 73
4
 74
0
 42
0.0000001
 43
0.0000001
 44
0.0000000001
 40
0.0
 40
0.0
 40
0.0
 40
0.0
 40
1.0
 40
1.0
 40
1.0
 40
1.0
 10
4.2734751402
 20
3.2696017768
 30
0.0
 10
4.2734762765
 20
3.2696125703
 30
0.0
 10
4.2734774128
 20
3.2696233638
 30
0.0
 10
4.2734785492
 20
3.2696341573
 30
0.0
  0
SPLINE
  5
284
100
AcDbEntity
  8
ALL_ASSEMBLY_MEMBERS
100
AcDbSpline
 62
7
  6
CONTINUOUS
 70
0
 71
3
 72
59
 73
55
 74
0
 42
0.0000001
 43
0.0000001
 44
0.0000000001
 40
0.0
 40
0.0
 40
0.0
 40
0.0
 40
0.0312357165
 40
0.0468653689
 40
0.0624916596
 40
0.0781160695
 40
0.0937404976
 40
0.1093658653
 40
0.1249917645
 40
0.1406175438
 40
0.1562432057
 40
0.1718688904
 40
0.1874945804
 40
0.2187360246
 40
0.2499776854
 40
0.2656037392
 40
0.2812297918
 40
0.2968559782
 40
0.3124821752
 40
0.3281083912
 40
0.3437347328
 40
0.3593610642
 40
0.3749874387
 40
0.3906139293
 40
0.4062403952
 40
0.4218669247
 40
0.4374935577
 40
0.4531201578
 40
0.4687468374
 40
0.4843736074
 40
0.5000003404
 40
0.5156271646
 40
0.5312540665
 40
0.546880931
 40
0.5625078948
 40
0.5781349248
 40
0.5937619191
 40
0.6250068852
 40
0.6562520172
 40
0.6718792937
 40
0.6875065392
 40
0.718752206
 40
0.7499980248
 40
0.7656255375
 40
0.7812530333
 40
0.812499346
 40
0.8437457262
 40
0.8593735779
 40
0.8750015805
 40
0.9062482692
 40
0.9374936387
 40
0.9531232106
 40
0.9687555201
 40
1.0
 40
1.0
 40
1.0
 40
1.0
 10
4.2882959311
 20
3.306677907
 30
0.0
 10
4.289730394
 20
3.3079320466
 30
0.0
 10
4.2919849942
 20
3.3097012064
 30
0.0
 10
4.2951612838
 20
3.3118111146
 30
0.0
 10
4.2976246987
 20
3.3132664167
 30
0.0
 10
4.3001606516
 20
3.3145902404
 30
0.0
 10
4.3027624755
 20
3.3157793494
 30
0.0
 10
4.3054229782
 20
3.3168308188
 30
0.0
 10
4.3081346864
 20
3.3177423867
 30
0.0
 10
4.3108902132
 20
3.3185114859
 30
0.0
 10
4.3136819195
 20
3.3191364383
 30
0.0
 10
4.316502282
 20
3.3196161317
 30
0.0
 10
4.3202898664
 20
3.3200601535
 30
0.0
 10
4.3250598401
 20
3.3202481859
 30
0.0
 10
4.3298238302
 20
3.3199454328
 30
0.0
 10
4.3336000131
 20
3.3194129335
 30
0.0
 10
4.336408785
 20
3.3188692674
 30
0.0
 10
4.3391862096
 20
3.3181835024
 30
0.0
 10
4.3419252475
 20
3.3173575461
 30
0.0
 10
4.3446188335
 20
3.3163936458
 30
0.0
 10
4.3472602933
 20
3.3152949139
 30
0.0
 10
4.3498429147
 20
3.3140642047
 30
0.0
 10
4.352360206
 20
3.312704859
 30
0.0
 10
4.3548060964
 20
3.3112208737
 30
0.0
 10
4.3571744213
 20
3.3096159803
 30
0.0
 10
4.3594593939
 20
3.3078944876
 30
0.0
 10
4.3616556509
 20
3.3060611524
 30
0.0
 10
4.3637576931
 20
3.3041205009
 30
0.0
 10
4.3657605636
 20
3.3020776581
 30
0.0
 10
4.3676596861
 20
3.299938017
 30
0.0
 10
4.3694503334
 20
3.2977067947
 30
0.0
 10
4.3711284699
 20
3.2953897674
 30
0.0
 10
4.3726903697
 20
3.2929928404
 30
0.0
 10
4.3741321681
 20
3.2905217945
 30
0.0
 10
4.3754508027
 20
3.2879829089
 30
0.0
 10
4.3766434752
 20
3.2853823933
 30
0.0
 10
4.3780614921
 20
3.2818420644
 30
0.0
 10
4.3795073301
 20
3.2772930307
 30
0.0
 10
4.3805034786
 20
3.2726249629
 30
0.0
 10
4.3810265744
 20
3.2688471816
 30
0.0
 10
4.3813660473
 20
3.2650484624
 30
0.0
 10
4.3814460124
 20
3.2602759744
 30
0.0
 10
4.3810664001
 20
3.2555179954
 30
0.0
 10
4.3804910423
 20
3.2517477784
 30
0.0
 10
4.3797357679
 20
3.2480094133
 30
0.0
 10
4.3784585063
 20
3.2434104147
 30
0.0
 10
4.376749525
 20
3.2389538355
 30
0.0
 10
4.3751346801
 20
3.2354986519
 30
0.0
 10
4.3733579756
 20
3.2321238212
 30
0.0
 10
4.3708415855
 20
3.2280681703
 30
0.0
 10
4.3679548471
 20
3.2242672145
 30
0.0
 10
4.365440275
 20
3.2213991992
 30
0.0
 10
4.3627943045
 20
3.2186524116
 30
0.0
 10
4.3606673558
 20
3.2167330015
 30
0.0
 10
4.3591944346
 20
3.2155234187
 30
0.0
  0
SPLINE
  5
285
100
AcDbEntity
  8
ALL_ASSEMBLY_MEMBERS
100
AcDbSpline
 62
7
  6
CONTINUOUS
 70
0
 71
3
 72
22
 73
18
 74
0
 42
0.0000001
 43
0.0000001
 44
0.0000000001
 40
0.0
 40
0.0
 40
0.0
 40
0.0
 40
0.0623983533
 40
0.1248379478
 40
0.1872843212
 40
0.2497351097
 40
0.3121983982
 40
0.3746768057
 40
0.4371673429
 40
0.4996679797
 40
0.562180091
 40
0.6247027701
 40
0.6872352009
 40
0.7497744508
 40
0.8123254413
 40
0.8748953184
 40
1.0
 40
1.0
 40
1.0
 40
1.0
 10
4.3571282136
 20
3.2234736562
 30
0.0
 10
4.3564621881
 20
3.2226847749
 30
0.0
 10
4.3550834255
 20
3.2211449191
 30
0.0
 10
4.3528860323
 20
3.218957706
 30
0.0
 10
4.3505666953
 20
3.21689882
 30
0.0
 10
4.3481344457
 20
3.2149740981
 30
0.0
 10
4.3455977276
 20
3.2131884267
 30
0.0
 10
4.3429652319
 20
3.2115460473
 30
0.0
 10
4.3402457757
 20
3.2100508197
 30
0.0
 10
4.3374481564
 20
3.2087062889
 30
0.0
 10
4.334581372
 20
3.2075150089
 30
0.0
 10
4.3316541614
 20
3.2064795674
 30
0.0
 10
4.328675527
 20
3.2056014232
 30
0.0
 10
4.325654181
 20
3.2048821119
 30
0.0
 10
4.3225984916
 20
3.204322332
 30
0.0
 10
4.3184914491
 20
3.2037894542
 30
0.0
 10
4.3153830886
 20
3.2036295072
 30
0.0
 10
4.3133131215
 20
3.2036287197
 30
0.0
  0
SPLINE
  5
286
100
AcDbEntity
  8
ALL_ASSEMBLY_MEMBERS
100
AcDbSpline
 62
7
  6
CONTINUOUS
 70
0
 71
3
 72
15
 73
11
 74
0
 42
0.0000001
 43
0.0000001
 44
0.0000000001
 40
0.0
 40
0.0
 40
0.0
 40
0.0
 40
0.1249888213
 40
0.2499766381
 40
0.3749658472
 40
0.4999566776
 40
0.6249529319
 40
0.7499579752
 40
0.8749752821
 40
1.0
 40
1.0
 40
1.0
 40
1.0
 10
4.3174197453
 20
3.2159086942
 30
0.0
 10
4.3191065204
 20
3.2155207079
 30
0.0
 10
4.3225244583
 20
3.2149253719
 30
0.0
 10
4.3277144671
 20
3.2145792076
 30
0.0
 10
4.3329126798
 20
3.2147755823
 30
0.0
 10
4.3380628662
 20
3.2155054505
 30
0.0
 10
4.3431123651
 20
3.2167543191
 30
0.0
 10
4.3480114655
 20
3.2185032497
 30
0.0
 10
4.3527130157
 20
3.2207285979
 30
0.0
 10
4.3556881989
 20
3.2225124995
 30
0.0
 10
4.3571282136
 20
3.2234736562
 30
0.0
  0
LINE
  5
287
100
AcDbEntity
  8
0
100
AcDbLine
 62
7
  6
CONTINUOUS
 10
5.8931783012
 20
3.8845870185
 11
5.8952403617
 21
3.8845178087
  0
SPLINE
  5
288
100
AcDbEntity
  8
ALL_ASSEMBLY_MEMBERS
100
AcDbSpline
 62
7
  6
CONTINUOUS
 70
0
 71
3
 72
56
 73
52
 74
0
 42
0.0000001
 43
0.0000001
 44
0.0000000001
 40
0.0
 40
0.0
 40
0.0
 40
0.0
 40
0.0482418546
 40
0.0964047947
 40
0.1443455613
 40
0.1919239894
 40
0.2390277244
 40
0.2855556613
 40
0.3314049686
 40
0.3764774276
 40
0.4639089306
 40
0.5471066863
 40
0.6253861693
 40
0.6980773133
 40
0.732119921
 40
0.7645149753
 40
0.7951780001
 40
0.8240234249
 40
0.8509668668
 40
0.8759242223
 40
0.8988108433
 40
0.9195467902
 40
0.9380561434
 40
0.946452041
 40
0.9542629022
 40
0.9614811337
 40
0.9680998998
 40
0.9741123559
 40
0.9795116458
 40
0.9842909023
 40
0.988443309
 40
0.9902827755
 40
0.9919639518
 40
0.993486521
 40
0.9948501663
 40
0.9960545705
 40
0.9970994165
 40
0.9979843872
 40
0.9983668201
 40
0.9987091651
 40
0.9990113826
 40
0.9992734329
 40
0.9994952763
 40
0.999676873
 40
0.9998181835
 40
0.999873719
 40
0.999919168
 40
0.9999545255
 40
0.9999797867
 40
0.9999949465
 40
1.0
 40
1.0
 40
1.0
 40
1.0
 10
4.4045261926
 20
5.1753016114
 30
0.0
 10
4.4013047804
 20
5.1753016114
 30
0.0
 10
4.3948670173
 20
5.1752318718
 30
0.0
 10
4.385232441
 20
5.1749226156
 30
0.0
 10
4.3756506903
 20
5.1744132125
 30
0.0
 10
4.3661523828
 20
5.1737070342
 30
0.0
 10
4.3567645857
 20
5.1728144676
 30
0.0
 10
4.3475112312
 20
5.1717478682
 30
0.0
 10
4.338414972
 20
5.1705183505
 30
0.0
 10
4.3266444137
 20
5.1686989442
 30
0.0
 10
4.3124710581
 20
5.1661147241
 30
0.0
 10
4.296226323
 20
5.1625841496
 30
0.0
 10
4.2810518606
 20
5.1588006041
 30
0.0
 10
4.2691486238
 20
5.1554866787
 30
0.0
 10
4.2602454164
 20
5.1528316117
 30
0.0
 10
4.2540527392
 20
5.1509093604
 30
0.0
 10
4.2482107379
 20
5.1490292804
 30
0.0
 10
4.2427323582
 20
5.1472085432
 30
0.0
 10
4.2376306796
 20
5.1454631176
 30
0.0
 10
4.2329187048
 20
5.1438084036
 30
0.0
 10
4.228608862
 20
5.1422600116
 30
0.0
 10
4.2247133879
 20
5.1408320083
 30
0.0
 10
4.2217329054
 20
5.1397195704
 30
0.0
 10
4.2195642125
 20
5.1389004909
 30
0.0
 10
4.2181021021
 20
5.1383445546
 30
0.0
 10
4.2167519954
 20
5.1378279606
 30
0.0
 10
4.2155149986
 20
5.1373518098
 30
0.0
 10
4.2143921643
 20
5.136917199
 30
0.0
 10
4.2133845451
 20
5.1365252246
 30
0.0
 10
4.2124931955
 20
5.1361769661
 30
0.0
 10
4.2118235505
 20
5.1359144682
 30
0.0
 10
4.2113466347
 20
5.1357271655
 30
0.0
 10
4.2110332299
 20
5.13560392
 30
0.0
 10
4.2107494427
 20
5.13549218
 30
0.0
 10
4.2104953223
 20
5.135391994
 30
0.0
 10
4.2102709176
 20
5.1353034116
 30
0.0
 10
4.2100762773
 20
5.135226482
 30
0.0
 10
4.2099327071
 20
5.1351696665
 30
0.0
 10
4.2098327691
 20
5.1351300789
 30
0.0
 10
4.2097690157
 20
5.1351048093
 30
0.0
 10
4.2097127396
 20
5.1350824891
 30
0.0
 10
4.209663949
 20
5.1350631276
 30
0.0
 10
4.2096226438
 20
5.1350467216
 30
0.0
 10
4.2095888477
 20
5.1350333039
 30
0.0
 10
4.2095653425
 20
5.1350239346
 30
0.0
 10
4.2095503422
 20
5.1350180054
 30
0.0
 10
4.2095418121
 20
5.1350145337
 30
0.0
 10
4.2095354136
 20
5.1350121886
 30
0.0
 10
4.2095302996
 20
5.1350096978
 30
0.0
 10
4.2095282019
 20
5.1350096612
 30
0.0
 10
4.2095261988
 20
5.1350080374
 30
0.0
 10
4.2095261927
 20
5.1350083748
 30
0.0
  0
SPLINE
  5
289
100
AcDbEntity
  8
ALL_ASSEMBLY_MEMBERS
100
AcDbSpline
 62
7
  6
CONTINUOUS
 70
0
 71
3
 72
44
 73
40
 74
0
 42
0.0000001
 43
0.0000001
 44
0.0000000001
 40
0.0
 40
0.0
 40
0.0
 40
0.0
 40
0.0000182827
 40
0.000073099
 40
0.0001644218
 40
0.0002922244
 40
0.00045648
 40
0.0006571615
 40
0.0011676954
 40
0.0018236114
 40
0.0026246948
 40
0.0035707308
 40
0.0046615049
 40
0.0058968025
 40
0.007276409
 40
0.0104676909
 40
0.0142336354
 40
0.0185725279
 40
0.0234825816
 40
0.0289605335
 40
0.0350017491
 40
0.0416015462
 40
0.05645818
 40
0.0734930918
 40
0.0926686201
 40
0.1139394963
 40
0.1372538066
 40
0.1625596356
 40
0.1898052676
 40
0.2189365001
 40
0.2826240117
 40
0.3531617176
 40
0.4300857756
 40
0.5129334005
 40
0.6012457878
 40
0.6945697012
 40
0.7924486262
 40
0.8944188617
 40
1.0
 40
1.0
 40
1.0
 40
1.0
 10
4.5995261926
 20
5.1350083747
 30
0.0
 10
4.5995256498
 20
5.1350089226
 30
0.0
 10
4.5995223627
 20
5.1350094256
 30
0.0
 10
4.599516327
 20
5.1350126078
 30
0.0
 10
4.5995053579
 20
5.1350165296
 30
0.0
 10
4.5994904338
 20
5.1350226626
 30
0.0
 10
4.5994710796
 20
5.1350302823
 30
0.0
 10
4.5994367797
 20
5.1350439504
 30
0.0
 10
4.5993831695
 20
5.1350652171
 30
0.0
 10
4.5993060289
 20
5.135095834
 30
0.0
 10
4.5992117931
 20
5.1351331846
 30
0.0
 10
4.5991004931
 20
5.135177263
 30
0.0
 10
4.5989721461
 20
5.1352280428
 30
0.0
 10
4.5988267743
 20
5.1352855047
 30
0.0
 10
4.5985989714
 20
5.1353754642
 30
0.0
 10
4.5982718143
 20
5.1355044666
 30
0.0
 10
4.5978284151
 20
5.1356789746
 30
0.0
 10
4.5973174184
 20
5.1358797002
 30
0.0
 10
4.596739061
 20
5.1361064649
 30
0.0
 10
4.5960936514
 20
5.1363589361
 30
0.0
 10
4.5953815787
 20
5.1366366498
 30
0.0
 10
4.5943004351
 20
5.1370568542
 30
0.0
 10
4.5927858623
 20
5.1376420124
 30
0.0
 10
4.5907741738
 20
5.1384124219
 30
0.0
 10
4.5885070853
 20
5.1392724559
 30
0.0
 10
4.5859889019
 20
5.1402173488
 30
0.0
 10
4.5832243072
 20
5.1412415635
 30
0.0
 10
4.5802183126
 20
5.1423395742
 30
0.0
 10
4.5769760564
 20
5.1435058368
 30
0.0
 10
4.5722012674
 20
5.14519477
 30
0.0
 10
4.5656841397
 20
5.1474338899
 30
0.0
 10
4.5572224018
 20
5.1502154647
 30
0.0
 10
4.5479478302
 20
5.1531093024
 30
0.0
 10
4.5379058331
 20
5.1560562572
 30
0.0
 10
4.5271426963
 20
5.1589962283
 30
0.0
 10
4.5157057968
 20
5.1618670147
 30
0.0
 10
4.5036450825
 20
5.1646071179
 30
0.0
 10
4.4910141324
 20
5.1671544457
 30
0.0
 10
4.4823881677
 20
5.16866019
 30
0.0
 10
4.4779907589
 20
5.1693662106
 30
0.0
  0
LINE
  5
28A
100
AcDbEntity
  8
ALL_ASSEMBLY_MEMBERS
100
AcDbLine
 62
7
  6
CONTINUOUS
 10
4.4779907589
 20
5.1693662106
 11
4.4774244603
 21
5.1694567914
  0
SPLINE
  5
28B
100
AcDbEntity
  8
ALL_ASSEMBLY_MEMBERS
100
AcDbSpline
 62
7
  6
CONTINUOUS
 70
0
 71
3
 72
12
 73
8
 74
0
 42
0.0000001
 43
0.0000001
 44
0.0000000001
 40
0.0
 40
0.0
 40
0.0
 40
0.0
 40
0.2420112349
 40
0.490796225
 40
0.6171029698
 40
0.7443104944
 40
1.0
 40
1.0
 40
1.0
 40
1.0
 10
4.4774244603
 20
5.1694567914
 30
0.0
 10
4.4715925747
 20
5.1703861079
 30
0.0
 10
4.4597301112
 20
5.1720553734
 30
0.0
 10
4.4447456988
 20
5.1735852894
 30
0.0
 10
4.4325197101
 20
5.1744665591
 30
0.0
 10
4.4201101883
 20
5.1751060457
 30
0.0
 10
4.4107654297
 20
5.1753016114
 30
0.0
 10
4.4045261926
 20
5.1753016114
 30
0.0
  0
SPLINE
  5
28C
100
AcDbEntity
  8
ALL_ASSEMBLY_MEMBERS
100
AcDbSpline
 62
7
  6
CONTINUOUS
 70
0
 71
3
 72
15
 73
11
 74
0
 42
0.0000001
 43
0.0000001
 44
0.0000000001
 40
0.0
 40
0.0
 40
0.0
 40
0.0
 40
0.0383023088
 40
0.1469422305
 40
0.3089839169
 40
0.4999851369
 40
0.6909880625
 40
0.853042422
 40
0.9616934259
 40
1.0
 40
1.0
 40
1.0
 40
1.0
 10
4.2579011926
 20
2.7723208747
 30
0.0
 10
4.2595293805
 20
2.7725330189
 30
0.0
 10
4.2657796985
 20
2.7733168915
 30
0.0
 10
4.2789523819
 20
2.7747213667
 30
0.0
 10
4.298699411
 20
2.7761342816
 30
0.0
 10
4.322024353
 20
2.7767222599
 30
0.0
 10
4.3453498403
 20
2.7761344002
 30
0.0
 10
4.3650979698
 20
2.7747215604
 30
0.0
 10
4.3782718541
 20
2.7733170094
 30
0.0
 10
4.3845228239
 20
2.7725330472
 30
0.0
 10
4.3861511926
 20
2.7723208747
 30
0.0
  0
SPLINE
  5
28D
100
AcDbEntity
  8
ALL_ASSEMBLY_MEMBERS
100
AcDbSpline
 62
7
  6
CONTINUOUS
 70
0
 71
3
 72
27
 73
23
 74
0
 42
0.0000001
 43
0.0000001
 44
0.0000000001
 40
0.0
 40
0.0
 40
0.0
 40
0.0
 40
0.0056122512
 40
0.0125733612
 40
0.0222529144
 40
0.0494506198
 40
0.0864632649
 40
0.132422962
 40
0.1863956326
 40
0.2474811002
 40
0.3148249295
 40
0.3876793975
 40
0.4653702447
 40
0.5473022317
 40
0.6329262302
 40
0.6769436559
 40
0.7216762516
 40
0.8129388742
 40
0.859304335
 40
0.9060344188
 40
0.952983707
 40
1.0
 40
1.0
 40
1.0
 40
1.0
 10
3.6732761926
 20
3.5457583747
 30
0.0
 10
3.6729761596
 20
3.5455700252
 30
0.0
 10
3.6723034305
 20
3.5451489415
 30
0.0
 10
3.6711112094
 20
3.5444062395
 30
0.0
 10
3.668760305
 20
3.542946686
 30
0.0
 10
3.6647854811
 20
3.5405065358
 30
0.0
 10
3.6588283477
 20
3.5369185806
 30
0.0
 10
3.6513705777
 20
3.5325473689
 30
0.0
 10
3.6425250682
 20
3.5275406636
 30
0.0
 10
3.6323964767
 20
3.5220642507
 30
0.0
 10
3.6210808118
 20
3.5162835145
 30
0.0
 10
3.6086548717
 20
3.5103830581
 30
0.0
 10
3.5951875294
 20
3.5045461597
 30
0.0
 10
3.5807345618
 20
3.4989866294
 30
0.0
 10
3.5680435727
 20
3.4948062066
 30
0.0
 10
3.5574497173
 20
3.49181396
 30
0.0
 10
3.5464226512
 20
3.4890673032
 30
0.0
 10
3.5351172061
 20
3.4868433751
 30
0.0
 10
3.5235904547
 20
3.4852292541
 30
0.0
 10
3.5147924723
 20
3.4843457381
 30
0.0
 10
3.5059258418
 20
3.4838057747
 30
0.0
 10
3.499993923
 20
3.4836829626
 30
0.0
 10
3.4970261926
 20
3.4836829626
 30
0.0
  0
SPLINE
  5
28E
100
AcDbEntity
  8
ALL_ASSEMBLY_MEMBERS
100
AcDbSpline
 62
7
  6
CONTINUOUS
 70
0
 71
3
 72
27
 73
23
 74
0
 42
0.0000001
 43
0.0000001
 44
0.0000000001
 40
0.0
 40
0.0
 40
0.0
 40
0.0
 40
0.0470163223
 40
0.0939656818
 40
0.1406958504
 40
0.1870613315
 40
0.2783237428
 40
0.323056226
 40
0.367073584
 40
0.4526974886
 40
0.5346293894
 40
0.6123202168
 40
0.6851746665
 40
0.7525185385
 40
0.8136040746
 40
0.867576822
 40
0.9135366088
 40
0.9505493048
 40
0.9777470588
 40
0.9874266166
 40
0.9943877333
 40
1.0
 40
1.0
 40
1.0
 40
1.0
 10
3.4970261926
 20
3.0453337867
 30
0.0
 10
3.4999939248
 20
3.0453337867
 30
0.0
 10
3.50592585
 20
3.0452109711
 30
0.0
 10
3.5147924917
 20
3.0446710003
 30
0.0
 10
3.5235904854
 20
3.0437874876
 30
0.0
 10
3.5351172324
 20
3.0421733831
 30
0.0
 10
3.5464226575
 20
3.03994945
 30
0.0
 10
3.5574496977
 20
3.0372027919
 30
0.0
 10
3.5680435359
 20
3.0342105484
 30
0.0
 10
3.5807345131
 20
3.0300301395
 30
0.0
 10
3.5951874687
 20
3.0244706129
 30
0.0
 10
3.6086548053
 20
3.0186337212
 30
0.0
 10
3.6210807466
 20
3.0127332668
 30
0.0
 10
3.6323964179
 20
3.0069525302
 30
0.0
 10
3.6425250203
 20
3.0014761124
 30
0.0
 10
3.6513705436
 20
2.9964694016
 30
0.0
 10
3.6588283248
 20
2.9920981817
 30
0.0
 10
3.6647854695
 20
2.9885102221
 30
0.0
 10
3.6687602981
 20
2.986070067
 30
0.0
 10
3.671111206
 20
2.9846105121
 30
0.0
 10
3.6723034287
 20
2.9838678095
 30
0.0
 10
3.6729761589
 20
2.9834467249
 30
0.0
 10
3.6732761926
 20
2.9832583747
 30
0.0
  0
SPLINE
  5
28F
100
AcDbEntity
  8
ALL_ASSEMBLY_MEMBERS
100
AcDbSpline
 62
7
  6
CONTINUOUS
 70
0
 71
3
 72
28
 73
24
 74
0
 42
0.0000001
 43
0.0000001
 44
0.0000000001
 40
0.0
 40
0.0
 40
0.0
 40
0.0
 40
0.0056120557
 40
0.0125730251
 40
0.0222524264
 40
0.0494494894
 40
0.0864614595
 40
0.1324202853
 40
0.1863921043
 40
0.2474766804
 40
0.3148194894
 40
0.3876728432
 40
0.4653623297
 40
0.5472930149
 40
0.6329154273
 40
0.67693216
 40
0.7216642744
 40
0.767031529
 40
0.8129396691
 40
0.859305027
 40
0.9060351481
 40
0.9529842162
 40
1.0
 40
1.0
 40
1.0
 40
1.0
 10
3.3207761926
 20
2.9832583747
 30
0.0
 10
3.3210762202
 20
2.9834467187
 30
0.0
 10
3.3217489417
 20
2.9838677956
 30
0.0
 10
3.322941152
 20
2.9846104935
 30
0.0
 10
3.3252920356
 20
2.9860700416
 30
0.0
 10
3.3292668427
 20
2.9885101662
 30
0.0
 10
3.3352239327
 20
2.9920981133
 30
0.0
 10
3.3426816814
 20
2.9964693003
 30
0.0
 10
3.3515271637
 20
3.0014760059
 30
0.0
 10
3.3616557441
 20
3.0069524098
 30
0.0
 10
3.3729713939
 20
3.0127331453
 30
0.0
 10
3.3853973018
 20
3.0186335986
 30
0.0
 10
3.3988646183
 20
3.0244704854
 30
0.0
 10
3.4133175101
 20
3.0300300013
 30
0.0
 10
3.4260085205
 20
3.0342104709
 30
0.0
 10
3.4366022109
 20
3.0372026481
 30
0.0
 10
3.4448183613
 20
3.0392492195
 30
0.0
 10
3.4532146134
 20
3.0410478141
 30
0.0
 10
3.4617702306
 20
3.042570471
 30
0.0
 10
3.4704617894
 20
3.0437874409
 30
0.0
 10
3.4792597661
 20
3.0446709481
 30
0.0
 10
3.4881265044
 20
3.0452109546
 30
0.0
 10
3.494058453
 20
3.0453337867
 30
0.0
 10
3.4970261926
 20
3.0453337867
 30
0.0
  0
SPLINE
  5
290
100
AcDbEntity
  8
ALL_ASSEMBLY_MEMBERS
100
AcDbSpline
 62
7
  6
CONTINUOUS
 70
0
 71
3
 72
28
 73
24
 74
0
 42
0.0000001
 43
0.0000001
 44
0.0000000001
 40
0.0
 40
0.0
 40
0.0
 40
0.0
 40
0.0470157561
 40
0.0939647579
 40
0.1406948017
 40
0.1870601439
 40
0.2329683681
 40
0.2783357504
 40
0.3230679808
 40
0.3670847825
 40
0.4527072879
 40
0.5346380593
 40
0.6123275597
 40
0.6851809273
 40
0.7525236904
 40
0.8136081946
 40
0.8675799349
 40
0.913538669
 40
0.950550587
 40
0.9777476006
 40
0.9874269968
 40
0.9943879597
 40
1.0
 40
1.0
 40
1.0
 40
1.0
 10
3.4970261926
 20
3.4836829626
 30
0.0
 10
3.4940584547
 20
3.4836829626
 30
0.0
 10
3.488126512
 20
3.4838057914
 30
0.0
 10
3.4792597841
 20
3.484345791
 30
0.0
 10
3.4704618177
 20
3.485229301
 30
0.0
 10
3.461770261
 20
3.4864462824
 30
0.0
 10
3.4532146316
 20
3.4879689404
 30
0.0
 10
3.4448183582
 20
3.4897675346
 30
0.0
 10
3.4366021873
 20
3.4918141049
 30
0.0
 10
3.4260084794
 20
3.4948062852
 30
0.0
 10
3.4133174572
 20
3.498986769
 30
0.0
 10
3.3988645539
 20
3.5045462889
 30
0.0
 10
3.3853972322
 20
3.5103831819
 30
0.0
 10
3.3729713265
 20
3.5162836373
 30
0.0
 10
3.3616556836
 20
3.5220643718
 30
0.0
 10
3.3515271146
 20
3.5275407708
 30
0.0
 10
3.3426816466
 20
3.5325474705
 30
0.0
 10
3.3352239094
 20
3.5369186493
 30
0.0
 10
3.3292668308
 20
3.5405065918
 30
0.0
 10
3.3252920286
 20
3.5429467115
 30
0.0
 10
3.3229411486
 20
3.5444062581
 30
0.0
 10
3.3217489399
 20
3.5451489554
 30
0.0
 10
3.3210762195
 20
3.5455700314
 30
0.0
 10
3.3207761926
 20
3.5457583747
 30
0.0
  0
SPLINE
  5
291
100
AcDbEntity
  8
ALL_FEATURES
100
AcDbSpline
 62
7
  6
CONTINUOUS
 70
0
 71
3
 72
25
 73
21
 74
0
 42
0.0000001
 43
0.0000001
 44
0.0000000001
 40
0.0
 40
0.0
 40
0.0
 40
0.0
 40
0.0389135029
 40
0.14820226
 40
0.2238461621
 40
0.2657430664
 40
0.3098501358
 40
0.3557685748
 40
0.4030655375
 40
0.4512975063
 40
0.4999994331
 40
0.5487015184
 40
0.5969337411
 40
0.6442308738
 40
0.6901493874
 40
0.7342564735
 40
0.7761533172
 40
0.8517970282
 40
0.9610864101
 40
1.0
 40
1.0
 40
1.0
 40
1.0
 10
5.1973699426
 20
3.8845871148
 30
0.0
 10
5.193493098
 20
3.8836345466
 30
0.0
 10
5.1786967024
 20
3.880129564
 30
0.0
 10
5.1561789601
 20
3.8755623108
 30
0.0
 10
5.1331884119
 20
3.8719236259
 30
0.0
 10
5.1167397024
 20
3.8697982239
 30
0.0
 10
5.1032820701
 20
3.8683456324
 30
0.0
 10
5.0892428878
 20
3.8671505859
 30
0.0
 10
5.074757156
 20
3.8662562478
 30
0.0
 10
5.059968368
 20
3.8657069626
 30
0.0
 10
5.0450263508
 20
3.8655186185
 30
0.0
 10
5.0300843079
 20
3.8657069666
 30
0.0
 10
5.0152954594
 20
3.8662562321
 30
0.0
 10
5.0008096765
 20
3.8671505751
 30
0.0
 10
4.9867704668
 20
3.8683456153
 30
0.0
 10
4.9733128314
 20
3.869798208
 30
0.0
 10
4.9568641448
 20
3.8719235989
 30
0.0
 10
4.933873558
 20
3.8755622849
 30
0.0
 10
4.9113557625
 20
3.880129545
 30
0.0
 10
4.8965592958
 20
3.8836345444
 30
0.0
 10
4.8926824426
 20
3.8845871148
 30
0.0
  0
ENDSEC
  0
SECTION
  2
OBJECTS
  0
DICTIONARY
  5
C
100
AcDbDictionary
280
0
281
1
  3
ACAD_GROUP
350
D
  3
ACAD_MLINESTYLE
350
17
  3
ACAD_LAYOUT
350
1A
  3
ACAD_PLOTSETTINGS
350
19
  3
ACAD_PLOTSTYLENAME
350
E
  0
DICTIONARY
  5
D
102
{ACAD_REACTORS
330
C
102
}
100
AcDbDictionary
280
0
281
1
  0
ACDBDICTIONARYWDFLT
  5
E
102
{ACAD_REACTORS
330
C
102
}
100
AcDbDictionary
281
1
  3
Normal
350
F
100
AcDbDictionaryWithDefault
340
F
  0
DICTIONARY
  5
17
102
{ACAD_REACTORS
330
C
102
}
100
AcDbDictionary
280
0
281
1
  3
Standard
350
18
  0
DICTIONARY
  5
19
102
{ACAD_REACTORS
330
C
102
}
100
AcDbDictionary
281
1
  0
DICTIONARY
  5
1A
102
{ACAD_REACTORS
330
C
102
}
100
AcDbDictionary
281
1
  3
Model
350
292
  3
Layout1
350
293
  0
ACDBPLACEHOLDER
  5
F
102
{ACAD_REACTORS
330
E
102
}
  0
MLINESTYLE
  5
18
102
{ACAD_REACTORS
330
17
102
}
100
AcDbMlineStyle
  2
STANDARD
 70
0
  3

 62
256
 51
90.0
 52
90.0
 71
2
 49
0.5
 62
256
  6
BYLAYER
 49
-0.5
 62
256
  6
BYLAYER
  0
LAYOUT
  5
292
102
{ACAD_REACTORS
330
1A
102
}
100
AcDbPlotSettings
  1

  2
none_device
  4
ANSI_A_(11.00_x_8.50_Inches)
  6

 40
0.0
 41
0.0
 42
0.0
 43
0.0
 44
279.4
 45
215.9
 46
0.0
 47
0.0
 48
0.0
 49
0.0
140
0.0
141
0.0
142
1.0
143
1.0
 70
1024
 72
0
 73
0
 74
0
  7

 75
0
147
1.0
148
0.0
149
0.0
100
AcDbLayout
  1
Model
 70
0
 71
0
 10
0.0
 20
0.0
 11
11.0
 21
8.5
 12
0.0
 22
0.0
 32
0.0
 14
0.0
 24
0.0
 34
0.0
 15
0.0
 25
0.0
 35
0.0
146
0.0
 13
0.0
 23
0.0
 33
0.0
 16
1.0
 26
0.0
 36
0.0
 17
0.0
 27
1.0
 37
0.0
 76
0
330
21C
345
0
346
0
  0
LAYOUT
  5
293
102
{ACAD_REACTORS
330
1A
102
}
100
AcDbPlotSettings
  1

  2
none_device
  4
ANSI_A_(11.00_x_8.50_Inches)
  6

 40
0.0
 41
0.0
 42
0.0
 43
0.0
 44
279.4
 45
215.9
 46
0.0
 47
0.0
 48
0.0
 49
0.0
140
0.0
141
0.0
142
1.0
143
1.0
 70
0
 72
0
 73
0
 74
0
  7

 75
0
147
1.0
148
0.0
149
0.0
100
AcDbLayout
  1
Layout1
 70
0
 71
1
 10
0.0
 20
0.0
 11
11.0
 21
8.5
 12
0.0
 22
0.0
 32
0.0
 14
0.0
 24
0.0
 34
0.0
 15
0.0
 25
0.0
 35
0.0
146
0.0
 13
0.0
 23
0.0
 33
0.0
 16
1.0
 26
0.0
 36
0.0
 17
0.0
 27
1.0
 37
0.0
 76
0
330
21D
345
0
346
0
  0
ENDSEC
  0
EOF
