999
DXF file: 3-993ts_RIGHT.dxf
999
Pro/ENGINEER 2013150 by Parametric Technology Corporation
  0
SECTION
  2
HEADER
  9
$ACADVER
  1
AC1021
  9
$DWGCODEPAGE
  3
ANSI_1252
  9
$EXTMAX
 10
11.0
 20
8.5
 30
0.0
  9
$EXTMIN
 10
0.0
 20
0.0
 30
0.0
  9
$LIMMIN
 10
0.0
 20
0.0
  9
$LIMMAX
 10
11.0
 20
8.5
  9
$VIEWCTR
 10
5.5
 20
4.25
  9
$VIEWSIZE
 40
8.5
  9
$CLAYER
  8
0
  9
$LTSCALE
 40
0.605
  9
$CELTYPE
  6
BYLAYER
  9
$DIMSCALE
 40
1.0
  9
$DIMASZ
 40
0.1
  9
$DIMEXO
 40
0.0625
  9
$DIMDLI
 40
0.418
  9
$DIMEXE
 40
0.125
  9
$DIMCEN
 40
0.099
  9
$DIMLFAC
 40
1.0
  9
$DIMBLK
  1
_FILLED
  9
$DIMTXT
 40
0.08
  9
$DIMTOL
 70
1
  9
$DIMLIM
 70
0
  9
$DIMTFAC
 40
1.0
  9
$DIMTP
 40
0.001
  9
$DIMTM
 40
0.001
  9
$DIMGAP
 40
0.09
  9
$DIMDSEP
 70
46
  9
$PDMODE
 70
3
  9
$PDSIZE
 40
0.06
  9
$HANDSEED
  5
290
  9
$TILEMODE
 70
1
  9
$MEASUREMENT
 70
0
  9
$INSUNITS
 70
1
  0
ENDSEC
  0
SECTION
  2
CLASSES
  0
CLASS
  1
ACDBDICTIONARYWDFLT
  2
AcDbDictionaryWithDefault
  3
AutoCAD 2000
 90
0
 91
1
280
0
281
0
  0
CLASS
  1
ACDBPLACEHOLDER
  2
AcDbPlaceHolder
  3
AutoCAD 2000
 90
0
 91
1
280
0
281
0
  0
CLASS
  1
LAYOUT
  2
AcDbLayout
  3
AutoCAD 2000
 90
0
 91
0
280
0
281
0
  0
ENDSEC
  0
SECTION
  2
TABLES
  0
TABLE
  2
VPORT
  5
8
100
AcDbSymbolTable
 70
2
  0
VPORT
  5
1F4
100
AcDbSymbolTableRecord
100
AcDbViewportTableRecord
  2
*ACTIVE
 70
0
 10
0.0
 20
0.0
 11
1.0
 21
1.0
 12
5.5
 22
4.25
 13
0.0
 23
0.0
 14
1.0
 24
1.0
 15
0.0
 25
0.0
 16
0.0
 26
0.0
 36
1.0
 17
0.0
 27
0.0
 37
0.0
 40
8.5
 41
1.2941176471
 42
50.0
 43
0.0
 44
0.0
 50
0.0
 51
0.0
 71
0
 72
100
 73
1
 74
1
 75
0
 76
0
 77
0
 78
0
  0
ENDTAB
  0
TABLE
  2
LTYPE
  5
5
100
AcDbSymbolTable
 70
6
  0
LTYPE
  5
14
100
AcDbSymbolTableRecord
100
AcDbLinetypeTableRecord
  2
BYBLOCK
 70
0
  3

 72
65
 73
0
 40
0.0
  0
LTYPE
  5
15
100
AcDbSymbolTableRecord
100
AcDbLinetypeTableRecord
  2
BYLAYER
 70
0
  3

 72
65
 73
0
 40
0.0
  0
LTYPE
  5
16
100
AcDbSymbolTableRecord
100
AcDbLinetypeTableRecord
  2
CONTINUOUS
 70
64
  3
Solid line
 72
65
 73
0
 40
0.0
  0
LTYPE
  5
1F5
100
AcDbSymbolTableRecord
100
AcDbLinetypeTableRecord
  2
CENTER
 70
64
  3
____ _ ____ _ ____ _ ____ _ ____ _ ____ _ ____
 72
65
 73
4
 40
0.6
 49
0.375
 74
0
 49
-0.075
 74
0
 49
0.075
 74
0
 49
-0.075
 74
0
  0
LTYPE
  5
1F6
100
AcDbSymbolTableRecord
100
AcDbLinetypeTableRecord
  2
HIDDEN
 70
64
  3
- - - - - - - - - - - - - - - - - - - -
 72
65
 73
2
 40
0.2
 49
0.1
 74
0
 49
-0.1
 74
0
  0
LTYPE
  5
1F7
100
AcDbSymbolTableRecord
100
AcDbLinetypeTableRecord
  2
PHANTOM
 70
64
  3
_____ _ _ _____ _ _ _____ _ _ _____
 72
65
 73
6
 40
0.8
 49
0.45
 74
0
 49
-0.05
 74
0
 49
0.1
 74
0
 49
-0.05
 74
0
 49
0.1
 74
0
 49
-0.05
 74
0
  0
LTYPE
  5
1F8
100
AcDbSymbolTableRecord
100
AcDbLinetypeTableRecord
  2
DOT
 70
64
  3
. . . . . . . . . . . . . . . . . . . .
 72
65
 73
2
 40
0.2
 49
0.1
 74
0
 49
-0.1
 74
0
  0
LTYPE
  5
1F9
100
AcDbSymbolTableRecord
100
AcDbLinetypeTableRecord
  2
DASHED
 70
64
  3
- - - - - - - - - - - - - - - - - - - -
 72
65
 73
2
 40
0.2
 49
0.1
 74
0
 49
-0.1
 74
0
  0
ENDTAB
  0
TABLE
  2
LAYER
  5
2
100
AcDbSymbolTable
 70
36
  0
LAYER
  5
10
100
AcDbSymbolTableRecord
100
AcDbLayerTableRecord
  2
0
 70
0
 62
7
  6
CONTINUOUS
370
-3
390
F
  0
LAYER
  5
1FA
100
AcDbSymbolTableRecord
100
AcDbLayerTableRecord
  2
DEFAULT_1
 70
0
 62
7
  6
CENTER
370
-3
390
F
  0
LAYER
  5
1FB
100
AcDbSymbolTableRecord
100
AcDbLayerTableRecord
  2
DEFAULT_2
 70
0
 62
8
  6
HIDDEN
370
-3
390
F
  0
LAYER
  5
1FC
100
AcDbSymbolTableRecord
100
AcDbLayerTableRecord
  2
DEFAULT_3
 70
0
 62
7
  6
PHANTOM
370
-3
390
F
  0
LAYER
  5
1FD
100
AcDbSymbolTableRecord
100
AcDbLayerTableRecord
  2
2-110_ASSY_DATUMS
 70
0
 62
7
  6
CONTINUOUS
370
-3
390
F
  0
LAYER
  5
1FE
100
AcDbSymbolTableRecord
100
AcDbLayerTableRecord
  2
ALL_ASSEMBLY_MEMBERS
 70
0
 62
7
  6
CONTINUOUS
370
-3
390
F
  0
LAYER
  5
1FF
100
AcDbSymbolTableRecord
100
AcDbLayerTableRecord
  2
ALL_FEATURES
 70
0
 62
7
  6
CONTINUOUS
370
-3
390
F
  0
LAYER
  5
200
100
AcDbSymbolTableRecord
100
AcDbLayerTableRecord
  2
AXES_FEATURES
 70
0
 62
7
  6
CONTINUOUS
370
-3
390
F
  0
LAYER
  5
201
100
AcDbSymbolTableRecord
100
AcDbLayerTableRecord
  2
CHAMFER_FEATURES
 70
0
 62
7
  6
CONTINUOUS
370
-3
390
F
  0
LAYER
  5
202
100
AcDbSymbolTableRecord
100
AcDbLayerTableRecord
  2
CUT_FEATURES
 70
0
 62
7
  6
CONTINUOUS
370
-3
390
F
  0
LAYER
  5
203
100
AcDbSymbolTableRecord
100
AcDbLayerTableRecord
  2
DATUM_CURVES
 70
0
 62
7
  6
CONTINUOUS
370
-3
390
F
  0
LAYER
  5
204
100
AcDbSymbolTableRecord
100
AcDbLayerTableRecord
  2
DATUM_PLANES
 70
0
 62
7
  6
CONTINUOUS
370
-3
390
F
  0
LAYER
  5
205
100
AcDbSymbolTableRecord
100
AcDbLayerTableRecord
  2
DATUM_POINTS
 70
0
 62
7
  6
CONTINUOUS
370
-3
390
F
  0
LAYER
  5
206
100
AcDbSymbolTableRecord
100
AcDbLayerTableRecord
  2
DEFAULT_COORDINATE_SYSTEM
 70
0
 62
7
  6
CONTINUOUS
370
-3
390
F
  0
LAYER
  5
207
100
AcDbSymbolTableRecord
100
AcDbLayerTableRecord
  2
DEFAULT_DATUM_AXES
 70
0
 62
7
  6
CONTINUOUS
370
-3
390
F
  0
LAYER
  5
208
100
AcDbSymbolTableRecord
100
AcDbLayerTableRecord
  2
DEFAULT_DATUM_CURVES
 70
0
 62
7
  6
CONTINUOUS
370
-3
390
F
  0
LAYER
  5
209
100
AcDbSymbolTableRecord
100
AcDbLayerTableRecord
  2
DEFAULT_DATUM_PLANES
 70
0
 62
7
  6
CONTINUOUS
370
-3
390
F
  0
LAYER
  5
20A
100
AcDbSymbolTableRecord
100
AcDbLayerTableRecord
  2
DEFAULT_SURFACES
 70
0
 62
7
  6
CONTINUOUS
370
-3
390
F
  0
LAYER
  5
20B
100
AcDbSymbolTableRecord
100
AcDbLayerTableRecord
  2
DIMENSIONS
 70
0
 62
7
  6
CONTINUOUS
370
-3
390
F
  0
LAYER
  5
20C
100
AcDbSymbolTableRecord
100
AcDbLayerTableRecord
  2
HOLE_FEATURES
 70
0
 62
7
  6
CONTINUOUS
370
-3
390
F
  0
LAYER
  5
20D
100
AcDbSymbolTableRecord
100
AcDbLayerTableRecord
  2
INTFCLR_1
 70
0
 62
7
  6
CONTINUOUS
370
-3
390
F
  0
LAYER
  5
20E
100
AcDbSymbolTableRecord
100
AcDbLayerTableRecord
  2
NOTES
 70
0
 62
7
  6
CONTINUOUS
370
-3
390
F
  0
LAYER
  5
20F
100
AcDbSymbolTableRecord
100
AcDbLayerTableRecord
  2
PART_REFERENCE_DIMENSIONS
 70
0
 62
7
  6
CONTINUOUS
370
-3
390
F
  0
LAYER
  5
210
100
AcDbSymbolTableRecord
100
AcDbLayerTableRecord
  2
PLATED_SURFACE
 70
0
 62
7
  6
CONTINUOUS
370
-3
390
F
  0
LAYER
  5
211
100
AcDbSymbolTableRecord
100
AcDbLayerTableRecord
  2
PLATED_SURFACE_AREA
 70
0
 62
7
  6
CONTINUOUS
370
-3
390
F
  0
LAYER
  5
212
100
AcDbSymbolTableRecord
100
AcDbLayerTableRecord
  2
POINTS
 70
0
 62
7
  6
CONTINUOUS
370
-3
390
F
  0
LAYER
  5
213
100
AcDbSymbolTableRecord
100
AcDbLayerTableRecord
  2
PROTRUSION
 70
0
 62
7
  6
CONTINUOUS
370
-3
390
F
  0
LAYER
  5
214
100
AcDbSymbolTableRecord
100
AcDbLayerTableRecord
  2
PROTRUSION_FEATURES
 70
0
 62
7
  6
CONTINUOUS
370
-3
390
F
  0
LAYER
  5
215
100
AcDbSymbolTableRecord
100
AcDbLayerTableRecord
  2
QUILT
 70
0
 62
7
  6
CONTINUOUS
370
-3
390
F
  0
LAYER
  5
216
100
AcDbSymbolTableRecord
100
AcDbLayerTableRecord
  2
QUILTS
 70
0
 62
7
  6
CONTINUOUS
370
-3
390
F
  0
LAYER
  5
217
100
AcDbSymbolTableRecord
100
AcDbLayerTableRecord
  2
REFERENCE_DIMENSIONS
 70
0
 62
7
  6
CONTINUOUS
370
-3
390
F
  0
LAYER
  5
218
100
AcDbSymbolTableRecord
100
AcDbLayerTableRecord
  2
ROUND_FEATURES
 70
0
 62
7
  6
CONTINUOUS
370
-3
390
F
  0
LAYER
  5
219
100
AcDbSymbolTableRecord
100
AcDbLayerTableRecord
  2
SIZE_REF
 70
0
 62
7
  6
CONTINUOUS
370
-3
390
F
  0
ENDTAB
  0
TABLE
  2
STYLE
  5
3
100
AcDbSymbolTable
 70
1
  0
STYLE
  5
11
100
AcDbSymbolTableRecord
100
AcDbTextStyleTableRecord
  2
STANDARD
 70
0
 40
0.0
 41
0.8
 50
0.0
 71
0
 42
0.2
  3
txt
  4

  0
STYLE
  5
21A
100
AcDbSymbolTableRecord
100
AcDbTextStyleTableRecord
  2
TEXTSTYLE_1
 70
0
 40
0.0
 41
0.8
 50
0.0
 71
0
 42
0.2
  3
gdt
  4

  0
ENDTAB
  0
TABLE
  2
VIEW
  5
6
100
AcDbSymbolTable
 70
0
  0
ENDTAB
  0
TABLE
  2
UCS
  5
7
100
AcDbSymbolTable
 70
0
  0
ENDTAB
  0
TABLE
  2
APPID
  5
9
100
AcDbSymbolTable
 70
1
  0
APPID
  5
21B
100
AcDbSymbolTableRecord
100
AcDbRegAppTableRecord
  2
ACAD
 70
0
  0
ENDTAB
  0
TABLE
  2
BLOCK_RECORD
  5
1
100
AcDbSymbolTable
 70
0
  0
BLOCK_RECORD
  5
21C
100
AcDbSymbolTableRecord
100
AcDbBlockTableRecord
  2
*Model_Space
  0
BLOCK_RECORD
  5
21D
100
AcDbSymbolTableRecord
100
AcDbBlockTableRecord
  2
*Paper_Space
  0
ENDTAB
  0
TABLE
  2
DIMSTYLE
  5
A
100
AcDbSymbolTable
 70
1
100
AcDbDimStyleTable
 71
0
  0
DIMSTYLE
105
21E
100
AcDbSymbolTableRecord
100
AcDbDimStyleTableRecord
  2
STANDARD
 70
0
  3

  4

 40
1.0
 41
0.1
 42
0.0625
 43
0.38
 44
0.125
 45
0.0
 46
0.0
 47
0.001
 48
0.001
140
0.08
141
0.09
142
0.0
143
25.4
144
1.0
145
0.0
146
1.0
147
0.09
 71
1.0
 72
0.0
 73
1
 74
1
 75
0
 76
0
 77
0
 78
4
170
0
171
2
172
0
173
0
174
0
175
0
176
0
177
0
178
0
270
2
271
3
272
3
273
2
274
2
275
0
280
0
281
0
282
0
283
1
284
4
285
0
286
0
287
3
288
0
340
11
278
46
  0
ENDTAB
  0
ENDSEC
  0
SECTION
  2
BLOCKS
  0
BLOCK
  5
20
100
AcDbEntity
  8
0
100
AcDbBlockBegin
  2
*Model_Space
 70
0
 10
0.0
 20
0.0
 30
0.0
  3
*Model_Space
  1

  0
ENDBLK
  5
21
100
AcDbEntity
  8
0
100
AcDbBlockEnd
  0
BLOCK
  5
1C
100
AcDbEntity
  8
0
100
AcDbBlockBegin
  2
*Paper_Space
 70
0
 10
0.0
 20
0.0
 30
0.0
  3
*Paper_Space
  1

  0
ENDBLK
  5
1D
100
AcDbEntity
  8
0
100
AcDbBlockEnd
  0
ENDSEC
  0
SECTION
  2
ENTITIES
  0
LINE
  5
21F
100
AcDbEntity
  8
0
100
AcDbLine
 62
7
  6
CONTINUOUS
 10
0.0
 20
0.0
 11
0.0
 21
8.5
  0
LINE
  5
220
100
AcDbEntity
  8
0
100
AcDbLine
 62
7
  6
CONTINUOUS
 10
0.0
 20
0.0
 11
11.0
 21
0.0
  0
LINE
  5
221
100
AcDbEntity
  8
0
100
AcDbLine
 62
7
  6
CONTINUOUS
 10
0.0
 20
8.5
 11
11.0
 21
8.5
  0
LINE
  5
222
100
AcDbEntity
  8
0
100
AcDbLine
 62
7
  6
CONTINUOUS
 10
11.0
 20
0.0
 11
11.0
 21
8.5
  0
LINE
  5
223
100
AcDbEntity
  8
0
100
AcDbLine
 62
7
  6
CONTINUOUS
 10
5.8127762414
 20
1.202310794
 11
6.1187762414
 21
1.202310794
  0
LINE
  5
224
100
AcDbEntity
  8
0
100
AcDbLine
 62
9
  6
CONTINUOUS
 10
5.7902762414
 20
1.224810794
 11
6.1187762414
 21
1.224810794
  0
LINE
  5
225
100
AcDbEntity
  8
ALL_ASSEMBLY_MEMBERS
100
AcDbLine
 62
7
  6
CONTINUOUS
 10
3.1228776194
 20
2.083560794
 11
3.4566276194
 21
2.083560794
  0
LINE
  5
226
100
AcDbEntity
  8
ALL_ASSEMBLY_MEMBERS
100
AcDbLine
 62
7
  6
CONTINUOUS
 10
3.0647526194
 20
3.396060794
 11
3.0647526194
 21
2.833560794
  0
LINE
  5
227
100
AcDbEntity
  8
ALL_ASSEMBLY_MEMBERS
100
AcDbLine
 62
7
  6
CONTINUOUS
 10
3.1228776194
 20
4.146060794
 11
3.1228776194
 21
3.3902842763
  0
LINE
  5
228
100
AcDbEntity
  8
ALL_ASSEMBLY_MEMBERS
100
AcDbLine
 62
7
  6
CONTINUOUS
 10
3.1228776194
 20
2.8393373106
 11
3.1228776194
 21
2.083560794
  0
LINE
  5
229
100
AcDbEntity
  8
0
100
AcDbLine
 62
7
  6
CONTINUOUS
 10
5.6177526194
 20
2.4947320539
 11
4.4897526194
 21
2.4947320539
  0
LINE
  5
22A
100
AcDbEntity
  8
ALL_FEATURES
100
AcDbLine
 62
7
  6
CONTINUOUS
 10
4.4897526194
 20
2.4947320539
 11
5.6177526194
 21
2.4947320539
  0
LINE
  5
22B
100
AcDbEntity
  8
0
100
AcDbLine
 62
7
  6
CONTINUOUS
 10
5.6622801784
 20
2.4947320539
 11
5.7902762414
 21
2.4947320539
  0
LINE
  5
22C
100
AcDbEntity
  8
ALL_ASSEMBLY_MEMBERS
100
AcDbLine
 62
7
  6
CONTINUOUS
 10
4.2647526194
 20
2.622623294
 11
4.1788776194
 21
2.622623294
  0
LINE
  5
22D
100
AcDbEntity
  8
ALL_ASSEMBLY_MEMBERS
100
AcDbLine
 62
7
  6
CONTINUOUS
 10
4.0506276194
 20
2.622623294
 11
3.9347526194
 21
2.622623294
  0
LINE
  5
22E
100
AcDbEntity
  8
ALL_FEATURES
100
AcDbLine
 62
7
  6
CONTINUOUS
 10
4.4897526194
 20
2.623560794
 11
4.3022526194
 21
2.623560794
  0
LINE
  5
22F
100
AcDbEntity
  8
ALL_ASSEMBLY_MEMBERS
100
AcDbLine
 62
7
  6
CONTINUOUS
 10
3.5147526194
 20
2.833560794
 11
3.4660026194
 21
2.833560794
  0
LINE
  5
230
100
AcDbEntity
  8
ALL_ASSEMBLY_MEMBERS
100
AcDbLine
 62
7
  6
CONTINUOUS
 10
3.1135026194
 20
2.833560794
 11
3.0647526194
 21
2.833560794
  0
LINE
  5
231
100
AcDbEntity
  8
ALL_ASSEMBLY_MEMBERS
100
AcDbLine
 62
7
  6
CONTINUOUS
 10
3.4566276194
 20
4.146060794
 11
3.4566276194
 21
3.3902843318
  0
LINE
  5
232
100
AcDbEntity
  8
ALL_ASSEMBLY_MEMBERS
100
AcDbLine
 62
7
  6
CONTINUOUS
 10
3.4566276194
 20
2.8393372561
 11
3.4566276194
 21
2.083560794
  0
LINE
  5
233
100
AcDbEntity
  8
ALL_ASSEMBLY_MEMBERS
100
AcDbLine
 62
7
  6
CONTINUOUS
 10
3.5147526194
 20
3.396060794
 11
3.5147526194
 21
2.833560794
  0
LINE
  5
234
100
AcDbEntity
  8
ALL_ASSEMBLY_MEMBERS
100
AcDbLine
 62
7
  6
CONTINUOUS
 10
3.9347526194
 20
2.927310794
 11
3.5147526194
 21
2.927310794
  0
LINE
  5
235
100
AcDbEntity
  8
0
100
AcDbLine
 62
7
  6
CONTINUOUS
 10
4.3022526194
 20
2.976060794
 11
4.2647526194
 21
2.976060794
  0
LINE
  5
236
100
AcDbEntity
  8
ALL_ASSEMBLY_MEMBERS
100
AcDbLine
 62
7
  6
CONTINUOUS
 10
4.0978380607
 20
3.085513919
 11
4.131667178
 21
3.085513919
  0
LINE
  5
237
100
AcDbEntity
  8
ALL_ASSEMBLY_MEMBERS
100
AcDbLine
 62
7
  6
CONTINUOUS
 10
4.080923502
 20
3.114810794
 11
4.0978380607
 21
3.085513919
  0
LINE
  5
238
100
AcDbEntity
  8
ALL_ASSEMBLY_MEMBERS
100
AcDbLine
 62
7
  6
CONTINUOUS
 10
4.1485817367
 20
3.114810794
 11
4.131667178
 21
3.144107669
  0
LINE
  5
239
100
AcDbEntity
  8
ALL_ASSEMBLY_MEMBERS
100
AcDbLine
 62
7
  6
CONTINUOUS
 10
3.7022526194
 20
5.007810794
 11
3.7022526194
 21
5.9468063614
  0
LINE
  5
23A
100
AcDbEntity
  8
ALL_ASSEMBLY_MEMBERS
100
AcDbLine
 62
9
  6
CONTINUOUS
 10
3.7247526194
 20
4.985310794
 11
3.7247526194
 21
5.969310794
  0
LINE
  5
23B
100
AcDbEntity
  8
ALL_ASSEMBLY_MEMBERS
100
AcDbLine
 62
7
  6
CONTINUOUS
 10
4.131667178
 20
3.144107669
 11
4.0978380607
 21
3.144107669
  0
LINE
  5
23C
100
AcDbEntity
  8
0
100
AcDbLine
 62
7
  6
CONTINUOUS
 10
4.3022526194
 20
3.253560794
 11
4.2647526194
 21
3.253560794
  0
LINE
  5
23D
100
AcDbEntity
  8
ALL_ASSEMBLY_MEMBERS
100
AcDbLine
 62
7
  6
CONTINUOUS
 10
3.9347526194
 20
3.302310794
 11
3.5147526194
 21
3.302310794
  0
LINE
  5
23E
100
AcDbEntity
  8
ALL_ASSEMBLY_MEMBERS
100
AcDbLine
 62
7
  6
CONTINUOUS
 10
3.9347526194
 20
3.606998294
 11
3.9347526194
 21
2.622623294
  0
LINE
  5
23F
100
AcDbEntity
  8
ALL_ASSEMBLY_MEMBERS
100
AcDbLine
 62
7
  6
CONTINUOUS
 10
4.0097526194
 20
4.445123294
 11
4.0097526194
 21
4.9882319714
  0
LINE
  5
240
100
AcDbEntity
  8
ALL_ASSEMBLY_MEMBERS
100
AcDbLine
 62
7
  6
CONTINUOUS
 10
3.5147526194
 20
3.396060794
 11
3.4660026194
 21
3.396060794
  0
LINE
  5
241
100
AcDbEntity
  8
ALL_ASSEMBLY_MEMBERS
100
AcDbLine
 62
7
  6
CONTINUOUS
 10
3.1135026194
 20
3.396060794
 11
3.0647526194
 21
3.396060794
  0
LINE
  5
242
100
AcDbEntity
  8
ALL_FEATURES
100
AcDbLine
 62
7
  6
CONTINUOUS
 10
4.4897526194
 20
3.606060794
 11
4.3022526194
 21
3.606060794
  0
LINE
  5
243
100
AcDbEntity
  8
ALL_ASSEMBLY_MEMBERS
100
AcDbLine
 62
7
  6
CONTINUOUS
 10
4.2647526194
 20
3.606998294
 11
3.9347526194
 21
3.606998294
  0
LINE
  5
244
100
AcDbEntity
  8
ALL_ASSEMBLY_MEMBERS
100
AcDbLine
 62
7
  6
CONTINUOUS
 10
4.2647526194
 20
3.606998294
 11
4.2647526194
 21
2.622623294
  0
LINE
  5
245
100
AcDbEntity
  8
ALL_FEATURES
100
AcDbLine
 62
7
  6
CONTINUOUS
 10
4.3022526194
 20
3.606060794
 11
4.3022526194
 21
2.623560794
  0
LINE
  5
246
100
AcDbEntity
  8
0
100
AcDbLine
 62
7
  6
CONTINUOUS
 10
5.7902762414
 20
3.7344939496
 11
5.7083905832
 21
3.7344939496
  0
LINE
  5
247
100
AcDbEntity
  8
ALL_FEATURES
100
AcDbLine
 62
7
  6
CONTINUOUS
 10
4.6854088694
 20
3.7348895342
 11
4.4897526194
 21
3.7348895342
  0
LINE
  5
248
100
AcDbEntity
  8
0
100
AcDbLine
 62
7
  6
CONTINUOUS
 10
4.9900963694
 20
3.7348895342
 11
5.6177526194
 21
3.7348895342
  0
LINE
  5
249
100
AcDbEntity
  8
ALL_FEATURES
100
AcDbLine
 62
7
  6
CONTINUOUS
 10
4.9900963694
 20
3.7348895342
 11
5.6177526194
 21
3.7348895342
  0
LINE
  5
24A
100
AcDbEntity
  8
0
100
AcDbLine
 62
7
  6
CONTINUOUS
 10
5.6622801784
 20
3.7348895342
 11
5.6858949051
 21
3.7348895342
  0
LINE
  5
24B
100
AcDbEntity
  8
0
100
AcDbLine
 62
9
  6
CONTINUOUS
 10
4.6933776194
 20
3.8323895342
 11
4.9821276194
 21
3.8323895342
  0
LINE
  5
24C
100
AcDbEntity
  8
0
100
AcDbLine
 62
7
  6
CONTINUOUS
 10
4.7008792236
 20
3.8398895342
 11
4.9746260152
 21
3.8398895342
  0
LINE
  5
24D
100
AcDbEntity
  8
ALL_ASSEMBLY_MEMBERS
100
AcDbLine
 62
7
  6
CONTINUOUS
 10
4.3847526194
 20
4.445123294
 11
4.3847526194
 21
4.9882320136
  0
LINE
  5
24E
100
AcDbEntity
  8
ALL_FEATURES
100
AcDbLine
 62
7
  6
CONTINUOUS
 10
4.4897526194
 20
3.7348895342
 11
4.4897526194
 21
2.4947320539
  0
LINE
  5
24F
100
AcDbEntity
  8
ALL_ASSEMBLY_MEMBERS
100
AcDbLine
 62
7
  6
CONTINUOUS
 10
4.5422526194
 20
4.9853136658
 11
4.5422526194
 21
5.9693079223
  0
LINE
  5
250
100
AcDbEntity
  8
ALL_FEATURES
100
AcDbLine
 62
7
  6
CONTINUOUS
 10
4.5797526194
 20
4.9916886286
 11
4.5797526194
 21
5.9629329595
  0
LINE
  5
251
100
AcDbEntity
  8
0
100
AcDbLine
 62
7
  6
CONTINUOUS
 10
4.6933776194
 20
3.732983746
 11
4.6933776194
 21
3.8323895342
  0
LINE
  5
252
100
AcDbEntity
  8
0
100
AcDbLine
 62
7
  6
CONTINUOUS
 10
4.8062762414
 20
4.8572369133
 11
4.8062762414
 21
6.0973846747
  0
LINE
  5
253
100
AcDbEntity
  8
ALL_ASSEMBLY_MEMBERS
100
AcDbLine
 62
7
  6
CONTINUOUS
 10
4.0978380607
 20
3.144107669
 11
4.080923502
 21
3.114810794
  0
LINE
  5
254
100
AcDbEntity
  8
ALL_ASSEMBLY_MEMBERS
100
AcDbLine
 62
7
  6
CONTINUOUS
 10
4.131667178
 20
3.085513919
 11
4.1485817367
 21
3.114810794
  0
LINE
  5
255
100
AcDbEntity
  8
ALL_ASSEMBLY_MEMBERS
100
AcDbLine
 62
7
  6
CONTINUOUS
 10
3.1228776194
 20
4.146060794
 11
3.4566276194
 21
4.146060794
  0
LINE
  5
256
100
AcDbEntity
  8
0
100
AcDbLine
 62
7
  6
CONTINUOUS
 10
4.9821276194
 20
3.7329837805
 11
4.9821276194
 21
3.8323895342
  0
LINE
  5
257
100
AcDbEntity
  8
ALL_ASSEMBLY_MEMBERS
100
AcDbLine
 62
7
  6
CONTINUOUS
 10
4.3622507135
 20
4.422623294
 11
4.0322545252
 21
4.422623294
  0
LINE
  5
258
100
AcDbEntity
  8
ALL_ASSEMBLY_MEMBERS
100
AcDbLine
 62
9
  6
CONTINUOUS
 10
4.3847526194
 20
4.445123294
 11
4.0097526194
 21
4.445123294
  0
LINE
  5
259
100
AcDbEntity
  8
0
100
AcDbLine
 62
7
  6
CONTINUOUS
 10
5.7902762414
 20
4.857233294
 11
4.8062762414
 21
4.857233294
  0
LINE
  5
25A
100
AcDbEntity
  8
ALL_ASSEMBLY_MEMBERS
100
AcDbLine
 62
7
  6
CONTINUOUS
 10
3.7247526194
 20
4.985310794
 11
4.0022620354
 21
4.985310794
  0
LINE
  5
25B
100
AcDbEntity
  8
ALL_ASSEMBLY_MEMBERS
100
AcDbLine
 62
7
  6
CONTINUOUS
 10
4.3922492015
 20
4.985310794
 11
4.5422526194
 21
4.985310794
  0
LINE
  5
25C
100
AcDbEntity
  8
ALL_FEATURES
100
AcDbLine
 62
7
  6
CONTINUOUS
 10
4.5797526194
 20
4.991685794
 11
4.8062762414
 21
4.991685794
  0
LINE
  5
25D
100
AcDbEntity
  8
0
100
AcDbLine
 62
7
  6
CONTINUOUS
 10
5.6177526194
 20
3.7348895342
 11
5.6177526194
 21
2.4947320539
  0
LINE
  5
25E
100
AcDbEntity
  8
0
100
AcDbLine
 62
7
  6
CONTINUOUS
 10
5.6475163989
 20
3.7201257547
 11
5.6475163989
 21
2.5094958334
  0
LINE
  5
25F
100
AcDbEntity
  8
0
100
AcDbLine
 62
9
  6
CONTINUOUS
 10
5.6622801784
 20
2.4947320693
 11
5.6622801784
 21
3.7348895342
  0
LINE
  5
260
100
AcDbEntity
  8
0
100
AcDbLine
 62
7
  6
CONTINUOUS
 10
5.7902762414
 20
1.224810794
 11
5.7902762414
 21
7.367310794
  0
LINE
  5
261
100
AcDbEntity
  8
0
100
AcDbLine
 62
9
  6
CONTINUOUS
 10
5.8127762414
 20
1.202310794
 11
5.8127762414
 21
7.389810794
  0
LINE
  5
262
100
AcDbEntity
  8
0
100
AcDbLine
 62
7
  6
CONTINUOUS
 10
4.5797526194
 20
5.338560794
 11
4.5422526194
 21
5.338560794
  0
LINE
  5
263
100
AcDbEntity
  8
0
100
AcDbLine
 62
7
  6
CONTINUOUS
 10
6.1187762414
 20
1.202310794
 11
6.1187762414
 21
7.389810794
  0
LINE
  5
264
100
AcDbEntity
  8
0
100
AcDbLine
 62
7
  6
CONTINUOUS
 10
4.5797526194
 20
5.616060794
 11
4.5422526194
 21
5.616060794
  0
LINE
  5
265
100
AcDbEntity
  8
ALL_FEATURES
100
AcDbLine
 62
7
  6
CONTINUOUS
 10
4.5797526194
 20
5.962935794
 11
4.8062762414
 21
5.962935794
  0
LINE
  5
266
100
AcDbEntity
  8
ALL_ASSEMBLY_MEMBERS
100
AcDbLine
 62
7
  6
CONTINUOUS
 10
3.7247526194
 20
5.969310794
 11
4.5422526194
 21
5.969310794
  0
LINE
  5
267
100
AcDbEntity
  8
0
100
AcDbLine
 62
7
  6
CONTINUOUS
 10
5.7902762414
 20
6.097388294
 11
4.8062762414
 21
6.097388294
  0
LINE
  5
268
100
AcDbEntity
  8
0
100
AcDbLine
 62
9
  6
CONTINUOUS
 10
5.7902762414
 20
7.367310794
 11
6.1187762414
 21
7.367310794
  0
LINE
  5
269
100
AcDbEntity
  8
0
100
AcDbLine
 62
7
  6
CONTINUOUS
 10
5.8127762414
 20
7.389810794
 11
6.1187762414
 21
7.389810794
  0
ARC
  5
26A
100
AcDbEntity
  8
0
100
AcDbCircle
 62
7
  6
CONTINUOUS
 10
5.7083949739
 20
4.3741861094
 40
0.6396921648
100
AcDbArc
 50
267.9855100186
 51
269.9996067106
  0
CIRCLE
  5
26B
100
AcDbEntity
  8
ALL_ASSEMBLY_MEMBERS
100
AcDbCircle
 62
7
  6
CONTINUOUS
 10
3.2897526194
 20
3.114810794
 40
0.17625
  0
CIRCLE
  5
26C
100
AcDbEntity
  8
ALL_ASSEMBLY_MEMBERS
100
AcDbCircle
 62
7
  6
CONTINUOUS
 10
3.2897526194
 20
3.114810794
 40
0.166875
  0
CIRCLE
  5
26D
100
AcDbEntity
  8
ALL_ASSEMBLY_MEMBERS
100
AcDbCircle
 62
7
  6
CONTINUOUS
 10
4.1147526194
 20
3.114810794
 40
0.064125
  0
ARC
  5
26E
100
AcDbEntity
  8
ALL_ASSEMBLY_MEMBERS
100
AcDbCircle
 62
7
  6
CONTINUOUS
 10
4.1147526194
 20
3.114810794
 40
0.0615
100
AcDbArc
 50
307.1892029486
 51
306.9446978797
  0
ARC
  5
26F
100
AcDbEntity
  8
ALL_ASSEMBLY_MEMBERS
100
AcDbCircle
 62
7
  6
CONTINUOUS
 10
4.1130424383
 20
3.113168472
 40
0.0612605646
100
AcDbArc
 50
309.146806475
 51
309.3933112981
  0
ARC
  5
270
100
AcDbEntity
  8
ALL_ASSEMBLY_MEMBERS
100
AcDbCircle
 62
7
  6
CONTINUOUS
 10
4.1147526194
 20
3.114810794
 40
0.054
100
AcDbArc
 50
310.544423655
 51
128.6553637346
  0
ARC
  5
271
100
AcDbEntity
  8
ALL_ASSEMBLY_MEMBERS
100
AcDbCircle
 62
7
  6
CONTINUOUS
 10
4.1147525678
 20
3.1148107814
 40
0.0488174498
100
AcDbArc
 50
174.6142622121
 51
262.3939912883
  0
ARC
  5
272
100
AcDbEntity
  8
ALL_ASSEMBLY_MEMBERS
100
AcDbCircle
 62
7
  6
CONTINUOUS
 10
4.1147524299
 20
3.1148020357
 40
0.0488087629
100
AcDbArc
 50
262.392792923
 51
264.584733315
  0
ARC
  5
273
100
AcDbEntity
  8
ALL_ASSEMBLY_MEMBERS
100
AcDbCircle
 62
7
  6
CONTINUOUS
 10
4.1147407545
 20
3.1146844649
 40
0.0486906149
100
AcDbArc
 50
263.4120477069
 51
264.5853542807
  0
ARC
  5
274
100
AcDbEntity
  8
ALL_ASSEMBLY_MEMBERS
100
AcDbCircle
 62
7
  6
CONTINUOUS
 10
4.1146074519
 20
3.1148244112
 40
0.0486716952
100
AcDbArc
 50
173.9708951495
 51
174.6142021691
  0
ARC
  5
275
100
AcDbEntity
  8
ALL_ASSEMBLY_MEMBERS
100
AcDbCircle
 62
7
  6
CONTINUOUS
 10
4.0322526194
 20
4.445123294
 40
0.0225
100
AcDbArc
 50
180.0
 51
270.0000010562
  0
ARC
  5
276
100
AcDbEntity
  8
ALL_ASSEMBLY_MEMBERS
100
AcDbCircle
 62
7
  6
CONTINUOUS
 10
4.3622526194
 20
4.445123294
 40
0.0225
100
AcDbArc
 50
269.9999989438
 51
360.0
  0
ARC
  5
277
100
AcDbEntity
  8
ALL_ASSEMBLY_MEMBERS
100
AcDbCircle
 62
7
  6
CONTINUOUS
 10
3.7247526194
 20
5.007810794
 40
0.0225
100
AcDbArc
 50
179.9999982136
 51
270.0
  0
ARC
  5
278
100
AcDbEntity
  8
ALL_ASSEMBLY_MEMBERS
100
AcDbCircle
 62
7
  6
CONTINUOUS
 10
3.7247526194
 20
5.946810794
 40
0.0225
100
AcDbArc
 50
90.0
 51
180.0000017864
  0
ARC
  5
279
100
AcDbEntity
  8
0
100
AcDbCircle
 62
7
  6
CONTINUOUS
 10
5.8127762414
 20
1.224810794
 40
0.0225
100
AcDbArc
 50
180.0
 51
270.0
  0
ARC
  5
27A
100
AcDbEntity
  8
0
100
AcDbCircle
 62
7
  6
CONTINUOUS
 10
5.8127762414
 20
7.367310794
 40
0.0225
100
AcDbArc
 50
90.0
 51
180.0
  0
ARC
  5
27B
100
AcDbEntity
  8
0
100
AcDbCircle
 62
7
  6
CONTINUOUS
 10
5.6622801784
 20
2.5094958334
 40
0.0147637795
100
AcDbArc
 50
180.0000000785
 51
270.0
  0
ARC
  5
27C
100
AcDbEntity
  8
0
100
AcDbCircle
 62
7
  6
CONTINUOUS
 10
5.6622801784
 20
3.7201257547
 40
0.0147637795
100
AcDbArc
 50
90.0
 51
179.9999999215
  0
ARC
  5
27D
100
AcDbEntity
  8
0
100
AcDbCircle
 62
7
  6
CONTINUOUS
 10
4.7008776194
 20
3.8323895342
 40
0.0075
100
AcDbArc
 50
90.0
 51
180.0
  0
ARC
  5
27E
100
AcDbEntity
  8
0
100
AcDbCircle
 62
7
  6
CONTINUOUS
 10
4.9746276194
 20
3.8323895342
 40
0.0075
100
AcDbArc
 50
0.0
 51
90.0
  0
SPLINE
  5
27F
100
AcDbEntity
  8
ALL_ASSEMBLY_MEMBERS
100
AcDbSpline
 62
7
  6
CONTINUOUS
 70
0
 71
3
 72
21
 73
17
 74
0
 42
0.0000001
 43
0.0000001
 44
0.0000000001
 40
0.0
 40
0.0
 40
0.0
 40
0.0
 40
0.1249675496
 40
0.1874782833
 40
0.2499807154
 40
0.312482071
 40
0.3749863092
 40
0.4374911187
 40
0.499995924
 40
0.562500754
 40
0.6250072984
 40
0.6875135588
 40
0.7500174804
 40
0.812522036
 40
0.8750347512
 40
1.0
 40
1.0
 40
1.0
 40
1.0
 10
4.0810223579
 20
3.1569803264
 30
0.0
 10
4.0798086507
 20
3.155746191
 30
0.0
 10
4.078076021
 20
3.1538046476
 30
0.0
 10
4.0759659088
 20
3.1510581886
 30
0.0
 10
4.0744862788
 20
3.1489221628
 30
0.0
 10
4.0731144815
 20
3.1467155613
 30
0.0
 10
4.0718544376
 20
3.1444432066
 30
0.0
 10
4.0707099112
 20
3.1421104716
 30
0.0
 10
4.0696847635
 20
3.1397228392
 30
0.0
 10
4.0687821825
 20
3.1372861892
 30
0.0
 10
4.0680055332
 20
3.1348064908
 30
0.0
 10
4.067357494
 20
3.1322901076
 30
0.0
 10
4.0668407431
 20
3.1297435681
 30
0.0
 10
4.0664575646
 20
3.1271732875
 30
0.0
 10
4.0661274732
 20
3.1237254513
 30
0.0
 10
4.0660855892
 20
3.1211225033
 30
0.0
 10
4.0661506295
 20
3.1193928112
 30
0.0
  0
SPLINE
  5
280
100
AcDbEntity
  8
ALL_ASSEMBLY_MEMBERS
100
AcDbSpline
 62
7
  6
CONTINUOUS
 70
0
 71
3
 72
59
 73
55
 74
0
 42
0.0000001
 43
0.0000001
 44
0.0000000001
 40
0.0
 40
0.0
 40
0.0
 40
0.0
 40
0.0312357165
 40
0.0468653689
 40
0.0624916596
 40
0.0781160695
 40
0.0937404976
 40
0.1093658653
 40
0.1249917645
 40
0.1406175438
 40
0.1562432057
 40
0.1718688904
 40
0.1874945804
 40
0.2187360246
 40
0.2499776854
 40
0.2656037392
 40
0.2812297918
 40
0.2968559782
 40
0.3124821752
 40
0.3281083912
 40
0.3437347328
 40
0.3593610642
 40
0.3749874387
 40
0.3906139293
 40
0.4062403952
 40
0.4218669247
 40
0.4374935577
 40
0.4531201578
 40
0.4687468374
 40
0.4843736074
 40
0.5000003404
 40
0.5156271646
 40
0.5312540665
 40
0.546880931
 40
0.5625078948
 40
0.5781349248
 40
0.5937619191
 40
0.6250068852
 40
0.6562520172
 40
0.6718792937
 40
0.6875065392
 40
0.718752206
 40
0.7499980248
 40
0.7656255375
 40
0.7812530333
 40
0.812499346
 40
0.8437457262
 40
0.8593735779
 40
0.8750015805
 40
0.9062482692
 40
0.9374936387
 40
0.9531232106
 40
0.9687555201
 40
1.0
 40
1.0
 40
1.0
 40
1.0
 10
4.0810223579
 20
3.1569803264
 30
0.0
 10
4.0824568208
 20
3.1582344659
 30
0.0
 10
4.084711421
 20
3.1600036258
 30
0.0
 10
4.0878877106
 20
3.1621135339
 30
0.0
 10
4.0903511255
 20
3.163568836
 30
0.0
 10
4.0928870784
 20
3.1648926598
 30
0.0
 10
4.0954889023
 20
3.1660817687
 30
0.0
 10
4.098149405
 20
3.1671332381
 30
0.0
 10
4.1008611132
 20
3.1680448061
 30
0.0
 10
4.10361664
 20
3.1688139052
 30
0.0
 10
4.1064083463
 20
3.1694388577
 30
0.0
 10
4.1092287088
 20
3.169918551
 30
0.0
 10
4.1130162932
 20
3.1703625728
 30
0.0
 10
4.1177862669
 20
3.1705506053
 30
0.0
 10
4.122550257
 20
3.1702478522
 30
0.0
 10
4.1263264399
 20
3.1697153529
 30
0.0
 10
4.1291352118
 20
3.1691716868
 30
0.0
 10
4.1319126364
 20
3.1684859218
 30
0.0
 10
4.1346516743
 20
3.1676599654
 30
0.0
 10
4.1373452603
 20
3.1666960651
 30
0.0
 10
4.1399867201
 20
3.1655973333
 30
0.0
 10
4.1425693415
 20
3.1643666241
 30
0.0
 10
4.1450866328
 20
3.1630072783
 30
0.0
 10
4.1475325232
 20
3.1615232931
 30
0.0
 10
4.1499008481
 20
3.1599183997
 30
0.0
 10
4.1521858207
 20
3.158196907
 30
0.0
 10
4.1543820777
 20
3.1563635718
 30
0.0
 10
4.1564841199
 20
3.1544229203
 30
0.0
 10
4.1584869904
 20
3.1523800775
 30
0.0
 10
4.1603861129
 20
3.1502404364
 30
0.0
 10
4.1621767602
 20
3.1480092141
 30
0.0
 10
4.1638548967
 20
3.1456921867
 30
0.0
 10
4.1654167965
 20
3.1432952598
 30
0.0
 10
4.1668585949
 20
3.1408242139
 30
0.0
 10
4.1681772295
 20
3.1382853283
 30
0.0
 10
4.169369902
 20
3.1356848127
 30
0.0
 10
4.1707879189
 20
3.1321444838
 30
0.0
 10
4.1722337569
 20
3.1275954501
 30
0.0
 10
4.1732299054
 20
3.1229273822
 30
0.0
 10
4.1737530012
 20
3.119149601
 30
0.0
 10
4.1740924741
 20
3.1153508817
 30
0.0
 10
4.1741724392
 20
3.1105783938
 30
0.0
 10
4.1737928269
 20
3.1058204148
 30
0.0
 10
4.1732174691
 20
3.1020501978
 30
0.0
 10
4.1724621947
 20
3.0983118326
 30
0.0
 10
4.1711849331
 20
3.0937128341
 30
0.0
 10
4.1694759518
 20
3.0892562548
 30
0.0
 10
4.1678611069
 20
3.0858010712
 30
0.0
 10
4.1660844024
 20
3.0824262406
 30
0.0
 10
4.1635680123
 20
3.0783705897
 30
0.0
 10
4.1606812739
 20
3.0745696339
 30
0.0
 10
4.1581667018
 20
3.0717016186
 30
0.0
 10
4.1555207313
 20
3.068954831
 30
0.0
 10
4.1533937826
 20
3.0670354209
 30
0.0
 10
4.1519208614
 20
3.0658258381
 30
0.0
  0
SPLINE
  5
281
100
AcDbEntity
  8
ALL_ASSEMBLY_MEMBERS
100
AcDbSpline
 62
7
  6
CONTINUOUS
 70
0
 71
3
 72
22
 73
18
 74
0
 42
0.0000001
 43
0.0000001
 44
0.0000000001
 40
0.0
 40
0.0
 40
0.0
 40
0.0
 40
0.0623983533
 40
0.1248379478
 40
0.1872843212
 40
0.2497351097
 40
0.3121983982
 40
0.3746768057
 40
0.4371673429
 40
0.4996679797
 40
0.562180091
 40
0.6247027701
 40
0.6872352009
 40
0.7497744508
 40
0.8123254413
 40
0.8748953184
 40
1.0
 40
1.0
 40
1.0
 40
1.0
 10
4.1498546404
 20
3.0737760755
 30
0.0
 10
4.1491886149
 20
3.0729871942
 30
0.0
 10
4.1478098523
 20
3.0714473385
 30
0.0
 10
4.1456124591
 20
3.0692601253
 30
0.0
 10
4.1432931221
 20
3.0672012394
 30
0.0
 10
4.1408608725
 20
3.0652765175
 30
0.0
 10
4.1383241544
 20
3.0634908461
 30
0.0
 10
4.1356916587
 20
3.0618484667
 30
0.0
 10
4.1329722025
 20
3.0603532391
 30
0.0
 10
4.1301745832
 20
3.0590087083
 30
0.0
 10
4.1273077988
 20
3.0578174283
 30
0.0
 10
4.1243805882
 20
3.0567819868
 30
0.0
 10
4.1214019538
 20
3.0559038425
 30
0.0
 10
4.1183806078
 20
3.0551845312
 30
0.0
 10
4.1153249184
 20
3.0546247513
 30
0.0
 10
4.1112178759
 20
3.0540918735
 30
0.0
 10
4.1081095154
 20
3.0539319266
 30
0.0
 10
4.1060395483
 20
3.0539311391
 30
0.0
  0
SPLINE
  5
282
100
AcDbEntity
  8
ALL_ASSEMBLY_MEMBERS
100
AcDbSpline
 62
7
  6
CONTINUOUS
 70
0
 71
3
 72
15
 73
11
 74
0
 42
0.0000001
 43
0.0000001
 44
0.0000000001
 40
0.0
 40
0.0
 40
0.0
 40
0.0
 40
0.1249888213
 40
0.2499766381
 40
0.3749658472
 40
0.4999566776
 40
0.6249529319
 40
0.7499579752
 40
0.8749752821
 40
1.0
 40
1.0
 40
1.0
 40
1.0
 10
4.1101461721
 20
3.0662111135
 30
0.0
 10
4.1118329472
 20
3.0658231272
 30
0.0
 10
4.1152508851
 20
3.0652277912
 30
0.0
 10
4.1204408939
 20
3.0648816269
 30
0.0
 10
4.1256391065
 20
3.0650780017
 30
0.0
 10
4.130789293
 20
3.0658078699
 30
0.0
 10
4.1358387919
 20
3.0670567385
 30
0.0
 10
4.1407378923
 20
3.068805669
 30
0.0
 10
4.1454394424
 20
3.0710310173
 30
0.0
 10
4.1484146257
 20
3.0728149189
 30
0.0
 10
4.1498546404
 20
3.0737760755
 30
0.0
  0
LINE
  5
283
100
AcDbEntity
  8
0
100
AcDbLine
 62
7
  6
CONTINUOUS
 10
5.685904728
 20
3.7348894379
 11
5.6879667885
 21
3.734820228
  0
SPLINE
  5
284
100
AcDbEntity
  8
ALL_ASSEMBLY_MEMBERS
100
AcDbSpline
 62
7
  6
CONTINUOUS
 70
0
 71
3
 72
56
 73
52
 74
0
 42
0.0000001
 43
0.0000001
 44
0.0000000001
 40
0.0
 40
0.0
 40
0.0
 40
0.0
 40
0.0482418546
 40
0.0964047947
 40
0.1443455613
 40
0.1919239894
 40
0.2390277244
 40
0.2855556613
 40
0.3314049686
 40
0.3764774276
 40
0.4639089306
 40
0.5471066863
 40
0.6253861693
 40
0.6980773133
 40
0.732119921
 40
0.7645149753
 40
0.7951780001
 40
0.8240234249
 40
0.8509668668
 40
0.8759242223
 40
0.8988108433
 40
0.9195467902
 40
0.9380561434
 40
0.946452041
 40
0.9542629022
 40
0.9614811337
 40
0.9680998998
 40
0.9741123559
 40
0.9795116458
 40
0.9842909023
 40
0.988443309
 40
0.9902827755
 40
0.9919639518
 40
0.993486521
 40
0.9948501663
 40
0.9960545705
 40
0.9970994165
 40
0.9979843872
 40
0.9983668201
 40
0.9987091651
 40
0.9990113826
 40
0.9992734329
 40
0.9994952763
 40
0.999676873
 40
0.9998181835
 40
0.999873719
 40
0.999919168
 40
0.9999545255
 40
0.9999797867
 40
0.9999949465
 40
1.0
 40
1.0
 40
1.0
 40
1.0
 10
4.1972526194
 20
5.0256040308
 30
0.0
 10
4.1940312072
 20
5.0256040308
 30
0.0
 10
4.1875934441
 20
5.0255342911
 30
0.0
 10
4.1779588678
 20
5.0252250349
 30
0.0
 10
4.1683771171
 20
5.0247156318
 30
0.0
 10
4.1588788096
 20
5.0240094536
 30
0.0
 10
4.1494910125
 20
5.023116887
 30
0.0
 10
4.140237658
 20
5.0220502875
 30
0.0
 10
4.1311413988
 20
5.0208207698
 30
0.0
 10
4.1193708405
 20
5.0190013636
 30
0.0
 10
4.1051974849
 20
5.0164171435
 30
0.0
 10
4.0889527498
 20
5.012886569
 30
0.0
 10
4.0737782874
 20
5.0091030234
 30
0.0
 10
4.0618750506
 20
5.0057890981
 30
0.0
 10
4.0529718432
 20
5.0031340311
 30
0.0
 10
4.046779166
 20
5.0012117797
 30
0.0
 10
4.0409371647
 20
4.9993316998
 30
0.0
 10
4.035458785
 20
4.9975109625
 30
0.0
 10
4.0303571064
 20
4.9957655369
 30
0.0
 10
4.0256451316
 20
4.9941108229
 30
0.0
 10
4.0213352888
 20
4.992562431
 30
0.0
 10
4.0174398147
 20
4.9911344276
 30
0.0
 10
4.0144593322
 20
4.9900219898
 30
0.0
 10
4.0122906393
 20
4.9892029102
 30
0.0
 10
4.0108285289
 20
4.988646974
 30
0.0
 10
4.0094784222
 20
4.9881303799
 30
0.0
 10
4.0082414254
 20
4.9876542292
 30
0.0
 10
4.0071185911
 20
4.9872196184
 30
0.0
 10
4.0061109719
 20
4.9868276439
 30
0.0
 10
4.0052196222
 20
4.9864793855
 30
0.0
 10
4.0045499773
 20
4.9862168876
 30
0.0
 10
4.0040730615
 20
4.9860295848
 30
0.0
 10
4.0037596567
 20
4.9859063393
 30
0.0
 10
4.0034758695
 20
4.9857945993
 30
0.0
 10
4.0032217491
 20
4.9856944134
 30
0.0
 10
4.0029973444
 20
4.985605831
 30
0.0
 10
4.0028027041
 20
4.9855289013
 30
0.0
 10
4.0026591339
 20
4.9854720858
 30
0.0
 10
4.0025591959
 20
4.9854324983
 30
0.0
 10
4.0024954425
 20
4.9854072287
 30
0.0
 10
4.0024391664
 20
4.9853849085
 30
0.0
 10
4.0023903758
 20
4.985365547
 30
0.0
 10
4.0023490706
 20
4.985349141
 30
0.0
 10
4.0023152745
 20
4.9853357232
 30
0.0
 10
4.0022917693
 20
4.985326354
 30
0.0
 10
4.002276769
 20
4.9853204248
 30
0.0
 10
4.0022682389
 20
4.9853169531
 30
0.0
 10
4.0022618404
 20
4.9853146079
 30
0.0
 10
4.0022567264
 20
4.9853121172
 30
0.0
 10
4.0022546287
 20
4.9853120806
 30
0.0
 10
4.0022526256
 20
4.9853104568
 30
0.0
 10
4.0022526195
 20
4.9853107942
 30
0.0
  0
SPLINE
  5
285
100
AcDbEntity
  8
ALL_ASSEMBLY_MEMBERS
100
AcDbSpline
 62
7
  6
CONTINUOUS
 70
0
 71
3
 72
44
 73
40
 74
0
 42
0.0000001
 43
0.0000001
 44
0.0000000001
 40
0.0
 40
0.0
 40
0.0
 40
0.0
 40
0.0000182827
 40
0.000073099
 40
0.0001644218
 40
0.0002922244
 40
0.00045648
 40
0.0006571615
 40
0.0011676954
 40
0.0018236114
 40
0.0026246948
 40
0.0035707308
 40
0.0046615049
 40
0.0058968025
 40
0.007276409
 40
0.0104676909
 40
0.0142336354
 40
0.0185725279
 40
0.0234825816
 40
0.0289605335
 40
0.0350017491
 40
0.0416015462
 40
0.05645818
 40
0.0734930918
 40
0.0926686201
 40
0.1139394963
 40
0.1372538066
 40
0.1625596356
 40
0.1898052676
 40
0.2189365001
 40
0.2826240117
 40
0.3531617176
 40
0.4300857756
 40
0.5129334005
 40
0.6012457878
 40
0.6945697012
 40
0.7924486262
 40
0.8944188617
 40
1.0
 40
1.0
 40
1.0
 40
1.0
 10
4.3922526194
 20
4.9853107941
 30
0.0
 10
4.3922520766
 20
4.9853113419
 30
0.0
 10
4.3922487895
 20
4.9853118449
 30
0.0
 10
4.3922427538
 20
4.9853150271
 30
0.0
 10
4.3922317847
 20
4.985318949
 30
0.0
 10
4.3922168606
 20
4.985325082
 30
0.0
 10
4.3921975064
 20
4.9853327017
 30
0.0
 10
4.3921632065
 20
4.9853463698
 30
0.0
 10
4.3921095963
 20
4.9853676364
 30
0.0
 10
4.3920324557
 20
4.9853982533
 30
0.0
 10
4.3919382199
 20
4.9854356039
 30
0.0
 10
4.3918269199
 20
4.9854796823
 30
0.0
 10
4.3916985729
 20
4.9855304621
 30
0.0
 10
4.3915532011
 20
4.9855879241
 30
0.0
 10
4.3913253982
 20
4.9856778835
 30
0.0
 10
4.3909982411
 20
4.985806886
 30
0.0
 10
4.3905548419
 20
4.9859813939
 30
0.0
 10
4.3900438452
 20
4.9861821195
 30
0.0
 10
4.3894654878
 20
4.9864088842
 30
0.0
 10
4.3888200782
 20
4.9866613555
 30
0.0
 10
4.3881080055
 20
4.9869390692
 30
0.0
 10
4.3870268619
 20
4.9873592736
 30
0.0
 10
4.3855122891
 20
4.9879444317
 30
0.0
 10
4.3835006006
 20
4.9887148412
 30
0.0
 10
4.3812335121
 20
4.9895748753
 30
0.0
 10
4.3787153287
 20
4.9905197682
 30
0.0
 10
4.375950734
 20
4.9915439829
 30
0.0
 10
4.3729447394
 20
4.9926419936
 30
0.0
 10
4.3697024832
 20
4.9938082562
 30
0.0
 10
4.3649276942
 20
4.9954971893
 30
0.0
 10
4.3584105665
 20
4.9977363093
 30
0.0
 10
4.3499488286
 20
5.0005178841
 30
0.0
 10
4.340674257
 20
5.0034117217
 30
0.0
 10
4.3306322599
 20
5.0063586766
 30
0.0
 10
4.3198691231
 20
5.0092986476
 30
0.0
 10
4.3084322236
 20
5.012169434
 30
0.0
 10
4.2963715093
 20
5.0149095373
 30
0.0
 10
4.2837405592
 20
5.017456865
 30
0.0
 10
4.2751145945
 20
5.0189626093
 30
0.0
 10
4.2707171857
 20
5.01966863
 30
0.0
  0
LINE
  5
286
100
AcDbEntity
  8
ALL_ASSEMBLY_MEMBERS
100
AcDbLine
 62
7
  6
CONTINUOUS
 10
4.2707171857
 20
5.01966863
 11
4.2701508871
 21
5.0197592108
  0
SPLINE
  5
287
100
AcDbEntity
  8
ALL_ASSEMBLY_MEMBERS
100
AcDbSpline
 62
7
  6
CONTINUOUS
 70
0
 71
3
 72
12
 73
8
 74
0
 42
0.0000001
 43
0.0000001
 44
0.0000000001
 40
0.0
 40
0.0
 40
0.0
 40
0.0
 40
0.2420112349
 40
0.490796225
 40
0.6171029698
 40
0.7443104944
 40
1.0
 40
1.0
 40
1.0
 40
1.0
 10
4.2701508871
 20
5.0197592108
 30
0.0
 10
4.2643190015
 20
5.0206885273
 30
0.0
 10
4.252456538
 20
5.0223577928
 30
0.0
 10
4.2374721256
 20
5.0238877087
 30
0.0
 10
4.2252461369
 20
5.0247689785
 30
0.0
 10
4.2128366151
 20
5.025408465
 30
0.0
 10
4.2034918565
 20
5.0256040308
 30
0.0
 10
4.1972526194
 20
5.0256040308
 30
0.0
  0
SPLINE
  5
288
100
AcDbEntity
  8
ALL_ASSEMBLY_MEMBERS
100
AcDbSpline
 62
7
  6
CONTINUOUS
 70
0
 71
3
 72
15
 73
11
 74
0
 42
0.0000001
 43
0.0000001
 44
0.0000000001
 40
0.0
 40
0.0
 40
0.0
 40
0.0
 40
0.0383023088
 40
0.1469422305
 40
0.3089839169
 40
0.4999851369
 40
0.6909880625
 40
0.853042422
 40
0.9616934259
 40
1.0
 40
1.0
 40
1.0
 40
1.0
 10
4.0506276194
 20
2.622623294
 30
0.0
 10
4.0522558073
 20
2.6228354382
 30
0.0
 10
4.0585061253
 20
2.6236193108
 30
0.0
 10
4.0716788087
 20
2.6250237861
 30
0.0
 10
4.0914258378
 20
2.6264367009
 30
0.0
 10
4.1147507797
 20
2.6270246793
 30
0.0
 10
4.1380762671
 20
2.6264368196
 30
0.0
 10
4.1578243966
 20
2.6250239798
 30
0.0
 10
4.1709982809
 20
2.6236194287
 30
0.0
 10
4.1772492507
 20
2.6228354666
 30
0.0
 10
4.1788776194
 20
2.622623294
 30
0.0
  0
SPLINE
  5
289
100
AcDbEntity
  8
ALL_ASSEMBLY_MEMBERS
100
AcDbSpline
 62
7
  6
CONTINUOUS
 70
0
 71
3
 72
27
 73
23
 74
0
 42
0.0000001
 43
0.0000001
 44
0.0000000001
 40
0.0
 40
0.0
 40
0.0
 40
0.0
 40
0.0056122512
 40
0.0125733612
 40
0.0222529144
 40
0.0494506198
 40
0.0864632649
 40
0.132422962
 40
0.1863956326
 40
0.2474811002
 40
0.3148249295
 40
0.3876793975
 40
0.4653702447
 40
0.5473022317
 40
0.6329262302
 40
0.6769436559
 40
0.7216762516
 40
0.8129388742
 40
0.859304335
 40
0.9060344188
 40
0.952983707
 40
1.0
 40
1.0
 40
1.0
 40
1.0
 10
3.4660026194
 20
3.396060794
 30
0.0
 10
3.4657025864
 20
3.3958724446
 30
0.0
 10
3.4650298573
 20
3.3954513609
 30
0.0
 10
3.4638376362
 20
3.3947086589
 30
0.0
 10
3.4614867318
 20
3.3932491054
 30
0.0
 10
3.4575119079
 20
3.3908089552
 30
0.0
 10
3.4515547745
 20
3.387221
 30
0.0
 10
3.4440970045
 20
3.3828497882
 30
0.0
 10
3.435251495
 20
3.377843083
 30
0.0
 10
3.4251229035
 20
3.3723666701
 30
0.0
 10
3.4138072386
 20
3.3665859338
 30
0.0
 10
3.4013812985
 20
3.3606854775
 30
0.0
 10
3.3879139562
 20
3.354848579
 30
0.0
 10
3.3734609886
 20
3.3492890488
 30
0.0
 10
3.3607699995
 20
3.345108626
 30
0.0
 10
3.3501761441
 20
3.3421163794
 30
0.0
 10
3.339149078
 20
3.3393697225
 30
0.0
 10
3.3278436329
 20
3.3371457944
 30
0.0
 10
3.3163168815
 20
3.3355316734
 30
0.0
 10
3.3075188991
 20
3.3346481574
 30
0.0
 10
3.2986522686
 20
3.334108194
 30
0.0
 10
3.2927203498
 20
3.333985382
 30
0.0
 10
3.2897526194
 20
3.333985382
 30
0.0
  0
SPLINE
  5
28A
100
AcDbEntity
  8
ALL_ASSEMBLY_MEMBERS
100
AcDbSpline
 62
7
  6
CONTINUOUS
 70
0
 71
3
 72
27
 73
23
 74
0
 42
0.0000001
 43
0.0000001
 44
0.0000000001
 40
0.0
 40
0.0
 40
0.0
 40
0.0
 40
0.0470163223
 40
0.0939656818
 40
0.1406958504
 40
0.1870613315
 40
0.2783237428
 40
0.323056226
 40
0.367073584
 40
0.4526974886
 40
0.5346293894
 40
0.6123202168
 40
0.6851746665
 40
0.7525185385
 40
0.8136040746
 40
0.867576822
 40
0.9135366088
 40
0.9505493048
 40
0.9777470588
 40
0.9874266166
 40
0.9943877333
 40
1.0
 40
1.0
 40
1.0
 40
1.0
 10
3.2897526194
 20
2.8956362061
 30
0.0
 10
3.2927203516
 20
2.8956362061
 30
0.0
 10
3.2986522768
 20
2.8955133905
 30
0.0
 10
3.3075189185
 20
2.8949734197
 30
0.0
 10
3.3163169122
 20
2.8940899069
 30
0.0
 10
3.3278436592
 20
2.8924758025
 30
0.0
 10
3.3391490843
 20
2.8902518694
 30
0.0
 10
3.3501761245
 20
2.8875052112
 30
0.0
 10
3.3607699627
 20
2.8845129677
 30
0.0
 10
3.3734609399
 20
2.8803325588
 30
0.0
 10
3.3879138955
 20
2.8747730323
 30
0.0
 10
3.4013812321
 20
2.8689361406
 30
0.0
 10
3.4138071734
 20
2.8630356862
 30
0.0
 10
3.4251228447
 20
2.8572549496
 30
0.0
 10
3.4352514471
 20
2.8517785318
 30
0.0
 10
3.4440969704
 20
2.8467718209
 30
0.0
 10
3.4515547516
 20
2.8424006011
 30
0.0
 10
3.4575118963
 20
2.8388126415
 30
0.0
 10
3.4614867249
 20
2.8363724863
 30
0.0
 10
3.4638376328
 20
2.8349129315
 30
0.0
 10
3.4650298555
 20
2.8341702289
 30
0.0
 10
3.4657025857
 20
2.8337491442
 30
0.0
 10
3.4660026194
 20
2.833560794
 30
0.0
  0
SPLINE
  5
28B
100
AcDbEntity
  8
ALL_ASSEMBLY_MEMBERS
100
AcDbSpline
 62
7
  6
CONTINUOUS
 70
0
 71
3
 72
28
 73
24
 74
0
 42
0.0000001
 43
0.0000001
 44
0.0000000001
 40
0.0
 40
0.0
 40
0.0
 40
0.0
 40
0.0056120557
 40
0.0125730251
 40
0.0222524264
 40
0.0494494894
 40
0.0864614595
 40
0.1324202853
 40
0.1863921043
 40
0.2474766804
 40
0.3148194894
 40
0.3876728432
 40
0.4653623297
 40
0.5472930149
 40
0.6329154273
 40
0.67693216
 40
0.7216642744
 40
0.767031529
 40
0.8129396691
 40
0.859305027
 40
0.9060351481
 40
0.9529842162
 40
1.0
 40
1.0
 40
1.0
 40
1.0
 10
3.1135026194
 20
2.833560794
 30
0.0
 10
3.113802647
 20
2.8337491381
 30
0.0
 10
3.1144753685
 20
2.8341702149
 30
0.0
 10
3.1156675788
 20
2.8349129129
 30
0.0
 10
3.1180184624
 20
2.836372461
 30
0.0
 10
3.1219932695
 20
2.8388125856
 30
0.0
 10
3.1279503595
 20
2.8424005327
 30
0.0
 10
3.1354081082
 20
2.8467717197
 30
0.0
 10
3.1442535904
 20
2.8517784253
 30
0.0
 10
3.1543821709
 20
2.8572548292
 30
0.0
 10
3.1656978207
 20
2.8630355646
 30
0.0
 10
3.1781237286
 20
2.8689360179
 30
0.0
 10
3.1915910451
 20
2.8747729048
 30
0.0
 10
3.2060439369
 20
2.8803324207
 30
0.0
 10
3.2187349473
 20
2.8845128903
 30
0.0
 10
3.2293286377
 20
2.8875050675
 30
0.0
 10
3.2375447881
 20
2.8895516388
 30
0.0
 10
3.2459410402
 20
2.8913502335
 30
0.0
 10
3.2544966574
 20
2.8928728903
 30
0.0
 10
3.2631882162
 20
2.8940898603
 30
0.0
 10
3.2719861929
 20
2.8949733674
 30
0.0
 10
3.2808529312
 20
2.895513374
 30
0.0
 10
3.2867848798
 20
2.8956362061
 30
0.0
 10
3.2897526194
 20
2.8956362061
 30
0.0
  0
SPLINE
  5
28C
100
AcDbEntity
  8
ALL_ASSEMBLY_MEMBERS
100
AcDbSpline
 62
7
  6
CONTINUOUS
 70
0
 71
3
 72
28
 73
24
 74
0
 42
0.0000001
 43
0.0000001
 44
0.0000000001
 40
0.0
 40
0.0
 40
0.0
 40
0.0
 40
0.0470157561
 40
0.0939647579
 40
0.1406948017
 40
0.1870601439
 40
0.2329683681
 40
0.2783357504
 40
0.3230679808
 40
0.3670847825
 40
0.4527072879
 40
0.5346380593
 40
0.6123275597
 40
0.6851809273
 40
0.7525236904
 40
0.8136081946
 40
0.8675799349
 40
0.913538669
 40
0.950550587
 40
0.9777476006
 40
0.9874269968
 40
0.9943879597
 40
1.0
 40
1.0
 40
1.0
 40
1.0
 10
3.2897526194
 20
3.333985382
 30
0.0
 10
3.2867848815
 20
3.333985382
 30
0.0
 10
3.2808529388
 20
3.3341082107
 30
0.0
 10
3.2719862109
 20
3.3346482104
 30
0.0
 10
3.2631882445
 20
3.3355317204
 30
0.0
 10
3.2544966878
 20
3.3367487018
 30
0.0
 10
3.2459410584
 20
3.3382713598
 30
0.0
 10
3.237544785
 20
3.3400699539
 30
0.0
 10
3.2293286141
 20
3.3421165243
 30
0.0
 10
3.2187349062
 20
3.3451087046
 30
0.0
 10
3.206043884
 20
3.3492891884
 30
0.0
 10
3.1915909807
 20
3.3548487083
 30
0.0
 10
3.178123659
 20
3.3606856013
 30
0.0
 10
3.1656977533
 20
3.3665860567
 30
0.0
 10
3.1543821104
 20
3.3723667912
 30
0.0
 10
3.1442535414
 20
3.3778431902
 30
0.0
 10
3.1354080734
 20
3.3828498898
 30
0.0
 10
3.1279503362
 20
3.3872210687
 30
0.0
 10
3.1219932576
 20
3.3908090112
 30
0.0
 10
3.1180184554
 20
3.3932491308
 30
0.0
 10
3.1156675754
 20
3.3947086775
 30
0.0
 10
3.1144753667
 20
3.3954513748
 30
0.0
 10
3.1138026463
 20
3.3958724507
 30
0.0
 10
3.1135026194
 20
3.396060794
 30
0.0
  0
SPLINE
  5
28D
100
AcDbEntity
  8
ALL_FEATURES
100
AcDbSpline
 62
7
  6
CONTINUOUS
 70
0
 71
3
 72
25
 73
21
 74
0
 42
0.0000001
 43
0.0000001
 44
0.0000000001
 40
0.0
 40
0.0
 40
0.0
 40
0.0
 40
0.0389135029
 40
0.14820226
 40
0.2238461621
 40
0.2657430664
 40
0.3098501358
 40
0.3557685748
 40
0.4030655375
 40
0.4512975063
 40
0.4999994331
 40
0.5487015184
 40
0.5969337411
 40
0.6442308738
 40
0.6901493874
 40
0.7342564735
 40
0.7761533172
 40
0.8517970282
 40
0.9610864101
 40
1.0
 40
1.0
 40
1.0
 40
1.0
 10
4.9900963694
 20
3.7348895342
 30
0.0
 10
4.9862195248
 20
3.733936966
 30
0.0
 10
4.9714231292
 20
3.7304319834
 30
0.0
 10
4.9489053869
 20
3.7258647302
 30
0.0
 10
4.9259148387
 20
3.7222260452
 30
0.0
 10
4.9094661292
 20
3.7201006432
 30
0.0
 10
4.8960084969
 20
3.7186480518
 30
0.0
 10
4.8819693146
 20
3.7174530052
 30
0.0
 10
4.8674835828
 20
3.7165586672
 30
0.0
 10
4.8526947948
 20
3.716009382
 30
0.0
 10
4.8377527776
 20
3.7158210378
 30
0.0
 10
4.8228107347
 20
3.716009386
 30
0.0
 10
4.8080218862
 20
3.7165586515
 30
0.0
 10
4.7935361033
 20
3.7174529944
 30
0.0
 10
4.7794968936
 20
3.7186480346
 30
0.0
 10
4.7660392582
 20
3.7201006273
 30
0.0
 10
4.7495905716
 20
3.7222260182
 30
0.0
 10
4.7265999848
 20
3.7258647043
 30
0.0
 10
4.7040821893
 20
3.7304319644
 30
0.0
 10
4.6892857226
 20
3.7339369638
 30
0.0
 10
4.6854088694
 20
3.7348895342
 30
0.0
  0
ENDSEC
  0
SECTION
  2
OBJECTS
  0
DICTIONARY
  5
C
100
AcDbDictionary
280
0
281
1
  3
ACAD_GROUP
350
D
  3
ACAD_MLINESTYLE
350
17
  3
ACAD_LAYOUT
350
1A
  3
ACAD_PLOTSETTINGS
350
19
  3
ACAD_PLOTSTYLENAME
350
E
  0
DICTIONARY
  5
D
102
{ACAD_REACTORS
330
C
102
}
100
AcDbDictionary
280
0
281
1
  0
ACDBDICTIONARYWDFLT
  5
E
102
{ACAD_REACTORS
330
C
102
}
100
AcDbDictionary
281
1
  3
Normal
350
F
100
AcDbDictionaryWithDefault
340
F
  0
DICTIONARY
  5
17
102
{ACAD_REACTORS
330
C
102
}
100
AcDbDictionary
280
0
281
1
  3
Standard
350
18
  0
DICTIONARY
  5
19
102
{ACAD_REACTORS
330
C
102
}
100
AcDbDictionary
281
1
  0
DICTIONARY
  5
1A
102
{ACAD_REACTORS
330
C
102
}
100
AcDbDictionary
281
1
  3
Model
350
28E
  3
Layout1
350
28F
  0
ACDBPLACEHOLDER
  5
F
102
{ACAD_REACTORS
330
E
102
}
  0
MLINESTYLE
  5
18
102
{ACAD_REACTORS
330
17
102
}
100
AcDbMlineStyle
  2
STANDARD
 70
0
  3

 62
256
 51
90.0
 52
90.0
 71
2
 49
0.5
 62
256
  6
BYLAYER
 49
-0.5
 62
256
  6
BYLAYER
  0
LAYOUT
  5
28E
102
{ACAD_REACTORS
330
1A
102
}
100
AcDbPlotSettings
  1

  2
none_device
  4
ANSI_A_(11.00_x_8.50_Inches)
  6

 40
0.0
 41
0.0
 42
0.0
 43
0.0
 44
279.4
 45
215.9
 46
0.0
 47
0.0
 48
0.0
 49
0.0
140
0.0
141
0.0
142
1.0
143
1.0
 70
1024
 72
0
 73
0
 74
0
  7

 75
0
147
1.0
148
0.0
149
0.0
100
AcDbLayout
  1
Model
 70
0
 71
0
 10
0.0
 20
0.0
 11
11.0
 21
8.5
 12
0.0
 22
0.0
 32
0.0
 14
0.0
 24
0.0
 34
0.0
 15
0.0
 25
0.0
 35
0.0
146
0.0
 13
0.0
 23
0.0
 33
0.0
 16
1.0
 26
0.0
 36
0.0
 17
0.0
 27
1.0
 37
0.0
 76
0
330
21C
345
0
346
0
  0
LAYOUT
  5
28F
102
{ACAD_REACTORS
330
1A
102
}
100
AcDbPlotSettings
  1

  2
none_device
  4
ANSI_A_(11.00_x_8.50_Inches)
  6

 40
0.0
 41
0.0
 42
0.0
 43
0.0
 44
279.4
 45
215.9
 46
0.0
 47
0.0
 48
0.0
 49
0.0
140
0.0
141
0.0
142
1.0
143
1.0
 70
0
 72
0
 73
0
 74
0
  7

 75
0
147
1.0
148
0.0
149
0.0
100
AcDbLayout
  1
Layout1
 70
0
 71
1
 10
0.0
 20
0.0
 11
11.0
 21
8.5
 12
0.0
 22
0.0
 32
0.0
 14
0.0
 24
0.0
 34
0.0
 15
0.0
 25
0.0
 35
0.0
146
0.0
 13
0.0
 23
0.0
 33
0.0
 16
1.0
 26
0.0
 36
0.0
 17
0.0
 27
1.0
 37
0.0
 76
0
330
21D
345
0
346
0
  0
ENDSEC
  0
EOF
