999
DXF file: 3-993ts_TOP.dxf
999
Pro/ENGINEER 2013150 by Parametric Technology Corporation
  0
SECTION
  2
HEADER
  9
$ACADVER
  1
AC1021
  9
$DWGCODEPAGE
  3
ANSI_1252
  9
$EXTMAX
 10
11.0
 20
8.5
 30
0.0
  9
$EXTMIN
 10
0.0
 20
0.0
 30
0.0
  9
$LIMMIN
 10
0.0
 20
0.0
  9
$LIMMAX
 10
11.0
 20
8.5
  9
$VIEWCTR
 10
5.5
 20
4.25
  9
$VIEWSIZE
 40
8.5
  9
$CLAYER
  8
0
  9
$LTSCALE
 40
0.605
  9
$CELTYPE
  6
BYLAYER
  9
$DIMSCALE
 40
1.0
  9
$DIMASZ
 40
0.1
  9
$DIMEXO
 40
0.0625
  9
$DIMDLI
 40
0.418
  9
$DIMEXE
 40
0.125
  9
$DIMCEN
 40
0.099
  9
$DIMLFAC
 40
1.0
  9
$DIMBLK
  1
_FILLED
  9
$DIMTXT
 40
0.08
  9
$DIMTOL
 70
1
  9
$DIMLIM
 70
0
  9
$DIMTFAC
 40
1.0
  9
$DIMTP
 40
0.001
  9
$DIMTM
 40
0.001
  9
$DIMGAP
 40
0.09
  9
$DIMDSEP
 70
46
  9
$PDMODE
 70
3
  9
$PDSIZE
 40
0.06
  9
$HANDSEED
  5
25E
  9
$TILEMODE
 70
1
  9
$MEASUREMENT
 70
0
  9
$INSUNITS
 70
1
  0
ENDSEC
  0
SECTION
  2
CLASSES
  0
CLASS
  1
ACDBDICTIONARYWDFLT
  2
AcDbDictionaryWithDefault
  3
AutoCAD 2000
 90
0
 91
1
280
0
281
0
  0
CLASS
  1
ACDBPLACEHOLDER
  2
AcDbPlaceHolder
  3
AutoCAD 2000
 90
0
 91
1
280
0
281
0
  0
CLASS
  1
LAYOUT
  2
AcDbLayout
  3
AutoCAD 2000
 90
0
 91
0
280
0
281
0
  0
ENDSEC
  0
SECTION
  2
TABLES
  0
TABLE
  2
VPORT
  5
8
100
AcDbSymbolTable
 70
2
  0
VPORT
  5
1F4
100
AcDbSymbolTableRecord
100
AcDbViewportTableRecord
  2
*ACTIVE
 70
0
 10
0.0
 20
0.0
 11
1.0
 21
1.0
 12
5.5
 22
4.25
 13
0.0
 23
0.0
 14
1.0
 24
1.0
 15
0.0
 25
0.0
 16
0.0
 26
0.0
 36
1.0
 17
0.0
 27
0.0
 37
0.0
 40
8.5
 41
1.2941176471
 42
50.0
 43
0.0
 44
0.0
 50
0.0
 51
0.0
 71
0
 72
100
 73
1
 74
1
 75
0
 76
0
 77
0
 78
0
  0
ENDTAB
  0
TABLE
  2
LTYPE
  5
5
100
AcDbSymbolTable
 70
6
  0
LTYPE
  5
14
100
AcDbSymbolTableRecord
100
AcDbLinetypeTableRecord
  2
BYBLOCK
 70
0
  3

 72
65
 73
0
 40
0.0
  0
LTYPE
  5
15
100
AcDbSymbolTableRecord
100
AcDbLinetypeTableRecord
  2
BYLAYER
 70
0
  3

 72
65
 73
0
 40
0.0
  0
LTYPE
  5
16
100
AcDbSymbolTableRecord
100
AcDbLinetypeTableRecord
  2
CONTINUOUS
 70
64
  3
Solid line
 72
65
 73
0
 40
0.0
  0
LTYPE
  5
1F5
100
AcDbSymbolTableRecord
100
AcDbLinetypeTableRecord
  2
CENTER
 70
64
  3
____ _ ____ _ ____ _ ____ _ ____ _ ____ _ ____
 72
65
 73
4
 40
0.6
 49
0.375
 74
0
 49
-0.075
 74
0
 49
0.075
 74
0
 49
-0.075
 74
0
  0
LTYPE
  5
1F6
100
AcDbSymbolTableRecord
100
AcDbLinetypeTableRecord
  2
HIDDEN
 70
64
  3
- - - - - - - - - - - - - - - - - - - -
 72
65
 73
2
 40
0.2
 49
0.1
 74
0
 49
-0.1
 74
0
  0
LTYPE
  5
1F7
100
AcDbSymbolTableRecord
100
AcDbLinetypeTableRecord
  2
PHANTOM
 70
64
  3
_____ _ _ _____ _ _ _____ _ _ _____
 72
65
 73
6
 40
0.8
 49
0.45
 74
0
 49
-0.05
 74
0
 49
0.1
 74
0
 49
-0.05
 74
0
 49
0.1
 74
0
 49
-0.05
 74
0
  0
LTYPE
  5
1F8
100
AcDbSymbolTableRecord
100
AcDbLinetypeTableRecord
  2
DOT
 70
64
  3
. . . . . . . . . . . . . . . . . . . .
 72
65
 73
2
 40
0.2
 49
0.1
 74
0
 49
-0.1
 74
0
  0
LTYPE
  5
1F9
100
AcDbSymbolTableRecord
100
AcDbLinetypeTableRecord
  2
DASHED
 70
64
  3
- - - - - - - - - - - - - - - - - - - -
 72
65
 73
2
 40
0.2
 49
0.1
 74
0
 49
-0.1
 74
0
  0
ENDTAB
  0
TABLE
  2
LAYER
  5
2
100
AcDbSymbolTable
 70
36
  0
LAYER
  5
10
100
AcDbSymbolTableRecord
100
AcDbLayerTableRecord
  2
0
 70
0
 62
7
  6
CONTINUOUS
370
-3
390
F
  0
LAYER
  5
1FA
100
AcDbSymbolTableRecord
100
AcDbLayerTableRecord
  2
DEFAULT_1
 70
0
 62
7
  6
CENTER
370
-3
390
F
  0
LAYER
  5
1FB
100
AcDbSymbolTableRecord
100
AcDbLayerTableRecord
  2
DEFAULT_2
 70
0
 62
8
  6
HIDDEN
370
-3
390
F
  0
LAYER
  5
1FC
100
AcDbSymbolTableRecord
100
AcDbLayerTableRecord
  2
DEFAULT_3
 70
0
 62
7
  6
PHANTOM
370
-3
390
F
  0
LAYER
  5
1FD
100
AcDbSymbolTableRecord
100
AcDbLayerTableRecord
  2
2-110_ASSY_DATUMS
 70
0
 62
7
  6
CONTINUOUS
370
-3
390
F
  0
LAYER
  5
1FE
100
AcDbSymbolTableRecord
100
AcDbLayerTableRecord
  2
ALL_ASSEMBLY_MEMBERS
 70
0
 62
7
  6
CONTINUOUS
370
-3
390
F
  0
LAYER
  5
1FF
100
AcDbSymbolTableRecord
100
AcDbLayerTableRecord
  2
ALL_FEATURES
 70
0
 62
7
  6
CONTINUOUS
370
-3
390
F
  0
LAYER
  5
200
100
AcDbSymbolTableRecord
100
AcDbLayerTableRecord
  2
AXES_FEATURES
 70
0
 62
7
  6
CONTINUOUS
370
-3
390
F
  0
LAYER
  5
201
100
AcDbSymbolTableRecord
100
AcDbLayerTableRecord
  2
CHAMFER_FEATURES
 70
0
 62
7
  6
CONTINUOUS
370
-3
390
F
  0
LAYER
  5
202
100
AcDbSymbolTableRecord
100
AcDbLayerTableRecord
  2
CUT_FEATURES
 70
0
 62
7
  6
CONTINUOUS
370
-3
390
F
  0
LAYER
  5
203
100
AcDbSymbolTableRecord
100
AcDbLayerTableRecord
  2
DATUM_CURVES
 70
0
 62
7
  6
CONTINUOUS
370
-3
390
F
  0
LAYER
  5
204
100
AcDbSymbolTableRecord
100
AcDbLayerTableRecord
  2
DATUM_PLANES
 70
0
 62
7
  6
CONTINUOUS
370
-3
390
F
  0
LAYER
  5
205
100
AcDbSymbolTableRecord
100
AcDbLayerTableRecord
  2
DATUM_POINTS
 70
0
 62
7
  6
CONTINUOUS
370
-3
390
F
  0
LAYER
  5
206
100
AcDbSymbolTableRecord
100
AcDbLayerTableRecord
  2
DEFAULT_COORDINATE_SYSTEM
 70
0
 62
7
  6
CONTINUOUS
370
-3
390
F
  0
LAYER
  5
207
100
AcDbSymbolTableRecord
100
AcDbLayerTableRecord
  2
DEFAULT_DATUM_AXES
 70
0
 62
7
  6
CONTINUOUS
370
-3
390
F
  0
LAYER
  5
208
100
AcDbSymbolTableRecord
100
AcDbLayerTableRecord
  2
DEFAULT_DATUM_CURVES
 70
0
 62
7
  6
CONTINUOUS
370
-3
390
F
  0
LAYER
  5
209
100
AcDbSymbolTableRecord
100
AcDbLayerTableRecord
  2
DEFAULT_DATUM_PLANES
 70
0
 62
7
  6
CONTINUOUS
370
-3
390
F
  0
LAYER
  5
20A
100
AcDbSymbolTableRecord
100
AcDbLayerTableRecord
  2
DEFAULT_SURFACES
 70
0
 62
7
  6
CONTINUOUS
370
-3
390
F
  0
LAYER
  5
20B
100
AcDbSymbolTableRecord
100
AcDbLayerTableRecord
  2
DIMENSIONS
 70
0
 62
7
  6
CONTINUOUS
370
-3
390
F
  0
LAYER
  5
20C
100
AcDbSymbolTableRecord
100
AcDbLayerTableRecord
  2
HOLE_FEATURES
 70
0
 62
7
  6
CONTINUOUS
370
-3
390
F
  0
LAYER
  5
20D
100
AcDbSymbolTableRecord
100
AcDbLayerTableRecord
  2
INTFCLR_1
 70
0
 62
7
  6
CONTINUOUS
370
-3
390
F
  0
LAYER
  5
20E
100
AcDbSymbolTableRecord
100
AcDbLayerTableRecord
  2
NOTES
 70
0
 62
7
  6
CONTINUOUS
370
-3
390
F
  0
LAYER
  5
20F
100
AcDbSymbolTableRecord
100
AcDbLayerTableRecord
  2
PART_REFERENCE_DIMENSIONS
 70
0
 62
7
  6
CONTINUOUS
370
-3
390
F
  0
LAYER
  5
210
100
AcDbSymbolTableRecord
100
AcDbLayerTableRecord
  2
PLATED_SURFACE
 70
0
 62
7
  6
CONTINUOUS
370
-3
390
F
  0
LAYER
  5
211
100
AcDbSymbolTableRecord
100
AcDbLayerTableRecord
  2
PLATED_SURFACE_AREA
 70
0
 62
7
  6
CONTINUOUS
370
-3
390
F
  0
LAYER
  5
212
100
AcDbSymbolTableRecord
100
AcDbLayerTableRecord
  2
POINTS
 70
0
 62
7
  6
CONTINUOUS
370
-3
390
F
  0
LAYER
  5
213
100
AcDbSymbolTableRecord
100
AcDbLayerTableRecord
  2
PROTRUSION
 70
0
 62
7
  6
CONTINUOUS
370
-3
390
F
  0
LAYER
  5
214
100
AcDbSymbolTableRecord
100
AcDbLayerTableRecord
  2
PROTRUSION_FEATURES
 70
0
 62
7
  6
CONTINUOUS
370
-3
390
F
  0
LAYER
  5
215
100
AcDbSymbolTableRecord
100
AcDbLayerTableRecord
  2
QUILT
 70
0
 62
7
  6
CONTINUOUS
370
-3
390
F
  0
LAYER
  5
216
100
AcDbSymbolTableRecord
100
AcDbLayerTableRecord
  2
QUILTS
 70
0
 62
7
  6
CONTINUOUS
370
-3
390
F
  0
LAYER
  5
217
100
AcDbSymbolTableRecord
100
AcDbLayerTableRecord
  2
REFERENCE_DIMENSIONS
 70
0
 62
7
  6
CONTINUOUS
370
-3
390
F
  0
LAYER
  5
218
100
AcDbSymbolTableRecord
100
AcDbLayerTableRecord
  2
ROUND_FEATURES
 70
0
 62
7
  6
CONTINUOUS
370
-3
390
F
  0
LAYER
  5
219
100
AcDbSymbolTableRecord
100
AcDbLayerTableRecord
  2
SIZE_REF
 70
0
 62
7
  6
CONTINUOUS
370
-3
390
F
  0
ENDTAB
  0
TABLE
  2
STYLE
  5
3
100
AcDbSymbolTable
 70
1
  0
STYLE
  5
11
100
AcDbSymbolTableRecord
100
AcDbTextStyleTableRecord
  2
STANDARD
 70
0
 40
0.0
 41
0.8
 50
0.0
 71
0
 42
0.2
  3
txt
  4

  0
STYLE
  5
21A
100
AcDbSymbolTableRecord
100
AcDbTextStyleTableRecord
  2
TEXTSTYLE_1
 70
0
 40
0.0
 41
0.8
 50
0.0
 71
0
 42
0.2
  3
gdt
  4

  0
ENDTAB
  0
TABLE
  2
VIEW
  5
6
100
AcDbSymbolTable
 70
0
  0
ENDTAB
  0
TABLE
  2
UCS
  5
7
100
AcDbSymbolTable
 70
0
  0
ENDTAB
  0
TABLE
  2
APPID
  5
9
100
AcDbSymbolTable
 70
1
  0
APPID
  5
21B
100
AcDbSymbolTableRecord
100
AcDbRegAppTableRecord
  2
ACAD
 70
0
  0
ENDTAB
  0
TABLE
  2
BLOCK_RECORD
  5
1
100
AcDbSymbolTable
 70
0
  0
BLOCK_RECORD
  5
21C
100
AcDbSymbolTableRecord
100
AcDbBlockTableRecord
  2
*Model_Space
  0
BLOCK_RECORD
  5
21D
100
AcDbSymbolTableRecord
100
AcDbBlockTableRecord
  2
*Paper_Space
  0
ENDTAB
  0
TABLE
  2
DIMSTYLE
  5
A
100
AcDbSymbolTable
 70
1
100
AcDbDimStyleTable
 71
0
  0
DIMSTYLE
105
21E
100
AcDbSymbolTableRecord
100
AcDbDimStyleTableRecord
  2
STANDARD
 70
0
  3

  4

 40
1.0
 41
0.1
 42
0.0625
 43
0.38
 44
0.125
 45
0.0
 46
0.0
 47
0.001
 48
0.001
140
0.08
141
0.09
142
0.0
143
25.4
144
1.0
145
0.0
146
1.0
147
0.09
 71
1.0
 72
0.0
 73
1
 74
1
 75
0
 76
0
 77
0
 78
4
170
0
171
2
172
0
173
0
174
0
175
0
176
0
177
0
178
0
270
2
271
3
272
3
273
2
274
2
275
0
280
0
281
0
282
0
283
1
284
4
285
0
286
0
287
3
288
0
340
11
278
46
  0
ENDTAB
  0
ENDSEC
  0
SECTION
  2
BLOCKS
  0
BLOCK
  5
20
100
AcDbEntity
  8
0
100
AcDbBlockBegin
  2
*Model_Space
 70
0
 10
0.0
 20
0.0
 30
0.0
  3
*Model_Space
  1

  0
ENDBLK
  5
21
100
AcDbEntity
  8
0
100
AcDbBlockEnd
  0
BLOCK
  5
1C
100
AcDbEntity
  8
0
100
AcDbBlockBegin
  2
*Paper_Space
 70
0
 10
0.0
 20
0.0
 30
0.0
  3
*Paper_Space
  1

  0
ENDBLK
  5
1D
100
AcDbEntity
  8
0
100
AcDbBlockEnd
  0
ENDSEC
  0
SECTION
  2
ENTITIES
  0
LINE
  5
21F
100
AcDbEntity
  8
0
100
AcDbLine
 62
7
  6
CONTINUOUS
 10
0.0
 20
0.0
 11
0.0
 21
8.5
  0
LINE
  5
220
100
AcDbEntity
  8
0
100
AcDbLine
 62
7
  6
CONTINUOUS
 10
0.0
 20
0.0
 11
11.0
 21
0.0
  0
LINE
  5
221
100
AcDbEntity
  8
0
100
AcDbLine
 62
7
  6
CONTINUOUS
 10
0.0
 20
8.5
 11
11.0
 21
8.5
  0
LINE
  5
222
100
AcDbEntity
  8
0
100
AcDbLine
 62
7
  6
CONTINUOUS
 10
11.0
 20
0.0
 11
11.0
 21
8.5
  0
LINE
  5
223
100
AcDbEntity
  8
0
100
AcDbLine
 62
7
  6
CONTINUOUS
 10
2.7638608871
 20
5.2824761484
 11
2.7638608871
 21
5.5884761484
  0
LINE
  5
224
100
AcDbEntity
  8
0
100
AcDbLine
 62
9
  6
CONTINUOUS
 10
2.7863608871
 20
5.2599761484
 11
2.7863608871
 21
5.5884761484
  0
LINE
  5
225
100
AcDbEntity
  8
ALL_ASSEMBLY_MEMBERS
100
AcDbLine
 62
7
  6
CONTINUOUS
 10
4.545115803
 20
2.5344525263
 11
5.1076059712
 21
2.5344525263
  0
LINE
  5
226
100
AcDbEntity
  8
ALL_ASSEMBLY_MEMBERS
100
AcDbLine
 62
7
  6
CONTINUOUS
 10
5.8576108871
 20
2.5925775263
 11
5.1018331805
 21
2.5925775263
  0
LINE
  5
227
100
AcDbEntity
  8
ALL_ASSEMBLY_MEMBERS
100
AcDbLine
 62
7
  6
CONTINUOUS
 10
3.7951108871
 20
2.5925775263
 11
4.5508885938
 21
2.5925775263
  0
LINE
  5
228
100
AcDbEntity
  8
ALL_ASSEMBLY_MEMBERS
100
AcDbLine
 62
7
  6
CONTINUOUS
 10
5.8576108871
 20
2.9263275263
 11
5.1018331813
 21
2.9263275263
  0
LINE
  5
229
100
AcDbEntity
  8
ALL_ASSEMBLY_MEMBERS
100
AcDbLine
 62
7
  6
CONTINUOUS
 10
3.7951108871
 20
2.9263275263
 11
4.5508885929
 21
2.9263275263
  0
LINE
  5
22A
100
AcDbEntity
  8
ALL_ASSEMBLY_MEMBERS
100
AcDbLine
 62
7
  6
CONTINUOUS
 10
4.545115803
 20
2.9844525263
 11
5.1076059712
 21
2.9844525263
  0
LINE
  5
22B
100
AcDbEntity
  8
ALL_ASSEMBLY_MEMBERS
100
AcDbLine
 62
7
  6
CONTINUOUS
 10
5.2958608871
 20
3.1719525263
 11
4.3568608871
 21
3.1719525263
  0
LINE
  5
22C
100
AcDbEntity
  8
ALL_ASSEMBLY_MEMBERS
100
AcDbLine
 62
9
  6
CONTINUOUS
 10
5.3183608871
 20
3.1944525263
 11
4.3343608871
 21
3.1944525263
  0
LINE
  5
22D
100
AcDbEntity
  8
ALL_ASSEMBLY_MEMBERS
100
AcDbLine
 62
7
  6
CONTINUOUS
 10
3.7951108871
 20
2.5925804431
 11
3.7951108871
 21
2.9263246096
  0
LINE
  5
22E
100
AcDbEntity
  8
ALL_ASSEMBLY_MEMBERS
100
AcDbLine
 62
7
  6
CONTINUOUS
 10
4.3343608871
 20
3.4044525263
 11
4.3341733871
 21
3.4044525263
  0
LINE
  5
22F
100
AcDbEntity
  8
ALL_ASSEMBLY_MEMBERS
100
AcDbLine
 62
7
  6
CONTINUOUS
 10
5.3183608871
 20
3.4044525263
 11
5.3185483871
 21
3.4044525263
  0
LINE
  5
230
100
AcDbEntity
  8
ALL_FEATURES
100
AcDbLine
 62
7
  6
CONTINUOUS
 10
4.2062821469
 20
3.9594525263
 11
4.2062821469
 21
4.2759761484
  0
LINE
  5
231
100
AcDbEntity
  8
0
100
AcDbLine
 62
7
  6
CONTINUOUS
 10
4.2062833871
 20
5.2599761484
 11
4.2062833871
 21
4.2759761484
  0
LINE
  5
232
100
AcDbEntity
  8
ALL_ASSEMBLY_MEMBERS
100
AcDbLine
 62
7
  6
CONTINUOUS
 10
4.3343608871
 20
3.7344525263
 11
4.3341733871
 21
3.7344525263
  0
LINE
  5
233
100
AcDbEntity
  8
ALL_ASSEMBLY_MEMBERS
100
AcDbLine
 62
7
  6
CONTINUOUS
 10
5.3183608871
 20
3.7344525263
 11
5.3185483871
 21
3.7344525263
  0
LINE
  5
234
100
AcDbEntity
  8
ALL_ASSEMBLY_MEMBERS
100
AcDbLine
 62
7
  6
CONTINUOUS
 10
4.3341733871
 20
3.4044525263
 11
4.3341733871
 21
3.7344525263
  0
LINE
  5
235
100
AcDbEntity
  8
ALL_ASSEMBLY_MEMBERS
100
AcDbLine
 62
7
  6
CONTINUOUS
 10
4.3343608871
 20
4.0119525263
 11
4.3343608871
 21
3.1944525263
  0
LINE
  5
236
100
AcDbEntity
  8
0
100
AcDbLine
 62
7
  6
CONTINUOUS
 10
4.3407358871
 20
4.2759761484
 11
4.3407358871
 21
4.0494525263
  0
LINE
  5
237
100
AcDbEntity
  8
ALL_FEATURES
100
AcDbLine
 62
7
  6
CONTINUOUS
 10
4.3407358871
 20
4.0494525263
 11
4.3407358871
 21
4.2759761484
  0
LINE
  5
238
100
AcDbEntity
  8
ALL_ASSEMBLY_MEMBERS
100
AcDbLine
 62
7
  6
CONTINUOUS
 10
4.5451108871
 20
2.5344525263
 11
4.5451108871
 21
2.5832025779
  0
LINE
  5
239
100
AcDbEntity
  8
ALL_ASSEMBLY_MEMBERS
100
AcDbLine
 62
7
  6
CONTINUOUS
 10
4.5451108871
 20
2.9357024713
 11
4.5451108871
 21
2.9844525263
  0
LINE
  5
23A
100
AcDbEntity
  8
ALL_ASSEMBLY_MEMBERS
100
AcDbLine
 62
7
  6
CONTINUOUS
 10
4.6388608871
 20
2.9844525263
 11
4.6388608871
 21
3.1719525263
  0
LINE
  5
23B
100
AcDbEntity
  8
ALL_FEATURES
100
AcDbLine
 62
7
  6
CONTINUOUS
 10
4.3343608871
 20
3.9594525263
 11
4.2062857663
 21
3.9594525263
  0
LINE
  5
23C
100
AcDbEntity
  8
ALL_FEATURES
100
AcDbLine
 62
7
  6
CONTINUOUS
 10
5.3183608871
 20
3.9594525263
 11
5.4464360079
 21
3.9594525263
  0
LINE
  5
23D
100
AcDbEntity
  8
ALL_ASSEMBLY_MEMBERS
100
AcDbLine
 62
7
  6
CONTINUOUS
 10
5.3183608871
 20
4.0119525263
 11
4.3343608871
 21
4.0119525263
  0
LINE
  5
23E
100
AcDbEntity
  8
ALL_FEATURES
100
AcDbLine
 62
7
  6
CONTINUOUS
 10
4.3407358871
 20
4.0494525263
 11
5.3119858871
 21
4.0494525263
  0
LINE
  5
23F
100
AcDbEntity
  8
0
100
AcDbLine
 62
7
  6
CONTINUOUS
 10
4.6876108871
 20
4.0494525263
 11
4.6876108871
 21
4.0119525263
  0
LINE
  5
240
100
AcDbEntity
  8
0
100
AcDbLine
 62
7
  6
CONTINUOUS
 10
4.2062833871
 20
4.2759761484
 11
5.4464383871
 21
4.2759761484
  0
LINE
  5
241
100
AcDbEntity
  8
0
100
AcDbLine
 62
7
  6
CONTINUOUS
 10
4.9651108871
 20
4.0494525263
 11
4.9651108871
 21
4.0119525263
  0
LINE
  5
242
100
AcDbEntity
  8
ALL_ASSEMBLY_MEMBERS
100
AcDbLine
 62
7
  6
CONTINUOUS
 10
5.0138608871
 20
2.9844525263
 11
5.0138608871
 21
3.1719525263
  0
LINE
  5
243
100
AcDbEntity
  8
ALL_ASSEMBLY_MEMBERS
100
AcDbLine
 62
7
  6
CONTINUOUS
 10
5.1076108871
 20
2.5344525263
 11
5.1076108871
 21
2.5832025813
  0
LINE
  5
244
100
AcDbEntity
  8
ALL_ASSEMBLY_MEMBERS
100
AcDbLine
 62
7
  6
CONTINUOUS
 10
5.1076108871
 20
2.9357024747
 11
5.1076108871
 21
2.9844525263
  0
LINE
  5
245
100
AcDbEntity
  8
0
100
AcDbLine
 62
7
  6
CONTINUOUS
 10
5.3119858871
 20
4.2759761484
 11
5.3119858871
 21
4.0494525263
  0
LINE
  5
246
100
AcDbEntity
  8
ALL_FEATURES
100
AcDbLine
 62
7
  6
CONTINUOUS
 10
5.3119858871
 20
4.0494525263
 11
5.3119858871
 21
4.2759761484
  0
LINE
  5
247
100
AcDbEntity
  8
ALL_ASSEMBLY_MEMBERS
100
AcDbLine
 62
7
  6
CONTINUOUS
 10
5.3183608871
 20
4.0119525263
 11
5.3183608871
 21
3.1944525263
  0
LINE
  5
248
100
AcDbEntity
  8
ALL_ASSEMBLY_MEMBERS
100
AcDbLine
 62
7
  6
CONTINUOUS
 10
5.3185483871
 20
3.4044525263
 11
5.3185483871
 21
3.5203275263
  0
LINE
  5
249
100
AcDbEntity
  8
ALL_ASSEMBLY_MEMBERS
100
AcDbLine
 62
7
  6
CONTINUOUS
 10
5.3185483871
 20
3.6485775263
 11
5.3185483871
 21
3.7344525263
  0
LINE
  5
24A
100
AcDbEntity
  8
0
100
AcDbLine
 62
7
  6
CONTINUOUS
 10
5.4464383871
 20
5.2599761484
 11
5.4464383871
 21
4.2759761484
  0
LINE
  5
24B
100
AcDbEntity
  8
ALL_FEATURES
100
AcDbLine
 62
7
  6
CONTINUOUS
 10
5.4464396273
 20
3.9594525263
 11
5.4464396273
 21
4.2759761484
  0
LINE
  5
24C
100
AcDbEntity
  8
ALL_ASSEMBLY_MEMBERS
100
AcDbLine
 62
7
  6
CONTINUOUS
 10
5.8576108871
 20
2.5925804431
 11
5.8576108871
 21
2.9263246096
  0
LINE
  5
24D
100
AcDbEntity
  8
0
100
AcDbLine
 62
7
  6
CONTINUOUS
 10
6.8663608871
 20
5.2599761484
 11
2.7863608871
 21
5.2599761484
  0
LINE
  5
24E
100
AcDbEntity
  8
0
100
AcDbLine
 62
9
  6
CONTINUOUS
 10
6.8888608871
 20
5.2824761484
 11
2.7638608871
 21
5.2824761484
  0
LINE
  5
24F
100
AcDbEntity
  8
0
100
AcDbLine
 62
7
  6
CONTINUOUS
 10
2.7638608871
 20
5.5884761484
 11
6.8888608871
 21
5.5884761484
  0
LINE
  5
250
100
AcDbEntity
  8
0
100
AcDbLine
 62
9
  6
CONTINUOUS
 10
6.8663608871
 20
5.2599761484
 11
6.8663608871
 21
5.5884761484
  0
LINE
  5
251
100
AcDbEntity
  8
0
100
AcDbLine
 62
7
  6
CONTINUOUS
 10
6.8888608871
 20
5.2824761484
 11
6.8888608871
 21
5.5884761484
  0
CIRCLE
  5
252
100
AcDbEntity
  8
ALL_ASSEMBLY_MEMBERS
100
AcDbCircle
 62
7
  6
CONTINUOUS
 10
4.8263608871
 20
2.7594525263
 40
0.17625
  0
CIRCLE
  5
253
100
AcDbEntity
  8
ALL_ASSEMBLY_MEMBERS
100
AcDbCircle
 62
7
  6
CONTINUOUS
 10
4.8263608871
 20
2.7594525263
 40
0.166875
  0
ARC
  5
254
100
AcDbEntity
  8
ALL_ASSEMBLY_MEMBERS
100
AcDbCircle
 62
7
  6
CONTINUOUS
 10
5.2958608871
 20
3.1944525263
 40
0.0225
100
AcDbArc
 50
270.0
 51
360.0
  0
ARC
  5
255
100
AcDbEntity
  8
ALL_ASSEMBLY_MEMBERS
100
AcDbCircle
 62
7
  6
CONTINUOUS
 10
4.3568608871
 20
3.1944525263
 40
0.0225
100
AcDbArc
 50
180.0
 51
270.0
  0
ARC
  5
256
100
AcDbEntity
  8
0
100
AcDbCircle
 62
7
  6
CONTINUOUS
 10
6.8663608871
 20
5.2824761484
 40
0.0225
100
AcDbArc
 50
270.0
 51
360.0
  0
ARC
  5
257
100
AcDbEntity
  8
0
100
AcDbCircle
 62
7
  6
CONTINUOUS
 10
2.7863608871
 20
5.2824761484
 40
0.0225
100
AcDbArc
 50
180.0
 51
270.0
  0
SPLINE
  5
258
100
AcDbEntity
  8
ALL_ASSEMBLY_MEMBERS
100
AcDbSpline
 62
7
  6
CONTINUOUS
 70
0
 71
3
 72
52
 73
48
 74
0
 42
0.0000001
 43
0.0000001
 44
0.0000000001
 40
0.0
 40
0.0
 40
0.0
 40
0.0
 40
0.0470162435
 40
0.0939657865
 40
0.1406947363
 40
0.1870559477
 40
0.2329574697
 40
0.2783167567
 40
0.3230417745
 40
0.3670573372
 40
0.4526844571
 40
0.5346194516
 40
0.6123172385
 40
0.6851788134
 40
0.7195872134
 40
0.7525279648
 40
0.7839059124
 40
0.8136148598
 40
0.8415452614
 40
0.8675861854
 40
0.8916242985
 40
0.9135430966
 40
0.933225156
 40
0.9505537313
 40
0.9583028017
 40
0.9654260836
 40
0.9719118668
 40
0.9777484281
 40
0.9829240321
 40
0.987427148
 40
0.991249982
 40
0.9929048418
 40
0.9943879092
 40
0.9956986183
 40
0.9968364033
 40
0.997800698
 40
0.9985909363
 40
0.9989206074
 40
0.9992065521
 40
0.9994486995
 40
0.9996469789
 40
0.9998013195
 40
0.9999116504
 40
0.9999502901
 40
0.9999779008
 40
0.9999944738
 40
1.0
 40
1.0
 40
1.0
 40
1.0
 10
5.045535475
 20
2.7594525263
 30
0.0
 10
5.045535475
 20
2.7624203049
 30
0.0
 10
5.0456583565
 20
2.7683523322
 30
0.0
 10
5.0461984249
 20
2.7772190809
 30
0.0
 10
5.0470818566
 20
2.7860167852
 30
0.0
 10
5.0482984718
 20
2.7947076608
 30
0.0
 10
5.0498206646
 20
2.8032621897
 30
0.0
 10
5.0516189083
 20
2.8116571519
 30
0.0
 10
5.0536656393
 20
2.819872237
 30
0.0
 10
5.0566578707
 20
2.8304657096
 30
0.0
 10
5.0608377714
 20
2.8431574664
 30
0.0
 10
5.0663974564
 20
2.8576115502
 30
0.0
 10
5.0722350979
 20
2.8710799792
 30
0.0
 10
5.0772439949
 20
2.8816288273
 30
0.0
 10
5.0812166946
 20
2.8895377945
 30
0.0
 10
5.0840867373
 20
2.8950696526
 30
0.0
 10
5.086881382
 20
2.9003059292
 30
0.0
 10
5.0895800574
 20
2.9052345467
 30
0.0
 10
5.0921618205
 20
2.9098427856
 30
0.0
 10
5.0946055019
 20
2.9141178449
 30
0.0
 10
5.0968904447
 20
2.918046391
 30
0.0
 10
5.0989980435
 20
2.92161362
 30
0.0
 10
5.1009095368
 20
2.9248047017
 30
0.0
 10
5.1023733939
 20
2.927221255
 30
0.0
 10
5.103432247
 20
2.9289562761
 30
0.0
 10
5.1041369005
 20
2.9301056443
 30
0.0
 10
5.1047804164
 20
2.9311508878
 30
0.0
 10
5.1053610609
 20
2.9320904628
 30
0.0
 10
5.1058771239
 20
2.9329228265
 30
0.0
 10
5.1063269741
 20
2.9336466816
 30
0.0
 10
5.1066599658
 20
2.9341815018
 30
0.0
 10
5.1068924559
 20
2.9345543331
 30
0.0
 10
5.1070411438
 20
2.9347925461
 30
0.0
 10
5.1071726401
 20
2.9350030142
 30
0.0
 10
5.107286864
 20
2.9351856623
 30
0.0
 10
5.1073837332
 20
2.9353404131
 30
0.0
 10
5.1074535867
 20
2.9354518992
 30
0.0
 10
5.1075007262
 20
2.9355270798
 30
0.0
 10
5.1075295058
 20
2.9355729526
 30
0.0
 10
5.1075538601
 20
2.935611768
 30
0.0
 10
5.1075738784
 20
2.9356436177
 30
0.0
 10
5.107589285
 20
2.9356682217
 30
0.0
 10
5.10759976
 20
2.9356847244
 30
0.0
 10
5.1076053067
 20
2.9356937669
 30
0.0
 10
5.1076087249
 20
2.9356988398
 30
0.0
 10
5.1076092736
 20
2.9357003523
 30
0.0
 10
5.1076111787
 20
2.9357027177
 30
0.0
 10
5.1076108871
 20
2.9357025263
 30
0.0
  0
SPLINE
  5
259
100
AcDbEntity
  8
ALL_ASSEMBLY_MEMBERS
100
AcDbSpline
 62
7
  6
CONTINUOUS
 70
0
 71
3
 72
48
 73
44
 74
0
 42
0.0000001
 43
0.0000001
 44
0.0000000001
 40
0.0
 40
0.0
 40
0.0
 40
0.0
 40
0.0470163136
 40
0.0939659313
 40
0.1406949595
 40
0.1870562459
 40
0.2329578342
 40
0.2783171848
 40
0.3230422673
 40
0.3670578914
 40
0.4526851326
 40
0.5346202472
 40
0.6123181443
 40
0.6851798233
 40
0.7525276257
 40
0.7839056168
 40
0.8136146064
 40
0.8415450476
 40
0.8675860077
 40
0.8916241536
 40
0.9135429815
 40
0.9332250683
 40
0.9505536678
 40
0.9583027482
 40
0.9654260389
 40
0.9719118301
 40
0.9777483989
 40
0.9829240101
 40
0.9874271331
 40
0.9912499723
 40
0.9929048342
 40
0.9943879032
 40
0.9956986137
 40
0.9968363997
 40
0.9978006953
 40
0.9985909343
 40
0.9992065506
 40
0.9994486983
 40
0.999646978
 40
0.9998013188
 40
0.9999116499
 40
0.9999779006
 40
1.0
 40
1.0
 40
1.0
 40
1.0
 10
4.6071862992
 20
2.7594525263
 30
0.0
 10
4.6071862992
 20
2.7564847476
 30
0.0
 10
4.6070634174
 20
2.7505527197
 30
0.0
 10
4.6065233482
 20
2.7416859698
 30
0.0
 10
4.6056399167
 20
2.7328882639
 30
0.0
 10
4.6044233023
 20
2.7241973869
 30
0.0
 10
4.6029011088
 20
2.7156428578
 30
0.0
 10
4.6011028645
 20
2.7072478958
 30
0.0
 10
4.5990561335
 20
2.6990328108
 30
0.0
 10
4.5960639027
 20
2.6884393389
 30
0.0
 10
4.5918839978
 20
2.67574758
 30
0.0
 10
4.5863243271
 20
2.6612935057
 30
0.0
 10
4.5804866379
 20
2.6478250445
 30
0.0
 10
4.5745859097
 20
2.6353977534
 30
0.0
 10
4.5696576751
 20
2.6257514264
 30
0.0
 10
4.5658403884
 20
2.6185991291
 30
0.0
 10
4.5631417159
 20
2.6136705013
 30
0.0
 10
4.5605599524
 20
2.6090622651
 30
0.0
 10
4.5581162711
 20
2.6047872055
 30
0.0
 10
4.5558313283
 20
2.6008586599
 30
0.0
 10
4.5537237298
 20
2.597291431
 30
0.0
 10
4.5518122367
 20
2.5941003495
 30
0.0
 10
4.5503483794
 20
2.5916837965
 30
0.0
 10
4.5492895265
 20
2.5899487755
 30
0.0
 10
4.5485848732
 20
2.5887994076
 30
0.0
 10
4.5479413575
 20
2.5877541642
 30
0.0
 10
4.547360713
 20
2.5868145893
 30
0.0
 10
4.54684465
 20
2.5859822256
 30
0.0
 10
4.5463947998
 20
2.5852583706
 30
0.0
 10
4.5460618081
 20
2.5847235504
 30
0.0
 10
4.545829318
 20
2.5843507192
 30
0.0
 10
4.5456806301
 20
2.5841125064
 30
0.0
 10
4.5455491342
 20
2.5839020379
 30
0.0
 10
4.5454349095
 20
2.583719391
 30
0.0
 10
4.5453380427
 20
2.583564637
 30
0.0
 10
4.545258599
 20
2.5834378646
 30
0.0
 10
4.545203349
 20
2.5833497199
 30
0.0
 10
4.5451678831
 20
2.5832932836
 30
0.0
 10
4.5451479814
 20
2.5832614372
 30
0.0
 10
4.5451322746
 20
2.5832368256
 30
0.0
 10
4.5451215258
 20
2.5832188379
 30
0.0
 10
4.5451142067
 20
2.5832087511
 30
0.0
 10
4.5451119038
 20
2.5832034814
 30
0.0
 10
4.5451108871
 20
2.5832025263
 30
0.0
  0
SPLINE
  5
25A
100
AcDbEntity
  8
ALL_ASSEMBLY_MEMBERS
100
AcDbSpline
 62
7
  6
CONTINUOUS
 70
0
 71
3
 72
52
 73
48
 74
0
 42
0.0000001
 43
0.0000001
 44
0.0000000001
 40
0.0
 40
0.0
 40
0.0
 40
0.0
 40
0.0000055262
 40
0.0000220992
 40
0.0000497099
 40
0.0000883496
 40
0.0001986805
 40
0.0003530211
 40
0.0005513005
 40
0.0007934479
 40
0.0010793926
 40
0.0014090637
 40
0.0021993021
 40
0.0031635968
 40
0.0043013818
 40
0.0056120909
 40
0.0070951583
 40
0.0087500182
 40
0.0125728522
 40
0.017075968
 40
0.0222515719
 40
0.0280881332
 40
0.0345739164
 40
0.0416971983
 40
0.0494462687
 40
0.066774844
 40
0.0864569033
 40
0.1083757014
 40
0.1324138145
 40
0.1584547384
 40
0.18638514
 40
0.2160940874
 40
0.247472035
 40
0.2804127864
 40
0.3148211864
 40
0.3876827613
 40
0.4653805481
 40
0.5473155425
 40
0.6329426622
 40
0.6769582249
 40
0.7216832429
 40
0.76704253
 40
0.8129440522
 40
0.8593052638
 40
0.9060342136
 40
0.9529837565
 40
1.0
 40
1.0
 40
1.0
 40
1.0
 10
4.5451108871
 20
2.9357025263
 30
0.0
 10
4.5451105951
 20
2.9357027171
 30
0.0
 10
4.5451125011
 20
2.9357003532
 30
0.0
 10
4.5451130489
 20
2.9356988393
 30
0.0
 10
4.5451164677
 20
2.9356937672
 30
0.0
 10
4.545122014
 20
2.9356847241
 30
0.0
 10
4.5451324893
 20
2.9356682218
 30
0.0
 10
4.5451478957
 20
2.9356436177
 30
0.0
 10
4.5451679141
 20
2.935611768
 30
0.0
 10
4.5451922684
 20
2.9355729526
 30
0.0
 10
4.545221048
 20
2.9355270798
 30
0.0
 10
4.5452681875
 20
2.9354518992
 30
0.0
 10
4.545338041
 20
2.9353404131
 30
0.0
 10
4.5454349102
 20
2.9351856623
 30
0.0
 10
4.5455491341
 20
2.9350030142
 30
0.0
 10
4.5456806304
 20
2.934792546
 30
0.0
 10
4.5458293183
 20
2.934554333
 30
0.0
 10
4.5460618085
 20
2.9341815018
 30
0.0
 10
4.5463948002
 20
2.9336466815
 30
0.0
 10
4.5468446503
 20
2.9329228265
 30
0.0
 10
4.5473607133
 20
2.9320904628
 30
0.0
 10
4.5479413578
 20
2.9311508878
 30
0.0
 10
4.5485848737
 20
2.9301056443
 30
0.0
 10
4.5492895272
 20
2.9289562761
 30
0.0
 10
4.5503483802
 20
2.927221255
 30
0.0
 10
4.5518122374
 20
2.9248047017
 30
0.0
 10
4.5537237307
 20
2.92161362
 30
0.0
 10
4.5558313295
 20
2.918046391
 30
0.0
 10
4.5581162723
 20
2.9141178449
 30
0.0
 10
4.5605599537
 20
2.9098427856
 30
0.0
 10
4.5631417168
 20
2.9052345468
 30
0.0
 10
4.5658403922
 20
2.9003059292
 30
0.0
 10
4.5686350369
 20
2.8950696526
 30
0.0
 10
4.5715050796
 20
2.8895377946
 30
0.0
 10
4.5754777793
 20
2.8816288273
 30
0.0
 10
4.5804866763
 20
2.8710799792
 30
0.0
 10
4.5863243178
 20
2.8576115502
 30
0.0
 10
4.5918840027
 20
2.8431574665
 30
0.0
 10
4.5960639035
 20
2.8304657097
 30
0.0
 10
4.5990561349
 20
2.8198722371
 30
0.0
 10
4.6011028659
 20
2.811657152
 30
0.0
 10
4.6029011095
 20
2.8032621897
 30
0.0
 10
4.6044233023
 20
2.7947076608
 30
0.0
 10
4.6056399175
 20
2.7860167852
 30
0.0
 10
4.6065233493
 20
2.7772190809
 30
0.0
 10
4.6070634177
 20
2.7683523322
 30
0.0
 10
4.6071862992
 20
2.7624203049
 30
0.0
 10
4.6071862992
 20
2.7594525263
 30
0.0
  0
SPLINE
  5
25B
100
AcDbEntity
  8
ALL_ASSEMBLY_MEMBERS
100
AcDbSpline
 62
7
  6
CONTINUOUS
 70
0
 71
3
 72
48
 73
44
 74
0
 42
0.0000001
 43
0.0000001
 44
0.0000000001
 40
0.0
 40
0.0
 40
0.0
 40
0.0
 40
0.0000220994
 40
0.0000883501
 40
0.0001986813
 40
0.0003530221
 40
0.0005513017
 40
0.0007934494
 40
0.0014090657
 40
0.0021993047
 40
0.0031636003
 40
0.0043013863
 40
0.0056120968
 40
0.0070951658
 40
0.0087500276
 40
0.0125728669
 40
0.0170759899
 40
0.0222516011
 40
0.02808817
 40
0.0345739612
 40
0.0416972519
 40
0.0494463323
 40
0.0667749319
 40
0.0864570187
 40
0.1083758468
 40
0.1324139927
 40
0.1584549528
 40
0.1863853941
 40
0.2160943836
 40
0.2474723748
 40
0.3148201771
 40
0.3876818561
 40
0.4653797532
 40
0.5473148679
 40
0.6329421093
 40
0.6769577334
 40
0.7216828157
 40
0.7670421661
 40
0.8129437542
 40
0.8593050405
 40
0.9060340687
 40
0.9529836864
 40
1.0
 40
1.0
 40
1.0
 40
1.0
 10
5.1076108871
 20
2.5832025263
 30
0.0
 10
5.1076098694
 20
2.5832034803
 30
0.0
 10
5.1076075689
 20
2.5832087527
 30
0.0
 10
5.1076002475
 20
2.5832188369
 30
0.0
 10
5.1075895001
 20
2.583236826
 30
0.0
 10
5.1075737926
 20
2.583261437
 30
0.0
 10
5.1075538911
 20
2.5832932837
 30
0.0
 10
5.1075184252
 20
2.5833497199
 30
0.0
 10
5.1074631752
 20
2.5834378646
 30
0.0
 10
5.1073837315
 20
2.583564637
 30
0.0
 10
5.1072868647
 20
2.583719391
 30
0.0
 10
5.10717264
 20
2.5839020379
 30
0.0
 10
5.1070411441
 20
2.5841125064
 30
0.0
 10
5.1068924562
 20
2.5843507192
 30
0.0
 10
5.1066599661
 20
2.5847235504
 30
0.0
 10
5.1063269744
 20
2.5852583706
 30
0.0
 10
5.1058771242
 20
2.5859822256
 30
0.0
 10
5.1053610612
 20
2.5868145893
 30
0.0
 10
5.1047804167
 20
2.5877541642
 30
0.0
 10
5.104136901
 20
2.5887994076
 30
0.0
 10
5.1034322477
 20
2.5899487755
 30
0.0
 10
5.1023733948
 20
2.5916837965
 30
0.0
 10
5.1009095375
 20
2.5941003495
 30
0.0
 10
5.0989980444
 20
2.597291431
 30
0.0
 10
5.0968904459
 20
2.6008586599
 30
0.0
 10
5.0946055031
 20
2.6047872056
 30
0.0
 10
5.0921618218
 20
2.6090622651
 30
0.0
 10
5.0895800583
 20
2.6136705014
 30
0.0
 10
5.0868813857
 20
2.6185991291
 30
0.0
 10
5.0830640991
 20
2.6257514264
 30
0.0
 10
5.0781358644
 20
2.6353977535
 30
0.0
 10
5.0722351362
 20
2.6478250446
 30
0.0
 10
5.0663974471
 20
2.6612935058
 30
0.0
 10
5.0608377763
 20
2.6757475801
 30
0.0
 10
5.0566578715
 20
2.688439339
 30
0.0
 10
5.0536656406
 20
2.699032811
 30
0.0
 10
5.0516189096
 20
2.7072478959
 30
0.0
 10
5.0498206654
 20
2.7156428578
 30
0.0
 10
5.0482984719
 20
2.7241973869
 30
0.0
 10
5.0470818575
 20
2.7328882639
 30
0.0
 10
5.046198426
 20
2.7416859699
 30
0.0
 10
5.0456583568
 20
2.7505527197
 30
0.0
 10
5.045535475
 20
2.7564847476
 30
0.0
 10
5.045535475
 20
2.7594525263
 30
0.0
  0
ENDSEC
  0
SECTION
  2
OBJECTS
  0
DICTIONARY
  5
C
100
AcDbDictionary
280
0
281
1
  3
ACAD_GROUP
350
D
  3
ACAD_MLINESTYLE
350
17
  3
ACAD_LAYOUT
350
1A
  3
ACAD_PLOTSETTINGS
350
19
  3
ACAD_PLOTSTYLENAME
350
E
  0
DICTIONARY
  5
D
102
{ACAD_REACTORS
330
C
102
}
100
AcDbDictionary
280
0
281
1
  0
ACDBDICTIONARYWDFLT
  5
E
102
{ACAD_REACTORS
330
C
102
}
100
AcDbDictionary
281
1
  3
Normal
350
F
100
AcDbDictionaryWithDefault
340
F
  0
DICTIONARY
  5
17
102
{ACAD_REACTORS
330
C
102
}
100
AcDbDictionary
280
0
281
1
  3
Standard
350
18
  0
DICTIONARY
  5
19
102
{ACAD_REACTORS
330
C
102
}
100
AcDbDictionary
281
1
  0
DICTIONARY
  5
1A
102
{ACAD_REACTORS
330
C
102
}
100
AcDbDictionary
281
1
  3
Model
350
25C
  3
Layout1
350
25D
  0
ACDBPLACEHOLDER
  5
F
102
{ACAD_REACTORS
330
E
102
}
  0
MLINESTYLE
  5
18
102
{ACAD_REACTORS
330
17
102
}
100
AcDbMlineStyle
  2
STANDARD
 70
0
  3

 62
256
 51
90.0
 52
90.0
 71
2
 49
0.5
 62
256
  6
BYLAYER
 49
-0.5
 62
256
  6
BYLAYER
  0
LAYOUT
  5
25C
102
{ACAD_REACTORS
330
1A
102
}
100
AcDbPlotSettings
  1

  2
none_device
  4
ANSI_A_(11.00_x_8.50_Inches)
  6

 40
0.0
 41
0.0
 42
0.0
 43
0.0
 44
279.4
 45
215.9
 46
0.0
 47
0.0
 48
0.0
 49
0.0
140
0.0
141
0.0
142
1.0
143
1.0
 70
1024
 72
0
 73
0
 74
0
  7

 75
0
147
1.0
148
0.0
149
0.0
100
AcDbLayout
  1
Model
 70
0
 71
0
 10
0.0
 20
0.0
 11
11.0
 21
8.5
 12
0.0
 22
0.0
 32
0.0
 14
0.0
 24
0.0
 34
0.0
 15
0.0
 25
0.0
 35
0.0
146
0.0
 13
0.0
 23
0.0
 33
0.0
 16
1.0
 26
0.0
 36
0.0
 17
0.0
 27
1.0
 37
0.0
 76
0
330
21C
345
0
346
0
  0
LAYOUT
  5
25D
102
{ACAD_REACTORS
330
1A
102
}
100
AcDbPlotSettings
  1

  2
none_device
  4
ANSI_A_(11.00_x_8.50_Inches)
  6

 40
0.0
 41
0.0
 42
0.0
 43
0.0
 44
279.4
 45
215.9
 46
0.0
 47
0.0
 48
0.0
 49
0.0
140
0.0
141
0.0
142
1.0
143
1.0
 70
0
 72
0
 73
0
 74
0
  7

 75
0
147
1.0
148
0.0
149
0.0
100
AcDbLayout
  1
Layout1
 70
0
 71
1
 10
0.0
 20
0.0
 11
11.0
 21
8.5
 12
0.0
 22
0.0
 32
0.0
 14
0.0
 24
0.0
 34
0.0
 15
0.0
 25
0.0
 35
0.0
146
0.0
 13
0.0
 23
0.0
 33
0.0
 16
1.0
 26
0.0
 36
0.0
 17
0.0
 27
1.0
 37
0.0
 76
0
330
21D
345
0
346
0
  0
ENDSEC
  0
EOF
