999
DXF file: E:\BT Custom\CADOUTPUT\_TOP.dxf
999
Pro/ENGINEER 2018400 by Parametric Technology Corporation
  0
SECTION
  2
HEADER
  9
$ACADVER
  1
AC1018
  9
$DWGCODEPAGE
  3
ANSI_1252
  9
$EXTMAX
 10
22.0
 20
17.0
 30
0.0
  9
$EXTMIN
 10
0.0
 20
0.0
 30
0.0
  9
$LIMMIN
 10
0.0
 20
0.0
  9
$LIMMAX
 10
22.0
 20
17.0
  9
$VIEWCTR
 10
11.0
 20
8.5
  9
$VIEWSIZE
 40
17.0
  9
$CLAYER
  8
0
  9
$LTSCALE
 40
1.21
  9
$CELTYPE
  6
BYLAYER
  9
$DIMSCALE
 40
1.0
  9
$DIMASZ
 40
0.1
  9
$DIMEXO
 40
0.0625
  9
$DIMDLI
 40
0.836
  9
$DIMEXE
 40
0.125
  9
$DIMCEN
 40
0.198
  9
$DIMLFAC
 40
1.0
  9
$DIMBLK
  1
_FILLED
  9
$DIMALT
 70
1
  9
$DIMALTD
 70
2
  9
$DIMALTTD
 70
2
  9
$DIMALTF
 40
25.4
  9
$DIMTXT
 40
0.08
  9
$DIMTOL
 70
1
  9
$DIMLIM
 70
0
  9
$DIMTFAC
 40
1.0
  9
$DIMTP
 40
0.001
  9
$DIMTM
 40
0.001
  9
$DIMGAP
 40
0.09
  9
$DIMDSEP
 70
46
  9
$AUNITS
 70
0
  9
$PDMODE
 70
3
  9
$PDSIZE
 40
0.06
  9
$HANDSEED
  5
2C1
  9
$TILEMODE
 70
1
  9
$MEASUREMENT
 70
0
  9
$INSUNITS
 70
1
  0
ENDSEC
  0
SECTION
  2
CLASSES
  0
CLASS
  1
ACDBDICTIONARYWDFLT
  2
AcDbDictionaryWithDefault
  3
AutoCAD 2000
 90
0
 91
1
280
0
281
0
  0
CLASS
  1
ACDBPLACEHOLDER
  2
AcDbPlaceHolder
  3
AutoCAD 2000
 90
0
 91
1
280
0
281
0
  0
CLASS
  1
LAYOUT
  2
AcDbLayout
  3
AutoCAD 2000
 90
0
 91
0
280
0
281
0
  0
ENDSEC
  0
SECTION
  2
TABLES
  0
TABLE
  2
VPORT
  5
8
100
AcDbSymbolTable
 70
2
  0
VPORT
  5
1F4
100
AcDbSymbolTableRecord
100
AcDbViewportTableRecord
  2
*ACTIVE
 70
0
 10
0.0
 20
0.0
 11
1.0
 21
1.0
 12
11.0
 22
8.5
 13
0.0
 23
0.0
 14
1.0
 24
1.0
 15
0.0
 25
0.0
 16
0.0
 26
0.0
 36
1.0
 17
0.0
 27
0.0
 37
0.0
 40
17.0
 41
1.2941176471
 42
50.0
 43
0.0
 44
0.0
 50
0.0
 51
0.0
 71
0
 72
100
 73
1
 74
1
 75
0
 76
0
 77
0
 78
0
  0
ENDTAB
  0
TABLE
  2
LTYPE
  5
5
100
AcDbSymbolTable
 70
6
  0
LTYPE
  5
14
100
AcDbSymbolTableRecord
100
AcDbLinetypeTableRecord
  2
BYBLOCK
 70
0
  3

 72
65
 73
0
 40
0.0
  0
LTYPE
  5
15
100
AcDbSymbolTableRecord
100
AcDbLinetypeTableRecord
  2
BYLAYER
 70
0
  3

 72
65
 73
0
 40
0.0
  0
LTYPE
  5
16
100
AcDbSymbolTableRecord
100
AcDbLinetypeTableRecord
  2
CONTINUOUS
 70
64
  3
Solid line
 72
65
 73
0
 40
0.0
  0
LTYPE
  5
1F5
100
AcDbSymbolTableRecord
100
AcDbLinetypeTableRecord
  2
CENTER
 70
64
  3
____ _ ____ _ ____ _ ____ _ ____ _ ____ _ ____
 72
65
 73
4
 40
0.6
 49
0.375
 74
0
 49
-0.075
 74
0
 49
0.075
 74
0
 49
-0.075
 74
0
  0
LTYPE
  5
1F6
100
AcDbSymbolTableRecord
100
AcDbLinetypeTableRecord
  2
HIDDEN
 70
64
  3
- - - - - - - - - - - - - - - - - - - -
 72
65
 73
2
 40
0.2
 49
0.1
 74
0
 49
-0.1
 74
0
  0
LTYPE
  5
1F7
100
AcDbSymbolTableRecord
100
AcDbLinetypeTableRecord
  2
PHANTOM
 70
64
  3
_____ _ _ _____ _ _ _____ _ _ _____
 72
65
 73
6
 40
0.8
 49
0.45
 74
0
 49
-0.05
 74
0
 49
0.1
 74
0
 49
-0.05
 74
0
 49
0.1
 74
0
 49
-0.05
 74
0
  0
LTYPE
  5
1F8
100
AcDbSymbolTableRecord
100
AcDbLinetypeTableRecord
  2
DOT
 70
64
  3
. . . . . . . . . . . . . . . . . . . .
 72
65
 73
2
 40
0.2
 49
0.1
 74
0
 49
-0.1
 74
0
  0
LTYPE
  5
1F9
100
AcDbSymbolTableRecord
100
AcDbLinetypeTableRecord
  2
DASHED
 70
64
  3
- - - - - - - - - - - - - - - - - - - -
 72
65
 73
2
 40
0.2
 49
0.1
 74
0
 49
-0.1
 74
0
  0
ENDTAB
  0
TABLE
  2
LAYER
  5
2
100
AcDbSymbolTable
 70
36
  0
LAYER
  5
10
100
AcDbSymbolTableRecord
100
AcDbLayerTableRecord
  2
0
 70
0
 62
7
  6
CONTINUOUS
370
-3
390
F
  0
LAYER
  5
1FA
100
AcDbSymbolTableRecord
100
AcDbLayerTableRecord
  2
DEFAULT_1
 70
0
 62
7
  6
CENTER
370
-3
390
F
  0
LAYER
  5
1FB
100
AcDbSymbolTableRecord
100
AcDbLayerTableRecord
  2
DEFAULT_2
 70
0
 62
8
  6
HIDDEN
370
-3
390
F
  0
LAYER
  5
1FC
100
AcDbSymbolTableRecord
100
AcDbLayerTableRecord
  2
DEFAULT_3
 70
0
 62
7
  6
PHANTOM
370
-3
390
F
  0
LAYER
  5
1FD
100
AcDbSymbolTableRecord
100
AcDbLayerTableRecord
  2
ALL_FEATURES
 70
0
 62
7
  6
CONTINUOUS
370
-3
390
F
  0
LAYER
  5
1FE
100
AcDbSymbolTableRecord
100
AcDbLayerTableRecord
  2
AXES_FEATURES
 70
0
 62
7
  6
CONTINUOUS
370
-3
390
F
  0
LAYER
  5
1FF
100
AcDbSymbolTableRecord
100
AcDbLayerTableRecord
  2
DEFAULT_COORDINATE_SYSTEM
 70
0
 62
7
  6
CONTINUOUS
370
-3
390
F
  0
LAYER
  5
200
100
AcDbSymbolTableRecord
100
AcDbLayerTableRecord
  2
DEFAULT_DATUM_AXES
 70
0
 62
7
  6
CONTINUOUS
370
-3
390
F
  0
LAYER
  5
201
100
AcDbSymbolTableRecord
100
AcDbLayerTableRecord
  2
DEFAULT_DATUM_PLANES
 70
0
 62
7
  6
CONTINUOUS
370
-3
390
F
  0
LAYER
  5
202
100
AcDbSymbolTableRecord
100
AcDbLayerTableRecord
  2
DIMENSIONS
 70
0
 62
7
  6
CONTINUOUS
370
-3
390
F
  0
ENDTAB
  0
TABLE
  2
STYLE
  5
3
100
AcDbSymbolTable
 70
1
  0
STYLE
  5
11
100
AcDbSymbolTableRecord
100
AcDbTextStyleTableRecord
  2
STANDARD
 70
0
 40
0.0
 41
0.8
 50
0.0
 71
0
 42
0.2
  3
txt
  4

  0
STYLE
  5
203
100
AcDbSymbolTableRecord
100
AcDbTextStyleTableRecord
  2
TEXTSTYLE_1
 70
0
 40
0.0
 41
0.8
 50
0.0
 71
0
 42
0.2
  3
gdt
  4

  0
ENDTAB
  0
TABLE
  2
VIEW
  5
6
100
AcDbSymbolTable
 70
0
  0
ENDTAB
  0
TABLE
  2
UCS
  5
7
100
AcDbSymbolTable
 70
0
  0
ENDTAB
  0
TABLE
  2
APPID
  5
9
100
AcDbSymbolTable
 70
1
  0
APPID
  5
204
100
AcDbSymbolTableRecord
100
AcDbRegAppTableRecord
  2
ACAD
 70
0
  0
ENDTAB
  0
TABLE
  2
BLOCK_RECORD
  5
1
100
AcDbSymbolTable
 70
0
  0
BLOCK_RECORD
  5
205
100
AcDbSymbolTableRecord
100
AcDbBlockTableRecord
  2
*Model_Space
  0
BLOCK_RECORD
  5
206
100
AcDbSymbolTableRecord
100
AcDbBlockTableRecord
  2
*Paper_Space
  0
BLOCK_RECORD
  5
207
100
AcDbSymbolTableRecord
100
AcDbBlockTableRecord
  2
_FILLED
  0
ENDTAB
  0
TABLE
  2
DIMSTYLE
  5
A
100
AcDbSymbolTable
 70
1
100
AcDbDimStyleTable
 71
0
  0
DIMSTYLE
105
208
100
AcDbSymbolTableRecord
100
AcDbDimStyleTableRecord
  2
STANDARD
 70
0
  3

  4

 40
1.0
 41
0.1
 42
0.0625
 43
0.38
 44
0.125
 45
0.0
 46
0.0
 47
0.001
 48
0.001
140
0.08
141
0.09
142
0.0
143
25.4
144
1.0
145
0.0
146
1.0
147
0.09
 71
1.0
 72
0.0
 73
1
 74
1
 75
0
 76
0
 77
0
 78
4
 79
1
170
1
171
2
172
0
173
0
174
0
175
0
176
0
177
0
178
0
270
2
179
3
271
3
272
3
273
2
274
2
275
0
280
0
281
0
282
0
283
1
284
4
285
0
286
0
287
3
288
0
340
11
278
46
341
207
342
207
343
207
344
207
  0
ENDTAB
  0
ENDSEC
  0
SECTION
  2
BLOCKS
  0
BLOCK
  5
20
100
AcDbEntity
  8
0
100
AcDbBlockBegin
  2
*Model_Space
 70
0
 10
0.0
 20
0.0
 30
0.0
  3
*Model_Space
  1

  0
ENDBLK
  5
21
100
AcDbEntity
  8
0
100
AcDbBlockEnd
  0
BLOCK
  5
1C
100
AcDbEntity
  8
0
100
AcDbBlockBegin
  2
*Paper_Space
 70
0
 10
0.0
 20
0.0
 30
0.0
  3
*Paper_Space
  1

  0
ENDBLK
  5
1D
100
AcDbEntity
  8
0
100
AcDbBlockEnd
  0
BLOCK
  5
209
100
AcDbEntity
  8
0
100
AcDbBlockBegin
  2
_FILLED
 70
64
 10
0.0
 20
0.0
  3
_FILLED
  1

  0
SOLID
  5
20A
100
AcDbEntity
  8
0
  6
BYBLOCK
 62
0
100
AcDbTrace
 10
0.0
 20
0.0
 11
-1.0
 21
0.2
 12
-1.0
 22
-0.2
 13
-1.0
 23
-0.2
  0
ENDBLK
  5
20B
100
AcDbEntity
  8
0
  6
BYBLOCK
 62
0
100
AcDbBlockEnd
  0
ENDSEC
  0
SECTION
  2
ENTITIES
  0
LINE
  5
20C
100
AcDbEntity
  8
0
100
AcDbLine
 62
7
  6
CONTINUOUS
 10
7.7973183383
 20
11.4303077147
 11
7.7973183383
 21
11.5697709751
  0
LINE
  5
20D
100
AcDbEntity
  8
0
100
AcDbLine
 62
7
  6
CONTINUOUS
 10
9.0473183383
 20
5.4293944618
 11
9.0473183383
 21
4.8325377656
  0
LINE
  5
20E
100
AcDbEntity
  8
0
100
AcDbLine
 62
7
  6
CONTINUOUS
 10
9.6723183383
 20
8.2312709751
 11
9.6723183383
 21
8.6762709751
  0
LINE
  5
20F
100
AcDbEntity
  8
0
100
AcDbLine
 62
7
  6
CONTINUOUS
 10
9.8573183383
 20
11.3375977279
 11
9.8573183383
 21
11.5697709751
  0
LINE
  5
210
100
AcDbEntity
  8
0
100
AcDbLine
 62
7
  6
CONTINUOUS
 10
9.8598183383
 20
11.2567709751
 11
9.8598183383
 21
10.8817709751
  0
LINE
  5
211
100
AcDbEntity
  8
0
100
AcDbLine
 62
7
  6
CONTINUOUS
 10
10.3910683383
 20
10.8817709751
 11
10.3910683383
 21
9.7737709751
  0
LINE
  5
212
100
AcDbEntity
  8
0
100
AcDbLine
 62
7
  6
CONTINUOUS
 10
10.3910683383
 20
9.7537709751
 11
10.3910683383
 21
9.3137709751
  0
LINE
  5
213
100
AcDbEntity
  8
0
100
AcDbLine
 62
7
  6
CONTINUOUS
 10
11.0469489938
 20
6.4967722694
 11
11.0477479814
 21
6.4967723123
  0
LINE
  5
214
100
AcDbEntity
  8
0
100
AcDbLine
 62
7
  6
CONTINUOUS
 10
10.4723183383
 20
6.5833927287
 11
10.4723183383
 21
5.9187123544
  0
LINE
  5
215
100
AcDbEntity
  8
0
100
AcDbLine
 62
7
  6
CONTINUOUS
 10
10.5948183383
 20
7.099580679
 11
10.5948183383
 21
6.8718018917
  0
LINE
  5
216
100
AcDbEntity
  8
0
100
AcDbLine
 62
7
  6
CONTINUOUS
 10
10.6410683383
 20
11.1529138728
 11
10.6410683383
 21
7.3050312398
  0
LINE
  5
217
100
AcDbEntity
  8
0
100
AcDbLine
 62
7
  6
CONTINUOUS
 10
10.6410683383
 20
7.2229198375
 11
10.6410683383
 21
7.2055226075
  0
LINE
  5
218
100
AcDbEntity
  8
0
100
AcDbLine
 62
7
  6
CONTINUOUS
 10
10.6410683383
 20
7.1716912649
 11
10.6410683383
 21
7.1558051891
  0
LINE
  5
219
100
AcDbEntity
  8
0
100
AcDbLine
 62
7
  6
CONTINUOUS
 10
10.6410683383
 20
7.1203914145
 11
10.6410683383
 21
7.1060759891
  0
LINE
  5
21A
100
AcDbEntity
  8
0
100
AcDbLine
 62
7
  6
CONTINUOUS
 10
10.6410685839
 20
7.2745153568
 11
10.6410683383
 21
7.2553113224
  0
LINE
  5
21B
100
AcDbEntity
  8
0
100
AcDbLine
 62
9
  6
CONTINUOUS
 10
10.6410685839
 20
7.2745153568
 11
10.6434801132
 21
7.2754979852
  0
LINE
  5
21C
100
AcDbEntity
  8
0
100
AcDbLine
 62
7
  6
CONTINUOUS
 10
11.1568904109
 20
6.70074893
 11
11.1568904109
 21
6.5613584903
  0
LINE
  5
21D
100
AcDbEntity
  8
0
100
AcDbLine
 62
7
  6
CONTINUOUS
 10
11.1770814628
 20
6.187295183
 11
11.1770814628
 21
5.9398078096
  0
LINE
  5
21E
100
AcDbEntity
  8
0
100
AcDbLine
 62
7
  6
CONTINUOUS
 10
11.3727462656
 20
6.7888717137
 11
11.3727462656
 21
6.649481274
  0
LINE
  5
21F
100
AcDbEntity
  8
0
100
AcDbLine
 62
7
  6
CONTINUOUS
 10
11.4535683383
 20
7.248564301
 11
11.4535683383
 21
7.2304236074
  0
LINE
  5
220
100
AcDbEntity
  8
0
100
AcDbLine
 62
7
  6
CONTINUOUS
 10
11.4535683383
 20
7.1972989
 11
11.4535683383
 21
7.1807444905
  0
LINE
  5
221
100
AcDbEntity
  8
0
100
AcDbLine
 62
7
  6
CONTINUOUS
 10
11.4535683383
 20
7.1459607326
 11
11.4535683383
 21
7.1309424461
  0
LINE
  5
222
100
AcDbEntity
  8
0
100
AcDbLine
 62
7
  6
CONTINUOUS
 10
11.4675552138
 20
6.3058805952
 11
11.4675552138
 21
6.0583932218
  0
LINE
  5
223
100
AcDbEntity
  8
0
100
AcDbLine
 62
7
  6
CONTINUOUS
 10
11.4998183383
 20
7.099580679
 11
11.4998183383
 21
6.8718018917
  0
LINE
  5
224
100
AcDbEntity
  8
0
100
AcDbLine
 62
7
  6
CONTINUOUS
 10
11.6223183383
 20
6.5833927287
 11
11.6223183383
 21
5.9187123544
  0
LINE
  5
225
100
AcDbEntity
  8
0
100
AcDbLine
 62
7
  6
CONTINUOUS
 10
11.7035683383
 20
10.8817709751
 11
11.7035683383
 21
9.7737709751
  0
LINE
  5
226
100
AcDbEntity
  8
0
100
AcDbLine
 62
7
  6
CONTINUOUS
 10
11.7035683383
 20
9.7537709751
 11
11.7035683383
 21
9.3137709751
  0
LINE
  5
227
100
AcDbEntity
  8
0
100
AcDbLine
 62
7
  6
CONTINUOUS
 10
11.4535683383
 20
11.1529138728
 11
11.4535680927
 21
7.304715385
  0
LINE
  5
228
100
AcDbEntity
  8
0
100
AcDbLine
 62
7
  6
CONTINUOUS
 10
10.6410683383
 20
8.2312709751
 11
9.6723183383
 21
8.2312709751
  0
LINE
  5
229
100
AcDbEntity
  8
0
100
AcDbLine
 62
7
  6
CONTINUOUS
 10
11.4535683383
 20
8.2312709751
 11
12.4223183383
 21
8.2312709751
  0
LINE
  5
22A
100
AcDbEntity
  8
0
100
AcDbLine
 62
7
  6
CONTINUOUS
 10
12.2348183383
 20
11.2567709751
 11
12.2348183383
 21
10.8817709751
  0
LINE
  5
22B
100
AcDbEntity
  8
0
100
AcDbLine
 62
7
  6
CONTINUOUS
 10
12.2373183383
 20
11.3375977279
 11
12.2373183383
 21
11.5697709751
  0
LINE
  5
22C
100
AcDbEntity
  8
0
100
AcDbLine
 62
7
  6
CONTINUOUS
 10
12.4223183383
 20
8.2312709751
 11
12.4223183383
 21
8.6762709751
  0
LINE
  5
22D
100
AcDbEntity
  8
0
100
AcDbLine
 62
7
  6
CONTINUOUS
 10
11.4675552138
 20
6.3058805952
 11
11.1770814628
 21
6.187295183
  0
LINE
  5
22E
100
AcDbEntity
  8
0
100
AcDbLine
 62
7
  6
CONTINUOUS
 10
10.6410683383
 20
8.6762709751
 11
9.6723183383
 21
8.6762709751
  0
LINE
  5
22F
100
AcDbEntity
  8
0
100
AcDbLine
 62
7
  6
CONTINUOUS
 10
11.4535683383
 20
8.6762709751
 11
12.4223183383
 21
8.6762709751
  0
LINE
  5
230
100
AcDbEntity
  8
0
100
AcDbLine
 62
7
  6
CONTINUOUS
 10
11.4675552138
 20
6.0583932218
 11
11.1770814628
 21
5.9398078096
  0
LINE
  5
231
100
AcDbEntity
  8
0
100
AcDbLine
 62
7
  6
CONTINUOUS
 10
13.0473183383
 20
5.4293944618
 11
13.0473183383
 21
4.8325377656
  0
LINE
  5
232
100
AcDbEntity
  8
0
100
AcDbLine
 62
7
  6
CONTINUOUS
 10
11.7035683383
 20
9.3137709751
 11
11.4535683383
 21
9.3137709751
  0
LINE
  5
233
100
AcDbEntity
  8
0
100
AcDbLine
 62
7
  6
CONTINUOUS
 10
10.6410683383
 20
9.3137709751
 11
10.3910683383
 21
9.3137709751
  0
LINE
  5
234
100
AcDbEntity
  8
0
100
AcDbLine
 62
9
  6
CONTINUOUS
 10
11.4535683383
 20
9.3197709751
 11
10.6410683383
 21
9.3197709751
  0
LINE
  5
235
100
AcDbEntity
  8
0
100
AcDbLine
 62
7
  6
CONTINUOUS
 10
11.7035683383
 20
9.7537709751
 11
11.4535683383
 21
9.7537709751
  0
LINE
  5
236
100
AcDbEntity
  8
0
100
AcDbLine
 62
7
  6
CONTINUOUS
 10
10.6410683383
 20
9.7537709751
 11
10.3910683383
 21
9.7537709751
  0
LINE
  5
237
100
AcDbEntity
  8
0
100
AcDbLine
 62
7
  6
CONTINUOUS
 10
11.7035683383
 20
9.7737709751
 11
11.4535683383
 21
9.7737709751
  0
LINE
  5
238
100
AcDbEntity
  8
0
100
AcDbLine
 62
7
  6
CONTINUOUS
 10
10.6410683383
 20
9.7737709751
 11
10.3910683383
 21
9.7737709751
  0
LINE
  5
239
100
AcDbEntity
  8
0
100
AcDbLine
 62
7
  6
CONTINUOUS
 10
14.2973183383
 20
11.4303077147
 11
14.2973183383
 21
11.5697709751
  0
LINE
  5
23A
100
AcDbEntity
  8
0
100
AcDbLine
 62
7
  6
CONTINUOUS
 10
9.8598183383
 20
10.8817709751
 11
10.6410683383
 21
10.8817709751
  0
LINE
  5
23B
100
AcDbEntity
  8
0
100
AcDbLine
 62
7
  6
CONTINUOUS
 10
11.4535683383
 20
10.8817709751
 11
12.2348183383
 21
10.8817709751
  0
LINE
  5
23C
100
AcDbEntity
  8
0
100
AcDbLine
 62
7
  6
CONTINUOUS
 10
11.4945333056
 20
11.1529138728
 11
11.4978849088
 21
11.1531016814
  0
LINE
  5
23D
100
AcDbEntity
  8
0
100
AcDbLine
 62
7
  6
CONTINUOUS
 10
10.600353112
 20
11.1529138728
 11
11.4945333056
 21
11.1529138728
  0
LINE
  5
23E
100
AcDbEntity
  8
0
100
AcDbLine
 62
9
  6
CONTINUOUS
 10
11.4978849088
 20
11.1531016814
 11
10.5967517678
 21
11.1531016814
  0
LINE
  5
23F
100
AcDbEntity
  8
0
100
AcDbLine
 62
7
  6
CONTINUOUS
 10
14.1301613174
 20
11.2567709751
 11
12.0755935853
 21
11.2567709751
  0
LINE
  5
240
100
AcDbEntity
  8
0
100
AcDbLine
 62
7
  6
CONTINUOUS
 10
10.0190430912
 20
11.2567709751
 11
7.9644753592
 21
11.2567709751
  0
LINE
  5
241
100
AcDbEntity
  8
0
100
AcDbLine
 62
9
  6
CONTINUOUS
 10
12.2007135508
 20
11.2894254508
 11
9.8939231258
 21
11.2894254508
  0
LINE
  5
242
100
AcDbEntity
  8
0
100
AcDbLine
 62
9
  6
CONTINUOUS
 10
14.1895364896
 20
11.2987079848
 11
12.2186073731
 21
11.2987079848
  0
LINE
  5
243
100
AcDbEntity
  8
0
100
AcDbLine
 62
9
  6
CONTINUOUS
 10
9.8760293035
 20
11.2987079848
 11
7.9051001869
 21
11.2987079848
  0
LINE
  5
244
100
AcDbEntity
  8
0
100
AcDbLine
 62
9
  6
CONTINUOUS
 10
12.2373183383
 20
11.3375977279
 11
9.8573183383
 21
11.3375977279
  0
LINE
  5
245
100
AcDbEntity
  8
0
100
AcDbLine
 62
7
  6
CONTINUOUS
 10
10.600103371
 20
11.1529138728
 11
10.5967517678
 21
11.1531016814
  0
LINE
  5
246
100
AcDbEntity
  8
0
100
AcDbLine
 62
9
  6
CONTINUOUS
 10
14.2588700226
 20
11.3722886248
 11
12.2373183383
 21
11.3722886248
  0
LINE
  5
247
100
AcDbEntity
  8
0
100
AcDbLine
 62
9
  6
CONTINUOUS
 10
9.8573183383
 20
11.3722886248
 11
7.8357666539
 21
11.3722886248
  0
LINE
  5
248
100
AcDbEntity
  8
0
100
AcDbLine
 62
9
  6
CONTINUOUS
 10
14.2973183383
 20
11.4303077147
 11
12.2373183383
 21
11.4303077147
  0
LINE
  5
249
100
AcDbEntity
  8
0
100
AcDbLine
 62
9
  6
CONTINUOUS
 10
9.8573183383
 20
11.4303077147
 11
7.7973183383
 21
11.4303077147
  0
LINE
  5
24A
100
AcDbEntity
  8
0
100
AcDbLine
 62
7
  6
CONTINUOUS
 10
7.7973183383
 20
11.5697709751
 11
14.2973183383
 21
11.5697709751
  0
ARC
  5
24B
100
AcDbEntity
  8
0
100
AcDbCircle
 62
7
  6
CONTINUOUS
 10
11.0994922504
 20
15.6249303909
 40
4.5
100
AcDbArc
 50
254.4604045096
 51
263.5855182739
  0
ARC
  5
24C
100
AcDbEntity
  8
0
100
AcDbCircle
 62
7
  6
CONTINUOUS
 10
10.9951444261
 20
15.6249303909
 40
4.5
100
AcDbArc
 50
276.4144817261
 51
285.5395954904
  0
ARC
  5
24D
100
AcDbEntity
  8
0
100
AcDbCircle
 62
9
  6
CONTINUOUS
 10
10.994997566
 20
6.5585841982
 40
2.4249398069
100
AcDbArc
 50
251.3265055295
 51
257.239610506
  0
ARC
  5
24E
100
AcDbEntity
  8
0
100
AcDbCircle
 62
9
  6
CONTINUOUS
 10
10.9755725905
 20
4.9452187871
 40
1.3579513883
100
AcDbArc
 50
111.7581194987
 51
112.2075117177
  0
ARC
  5
24F
100
AcDbEntity
  8
0
100
AcDbCircle
 62
7
  6
CONTINUOUS
 10
11.0761115662
 20
6.80835276
 40
0.5621254179
100
AcDbArc
 50
291.1906095093
 51
292.2069204987
  0
ARC
  5
250
100
AcDbEntity
  8
0
100
AcDbCircle
 62
7
  6
CONTINUOUS
 10
11.0783037961
 20
6.7766281954
 40
0.5299000881
100
AcDbArc
 50
292.2054510478
 51
293.2836719267
  0
ARC
  5
251
100
AcDbEntity
  8
0
100
AcDbCircle
 62
7
  6
CONTINUOUS
 10
11.0473343136
 20
6.4165055964
 40
0.4890187821
100
AcDbArc
 50
145.0976452298
 51
151.3092064518
  0
ARC
  5
252
100
AcDbEntity
  8
0
100
AcDbCircle
 62
7
  6
CONTINUOUS
 10
11.0473039427
 20
6.4165066425
 40
0.4890168941
100
AcDbArc
 50
28.6907748895
 51
34.8983233847
  0
ARC
  5
253
100
AcDbEntity
  8
0
100
AcDbCircle
 62
7
  6
CONTINUOUS
 10
11.2759365191
 20
6.5336884486
 40
0.2338905088
100
AcDbArc
 50
4.5769325936
 51
8.6701319468
  0
ARC
  5
254
100
AcDbEntity
  8
0
100
AcDbCircle
 62
7
  6
CONTINUOUS
 10
10.818046186
 20
6.5337646221
 40
0.2332324942
100
AcDbArc
 50
171.3699827051
 51
175.8091684034
  0
ARC
  5
255
100
AcDbEntity
  8
0
100
AcDbCircle
 62
7
  6
CONTINUOUS
 10
11.2379084961
 20
7.248540364
 40
0.2156598435
100
AcDbArc
 50
0.0063595109
 51
7.636256171
  0
ARC
  5
256
100
AcDbEntity
  8
0
100
AcDbCircle
 62
7
  6
CONTINUOUS
 10
11.2380001929
 20
7.230459045
 40
0.2155681483
100
AcDbArc
 50
351.2556849894
 51
359.9905810686
  0
ARC
  5
257
100
AcDbEntity
  8
0
100
AcDbCircle
 62
7
  6
CONTINUOUS
 10
11.2382555264
 20
7.145950232
 40
0.2153128121
100
AcDbArc
 50
0.0027942397
 51
4.6370616436
  0
ARC
  5
258
100
AcDbEntity
  8
0
100
AcDbCircle
 62
7
  6
CONTINUOUS
 10
11.2383619154
 20
7.1972896232
 40
0.2152064231
100
AcDbArc
 50
0.0024698299
 51
4.4229256281
  0
ARC
  5
259
100
AcDbEntity
  8
0
100
AcDbCircle
 62
7
  6
CONTINUOUS
 10
11.2384712979
 20
7.2485675374
 40
0.2150970404
100
AcDbArc
 50
355.1714185801
 51
359.9991379233
  0
ARC
  5
25A
100
AcDbEntity
  8
0
100
AcDbCircle
 62
7
  6
CONTINUOUS
 10
11.2385078224
 20
7.1459627569
 40
0.2150605159
100
AcDbArc
 50
356.0026660611
 51
359.9994606894
  0
ARC
  5
25B
100
AcDbEntity
  8
0
100
AcDbCircle
 62
7
  6
CONTINUOUS
 10
11.238536804
 20
7.1973014798
 40
0.2150315343
100
AcDbArc
 50
355.5927629726
 51
359.9993126231
  0
ARC
  5
25C
100
AcDbEntity
  8
0
100
AcDbCircle
 62
7
  6
CONTINUOUS
 10
10.8452098985
 20
7.305064609
 40
0.2041415627
100
AcDbArc
 50
180.0093656351
 51
188.5926994095
  0
ARC
  5
25D
100
AcDbEntity
  8
0
100
AcDbCircle
 62
7
  6
CONTINUOUS
 10
10.8341510049
 20
7.2230041876
 40
0.1930856434
100
AcDbArc
 50
185.1820861031
 51
185.9458792247
  0
ARC
  5
25E
100
AcDbEntity
  8
0
100
AcDbCircle
 62
7
  6
CONTINUOUS
 10
10.8333037226
 20
7.2229328919
 40
0.1922353847
100
AcDbArc
 50
180.0038908441
 51
185.1837323113
  0
ARC
  5
25F
100
AcDbEntity
  8
0
100
AcDbCircle
 62
7
  6
CONTINUOUS
 10
10.8332804808
 20
7.1203795907
 40
0.1922121178
100
AcDbArc
 50
174.6968919722
 51
179.9964754881
  0
ARC
  5
260
100
AcDbEntity
  8
0
100
AcDbCircle
 62
7
  6
CONTINUOUS
 10
10.8332254131
 20
7.1717015788
 40
0.1921570751
100
AcDbArc
 50
180.0030753135
 51
184.7344600204
  0
ARC
  5
261
100
AcDbEntity
  8
0
100
AcDbCircle
 62
7
  6
CONTINUOUS
 10
10.8330802351
 20
7.2229165035
 40
0.1920118969
100
AcDbArc
 50
174.9524407226
 51
179.9990051487
  0
ARC
  5
262
100
AcDbEntity
  8
0
100
AcDbCircle
 62
7
  6
CONTINUOUS
 10
10.8330752997
 20
7.1716879264
 40
0.1920069614
100
AcDbArc
 50
174.9448124013
 51
179.9990037719
  0
ARC
  5
263
100
AcDbEntity
  8
0
100
AcDbCircle
 62
7
  6
CONTINUOUS
 10
10.8330376495
 20
7.2742050564
 40
0.1919693165
100
AcDbArc
 50
175.5142766117
 51
179.9073866808
  0
ARC
  5
264
100
AcDbEntity
  8
0
100
AcDbCircle
 62
7
  6
CONTINUOUS
 10
10.8329845847
 20
7.120392531
 40
0.1919162214
100
AcDbArc
 50
180.0003332981
 51
184.2586550994
  0
ARC
  5
265
100
AcDbEntity
  8
0
100
AcDbCircle
 62
7
  6
CONTINUOUS
 10
7.7868835557
 20
11.2567709751
 40
0.1254347826
100
AcDbArc
 50
19.5319940446
 51
67.0635891141
  0
ARC
  5
266
100
AcDbEntity
  8
0
100
AcDbCircle
 62
7
  6
CONTINUOUS
 10
14.3077531209
 20
11.2567709751
 40
0.1254347826
100
AcDbArc
 50
112.9364108859
 51
160.4680059554
  0
ARC
  5
267
100
AcDbEntity
  8
0
100
AcDbCircle
 62
7
  6
CONTINUOUS
 10
14.2343183383
 20
11.4303077147
 40
0.063
100
AcDbArc
 50
292.9364108859
 51
360.0
  0
ARC
  5
268
100
AcDbEntity
  8
0
100
AcDbCircle
 62
7
  6
CONTINUOUS
 10
7.8603183383
 20
11.4303077147
 40
0.063
100
AcDbArc
 50
180.0
 51
247.0635891141
  0
ARC
  5
269
100
AcDbEntity
  8
0
100
AcDbCircle
 62
7
  6
CONTINUOUS
 10
14.130161828
 20
11.3197709751
 40
0.063
100
AcDbArc
 50
270.0
 51
340.4680059554
  0
ARC
  5
26A
100
AcDbEntity
  8
0
100
AcDbCircle
 62
7
  6
CONTINUOUS
 10
7.9644748485
 20
11.3197709751
 40
0.063
100
AcDbArc
 50
199.5319940446
 51
270.0
  0
ARC
  5
26B
100
AcDbEntity
  8
0
100
AcDbCircle
 62
7
  6
CONTINUOUS
 10
12.1873183383
 20
11.3375977279
 40
0.05
100
AcDbArc
 50
285.5395954904
 51
360.0
  0
ARC
  5
26C
100
AcDbEntity
  8
0
100
AcDbCircle
 62
7
  6
CONTINUOUS
 10
9.9073183383
 20
11.3375977279
 40
0.05
100
AcDbArc
 50
180.0
 51
254.4604045096
  0
SPLINE
  5
26D
100
AcDbEntity
  8
0
100
AcDbSpline
 62
7
  6
CONTINUOUS
 70
0
 71
3
 72
28
 73
24
 74
0
 42
0.0000001
 43
0.0000001
 44
0.0000000001
 40
0.0
 40
0.0
 40
0.0
 40
0.0
 40
0.0253211367
 40
0.0507083179
 40
0.0762264588
 40
0.1019382619
 40
0.1279032067
 40
0.1541767145
 40
0.1808094207
 40
0.2078466334
 40
0.2353279601
 40
0.2632870192
 40
0.3207201203
 40
0.3803188151
 40
0.4421386934
 40
0.5061509476
 40
0.572251597
 40
0.6402719964
 40
0.7099889678
 40
0.7811348473
 40
0.8534070322
 40
0.9264765902
 40
1.0
 40
1.0
 40
1.0
 40
1.0
 10
10.6410683591
 20
7.1060759891
 30
0.0
 10
10.641068345
 20
7.1015042129
 30
0.0
 10
10.6413957355
 20
7.0923453856
 30
0.0
 10
10.6428669121
 20
7.0786503434
 30
0.0
 10
10.645314826
 20
7.0650235526
 30
0.0
 10
10.6487331929
 20
7.0515001173
 30
0.0
 10
10.6531133566
 20
7.0381136118
 30
0.0
 10
10.6584444092
 20
7.0248975419
 30
0.0
 10
10.6647130793
 20
7.0118847549
 30
0.0
 10
10.67190368
 20
6.9991076041
 30
0.0
 10
10.6799988684
 20
6.9865973817
 30
0.0
 10
10.6920775516
 20
6.9701704896
 30
0.0
 10
10.7094038948
 20
6.9504665874
 30
0.0
 10
10.7332430329
 20
6.9286020358
 30
0.0
 10
10.7600881046
 20
6.9085087538
 30
0.0
 10
10.7896785905
 20
6.8903837618
 30
0.0
 10
10.82173144
 20
6.8744027261
 30
0.0
 10
10.8559401096
 20
6.8607228941
 30
0.0
 10
10.8919780652
 20
6.8494803855
 30
0.0
 10
10.9295009482
 20
6.8407885549
 30
0.0
 10
10.9681509262
 20
6.8347372061
 30
0.0
 10
11.0075563402
 20
6.8313909542
 30
0.0
 10
11.0340460748
 20
6.8309904564
 30
0.0
 10
11.0473183383
 20
6.8312490384
 30
0.0
  0
SPLINE
  5
26E
100
AcDbEntity
  8
0
100
AcDbSpline
 62
7
  6
CONTINUOUS
 70
0
 71
3
 72
15
 73
11
 74
0
 42
0.0000001
 43
0.0000001
 44
0.0000000001
 40
0.0
 40
0.0
 40
0.0
 40
0.0
 40
0.1196855565
 40
0.2399227066
 40
0.3612465914
 40
0.4841601273
 40
0.6091216073
 40
0.7365321447
 40
0.8667352505
 40
1.0
 40
1.0
 40
1.0
 40
1.0
 10
10.6410683536
 20
7.1558051891
 30
0.0
 10
10.6410683274
 20
7.1497169192
 30
0.0
 10
10.6416501773
 20
7.137504431
 30
0.0
 10
10.6442621599
 20
7.1192886562
 30
0.0
 10
10.6486019341
 20
7.1012357012
 30
0.0
 10
10.6546493681
 20
7.0834284315
 30
0.0
 10
10.6623768292
 20
7.065945506
 30
0.0
 10
10.6717496332
 20
7.04886373
 30
0.0
 10
10.6827252772
 20
7.0322592769
 30
0.0
 10
10.6909807363
 20
7.0216817054
 30
0.0
 10
10.6953467171
 20
7.0164958174
 30
0.0
  0
SPLINE
  5
26F
100
AcDbEntity
  8
0
100
AcDbSpline
 62
7
  6
CONTINUOUS
 70
0
 71
3
 72
28
 73
24
 74
0
 42
0.0000001
 43
0.0000001
 44
0.0000000001
 40
0.0
 40
0.0
 40
0.0
 40
0.0
 40
0.0253216856
 40
0.0507093268
 40
0.0762278436
 40
0.1019399624
 40
0.1279051525
 40
0.1541788173
 40
0.180811622
 40
0.2078488985
 40
0.2353302187
 40
0.2632892175
 40
0.320722122
 40
0.3803204917
 40
0.4421399786
 40
0.5061518415
 40
0.5722520866
 40
0.640272149
 40
0.7099888466
 40
0.7811345536
 40
0.8534067061
 40
0.9264763172
 40
1.0
 40
1.0
 40
1.0
 40
1.0
 10
10.6410683383
 20
7.2055226075
 30
0.0
 10
10.6410683383
 20
7.2009507534
 30
0.0
 10
10.6413957229
 20
7.1917917859
 30
0.0
 10
10.6428669549
 20
7.1780965633
 30
0.0
 10
10.6453148048
 20
7.1644696162
 30
0.0
 10
10.6487331845
 20
7.1509460735
 30
0.0
 10
10.6531134033
 20
7.1375595193
 30
0.0
 10
10.6584444255
 20
7.124343412
 30
0.0
 10
10.6647130853
 20
7.1113306282
 30
0.0
 10
10.6719037368
 20
7.098553551
 30
0.0
 10
10.6799989258
 20
7.0860434134
 30
0.0
 10
10.692077575
 20
7.0696166706
 30
0.0
 10
10.7094039804
 20
7.0499131187
 30
0.0
 10
10.7332431104
 20
7.0280490245
 30
0.0
 10
10.7600881996
 20
7.0079563489
 30
0.0
 10
10.7896787147
 20
6.9898321201
 30
0.0
 10
10.8217315571
 20
6.9738518958
 30
0.0
 10
10.8559402373
 20
6.9601730357
 30
0.0
 10
10.8919781859
 20
6.9489315646
 30
0.0
 10
10.9295010585
 20
6.9402408534
 30
0.0
 10
10.9681510187
 20
6.9341907323
 30
0.0
 10
11.0075564106
 20
6.9308457489
 30
0.0
 10
11.034046096
 20
6.9304461504
 30
0.0
 10
11.0473183383
 20
6.9307051892
 30
0.0
  0
SPLINE
  5
270
100
AcDbEntity
  8
0
100
AcDbSpline
 62
7
  6
CONTINUOUS
 70
0
 71
3
 72
23
 73
19
 74
0
 42
0.0000001
 43
0.0000001
 44
0.0000000001
 40
0.0
 40
0.0
 40
0.0
 40
0.0
 40
0.0615517569
 40
0.123112656
 40
0.184691945
 40
0.2463042951
 40
0.3079688263
 40
0.3697109696
 40
0.4315627371
 40
0.4935623659
 40
0.5557529438
 40
0.6181809136
 40
0.6808927523
 40
0.7439328424
 40
0.8073396342
 40
0.8711425009
 40
0.9353615195
 40
1.0
 40
1.0
 40
1.0
 40
1.0
 10
11.4998183383
 20
6.8718018917
 30
0.0
 10
11.4998183383
 20
6.8626892058
 30
0.0
 10
11.4990391092
 20
6.8444529211
 30
0.0
 10
11.4955459344
 20
6.8173018743
 30
0.0
 10
11.4897668773
 20
6.7905333064
 30
0.0
 10
11.4817641926
 20
6.7643287755
 30
0.0
 10
11.4716200335
 20
6.7388515371
 30
0.0
 10
11.4594328828
 20
6.7142477938
 30
0.0
 10
11.4453127278
 20
6.6906438536
 30
0.0
 10
11.429376967
 20
6.6681459728
 30
0.0
 10
11.4117461352
 20
6.6468413336
 30
0.0
 10
11.3925410778
 20
6.6267998192
 30
0.0
 10
11.3718804258
 20
6.6080767469
 30
0.0
 10
11.3498796941
 20
6.5907155205
 30
0.0
 10
11.3266508891
 20
6.5747507755
 30
0.0
 10
11.3023025707
 20
6.5602101355
 30
0.0
 10
11.2769426962
 20
6.5471178143
 30
0.0
 10
11.2594854545
 20
6.5393922
 30
0.0
 10
11.2506256592
 20
6.5357752037
 30
0.0
  0
SPLINE
  5
271
100
AcDbEntity
  8
0
100
AcDbSpline
 62
7
  6
CONTINUOUS
 70
0
 71
3
 72
32
 73
28
 74
0
 42
0.0000001
 43
0.0000001
 44
0.0000000001
 40
0.0
 40
0.0
 40
0.0
 40
0.0
 40
0.065448551
 40
0.1307312825
 40
0.1956968066
 40
0.2280262755
 40
0.2602318847
 40
0.3242189142
 40
0.3876195663
 40
0.4191038214
 40
0.4504422614
 40
0.5126867886
 40
0.5744340049
 40
0.6051580116
 40
0.6357917734
 40
0.6663469325
 40
0.6968353587
 40
0.7272685944
 40
0.7576565858
 40
0.7880087389
 40
0.8183331012
 40
0.8486363671
 40
0.8789243239
 40
0.9092013073
 40
0.939471492
 40
0.9697360738
 40
1.0
 40
1.0
 40
1.0
 40
1.0
 10
11.0469489938
 20
6.4967722785
 30
0.0
 10
11.0327236858
 20
6.4967816141
 30
0.0
 10
11.0042976726
 20
6.4978790781
 30
0.0
 10
10.9620045292
 20
6.5027565356
 30
0.0
 10
10.9272789216
 20
6.5095094476
 30
0.0
 10
10.9000104323
 20
6.5165131732
 30
0.0
 10
10.8732479745
 20
6.5245422679
 30
0.0
 10
10.840652229
 20
6.5365275999
 30
0.0
 10
10.8093206745
 20
6.5511526459
 30
0.0
 10
10.7852748379
 20
6.5643781442
 30
0.0
 10
10.7620628247
 20
6.578540629
 30
0.0
 10
10.734478806
 20
6.5980977094
 30
0.0
 10
10.7090066506
 20
6.6201427525
 30
0.0
 10
10.6901580377
 20
6.6391481226
 30
0.0
 10
10.676838552
 20
6.6540500185
 30
0.0
 10
10.664360419
 20
6.6695975593
 30
0.0
 10
10.6527686103
 20
6.6857636979
 30
0.0
 10
10.6421085432
 20
6.7025162198
 30
0.0
 10
10.6324248406
 20
6.7198179449
 30
0.0
 10
10.6237608017
 20
6.7376262098
 30
0.0
 10
10.6161574036
 20
6.755892906
 30
0.0
 10
10.6096526944
 20
6.7745646034
 30
0.0
 10
10.604280742
 20
6.7935827305
 30
0.0
 10
10.6000705735
 20
6.8128841215
 30
0.0
 10
10.5970460029
 20
6.8324016758
 30
0.0
 10
10.5952239744
 20
6.8520644575
 30
0.0
 10
10.5948183383
 20
6.8652239956
 30
0.0
 10
10.5948183383
 20
6.8718018917
 30
0.0
  0
SPLINE
  5
272
100
AcDbEntity
  8
0
100
AcDbSpline
 62
7
  6
CONTINUOUS
 70
0
 71
3
 72
13
 73
9
 74
0
 42
0.0000001
 43
0.0000001
 44
0.0000000001
 40
0.0
 40
0.0
 40
0.0
 40
0.0
 40
0.1277906531
 40
0.2553047593
 40
0.4454485842
 40
0.6334854099
 40
0.8185853864
 40
1.0
 40
1.0
 40
1.0
 40
1.0
 10
11.0477479815
 20
6.4967723266
 30
0.0
 10
11.0563967875
 20
6.4967789231
 30
0.0
 10
11.0736782421
 20
6.4971909207
 30
0.0
 10
11.1037612152
 20
6.4993026762
 30
0.0
 10
11.1377353908
 20
6.5036806912
 30
0.0
 10
11.1751366912
 20
6.5112287906
 30
0.0
 10
11.2113196911
 20
6.5213220004
 30
0.0
 10
11.2346691085
 20
6.5297823271
 30
0.0
 10
11.2460363757
 20
6.5344229945
 30
0.0
  0
SPLINE
  5
273
100
AcDbEntity
  8
0
100
AcDbSpline
 62
7
  6
CONTINUOUS
 70
0
 71
3
 72
11
 73
7
 74
0
 42
0.0000001
 43
0.0000001
 44
0.0000000001
 40
0.0
 40
0.0
 40
0.0
 40
0.0
 40
0.2470587361
 40
0.4965271547
 40
0.7477861677
 40
1.0
 40
1.0
 40
1.0
 40
1.0
 10
11.2506256592
 20
6.5357752037
 30
0.0
 10
11.2347825722
 20
6.5293072905
 30
0.0
 10
11.202245031
 20
6.5179543965
 30
0.0
 10
11.1518194538
 20
6.505785066
 30
0.0
 10
11.1001111121
 20
6.4984380577
 30
0.0
 10
11.0652175331
 20
6.4967856891
 30
0.0
 10
11.0477479815
 20
6.496772322
 30
0.0
  0
SPLINE
  5
274
100
AcDbEntity
  8
0
100
AcDbSpline
 62
7
  6
CONTINUOUS
 70
0
 71
3
 72
15
 73
11
 74
0
 42
0.0000001
 43
0.0000001
 44
0.0000000001
 40
0.0
 40
0.0
 40
0.0
 40
0.0
 40
0.1211471629
 40
0.2426859868
 40
0.3649992271
 40
0.4884526369
 40
0.6133872742
 40
0.7401134614
 40
0.8689058721
 40
1.0
 40
1.0
 40
1.0
 40
1.0
 10
11.4998183182
 20
7.099580679
 30
0.0
 10
11.4998183014
 20
7.1056619498
 30
0.0
 10
11.4993262462
 20
7.1178498312
 30
0.0
 10
11.4971155722
 20
7.1360567747
 30
0.0
 10
11.4934396103
 20
7.1541442818
 30
0.0
 10
11.4883109977
 20
7.1720512075
 30
0.0
 10
11.4817473304
 20
7.1897191508
 30
0.0
 10
11.4737707048
 20
7.2070905236
 30
0.0
 10
11.4644086124
 20
7.2241079125
 30
0.0
 10
11.4573289956
 20
7.2350798545
 30
0.0
 10
11.4535782639
 20
7.240486894
 30
0.0
  0
SPLINE
  5
275
100
AcDbEntity
  8
0
100
AcDbSpline
 62
7
  6
CONTINUOUS
 70
0
 71
3
 72
15
 73
11
 74
0
 42
0.0000001
 43
0.0000001
 44
0.0000000001
 40
0.0
 40
0.0
 40
0.0
 40
0.0
 40
0.1211038957
 40
0.2426041274
 40
0.3648879829
 40
0.4883252695
 40
0.6132605899
 40
0.7400070387
 40
0.8688412844
 40
1.0
 40
1.0
 40
1.0
 40
1.0
 10
10.5948183583
 20
7.099580679
 30
0.0
 10
10.5948183414
 20
7.1056996859
 30
0.0
 10
10.5953166172
 20
7.1179635103
 30
0.0
 10
10.5975548415
 20
7.1362829515
 30
0.0
 10
10.6012765162
 20
7.1544806988
 30
0.0
 10
10.6064686658
 20
7.1724944639
 30
0.0
 10
10.6131132908
 20
7.190264753
 30
0.0
 10
10.6211877164
 20
7.2077329286
 30
0.0
 10
10.630663764
 20
7.2248405466
 30
0.0
 10
10.6378282053
 20
7.2358662279
 30
0.0
 10
10.6416236303
 20
7.2412987676
 30
0.0
  0
SPLINE
  5
276
100
AcDbEntity
  8
0
100
AcDbSpline
 62
7
  6
CONTINUOUS
 70
0
 71
3
 72
21
 73
17
 74
0
 42
0.0000001
 43
0.0000001
 44
0.0000000001
 40
0.0
 40
0.0
 40
0.0
 40
0.0
 40
0.0554312087
 40
0.1110880329
 40
0.1671897093
 40
0.2239431645
 40
0.2815378328
 40
0.3401415849
 40
0.3998977276
 40
0.4609231605
 40
0.5233075745
 40
0.5871133806
 40
0.7190402178
 40
0.7872253606
 40
0.8568293537
 40
1.0
 40
1.0
 40
1.0
 40
1.0
 10
11.5098183178
 20
6.5692505931
 30
0.0
 10
11.5098183371
 20
6.5622708897
 30
0.0
 10
11.5091835034
 20
6.5482748653
 30
0.0
 10
11.5063330741
 20
6.527389604
 30
0.0
 10
11.5015963557
 20
6.5066778907
 30
0.0
 10
11.4949941715
 20
6.4862282124
 30
0.0
 10
11.4865552159
 20
6.4661245729
 30
0.0
 10
11.4763157978
 20
6.4464498202
 30
0.0
 10
11.4643194057
 20
6.4272842745
 30
0.0
 10
11.4506168151
 20
6.4087061408
 30
0.0
 10
11.435264257
 20
6.3907898465
 30
0.0
 10
11.4124324701
 20
6.3676296566
 30
0.0
 10
11.3867514051
 20
6.3463692088
 30
0.0
 10
11.358730408
 20
6.3271549041
 30
0.0
 10
11.3284208715
 20
6.3088781772
 30
0.0
 10
11.3043239613
 20
6.2970098791
 30
0.0
 10
11.2877646895
 20
6.2898836653
 30
0.0
  0
SPLINE
  5
277
100
AcDbEntity
  8
0
100
AcDbSpline
 62
7
  6
CONTINUOUS
 70
0
 71
3
 72
22
 73
18
 74
0
 42
0.0000001
 43
0.0000001
 44
0.0000000001
 40
0.0
 40
0.0
 40
0.0
 40
0.0
 40
0.0552228285
 40
0.1106806263
 40
0.1666014007
 40
0.2231997985
 40
0.2806715038
 40
0.3391888968
 40
0.3988979228
 40
0.4599162219
 40
0.5223323958
 40
0.58620609
 40
0.6515689162
 40
0.7184257122
 40
0.7867562881
 40
0.8565173649
 40
1.0
 40
1.0
 40
1.0
 40
1.0
 10
11.6223183181
 20
5.9187123544
 30
0.0
 10
11.6223183386
 20
5.9098388534
 30
0.0
 10
11.621492872
 20
5.8920431851
 30
0.0
 10
11.6177868057
 20
5.8654944086
 30
0.0
 10
11.6116291294
 20
5.8391765503
 30
0.0
 10
11.6030482035
 20
5.8132072312
 30
0.0
 10
11.592083106
 20
5.7876979944
 30
0.0
 10
11.5787831912
 20
5.7627586915
 30
0.0
 10
11.5632076339
 20
5.7384957775
 30
0.0
 10
11.5454250139
 20
5.7150123786
 30
0.0
 10
11.5255129339
 20
5.6924079246
 30
0.0
 10
11.5035577222
 20
5.6707779307
 30
0.0
 10
11.479653912
 20
5.6502136168
 30
0.0
 10
11.4539046332
 20
5.6308020011
 30
0.0
 10
11.4264183741
 20
5.6126240516
 30
0.0
 10
11.3872562111
 20
5.5899281304
 30
0.0
 10
11.3561636404
 20
5.575312387
 30
0.0
 10
11.3348183383
 20
5.5665982039
 30
0.0
  0
SPLINE
  5
278
100
AcDbEntity
  8
0
100
AcDbSpline
 62
7
  6
CONTINUOUS
 70
0
 71
3
 72
21
 73
17
 74
0
 42
0.0000001
 43
0.0000001
 44
0.0000000001
 40
0.0
 40
0.0
 40
0.0
 40
0.0
 40
0.0587095745
 40
0.1175220378
 40
0.1765390101
 40
0.2358596504
 40
0.2955794754
 40
0.3557893239
 40
0.4165744898
 40
0.4780138304
 40
0.5401792005
 40
0.6031350454
 40
0.6669378828
 40
0.731636129
 40
0.863836575
 40
1.0
 40
1.0
 40
1.0
 40
1.0
 10
10.4723183494
 20
6.5833927287
 30
0.0
 10
10.4723183661
 20
6.5890749836
 30
0.0
 10
10.4726558835
 20
6.6004523287
 30
0.0
 10
10.4741735924
 20
6.6174807611
 30
0.0
 10
10.4766999118
 20
6.6344493175
 30
0.0
 10
10.4802303733
 20
6.6513271171
 30
0.0
 10
10.48475858
 20
6.6680844798
 30
0.0
 10
10.4902762376
 20
6.6846917617
 30
0.0
 10
10.4967735058
 20
6.7011196447
 30
0.0
 10
10.5042386892
 20
6.7173391815
 30
0.0
 10
10.5126583477
 20
6.7333219205
 30
0.0
 10
10.522017487
 20
6.7490396807
 30
0.0
 10
10.5322996535
 20
6.7644651948
 30
0.0
 10
10.5473210989
 20
6.7847498281
 30
0.0
 10
10.5683675894
 20
6.8092325553
 30
0.0
 10
10.5870417004
 20
6.8273404374
 30
0.0
 10
10.5968802971
 20
6.8361085552
 30
0.0
  0
SPLINE
  5
279
100
AcDbEntity
  8
0
100
AcDbSpline
 62
7
  6
CONTINUOUS
 70
0
 71
3
 72
38
 73
34
 74
0
 42
0.0000001
 43
0.0000001
 44
0.0000000001
 40
0.0
 40
0.0
 40
0.0
 40
0.0
 40
0.0627498361
 40
0.0951677292
 40
0.1282097739
 40
0.161817172
 40
0.1959211222
 40
0.230444519
 40
0.2653032354
 40
0.3004076257
 40
0.3356639667
 40
0.3709757153
 40
0.406244987
 40
0.4413739093
 40
0.4762658939
 40
0.510827147
 40
0.5449680052
 40
0.5786043198
 40
0.611659046
 40
0.6440636544
 40
0.6757597007
 40
0.7067005213
 40
0.7368527611
 40
0.7661980823
 40
0.7947348113
 40
0.8224793259
 40
0.849467384
 40
0.8757549357
 40
0.9014182564
 40
0.9265533757
 40
0.9512742698
 40
0.9757098741
 40
1.0
 40
1.0
 40
1.0
 40
1.0
 10
11.3431286757
 20
7.0773044706
 30
0.0
 10
11.3289737296
 20
7.0662691677
 30
0.0
 10
11.3062572888
 20
7.0510728233
 30
0.0
 10
11.2739492036
 20
7.0336943809
 30
0.0
 10
11.248190689
 20
7.0218386303
 30
0.0
 10
11.2213229483
 20
7.0113721305
 30
0.0
 10
11.1934915536
 20
7.002347094
 30
0.0
 10
11.1648514025
 20
6.9948104047
 30
0.0
 10
11.13556077
 20
6.9888001086
 30
0.0
 10
11.1057818436
 20
6.9843460645
 30
0.0
 10
11.0756794482
 20
6.9814695201
 30
0.0
 10
11.0454202245
 20
6.9801830512
 30
0.0
 10
11.0151716805
 20
6.9804904697
 30
0.0
 10
10.985101264
 20
6.9823867978
 30
0.0
 10
10.9553754183
 20
6.9858583038
 30
0.0
 10
10.9261586652
 20
6.9908825853
 30
0.0
 10
10.8976126821
 20
6.9974286992
 30
0.0
 10
10.8698954055
 20
7.0054573585
 30
0.0
 10
10.8431601695
 20
7.0149211705
 30
0.0
 10
10.8175548615
 20
7.0257649227
 30
0.0
 10
10.793221134
 20
7.0379259255
 30
0.0
 10
10.7702936695
 20
7.0513343867
 30
0.0
 10
10.7488994895
 20
7.0659138209
 30
0.0
 10
10.7291573507
 20
7.0815814834
 30
0.0
 10
10.7111772049
 20
7.0982488013
 30
0.0
 10
10.6950597165
 20
7.1158217877
 30
0.0
 10
10.6808958455
 20
7.1342014184
 30
0.0
 10
10.6687664309
 20
7.153283912
 30
0.0
 10
10.6587417296
 20
7.1729610979
 30
0.0
 10
10.6508808652
 20
7.1931202561
 30
0.0
 10
10.6452311141
 20
7.2136458843
 30
0.0
 10
10.6418271422
 20
7.2344149728
 30
0.0
 10
10.6410683179
 20
7.2483636429
 30
0.0
 10
10.6410683473
 20
7.2553113223
 30
0.0
  0
SPLINE
  5
27A
100
AcDbEntity
  8
0
100
AcDbSpline
 62
7
  6
CONTINUOUS
 70
0
 71
3
 72
17
 73
13
 74
0
 42
0.0000001
 43
0.0000001
 44
0.0000000001
 40
0.0
 40
0.0
 40
0.0
 40
0.0
 40
0.0580948556
 40
0.1164633856
 40
0.1751911317
 40
0.2343593239
 40
0.3542752282
 40
0.4767959852
 40
0.6023585865
 40
0.7312895218
 40
0.8638007646
 40
1.0
 40
1.0
 40
1.0
 40
1.0
 10
11.4450031164
 20
7.2465970908
 30
0.0
 10
11.4445527748
 20
7.2426986916
 30
0.0
 10
11.44342786
 20
7.2349073908
 30
0.0
 10
11.4410811185
 20
7.2233022989
 30
0.0
 10
11.4380758706
 20
7.2117745278
 30
0.0
 10
11.4331785549
 20
7.1964680067
 30
0.0
 10
11.4254047118
 20
7.1775910244
 30
0.0
 10
11.4136019594
 20
7.1556668368
 30
0.0
 10
11.3993680847
 20
7.1345013675
 30
0.0
 10
11.3828045339
 20
7.1142295995
 30
0.0
 10
11.3640278221
 20
7.0949781209
 30
0.0
 10
11.3503037608
 20
7.0830632593
 30
0.0
 10
11.3431286757
 20
7.0773044706
 30
0.0
  0
SPLINE
  5
27B
100
AcDbEntity
  8
0
100
AcDbSpline
 62
7
  6
CONTINUOUS
 70
0
 71
3
 72
15
 73
11
 74
0
 42
0.0000001
 43
0.0000001
 44
0.0000000001
 40
0.0
 40
0.0
 40
0.0
 40
0.0
 40
0.1226649941
 40
0.2455773658
 40
0.3689414879
 40
0.4929848027
 40
0.6179202363
 40
0.7439457724
 40
0.8712482881
 40
1.0
 40
1.0
 40
1.0
 40
1.0
 10
11.4535680927
 20
7.304715385
 30
0.0
 10
11.4535616546
 20
7.300575095
 30
0.0
 10
11.4532949428
 20
7.2922843373
 30
0.0
 10
11.4521352426
 20
7.2798782654
 30
0.0
 10
11.4502174885
 20
7.2675190914
 30
0.0
 10
11.4475456076
 20
7.2552311157
 30
0.0
 10
11.4441249394
 20
7.2430370253
 30
0.0
 10
11.4399616959
 20
7.2309597598
 30
0.0
 10
11.4350643369
 20
7.219022395
 30
0.0
 10
11.4313381977
 20
7.2112185378
 30
0.0
 10
11.4293596289
 20
7.207349337
 30
0.0
  0
SPLINE
  5
27C
100
AcDbEntity
  8
0
100
AcDbSpline
 62
7
  6
CONTINUOUS
 70
0
 71
3
 72
21
 73
17
 74
0
 42
0.0000001
 43
0.0000001
 44
0.0000000001
 40
0.0
 40
0.0
 40
0.0
 40
0.0
 40
0.0525027782
 40
0.1063064823
 40
0.1615346069
 40
0.2182694062
 40
0.3363066287
 40
0.3976648229
 40
0.4604815893
 40
0.524665111
 40
0.5900984208
 40
0.6566425972
 40
0.7241403476
 40
0.7924189635
 40
0.8612939197
 40
1.0
 40
1.0
 40
1.0
 40
1.0
 10
11.4293596289
 20
7.207349337
 30
0.0
 10
11.4257982394
 20
7.2003848429
 30
0.0
 10
11.4178904638
 20
7.1866292069
 30
0.0
 10
11.4040003298
 20
7.1669381409
 30
0.0
 10
11.3880262105
 20
7.1480609016
 30
0.0
 10
11.363767771
 20
7.1238140185
 30
0.0
 10
11.33596683
 20
7.1019978541
 30
0.0
 10
11.30538229
 20
7.0828110785
 30
0.0
 10
11.2806362102
 20
7.0695279347
 30
0.0
 10
11.2545343876
 20
7.0576224982
 30
0.0
 10
11.2272258165
 20
7.0471611381
 30
0.0
 10
11.1988700947
 20
7.0382048089
 30
0.0
 10
11.1696325622
 20
7.0308051577
 30
0.0
 10
11.1396813302
 20
7.0250047908
 30
0.0
 10
11.0989463836
 20
7.0194367223
 30
0.0
 10
11.0679838035
 20
7.0177691099
 30
0.0
 10
11.0473183383
 20
7.0177691099
 30
0.0
  0
SPLINE
  5
27D
100
AcDbEntity
  8
0
100
AcDbSpline
 62
7
  6
CONTINUOUS
 70
0
 71
3
 72
27
 73
23
 74
0
 42
0.0000001
 43
0.0000001
 44
0.0000000001
 40
0.0
 40
0.0
 40
0.0
 40
0.0
 40
0.0717251775
 40
0.143149903
 40
0.2139830776
 40
0.2839434984
 40
0.352770118
 40
0.4202276828
 40
0.4861134504
 40
0.5502645017
 40
0.6125647432
 40
0.6729523047
 40
0.7314261893
 40
0.7880525817
 40
0.8157233674
 40
0.8429900061
 40
0.8698811566
 40
0.8964298313
 40
0.9226732042
 40
0.9486525589
 40
0.9744123996
 40
1.0
 40
1.0
 40
1.0
 40
1.0
 10
11.0473183383
 20
7.0177691099
 30
0.0
 10
11.0349339002
 20
7.0177691099
 30
0.0
 10
11.0102093811
 20
7.0185680083
 30
0.0
 10
10.9734115073
 20
7.0221557887
 30
0.0
 10
10.9372269587
 20
7.0281022822
 30
0.0
 10
10.9019585648
 20
7.0363586158
 30
0.0
 10
10.8678991906
 20
7.0468566514
 30
0.0
 10
10.8353321207
 20
7.0595099546
 30
0.0
 10
10.8045281018
 20
7.0742146208
 30
0.0
 10
10.7757434255
 20
7.0908503267
 30
0.0
 10
10.7492180053
 20
7.1092809939
 30
0.0
 10
10.7251731719
 20
7.1293570824
 30
0.0
 10
10.7038125631
 20
7.150913121
 30
0.0
 10
10.688277423
 20
7.1701168608
 30
0.0
 10
10.6774095749
 20
7.186031493
 30
0.0
 10
10.6700944026
 20
7.1981282662
 30
0.0
 10
10.6635694421
 20
7.2104501093
 30
0.0
 10
10.6578483506
 20
7.2229715884
 30
0.0
 10
10.6529435671
 20
7.235666374
 30
0.0
 10
10.6488654833
 20
7.248507953
 30
0.0
 10
10.645623108
 20
7.2614685249
 30
0.0
 10
10.6440187257
 20
7.2701952857
 30
0.0
 10
10.6433597377
 20
7.2745639497
 30
0.0
  0
SPLINE
  5
27E
100
AcDbEntity
  8
0
100
AcDbSpline
 62
7
  6
CONTINUOUS
 70
0
 71
3
 72
33
 73
29
 74
0
 42
0.0000001
 43
0.0000001
 44
0.0000000001
 40
0.0
 40
0.0
 40
0.0
 40
0.0
 40
0.0281032802
 40
0.0562309745
 40
0.0844068687
 40
0.1126549715
 40
0.1409986789
 40
0.1694608847
 40
0.198063836
 40
0.2268289867
 40
0.2557769141
 40
0.2849271762
 40
0.3142982146
 40
0.343907298
 40
0.3737704058
 40
0.4039021566
 40
0.43431577
 40
0.4650230114
 40
0.5273477065
 40
0.5909510118
 40
0.6232499128
 40
0.6558811466
 40
0.6888458521
 40
0.7221437077
 40
0.7897226729
 40
0.8585958129
 40
0.9287114579
 40
1.0
 40
1.0
 40
1.0
 40
1.0
 10
13.0473183383
 20
4.8325377656
 30
0.0
 10
13.0473183383
 20
4.8165696888
 30
0.0
 10
13.0465820139
 20
4.7846147812
 30
0.0
 10
13.0432710364
 20
4.7367537442
 30
0.0
 10
13.0377586871
 20
4.6890122718
 30
0.0
 10
13.0300537279
 20
4.6414513915
 30
0.0
 10
13.0201683684
 20
4.5941293811
 30
0.0
 10
13.0081180829
 20
4.5471039448
 30
0.0
 10
12.9939211938
 20
4.5004313871
 30
0.0
 10
12.9775988956
 20
4.45416658
 30
0.0
 10
12.959175142
 20
4.4083627699
 30
0.0
 10
12.9386761286
 20
4.3630716341
 30
0.0
 10
12.916130217
 20
4.318343221
 30
0.0
 10
12.8915679872
 20
4.2742258492
 30
0.0
 10
12.8650217205
 20
4.2307662217
 30
0.0
 10
12.836525505
 20
4.1880097255
 30
0.0
 10
12.8061145764
 20
4.1459994693
 30
0.0
 10
12.7628544881
 20
4.0907700992
 30
0.0
 10
12.7040930731
 20
4.0238154768
 30
0.0
 10
12.6401022423
 20
3.9605593354
 30
0.0
 10
12.5856299095
 20
3.9118970964
 30
0.0
 10
12.542937139
 20
3.8762261951
 30
0.0
 10
12.4986658527
 20
3.8416060491
 30
0.0
 10
12.4372990964
 20
3.796672843
 30
0.0
 10
12.3568514768
 20
3.7433489524
 30
0.0
 10
12.2552900832
 20
3.6843887234
 30
0.0
 10
12.1486567415
 20
3.6303635676
 30
0.0
 10
12.0750564176
 20
3.5980267681
 30
0.0
 10
12.0375554962
 20
3.5827170811
 30
0.0
  0
SPLINE
  5
27F
100
AcDbEntity
  8
0
100
AcDbSpline
 62
7
  6
CONTINUOUS
 70
0
 71
3
 72
49
 73
45
 74
0
 42
0.0000001
 43
0.0000001
 44
0.0000000001
 40
0.0
 40
0.0
 40
0.0
 40
0.0
 40
0.0329322261
 40
0.0663094474
 40
0.1000793689
 40
0.1341839726
 40
0.1685610774
 40
0.2031450494
 40
0.2378676774
 40
0.2726590421
 40
0.307448386
 40
0.3421649766
 40
0.3767389694
 40
0.4111022754
 40
0.4451894317
 40
0.478938472
 40
0.5122917978
 40
0.5451970736
 40
0.5776080715
 40
0.6094855681
 40
0.6407981648
 40
0.6715231028
 40
0.6866624841
 40
0.7016507677
 40
0.7164878624
 40
0.7311743327
 40
0.7600967163
 40
0.7884400897
 40
0.8024057707
 40
0.8162385788
 40
0.8299438649
 40
0.8435276319
 40
0.856996513
 40
0.8703577531
 40
0.8836191746
 40
0.8967891271
 40
0.9098764626
 40
0.9228904895
 40
0.9358409095
 40
0.9487377811
 40
0.9615914527
 40
0.9744124972
 40
0.9872117631
 40
1.0
 40
1.0
 40
1.0
 40
1.0
 10
12.0375554962
 20
3.5827170811
 30
0.0
 10
11.9996200405
 20
3.5672299961
 30
0.0
 10
11.9223902886
 20
3.5380794653
 30
0.0
 10
11.8037389045
 20
3.5001339271
 30
0.0
 10
11.6819266369
 20
3.4677956581
 30
0.0
 10
11.557464683
 20
3.4411932168
 30
0.0
 10
11.4308709085
 20
3.420430806
 30
0.0
 10
11.3026739338
 20
3.4055908094
 30
0.0
 10
11.1734092313
 20
3.3967320997
 30
0.0
 10
11.0436172207
 20
3.39388986
 30
0.0
 10
10.9138406889
 20
3.3970755333
 30
0.0
 10
10.7846223636
 20
3.4062763437
 30
0.0
 10
10.6565024221
 20
3.4214556692
 30
0.0
 10
10.530016086
 20
3.442553351
 30
0.0
 10
10.4056911913
 20
3.4694858032
 30
0.0
 10
10.2840459783
 20
3.5021470274
 30
0.0
 10
10.1655869455
 20
3.5404091474
 30
0.0
 10
10.050806767
 20
3.5841232442
 30
0.0
 10
9.9401829713
 20
3.6331204614
 30
0.0
 10
9.8341752084
 20
3.6872135141
 30
0.0
 10
9.7332283059
 20
3.746194794
 30
0.0
 10
9.6532790129
 20
3.7994990603
 30
0.0
 10
9.5922987501
 20
3.8443946992
 30
0.0
 10
9.548308586
 20
3.8789768216
 30
0.0
 10
9.5058894076
 20
3.9145996172
 30
0.0
 10
9.4517681902
 20
3.9631860263
 30
0.0
 10
9.388194927
 20
4.0263244374
 30
0.0
 10
9.3298253018
 20
4.0931276144
 30
0.0
 10
9.286856479
 20
4.1482190054
 30
0.0
 10
9.2566509038
 20
4.190119413
 30
0.0
 10
9.2283482873
 20
4.2327586499
 30
0.0
 10
9.2019833861
 20
4.2760939772
 30
0.0
 10
9.1775898572
 20
4.3200804272
 30
0.0
 10
9.1551995835
 20
4.3646717382
 30
0.0
 10
9.1348427348
 20
4.4098200363
 30
0.0
 10
9.1165472898
 20
4.4554757459
 30
0.0
 10
9.1003391135
 20
4.5015876976
 30
0.0
 10
9.0862418374
 20
4.5481031672
 30
0.0
 10
9.0742763498
 20
4.5949678265
 30
0.0
 10
9.064460736
 20
4.6421259478
 30
0.0
 10
9.056810259
 20
4.6895204214
 30
0.0
 10
9.0513369436
 20
4.7370935743
 30
0.0
 10
9.0480494374
 20
4.7847850246
 30
0.0
 10
9.0473183383
 20
4.8166263695
 30
0.0
 10
9.0473183383
 20
4.8325377656
 30
0.0
  0
SPLINE
  5
280
100
AcDbEntity
  8
0
100
AcDbSpline
 62
7
  6
CONTINUOUS
 70
0
 71
3
 72
33
 73
29
 74
0
 42
0.0000001
 43
0.0000001
 44
0.0000000001
 40
0.0
 40
0.0
 40
0.0
 40
0.0
 40
0.0281032802
 40
0.0562309745
 40
0.0844068687
 40
0.1126549715
 40
0.1409986789
 40
0.1694608847
 40
0.1980638359
 40
0.2268289867
 40
0.2557769141
 40
0.2849271761
 40
0.3142982146
 40
0.343907298
 40
0.3737704058
 40
0.4039021566
 40
0.43431577
 40
0.4650230114
 40
0.5273477065
 40
0.5909510118
 40
0.6232499128
 40
0.6558811466
 40
0.6888458521
 40
0.7221437077
 40
0.7897226729
 40
0.8585958129
 40
0.9287114579
 40
1.0
 40
1.0
 40
1.0
 40
1.0
 10
9.0473183383
 20
5.4293944618
 30
0.0
 10
9.0473183383
 20
5.4453625387
 30
0.0
 10
9.0480546626
 20
5.4773174463
 30
0.0
 10
9.0513656402
 20
5.5251784832
 30
0.0
 10
9.0568779894
 20
5.5729199557
 30
0.0
 10
9.0645829487
 20
5.6204808359
 30
0.0
 10
9.0744683082
 20
5.6678028463
 30
0.0
 10
9.0865185936
 20
5.7148282827
 30
0.0
 10
9.1007154827
 20
5.7615008403
 30
0.0
 10
9.117037781
 20
5.8077656474
 30
0.0
 10
9.1354615346
 20
5.8535694575
 30
0.0
 10
9.1559605479
 20
5.8988605933
 30
0.0
 10
9.1785064596
 20
5.9435890064
 30
0.0
 10
9.2030686894
 20
5.9877063783
 30
0.0
 10
9.2296149561
 20
6.0311660057
 30
0.0
 10
9.2581111715
 20
6.0739225019
 30
0.0
 10
9.2885221002
 20
6.1159327581
 30
0.0
 10
9.3317821885
 20
6.1711621282
 30
0.0
 10
9.3905436035
 20
6.2381167506
 30
0.0
 10
9.4545344343
 20
6.3013728921
 30
0.0
 10
9.509006767
 20
6.350035131
 30
0.0
 10
9.5516995376
 20
6.3857060324
 30
0.0
 10
9.5959708238
 20
6.4203261783
 30
0.0
 10
9.6573375802
 20
6.4652593845
 30
0.0
 10
9.7377851998
 20
6.518583275
 30
0.0
 10
9.8393465934
 20
6.577543504
 30
0.0
 10
9.9459799351
 20
6.6315686599
 30
0.0
 10
10.0195802591
 20
6.6639054593
 30
0.0
 10
10.0570811804
 20
6.6792151464
 30
0.0
  0
SPLINE
  5
281
100
AcDbEntity
  8
0
100
AcDbSpline
 62
7
  6
CONTINUOUS
 70
0
 71
3
 72
11
 73
7
 74
0
 42
0.0000001
 43
0.0000001
 44
0.0000000001
 40
0.0
 40
0.0
 40
0.0
 40
0.0
 40
0.2450808502
 40
0.4937718716
 40
0.745590182
 40
1.0
 40
1.0
 40
1.0
 40
1.0
 10
10.0570811804
 20
6.6792151464
 30
0.0
 10
10.0989846669
 20
6.6963221731
 30
0.0
 10
10.1844433912
 20
6.7283069829
 30
0.0
 10
10.3159879121
 20
6.7692264596
 30
0.0
 10
10.4512499362
 20
6.8032806525
 30
0.0
 10
10.5430541376
 20
6.8212207092
 30
0.0
 10
10.5893860671
 20
6.8290199907
 30
0.0
  0
SPLINE
  5
282
100
AcDbEntity
  8
0
100
AcDbSpline
 62
7
  6
CONTINUOUS
 70
0
 71
3
 72
34
 73
30
 74
0
 42
0.0000001
 43
0.0000001
 44
0.0000000001
 40
0.0
 40
0.0
 40
0.0
 40
0.0
 40
0.0722827228
 40
0.1081101402
 40
0.1436907751
 40
0.2140063589
 40
0.283062118
 40
0.3170753696
 40
0.3507209338
 40
0.416847064
 40
0.4493199756
 40
0.481387166
 40
0.5442819784
 40
0.575125985
 40
0.6055700376
 40
0.6356230661
 40
0.6652970501
 40
0.6946070167
 40
0.7235709897
 40
0.7522098855
 40
0.7805474028
 40
0.8086098613
 40
0.8364259915
 40
0.8640267164
 40
0.8914448872
 40
0.9187150055
 40
0.9458728726
 40
0.9729553899
 40
1.0
 40
1.0
 40
1.0
 40
1.0
 10
11.5059783963
 20
6.8288973667
 30
0.0
 10
11.5596216391
 20
6.8198522033
 30
0.0
 10
11.639472907
 20
6.8038819859
 30
0.0
 10
11.7444162456
 20
6.7777175008
 30
0.0
 10
11.8470573554
 20
6.7486477718
 30
0.0
 10
11.9719705155
 20
6.7067006386
 30
0.0
 10
12.0927369461
 20
6.6569881043
 30
0.0
 10
12.1857249215
 20
6.612895746
 30
0.0
 10
12.2751291272
 20
6.566548627
 30
0.0
 10
12.3609747436
 20
6.5159697655
 30
0.0
 10
12.4427014595
 20
6.4612357616
 30
0.0
 10
12.5202474407
 20
6.4047679073
 30
0.0
 10
12.5933974938
 20
6.344447354
 30
0.0
 10
12.6615367957
 20
6.2804445341
 30
0.0
 10
12.7095406073
 20
6.2312036668
 30
0.0
 10
12.7546787513
 20
6.1804967664
 30
0.0
 10
12.7968676406
 20
6.128402828
 30
0.0
 10
12.8360254969
 20
6.0750056184
 30
0.0
 10
12.8720747432
 20
6.0203920399
 30
0.0
 10
12.9049416395
 20
5.9646528762
 30
0.0
 10
12.9345567738
 20
5.9078829212
 30
0.0
 10
12.9608554434
 20
5.8501812225
 30
0.0
 10
12.9837781931
 20
5.7916512041
 30
0.0
 10
13.0032714219
 20
5.7324007225
 30
0.0
 10
13.0192880912
 20
5.6725418542
 30
0.0
 10
13.0317883992
 20
5.6121909483
 30
0.0
 10
13.0407405558
 20
5.5514668907
 30
0.0
 10
13.0461212776
 20
5.490494982
 30
0.0
 10
13.0473183383
 20
5.4497484244
 30
0.0
 10
13.0473183383
 20
5.4293944618
 30
0.0
  0
SPLINE
  5
283
100
AcDbEntity
  8
0
100
AcDbSpline
 62
7
  6
CONTINUOUS
 70
0
 71
3
 72
20
 73
16
 74
0
 42
0.0000001
 43
0.0000001
 44
0.0000000001
 40
0.0
 40
0.0
 40
0.0
 40
0.0
 40
0.0536612117
 40
0.1086678989
 40
0.1650482
 40
0.2228079131
 40
0.3423209726
 40
0.4040319556
 40
0.4669352396
 40
0.5309418091
 40
0.5959494564
 40
0.728464351
 40
0.7957568591
 40
0.8635446888
 40
1.0
 40
1.0
 40
1.0
 40
1.0
 10
10.6953467171
 20
7.0164958174
 30
0.0
 10
10.6998294391
 20
7.0111739506
 30
0.0
 10
10.7093207729
 20
7.0007386651
 30
0.0
 10
10.7248290953
 20
6.9859662808
 30
0.0
 10
10.7417180083
 20
6.9719454321
 30
0.0
 10
10.7662513921
 20
6.9541387835
 30
0.0
 10
10.7930048808
 20
6.9383266734
 30
0.0
 10
10.8215279344
 20
6.9245711783
 30
0.0
 10
10.8441193409
 20
6.9151651718
 30
0.0
 10
10.867578505
 20
6.9068255527
 30
0.0
 10
10.9000836345
 20
6.8971171243
 30
0.0
 10
10.9336953995
 20
6.8897780702
 30
0.0
 10
10.9680470075
 20
6.8848087798
 30
0.0
 10
11.0031027562
 20
6.8814143621
 30
0.0
 10
11.0296275973
 20
6.8807114512
 30
0.0
 10
11.0473183383
 20
6.8810576983
 30
0.0
  0
SPLINE
  5
284
100
AcDbEntity
  8
0
100
AcDbSpline
 62
7
  6
CONTINUOUS
 70
0
 71
3
 72
13
 73
9
 74
0
 42
0.0000001
 43
0.0000001
 44
0.0000000001
 40
0.0
 40
0.0
 40
0.0
 40
0.0
 40
0.2570925532
 40
0.3848583628
 40
0.5115278905
 40
0.6367220916
 40
0.7600902307
 40
1.0
 40
1.0
 40
1.0
 40
1.0
 10
11.0473183383
 20
6.8312490384
 30
0.0
 10
11.0692871164
 20
6.8316770537
 30
0.0
 10
11.1021795015
 20
6.8342028625
 30
0.0
 10
11.1453299279
 20
6.8413359193
 30
0.0
 10
11.1769929782
 20
6.8485117482
 30
0.0
 10
11.2078059214
 20
6.8574818445
 30
0.0
 10
11.2471035595
 20
6.8716222244
 30
0.0
 10
11.275294395
 20
6.884921803
 30
0.0
 10
11.2931693479
 20
6.8949674918
 30
0.0
  0
SPLINE
  5
285
100
AcDbEntity
  8
0
100
AcDbSpline
 62
7
  6
CONTINUOUS
 70
0
 71
3
 72
21
 73
17
 74
0
 42
0.0000001
 43
0.0000001
 44
0.0000000001
 40
0.0
 40
0.0
 40
0.0
 40
0.0
 40
0.1403415595
 40
0.2087227352
 40
0.2758602902
 40
0.4063378083
 40
0.4697749254
 40
0.5320483765
 40
0.5932242536
 40
0.6533874579
 40
0.7126413198
 40
0.771106636
 40
0.8289199349
 40
0.8862313352
 40
0.9432018405
 40
1.0
 40
1.0
 40
1.0
 40
1.0
 10
11.2931693479
 20
6.8949674918
 30
0.0
 10
11.3053696025
 20
6.9018240113
 30
0.0
 10
11.3230375813
 20
6.9129179341
 30
0.0
 10
11.345093678
 20
6.9293763836
 30
0.0
 10
11.3654535994
 20
6.9463940194
 30
0.0
 10
11.3839873968
 20
6.9647794972
 30
0.0
 10
11.4003684871
 20
6.9844017147
 30
0.0
 10
11.4113747025
 20
6.9994582698
 30
0.0
 10
11.4211757144
 20
7.014940719
 30
0.0
 10
11.4297390983
 20
7.030800228
 30
0.0
 10
11.4370355547
 20
7.04698573
 30
0.0
 10
11.4430401407
 20
7.0634451416
 30
0.0
 10
11.4477321799
 20
7.0801250455
 30
0.0
 10
11.4510954105
 20
7.0969715755
 30
0.0
 10
11.4531180911
 20
7.1139283296
 30
0.0
 10
11.4535683383
 20
7.1252785054
 30
0.0
 10
11.4535683383
 20
7.1309424461
 30
0.0
  0
SPLINE
  5
286
100
AcDbEntity
  8
0
100
AcDbSpline
 62
7
  6
CONTINUOUS
 70
0
 71
3
 72
28
 73
24
 74
0
 42
0.0000001
 43
0.0000001
 44
0.0000000001
 40
0.0
 40
0.0
 40
0.0
 40
0.0
 40
0.0717759768
 40
0.1433043915
 40
0.214251679
 40
0.2842991538
 40
0.3531545313
 40
0.4205600304
 40
0.4863011599
 40
0.5502160744
 40
0.6122043633
 40
0.6722362142
 40
0.7303597696
 40
0.7587553079
 40
0.7867305678
 40
0.8143155013
 40
0.8415452448
 40
0.8684599271
 40
0.8951042589
 40
0.9215269799
 40
0.9477802593
 40
0.9739190133
 40
1.0
 40
1.0
 40
1.0
 40
1.0
 10
11.0473183383
 20
6.8810576983
 30
0.0
 10
11.0606085687
 20
6.8813178177
 30
0.0
 10
11.0871344499
 20
6.8827571098
 30
0.0
 10
11.1265404477
 20
6.8876602265
 30
0.0
 10
11.165191474
 20
6.8952683178
 30
0.0
 10
11.2027157047
 20
6.9055169794
 30
0.0
 10
11.238755098
 20
6.9183166224
 30
0.0
 10
11.2729649819
 20
6.933554048
 30
0.0
 10
11.3050183572
 20
6.9510933257
 30
0.0
 10
11.3346082089
 20
6.970777049
 30
0.0
 10
11.3614507609
 20
6.9924293357
 30
0.0
 10
11.3852850721
 20
7.0158525807
 30
0.0
 10
11.4025848883
 20
7.0368415735
 30
0.0
 10
11.4146475381
 20
7.0542922076
 30
0.0
 10
11.4227413954
 20
7.067578651
 30
0.0
 10
11.4299306178
 20
7.0811316657
 30
0.0
 10
11.4361978036
 20
7.0949199924
 30
0.0
 10
11.4415273767
 20
7.1089112229
 30
0.0
 10
11.4459062511
 20
7.1230724824
 30
0.0
 10
11.4493234737
 20
7.1373703371
 30
0.0
 10
11.4517704314
 20
7.1517712356
 30
0.0
 10
11.4532411015
 20
7.1662401704
 30
0.0
 10
11.4535683382
 20
7.1759143409
 30
0.0
 10
11.4535683383
 20
7.1807444905
 30
0.0
  0
SPLINE
  5
287
100
AcDbEntity
  8
0
100
AcDbSpline
 62
7
  6
CONTINUOUS
 70
0
 71
3
 72
27
 73
23
 74
0
 42
0.0000001
 43
0.0000001
 44
0.0000000001
 40
0.0
 40
0.0
 40
0.0
 40
0.0
 40
0.0708911494
 40
0.141576937
 40
0.2117722231
 40
0.2812018412
 40
0.3496104983
 40
0.4167682419
 40
0.4824768152
 40
0.5465765992
 40
0.6089531847
 40
0.6695441025
 40
0.7283450225
 40
0.7854150076
 40
0.8133476263
 40
0.8409006176
 40
0.8681004225
 40
0.89497756
 40
0.9215664618
 40
0.9479051933
 40
0.9740350161
 40
1.0
 40
1.0
 40
1.0
 40
1.0
 10
11.0473183383
 20
6.9307051892
 30
0.0
 10
11.0596695169
 20
6.9309462514
 30
0.0
 10
11.0843280144
 20
6.9322226633
 30
0.0
 10
11.1210065322
 20
6.9365102785
 30
0.0
 10
11.1570779188
 20
6.943141495
 30
0.0
 10
11.1922422236
 20
6.9520681054
 30
0.0
 10
11.2262093044
 20
6.963222927
 30
0.0
 10
11.2586984045
 20
6.9765206849
 30
0.0
 10
11.2894410789
 20
6.9918588208
 30
0.0
 10
11.3181830702
 20
7.0091185166
 30
0.0
 10
11.3446862145
 20
7.0281653212
 30
0.0
 10
11.3687306374
 20
7.048851356
 30
0.0
 10
11.3901139911
 20
7.0710128983
 30
0.0
 10
11.4056801292
 20
7.0907122877
 30
0.0
 10
11.4165885947
 20
7.1070225946
 30
0.0
 10
11.4239448242
 20
7.1194207545
 30
0.0
 10
11.4305173432
 20
7.1320445504
 30
0.0
 10
11.4362924599
 20
7.1448688632
 30
0.0
 10
11.4412577545
 20
7.1578676352
 30
0.0
 10
11.4454028467
 20
7.1710146481
 30
0.0
 10
11.4487186205
 20
7.184282522
 30
0.0
 10
11.4503760596
 20
7.193214961
 30
0.0
 10
11.4510627063
 20
7.1976872286
 30
0.0
  0
SPLINE
  5
288
100
AcDbEntity
  8
0
100
AcDbSpline
 62
7
  6
CONTINUOUS
 70
0
 71
3
 72
18
 73
14
 74
0
 42
0.0000001
 43
0.0000001
 44
0.0000000001
 40
0.0
 40
0.0
 40
0.0
 40
0.0
 40
0.1411614669
 40
0.2778244513
 40
0.4096312974
 40
0.5364362012
 40
0.658340457
 40
0.7175926707
 40
0.7757835238
 40
0.8330038626
 40
0.8893616449
 40
0.9449808938
 40
1.0
 40
1.0
 40
1.0
 40
1.0
 10
11.2201279562
 20
6.44947808
 30
0.0
 10
11.231117628
 20
6.4539645948
 30
0.0
 10
11.2523691843
 20
6.4637628428
 30
0.0
 10
11.2821750127
 20
6.4811359749
 30
0.0
 10
11.3090788059
 20
6.5007634698
 30
0.0
 10
11.3327392663
 20
6.5224053768
 30
0.0
 10
11.3496700886
 20
6.5420987947
 30
0.0
 10
11.3612403767
 20
6.5585827443
 30
0.0
 10
11.3688576867
 20
6.5711542905
 30
0.0
 10
11.3754698748
 20
6.5840093424
 30
0.0
 10
11.3810561092
 20
6.5971085162
 30
0.0
 10
11.385597962
 20
6.610409556
 30
0.0
 10
11.3879309101
 20
6.6194269871
 30
0.0
 10
11.3889149175
 20
6.6239476639
 30
0.0
  0
SPLINE
  5
289
100
AcDbEntity
  8
0
100
AcDbSpline
 62
7
  6
CONTINUOUS
 70
0
 71
3
 72
36
 73
32
 74
0
 42
0.0000001
 43
0.0000001
 44
0.0000000001
 40
0.0
 40
0.0
 40
0.0
 40
0.0
 40
0.0667161295
 40
0.1007471785
 40
0.1351375691
 40
0.2047055234
 40
0.2397595853
 40
0.2748887469
 40
0.3100179045
 40
0.3450719697
 40
0.414639927
 40
0.4490302879
 40
0.4830614005
 40
0.5166704128
 40
0.549799439
 40
0.58239644
 40
0.6144161394
 40
0.6458209052
 40
0.6765817247
 40
0.706679072
 40
0.7361038734
 40
0.7648583026
 40
0.7929565882
 40
0.8204255874
 40
0.8473051767
 40
0.8736483264
 40
0.899520727
 40
0.9249999893
 40
0.9501741984
 40
0.9751399883
 40
1.0
 40
1.0
 40
1.0
 40
1.0
 10
11.2785683383
 20
6.2860283416
 30
0.0
 10
11.2608348157
 20
6.2787886613
 30
0.0
 10
11.2334461983
 20
6.2692827744
 30
0.0
 10
11.1959399866
 20
6.2593127016
 30
0.0
 10
11.1571888936
 20
6.2510098065
 30
0.0
 10
11.1175938944
 20
6.2454650584
 30
0.0
 10
11.0775571133
 20
6.2426797397
 30
0.0
 10
11.0473183429
 20
6.2419804611
 30
0.0
 10
11.0170795437
 20
6.2426797484
 30
0.0
 10
10.9770428736
 20
6.2454650386
 30
0.0
 10
10.9374472215
 20
6.2510099963
 30
0.0
 10
10.8986976412
 20
6.2593124216
 30
0.0
 10
10.8703754642
 20
6.2668413402
 30
0.0
 10
10.8428093057
 20
6.2756628318
 30
0.0
 10
10.816115705
 20
6.2857396884
 30
0.0
 10
10.7904088465
 20
6.2970291185
 30
0.0
 10
10.7657983604
 20
6.3094833024
 30
0.0
 10
10.7423893249
 20
6.3230495271
 30
0.0
 10
10.7202817301
 20
6.3376704271
 30
0.0
 10
10.6995701124
 20
6.3532842447
 30
0.0
 10
10.6803431933
 20
6.3698250705
 30
0.0
 10
10.662683548
 20
6.3872231166
 30
0.0
 10
10.6466673117
 20
6.4054049578
 30
0.0
 10
10.6323638984
 20
6.424293779
 30
0.0
 10
10.6198357328
 20
6.443809602
 30
0.0
 10
10.609137977
 20
6.4638694763
 30
0.0
 10
10.6003182255
 20
6.4843877761
 30
0.0
 10
10.5934161786
 20
6.5052761419
 30
0.0
 10
10.588463271
 20
6.5264448541
 30
0.0
 10
10.5854822872
 20
6.5477993049
 30
0.0
 10
10.5848183785
 20
6.5621132119
 30
0.0
 10
10.5848183588
 20
6.5692505931
 30
0.0
  0
SPLINE
  5
28A
100
AcDbEntity
  8
0
100
AcDbSpline
 62
7
  6
CONTINUOUS
 70
0
 71
3
 72
38
 73
34
 74
0
 42
0.0000001
 43
0.0000001
 44
0.0000000001
 40
0.0
 40
0.0
 40
0.0
 40
0.0
 40
0.0667134843
 40
0.1007433
 40
0.1351323246
 40
0.1698136204
 40
0.2047169592
 40
0.2397696654
 40
0.2748974681
 40
0.3100252656
 40
0.3450779762
 40
0.3799813116
 40
0.4146626069
 40
0.4490516365
 40
0.4830814306
 40
0.5166891436
 40
0.5498168831
 40
0.5824126256
 40
0.6144310787
 40
0.6458346325
 40
0.6765942538
 40
0.7066904383
 40
0.7361140944
 40
0.7648674103
 40
0.7929646052
 40
0.8204325383
 40
0.8473110883
 40
0.8736532143
 40
0.8995246171
 40
0.9250028889
 40
0.9501761278
 40
0.9751409474
 40
1.0
 40
1.0
 40
1.0
 40
1.0
 10
11.3348183383
 20
5.5665982039
 30
0.0
 10
11.3127712766
 20
5.5575975287
 30
0.0
 10
11.2787201529
 20
5.545779322
 30
0.0
 10
11.2320919
 20
5.5333843067
 30
0.0
 10
11.1960912485
 20
5.5256707166
 30
0.0
 10
11.159457567
 20
5.5196374622
 30
0.0
 10
11.1223447212
 20
5.5153094481
 30
0.0
 10
11.0849117796
 20
5.5127052827
 30
0.0
 10
11.0473183383
 20
5.5118359898
 30
0.0
 10
11.0097249058
 20
5.512705283
 30
0.0
 10
10.9722919349
 20
5.5153094594
 30
0.0
 10
10.9351792017
 20
5.5196374417
 30
0.0
 10
10.8985451046
 20
5.5256708233
 30
0.0
 10
10.8625459895
 20
5.5333839503
 30
0.0
 10
10.8273354776
 20
5.5427440473
 30
0.0
 10
10.7930638165
 20
5.5537113558
 30
0.0
 10
10.7598772372
 20
5.5662393321
 30
0.0
 10
10.7279173464
 20
5.5802748436
 30
0.0
 10
10.6973205318
 20
5.5957584279
 30
0.0
 10
10.6682174097
 20
5.612624546
 30
0.0
 10
10.6407322949
 20
5.6308018849
 30
0.0
 10
10.614982721
 20
5.6502136588
 30
0.0
 10
10.5910789863
 20
5.6707779301
 30
0.0
 10
10.5691237558
 20
5.6924079334
 30
0.0
 10
10.5492116791
 20
5.7150123832
 30
0.0
 10
10.5314290581
 20
5.7384957816
 30
0.0
 10
10.5158534988
 20
5.7627586934
 30
0.0
 10
10.5025535831
 20
5.7876979957
 30
0.0
 10
10.4915884832
 20
5.8132072306
 30
0.0
 10
10.4830075539
 20
5.83917655
 30
0.0
 10
10.476849881
 20
5.8654944067
 30
0.0
 10
10.4731437886
 20
5.892043184
 30
0.0
 10
10.472318379
 20
5.9098388522
 30
0.0
 10
10.4723183585
 20
5.9187123544
 30
0.0
  0
SPLINE
  5
28B
100
AcDbEntity
  8
0
100
AcDbSpline
 62
7
  6
CONTINUOUS
 70
0
 71
3
 72
21
 73
17
 74
0
 42
0.0000001
 43
0.0000001
 44
0.0000000001
 40
0.0
 40
0.0
 40
0.0
 40
0.0
 40
0.1361637383
 40
0.26836345
 40
0.3330615845
 40
0.3968642534
 40
0.459819994
 40
0.5219853497
 40
0.5834246759
 40
0.6442098717
 40
0.7044198058
 40
0.7641397295
 40
0.8234605011
 40
0.8824776233
 40
0.9412902493
 40
1.0
 40
1.0
 40
1.0
 40
1.0
 10
11.4977646243
 20
6.8361011802
 30
0.0
 10
11.5076026838
 20
6.8273331685
 30
0.0
 10
11.5262756804
 20
6.8092256108
 30
0.0
 10
11.5473207072
 20
6.7847433231
 30
0.0
 10
11.5623412072
 20
6.7644593084
 30
0.0
 10
11.5726226194
 20
6.7490341832
 30
0.0
 10
11.5819811133
 20
6.7333168852
 30
0.0
 10
11.5904002547
 20
6.7173346648
 30
0.0
 10
11.5978648555
 20
6.7011156075
 30
0.0
 10
11.6043616808
 20
6.6846882656
 30
0.0
 10
11.6098790133
 20
6.6680815548
 30
0.0
 10
11.6144068264
 20
6.6513247386
 30
0.0
 10
11.6179370627
 20
6.6344475288
 30
0.0
 10
11.6204632643
 20
6.6174795692
 30
0.0
 10
11.6219807551
 20
6.6004517263
 30
0.0
 10
11.6223183438
 20
6.5890747843
 30
0.0
 10
11.6223183271
 20
6.5833927287
 30
0.0
  0
SPLINE
  5
28C
100
AcDbEntity
  8
0
100
AcDbSpline
 62
7
  6
CONTINUOUS
 70
0
 71
3
 72
21
 73
17
 74
0
 42
0.0000001
 43
0.0000001
 44
0.0000000001
 40
0.0
 40
0.0
 40
0.0
 40
0.0
 40
0.0579602355
 40
0.1160478067
 40
0.1743880849
 40
0.233102615
 40
0.2923073982
 40
0.3521113258
 40
0.4126148124
 40
0.4739088242
 40
0.5360740753
 40
0.5991803661
 40
0.6632862545
 40
0.7284392613
 40
0.8619771893
 40
1.0
 40
1.0
 40
1.0
 40
1.0
 10
11.6223183271
 20
6.5833927287
 30
0.0
 10
11.6223183085
 20
6.5770281904
 30
0.0
 10
11.6218946617
 20
6.5642810916
 30
0.0
 10
11.6199901524
 20
6.5452133603
 30
0.0
 10
11.6168209133
 20
6.5262299746
 30
0.0
 10
11.6123942088
 20
6.5073743285
 30
0.0
 10
11.6067201302
 20
6.4886880534
 30
0.0
 10
11.5998116
 20
6.4702126885
 30
0.0
 10
11.5916843614
 20
6.4519890662
 30
0.0
 10
11.5823567815
 20
6.4340574126
 30
0.0
 10
11.5718497748
 20
6.4164572102
 30
0.0
 10
11.5601869827
 20
6.399227233
 30
0.0
 10
11.5473941744
 20
6.3824048949
 30
0.0
 10
11.528718101
 20
6.3603905649
 30
0.0
 10
11.5026263194
 20
6.3341006689
 30
0.0
 10
11.4796385
 20
6.3150294609
 30
0.0
 10
11.4675552138
 20
6.3058805952
 30
0.0
  0
SPLINE
  5
28D
100
AcDbEntity
  8
0
100
AcDbSpline
 62
7
  6
CONTINUOUS
 70
0
 71
3
 72
15
 73
11
 74
0
 42
0.0000001
 43
0.0000001
 44
0.0000000001
 40
0.0
 40
0.0
 40
0.0
 40
0.0
 40
0.1291939811
 40
0.256777149
 40
0.3829350029
 40
0.5078714478
 40
0.6318067822
 40
0.7549753083
 40
0.8776221635
 40
1.0
 40
1.0
 40
1.0
 40
1.0
 10
11.4762810262
 20
6.6512749758
 30
0.0
 10
11.4788024114
 20
6.6466677573
 30
0.0
 10
11.4835538984
 20
6.6373654803
 30
0.0
 10
11.4898093809
 20
6.6231007948
 30
0.0
 10
11.4951332492
 20
6.6086462887
 30
0.0
 10
11.499513607
 20
6.5940330326
 30
0.0
 10
11.5029409304
 20
6.5792918589
 30
0.0
 10
11.5054078353
 20
6.564453898
 30
0.0
 10
11.5069089147
 20
6.5495514983
 30
0.0
 10
11.5072635928
 20
6.5395887265
 30
0.0
 10
11.5072791482
 20
6.5346138102
 30
0.0
  0
SPLINE
  5
28E
100
AcDbEntity
  8
0
100
AcDbSpline
 62
7
  6
CONTINUOUS
 70
0
 71
3
 72
21
 73
17
 74
0
 42
0.0000001
 43
0.0000001
 44
0.0000000001
 40
0.0
 40
0.0
 40
0.0
 40
0.0
 40
0.1177494106
 40
0.1785769766
 40
0.240492712
 40
0.3033295771
 40
0.3669062109
 40
0.4310306591
 40
0.4955035365
 40
0.5601213136
 40
0.6246798076
 40
0.688977115
 40
0.7528170422
 40
0.8160124376
 40
0.8783882533
 40
1.0
 40
1.0
 40
1.0
 40
1.0
 10
10.8143735431
 20
6.9281168542
 30
0.0
 10
10.8305860738
 20
6.919598709
 30
0.0
 10
10.8561274428
 20
6.908414898
 30
0.0
 10
10.8916656285
 20
6.8967022135
 30
0.0
 10
10.9196012852
 20
6.8893620691
 30
0.0
 10
10.9483405531
 20
6.8836165609
 30
0.0
 10
10.977705769
 20
6.8795043793
 30
0.0
 10
11.007511003
 20
6.8770556599
 30
0.0
 10
11.0375687004
 20
6.8762896639
 30
0.0
 10
11.0676894153
 20
6.8772152332
 30
0.0
 10
11.0976833092
 20
6.8798305348
 30
0.0
 10
11.1273616362
 20
6.8841232597
 30
0.0
 10
11.1565365957
 20
6.8900701615
 30
0.0
 10
11.1850275599
 20
6.8976392087
 30
0.0
 10
11.2215377215
 20
6.9097272175
 30
0.0
 10
11.2478576844
 20
6.9212215549
 30
0.0
 10
11.2646366057
 20
6.929952939
 30
0.0
  0
SPLINE
  5
28F
100
AcDbEntity
  8
0
100
AcDbSpline
 62
7
  6
CONTINUOUS
 70
0
 71
3
 72
11
 73
7
 74
0
 42
0.0000001
 43
0.0000001
 44
0.0000000001
 40
0.0
 40
0.0
 40
0.0
 40
0.0
 40
0.2451034817
 40
0.4928816656
 40
0.7442437885
 40
1.0
 40
1.0
 40
1.0
 40
1.0
 10
10.5874543726
 20
6.5687619352
 30
0.0
 10
10.5885442435
 20
6.5759490321
 30
0.0
 10
10.5914086281
 20
6.5903081991
 30
0.0
 10
10.5976817767
 20
6.6115004343
 30
0.0
 10
10.6059201285
 20
6.6323479161
 30
0.0
 10
10.6126349957
 20
6.6458290658
 30
0.0
 10
10.6162915772
 20
6.652474717
 30
0.0
  0
SPLINE
  5
290
100
AcDbEntity
  8
0
100
AcDbSpline
 62
7
  6
CONTINUOUS
 70
0
 71
3
 72
9
 73
5
 74
0
 42
0.0000001
 43
0.0000001
 44
0.0000000001
 40
0.0
 40
0.0
 40
0.0
 40
0.0
 40
0.4938758788
 40
1.0
 40
1.0
 40
1.0
 40
1.0
 10
10.6162915772
 20
6.652474717
 30
0.0
 10
10.62051929
 20
6.6601583704
 30
0.0
 10
10.629819781
 20
6.6753184951
 30
0.0
 10
10.6404323932
 20
6.6895866018
 30
0.0
 10
10.6460930035
 20
6.6965674153
 30
0.0
  0
SPLINE
  5
291
100
AcDbEntity
  8
0
100
AcDbSpline
 62
9
  6
CONTINUOUS
 70
0
 71
3
 72
50
 73
46
 74
0
 42
0.0000001
 43
0.0000001
 44
0.0000000001
 40
0.0
 40
0.0
 40
0.0
 40
0.0
 40
0.0362613453
 40
0.0718858731
 40
0.1068301711
 40
0.1410603465
 40
0.174553075
 40
0.2072966352
 40
0.2392918755
 40
0.2705530859
 40
0.3011087082
 40
0.3310018037
 40
0.3457204613
 40
0.3602963872
 40
0.3747390591
 40
0.3890587862
 40
0.403266694
 40
0.41737466
 40
0.4313952443
 40
0.4453416353
 40
0.4592275465
 40
0.4730671378
 40
0.4868749141
 40
0.5006656148
 40
0.5144541103
 40
0.5282552881
 40
0.5420839381
 40
0.5559546446
 40
0.5698816825
 40
0.5838789051
 40
0.5979596659
 40
0.6121367209
 40
0.6264221528
 40
0.6408273205
 40
0.6700319772
 40
0.6998315722
 40
0.730286067
 40
0.7614407035
 40
0.7933260646
 40
0.8259584968
 40
0.8593407921
 40
0.8934630184
 40
0.9283035655
 40
0.9638297341
 40
1.0
 40
1.0
 40
1.0
 40
1.0
 10
11.6224297062
 20
6.2064305253
 30
0.0
 10
11.6445749338
 20
6.1975918146
 30
0.0
 10
11.6880269678
 20
6.1789149074
 30
0.0
 10
11.7509841857
 20
6.1476753531
 30
0.0
 10
11.8109123962
 20
6.1135762111
 30
0.0
 10
11.8675508847
 20
6.0767639197
 30
0.0
 10
11.920655834
 20
6.0373951797
 30
0.0
 10
11.9699975934
 20
5.9956377399
 30
0.0
 10
12.0153623056
 20
5.9516695923
 30
0.0
 10
12.0565530171
 20
5.9056772878
 30
0.0
 10
12.0933883258
 20
5.857859378
 30
0.0
 10
12.1204629062
 20
5.8164394944
 30
0.0
 10
12.1397395386
 20
5.7826188063
 30
0.0
 10
12.1529434226
 20
5.7570594756
 30
0.0
 10
12.1649519583
 20
5.7312063785
 30
0.0
 10
12.1757521576
 20
5.7050869589
 30
0.0
 10
12.1853321993
 20
5.678729638
 30
0.0
 10
12.1936816284
 20
5.6521629352
 30
0.0
 10
12.2007911146
 20
5.6254156123
 30
0.0
 10
12.2066530393
 20
5.5985167399
 30
0.0
 10
12.2112607753
 20
5.5714954803
 30
0.0
 10
12.214609302
 20
5.5443812106
 30
0.0
 10
12.2166949983
 20
5.5172034073
 30
0.0
 10
12.217515373
 20
5.4899916164
 30
0.0
 10
12.2170697337
 20
5.4627754457
 30
0.0
 10
12.2153584254
 20
5.4355844966
 30
0.0
 10
12.2123833611
 20
5.4084483491
 30
0.0
 10
12.208147939
 20
5.3813964866
 30
0.0
 10
12.2026566297
 20
5.3544583387
 30
0.0
 10
12.1959156914
 20
5.327663129
 30
0.0
 10
12.1879324123
 20
5.3010399212
 30
0.0
 10
12.1787156322
 20
5.2746177233
 30
0.0
 10
12.1682752881
 20
5.2484246197
 30
0.0
 10
12.1526697636
 20
5.2136899853
 30
0.0
 10
12.1300988366
 20
5.1709521986
 30
0.0
 10
12.0984610522
 20
5.1212887432
 30
0.0
 10
12.0622834403
 20
5.0732155003
 30
0.0
 10
12.0217265562
 20
5.0269406895
 30
0.0
 10
11.9769675698
 20
4.9826608463
 30
0.0
 10
11.9282013666
 20
4.9405647764
 30
0.0
 10
11.8756392725
 20
4.9008316813
 30
0.0
 10
11.8195087068
 20
4.8636308419
 30
0.0
 10
11.760051435
 20
4.8291207168
 30
0.0
 10
11.6975260746
 20
4.7974492948
 30
0.0
 10
11.6543380983
 20
4.7784767839
 30
0.0
 10
11.6323183383
 20
4.7694872546
 30
0.0
  0
SPLINE
  5
292
100
AcDbEntity
  8
0
100
AcDbSpline
 62
9
  6
CONTINUOUS
 70
0
 71
3
 72
60
 73
56
 74
0
 42
0.0000001
 43
0.0000001
 44
0.0000000001
 40
0.0
 40
0.0
 40
0.0
 40
0.0
 40
0.0335620883
 40
0.0500049424
 40
0.0662061448
 40
0.0821574709
 40
0.0978529089
 40
0.1284540131
 40
0.1433684517
 40
0.1580264596
 40
0.1724344488
 40
0.1866016417
 40
0.200540117
 40
0.2142648128
 40
0.2277934803
 40
0.241146579
 40
0.2543471068
 40
0.2674203591
 40
0.2803936171
 40
0.2932957683
 40
0.3061568687
 40
0.3190076581
 40
0.3318790499
 40
0.3448016119
 40
0.3578050623
 40
0.3709177992
 40
0.3841664809
 40
0.3975756681
 40
0.4111675356
 40
0.4249616561
 40
0.4389748514
 40
0.4532211087
 40
0.4677115521
 40
0.4824544605
 40
0.512707459
 40
0.5282300307
 40
0.5440113016
 40
0.5600466933
 40
0.5763294507
 40
0.5928507924
 40
0.6096000623
 40
0.6265648813
 40
0.6437312982
 40
0.6785999567
 40
0.6962739589
 40
0.7140809785
 40
0.7500092057
 40
0.78622572
 40
0.8225586469
 40
0.8588332892
 40
0.8948763573
 40
0.9305202209
 40
0.9481456872
 40
0.9656132433
 40
1.0
 40
1.0
 40
1.0
 40
1.0
 10
10.4623183383
 20
6.2024387541
 30
0.0
 10
10.4295890741
 20
6.189077088
 30
0.0
 10
10.3815699691
 20
6.1672464357
 30
0.0
 10
10.3200176008
 20
6.134435327
 30
0.0
 10
10.2759099385
 20
6.1084293292
 30
0.0
 10
10.2336568807
 20
6.080922718
 30
0.0
 10
10.1803881678
 20
6.042666144
 30
0.0
 10
10.1306955963
 20
6.0013912898
 30
0.0
 10
10.0851625712
 20
5.9572675813
 30
0.0
 10
10.0536137942
 20
5.9233137971
 30
0.0
 10
10.0244573105
 20
5.8883033654
 30
0.0
 10
9.9977626829
 20
5.8523189382
 30
0.0
 10
9.9735952785
 20
5.8154469638
 30
0.0
 10
9.9520141156
 20
5.7777757896
 30
0.0
 10
9.9330722248
 20
5.7393959512
 30
0.0
 10
9.9168163497
 20
5.7003998827
 30
0.0
 10
9.9032868171
 20
5.6608817641
 30
0.0
 10
9.8925173612
 20
5.6209373099
 30
0.0
 10
9.8845349661
 20
5.5806635423
 30
0.0
 10
9.8793597176
 20
5.5401585327
 30
0.0
 10
9.8770046817
 20
5.4995211124
 30
0.0
 10
9.877475819
 20
5.4588505581
 30
0.0
 10
9.880771936
 20
5.4182462591
 30
0.0
 10
9.8868846965
 20
5.3778073798
 30
0.0
 10
9.8957986833
 20
5.3376325322
 30
0.0
 10
9.9074914957
 20
5.2978194686
 30
0.0
 10
9.9219338828
 20
5.2584648024
 30
0.0
 10
9.9390898931
 20
5.2196637616
 30
0.0
 10
9.9589170476
 20
5.1815099609
 30
0.0
 10
9.9813664696
 20
5.144095239
 30
0.0
 10
10.0063831877
 20
5.1075093537
 30
0.0
 10
10.0339057688
 20
5.0718402941
 30
0.0
 10
10.0638685034
 20
5.0371722807
 30
0.0
 10
10.1073397004
 20
4.9920142311
 30
0.0
 10
10.1551035544
 20
4.9496063441
 30
0.0
 10
10.2065696604
 20
4.910141503
 30
0.0
 10
10.2475295712
 20
4.8816710779
 30
0.0
 10
10.2904111212
 20
4.8546585052
 30
0.0
 10
10.3351131403
 20
4.8291665891
 30
0.0
 10
10.3815276125
 20
4.8052567753
 30
0.0
 10
10.4295427648
 20
4.7829862667
 30
0.0
 10
10.4790442529
 20
4.7624079877
 30
0.0
 10
10.5472139587
 20
4.7371647334
 30
0.0
 10
10.6175110506
 20
4.7156720027
 30
0.0
 10
10.6894728986
 20
4.6979447198
 30
0.0
 10
10.7631272119
 20
4.6826197946
 30
0.0
 10
10.8568801148
 20
4.6683370059
 30
0.0
 10
10.9708576357
 20
4.659088031
 30
0.0
 10
11.0855689144
 20
4.6577637711
 30
0.0
 10
11.1999144902
 20
4.6643776008
 30
0.0
 10
11.3127983809
 20
4.6788658194
 30
0.0
 10
11.4051077505
 20
4.6974587786
 30
0.0
 10
11.4772449439
 20
4.7161701728
 30
0.0
 10
11.5473635495
 20
4.7371703641
 30
0.0
 10
11.5987848694
 20
4.7557972731
 30
0.0
 10
11.6323183383
 20
4.7694872546
 30
0.0
  0
SPLINE
  5
293
100
AcDbEntity
  8
0
100
AcDbSpline
 62
9
  6
CONTINUOUS
 70
0
 71
3
 72
30
 73
26
 74
0
 42
0.0000001
 43
0.0000001
 44
0.0000000001
 40
0.0
 40
0.0
 40
0.0
 40
0.0
 40
0.0723989062
 40
0.1435151183
 40
0.2132658491
 40
0.2815863135
 40
0.3484332108
 40
0.4137863479
 40
0.4776505861
 40
0.5400575135
 40
0.6010667748
 40
0.6310795722
 40
0.6607786272
 40
0.6901795567
 40
0.7192997519
 40
0.7481583192
 40
0.7767760318
 40
0.8051752397
 40
0.8333797486
 40
0.8614147043
 40
0.8893064493
 40
0.9170823452
 40
0.9447705949
 40
0.9724000508
 40
1.0
 40
1.0
 40
1.0
 40
1.0
 10
12.0473183383
 20
3.6077928942
 30
0.0
 10
12.0847864199
 20
3.6230891744
 30
0.0
 10
12.1582804592
 20
3.655364626
 30
0.0
 10
12.2647016181
 20
3.709219586
 30
0.0
 10
12.3659304455
 20
3.7678845169
 30
0.0
 10
12.4615306584
 20
3.8311100078
 30
0.0
 10
12.5510945004
 20
3.8986292569
 30
0.0
 10
12.634237791
 20
3.9701569892
 30
0.0
 10
12.7106042164
 20
4.0453924504
 30
0.0
 10
12.7798621644
 20
4.1240142431
 30
0.0
 10
12.8316914892
 20
4.1924603378
 30
0.0
 10
12.8692289446
 20
4.2485557121
 30
0.0
 10
12.8952809171
 20
4.2910292766
 30
0.0
 10
12.9193536693
 20
4.3340840577
 30
0.0
 10
12.9414217597
 20
4.377674619
 30
0.0
 10
12.9614610813
 20
4.4217541719
 30
0.0
 10
12.9794499717
 20
4.4662755222
 30
0.0
 10
12.9953689724
 20
4.5111908937
 30
0.0
 10
13.0092007063
 20
4.5564521192
 30
0.0
 10
13.020930086
 20
4.6020105788
 30
0.0
 10
13.0305444242
 20
4.6478172994
 30
0.0
 10
13.0380331773
 20
4.693822924
 30
0.0
 10
13.0433880873
 20
4.7399782844
 30
0.0
 10
13.0466034104
 20
4.7862323492
 30
0.0
 10
13.0473183383
 20
4.8171097123
 30
0.0
 10
13.0473183383
 20
4.8325377656
 30
0.0
  0
SPLINE
  5
294
100
AcDbEntity
  8
0
100
AcDbSpline
 62
7
  6
CONTINUOUS
 70
0
 71
3
 72
15
 73
11
 74
0
 42
0.0000001
 43
0.0000001
 44
0.0000000001
 40
0.0
 40
0.0
 40
0.0
 40
0.0
 40
0.1209725787
 40
0.2423558181
 40
0.3645506621
 40
0.4879392791
 40
0.6128768323
 40
0.7396848104
 40
0.8686458377
 40
1.0
 40
1.0
 40
1.0
 40
1.0
 10
10.5848183588
 20
6.5692505931
 30
0.0
 10
10.5848183412
 20
6.5756209955
 30
0.0
 10
10.5853467927
 20
6.5883896729
 30
0.0
 10
10.5877204141
 20
6.6074602357
 30
0.0
 10
10.5916668557
 20
6.6263992754
 30
0.0
 10
10.5971718139
 20
6.6451395143
 30
0.0
 10
10.6042154557
 20
6.6636167412
 30
0.0
 10
10.6127728387
 20
6.6817677024
 30
0.0
 10
10.6228129627
 20
6.6995294424
 30
0.0
 10
10.6303996675
 20
6.7109626122
 30
0.0
 10
10.6344179404
 20
6.7165928602
 30
0.0
  0
SPLINE
  5
295
100
AcDbEntity
  8
0
100
AcDbSpline
 62
9
  6
CONTINUOUS
 70
0
 71
3
 72
11
 73
7
 74
0
 42
0.0000001
 43
0.0000001
 44
0.0000000001
 40
0.0
 40
0.0
 40
0.0
 40
0.0
 40
0.2450432946
 40
0.4936933885
 40
0.7455072778
 40
1.0
 40
1.0
 40
1.0
 40
1.0
 10
10.0873183383
 20
6.6617180809
 30
0.0
 10
10.1245627294
 20
6.67692304
 30
0.0
 10
10.2004452398
 20
6.7055256189
 30
0.0
 10
10.3171138931
 20
6.7426769016
 30
0.0
 10
10.4370163708
 20
6.7742546726
 30
0.0
 10
10.5183848114
 20
6.7914194278
 30
0.0
 10
10.5594618928
 20
6.7990502064
 30
0.0
  0
SPLINE
  5
296
100
AcDbEntity
  8
0
100
AcDbSpline
 62
9
  6
CONTINUOUS
 70
0
 71
3
 72
53
 73
49
 74
0
 42
0.0000001
 43
0.0000001
 44
0.0000000001
 40
0.0
 40
0.0
 40
0.0
 40
0.0
 40
0.0378904486
 40
0.075397488
 40
0.1124533821
 40
0.1489955472
 40
0.1849674507
 40
0.2203195555
 40
0.2550102712
 40
0.2890069015
 40
0.3222866273
 40
0.3548374444
 40
0.386659055
 40
0.4177637046
 40
0.4481768372
 40
0.4779375546
 40
0.4925921598
 40
0.5071046674
 40
0.5214838157
 40
0.5357391498
 40
0.5498809816
 40
0.5639203563
 40
0.5778689935
 40
0.5917392195
 40
0.6055439024
 40
0.6192963699
 40
0.6330103176
 40
0.6466997184
 40
0.6603787238
 40
0.6740615601
 40
0.6877624256
 40
0.7014953873
 40
0.7152742826
 40
0.7291126205
 40
0.7430234888
 40
0.7570194762
 40
0.7711125921
 40
0.7853141956
 40
0.7996349459
 40
0.8140847505
 40
0.8286727175
 40
0.8434071371
 40
0.8733388277
 40
0.9039348131
 40
0.9194959321
 40
0.9352352471
 40
0.9672524629
 40
1.0
 40
1.0
 40
1.0
 40
1.0
 10
11.5348162501
 20
6.7991167835
 30
0.0
 10
11.5745789794
 20
6.7917359713
 30
0.0
 10
11.6533709081
 20
6.7751902131
 30
0.0
 10
11.769560006
 20
6.7449069804
 30
0.0
 10
11.8827555583
 20
6.7093921903
 30
0.0
 10
11.9924846851
 20
6.6687931296
 30
0.0
 10
12.0982931435
 20
6.6232769592
 30
0.0
 10
12.199741786
 20
6.5730312334
 30
0.0
 10
12.2964097828
 20
6.5182628343
 30
0.0
 10
12.3878957478
 20
6.4591968548
 30
0.0
 10
12.4738195264
 20
6.3960760008
 30
0.0
 10
12.5538236123
 20
6.3291593384
 30
0.0
 10
12.6275740313
 20
6.2587216058
 30
0.0
 10
12.6947627379
 20
6.1850508338
 30
0.0
 10
12.7551051416
 20
6.1084533656
 30
0.0
 10
12.7997066003
 20
6.0420950514
 30
0.0
 10
12.831641971
 20
5.9878935977
 30
0.0
 10
12.853616264
 20
5.9469226063
 30
0.0
 10
12.8737099491
 20
5.9054706312
 30
0.0
 10
12.8919024104
 20
5.8635801822
 30
0.0
 10
12.9081742463
 20
5.8212950183
 30
0.0
 10
12.9225083758
 20
5.7786592017
 30
0.0
 10
12.934889701
 20
5.7357172401
 30
0.0
 10
12.9453050146
 20
5.6925139376
 30
0.0
 10
12.9537433145
 20
5.6490944561
 30
0.0
 10
12.9601957259
 20
5.6055042094
 30
0.0
 10
12.9646552951
 20
5.5617887901
 30
0.0
 10
12.9671172929
 20
5.5179939677
 30
0.0
 10
12.9675791951
 20
5.4741656027
 30
0.0
 10
12.9660404199
 20
5.4303495903
 30
0.0
 10
12.9625025874
 20
5.3865918227
 30
0.0
 10
12.9569695636
 20
5.3429381027
 30
0.0
 10
12.9494471517
 20
5.2994341214
 30
0.0
 10
12.9399432947
 20
5.2561253978
 30
0.0
 10
12.92846818
 20
5.2130571789
 30
0.0
 10
12.9150339032
 20
5.1702744605
 30
0.0
 10
12.8996546063
 20
5.1278219178
 30
0.0
 10
12.8823466469
 20
5.0857437944
 30
0.0
 10
12.8631282059
 20
5.0440839028
 30
0.0
 10
12.8420195569
 20
5.0028858108
 30
0.0
 10
12.819042553
 20
4.9621917507
 30
0.0
 10
12.7857777199
 20
4.908386107
 30
0.0
 10
12.7395523065
 20
4.8425858863
 30
0.0
 10
12.6879979807
 20
4.7797379452
 30
0.0
 10
12.643435742
 20
4.730950344
 30
0.0
 10
12.5961386222
 20
4.6826606032
 30
0.0
 10
12.5328924335
 20
4.6243979237
 30
0.0
 10
12.4790711263
 20
4.5809350467
 30
0.0
 10
12.4512153386
 20
4.5598223126
 30
0.0
  0
SPLINE
  5
297
100
AcDbEntity
  8
0
100
AcDbSpline
 62
9
  6
CONTINUOUS
 70
0
 71
3
 72
11
 73
7
 74
0
 42
0.0000001
 43
0.0000001
 44
0.0000000001
 40
0.0
 40
0.0
 40
0.0
 40
0.0
 40
0.2414965762
 40
0.4888550277
 40
0.7418108804
 40
1.0
 40
1.0
 40
1.0
 40
1.0
 10
12.4512153386
 20
4.5598223126
 30
0.0
 10
12.418457213
 20
4.53499395
 30
0.0
 10
12.3503057511
 20
4.4871198732
 30
0.0
 10
12.2422188903
 20
4.4216886335
 30
0.0
 10
12.1275978545
 20
4.3620980873
 30
0.0
 10
12.0480036933
 20
4.3268176543
 30
0.0
 10
12.0073183383
 20
4.3102079278
 30
0.0
  0
SPLINE
  5
298
100
AcDbEntity
  8
0
100
AcDbSpline
 62
9
  6
CONTINUOUS
 70
0
 71
3
 72
50
 73
46
 74
0
 42
0.0000001
 43
0.0000001
 44
0.0000000001
 40
0.0
 40
0.0
 40
0.0
 40
0.0
 40
0.0733821287
 40
0.1092168117
 40
0.1444359591
 40
0.1790192933
 40
0.2129535674
 40
0.2462332027
 40
0.2788607868
 40
0.310847539
 40
0.3422136913
 40
0.3729887561
 40
0.4032116416
 40
0.4181330639
 40
0.4329352975
 40
0.4476257753
 40
0.4622124495
 40
0.4767037856
 40
0.4911087101
 40
0.5054365927
 40
0.5196971983
 40
0.5339006413
 40
0.5480573451
 40
0.5621779798
 40
0.5762734146
 40
0.5903546561
 40
0.604432788
 40
0.6185189121
 40
0.6326240867
 40
0.6467592631
 40
0.6609352319
 40
0.6751625607
 40
0.6894515414
 40
0.7038121447
 40
0.7182539611
 40
0.7327861751
 40
0.7474175117
 40
0.777005225
 40
0.807081752
 40
0.837697883
 40
0.8688951556
 40
0.9007057109
 40
0.9331523565
 40
0.9662487994
 40
1.0
 40
1.0
 40
1.0
 40
1.0
 10
10.0873183383
 20
6.6617180809
 30
0.0
 10
10.0259727
 20
6.636673829
 30
0.0
 10
9.9362504382
 20
6.5952827029
 30
0.0
 10
9.8220797295
 20
6.5321626649
 30
0.0
 10
9.7409681161
 20
6.4818865638
 30
0.0
 10
9.6639717978
 20
6.4284678744
 30
0.0
 10
9.5913296117
 20
6.3720713549
 30
0.0
 10
9.5232719518
 20
6.3128736181
 30
0.0
 10
9.4600137654
 20
6.2510592538
 30
0.0
 10
9.4017557725
 20
6.186821461
 30
0.0
 10
9.3486829033
 20
6.1203601572
 30
0.0
 10
9.3009659551
 20
6.0518857877
 30
0.0
 10
9.265639085
 20
5.9930677055
 30
0.0
 10
9.2402539557
 20
5.9452494676
 30
0.0
 10
9.2227200363
 20
5.9091715625
 30
0.0
 10
9.2066261899
 20
5.8727591441
 30
0.0
 10
9.1919850753
 20
5.8360404133
 30
0.0
 10
9.1788082395
 20
5.7990445819
 30
0.0
 10
9.1671063608
 20
5.7618007794
 30
0.0
 10
9.1568886786
 20
5.7243385051
 30
0.0
 10
9.1481633533
 20
5.6866873874
 30
0.0
 10
9.1409374893
 20
5.6488772036
 30
0.0
 10
9.1352166664
 20
5.610937932
 30
0.0
 10
9.1310056939
 20
5.5728995905
 30
0.0
 10
9.1283077705
 20
5.5347923464
 30
0.0
 10
9.1271251279
 20
5.4966463916
 30
0.0
 10
9.1274587744
 20
5.4584919696
 30
0.0
 10
9.1293082731
 20
5.4203593199
 30
0.0
 10
9.1326723705
 20
5.3822786823
 30
0.0
 10
9.1375481532
 20
5.3442802194
 30
0.0
 10
9.1439318469
 20
5.306394051
 30
0.0
 10
9.1518183263
 20
5.2686501863
 30
0.0
 10
9.1612011665
 20
5.2310784874
 30
0.0
 10
9.1720730819
 20
5.1937087029
 30
0.0
 10
9.1844250831
 20
5.1565704643
 30
0.0
 10
9.1982477994
 20
5.1196926538
 30
0.0
 10
9.2186974594
 20
5.0707318494
 30
0.0
 10
9.2479439062
 20
5.0102862567
 30
0.0
 10
9.2885854711
 20
4.9395466375
 30
0.0
 10
9.3347758503
 20
4.8705441285
 30
0.0
 10
9.3863655257
 20
4.8034979047
 30
0.0
 10
9.4431896227
 20
4.7386170938
 30
0.0
 10
9.5050678182
 20
4.6761040763
 30
0.0
 10
9.5718010612
 20
4.6161560034
 30
0.0
 10
9.6189326945
 20
4.5783887451
 30
0.0
 10
9.6432178639
 20
4.5599765553
 30
0.0
  0
SPLINE
  5
299
100
AcDbEntity
  8
0
100
AcDbSpline
 62
9
  6
CONTINUOUS
 70
0
 71
3
 72
13
 73
9
 74
0
 42
0.0000001
 43
0.0000001
 44
0.0000000001
 40
0.0
 40
0.0
 40
0.0
 40
0.0
 40
0.2396706258
 40
0.3622641473
 40
0.4866110976
 40
0.6126455881
 40
0.7402899798
 40
1.0
 40
1.0
 40
1.0
 40
1.0
 10
9.6432178639
 20
4.5599765553
 30
0.0
 10
9.6845246342
 20
4.5286591663
 30
0.0
 10
9.7491611076
 20
4.484144584
 30
0.0
 10
9.8394359433
 20
4.4300067837
 30
0.0
 10
9.9102828713
 20
4.3913812747
 30
0.0
 10
9.9835930364
 20
4.3551324363
 30
0.0
 10
10.0849838522
 20
4.3098171108
 30
0.0
 10
10.1633959744
 20
4.2800272583
 30
0.0
 10
10.2165873295
 20
4.2619765053
 30
0.0
  0
LINE
  5
29A
100
AcDbEntity
  8
0
100
AcDbLine
 62
9
  6
CONTINUOUS
 10
10.2165873295
 20
4.2619765053
 11
10.2185930246
 21
4.2612968728
  0
SPLINE
  5
29B
100
AcDbEntity
  8
0
100
AcDbSpline
 62
9
  6
CONTINUOUS
 70
0
 71
3
 72
21
 73
17
 74
0
 42
0.0000001
 43
0.0000001
 44
0.0000000001
 40
0.0
 40
0.0
 40
0.0
 40
0.0
 40
0.1249908916
 40
0.1880432252
 40
0.2513494472
 40
0.3148248728
 40
0.3783836573
 40
0.4419393871
 40
0.5054056706
 40
0.5686967261
 40
0.6317279716
 40
0.6944166199
 40
0.7566822959
 40
0.8184475846
 40
0.8796388235
 40
1.0
 40
1.0
 40
1.0
 40
1.0
 10
10.4593907052
 20
4.193534863
 30
0.0
 10
10.5234061344
 20
4.1789745114
 30
0.0
 10
10.6206182941
 20
4.160809875
 30
0.0
 10
10.751569703
 20
4.1438981903
 30
0.0
 10
10.8508899028
 20
4.1348227981
 30
0.0
 10
10.9507407741
 20
4.1294202784
 30
0.0
 10
11.0508547283
 20
4.1277047136
 30
0.0
 10
11.1509588726
 20
4.1296809068
 30
0.0
 10
11.2507815671
 20
4.1353434558
 30
0.0
 10
11.3500516362
 20
4.1446770285
 30
0.0
 10
11.4484993946
 20
4.1576562998
 30
0.0
 10
11.545857765
 20
4.1742461928
 30
0.0
 10
11.6418612132
 20
4.1944014082
 30
0.0
 10
11.7362531735
 20
4.2180686699
 30
0.0
 10
11.8589157085
 20
4.2540157184
 30
0.0
 10
11.9487891851
 20
4.286313501
 30
0.0
 10
12.0073183383
 20
4.3102079278
 30
0.0
  0
SPLINE
  5
29C
100
AcDbEntity
  8
0
100
AcDbSpline
 62
9
  6
CONTINUOUS
 70
0
 71
3
 72
39
 73
35
 74
0
 42
0.0000001
 43
0.0000001
 44
0.0000000001
 40
0.0
 40
0.0
 40
0.0
 40
0.0
 40
0.0360779238
 40
0.0715069123
 40
0.1062483954
 40
0.1402733738
 40
0.173563411
 40
0.2061115948
 40
0.2379234268
 40
0.269017603
 40
0.2994266143
 40
0.3291970873
 40
0.3583897716
 40
0.3870790656
 40
0.4153519998
 40
0.4433066202
 40
0.471049768
 40
0.4986943167
 40
0.5263560056
 40
0.5541500727
 40
0.5821879245
 40
0.6105740709
 40
0.6394035113
 40
0.6687596862
 40
0.6987130396
 40
0.7293201756
 40
0.7606235322
 40
0.7926514803
 40
0.8254187491
 40
0.8589270867
 40
0.8931660585
 40
0.9281140955
 40
0.9637389596
 40
1.0
 40
1.0
 40
1.0
 40
1.0
 10
11.6225164101
 20
6.1766798585
 30
0.0
 10
11.6429531999
 20
6.1679633694
 30
0.0
 10
11.6830152453
 20
6.1496211468
 30
0.0
 10
11.7409568922
 20
6.1191536402
 30
0.0
 10
11.7959936794
 20
6.0860926273
 30
0.0
 10
11.8478925286
 20
6.0505762573
 30
0.0
 10
11.8964360233
 20
6.0127515884
 30
0.0
 10
11.9414197618
 20
5.9727754702
 30
0.0
 10
11.98265397
 20
5.9308135348
 30
0.0
 10
12.0199639416
 20
5.8870397254
 30
0.0
 10
12.0531907307
 20
5.8416357233
 30
0.0
 10
12.082191746
 20
5.7947904343
 30
0.0
 10
12.1068414376
 20
5.7466995221
 30
0.0
 10
12.1270319868
 20
5.6975648892
 30
0.0
 10
12.1426740584
 20
5.6475940906
 30
0.0
 10
12.1536976439
 20
5.5969996126
 30
0.0
 10
12.1600528953
 20
5.5459979207
 30
0.0
 10
12.1617108433
 20
5.4948082525
 30
0.0
 10
12.1586639318
 20
5.4436511784
 30
0.0
 10
12.150926094
 20
5.3927470299
 30
0.0
 10
12.1385325097
 20
5.342314365
 30
0.0
 10
12.1215390472
 20
5.2925685903
 30
0.0
 10
12.1000214922
 20
5.2437208308
 30
0.0
 10
12.0740747278
 20
5.1959770445
 30
0.0
 10
12.0438119245
 20
5.1495373298
 30
0.0
 10
12.0093637372
 20
5.104595401
 30
0.0
 10
11.9708776351
 20
5.0613380905
 30
0.0
 10
11.9285172669
 20
5.0199448538
 30
0.0
 10
11.8824618578
 20
4.9805872562
 30
0.0
 10
11.8329055398
 20
4.9434283773
 30
0.0
 10
11.7800568481
 20
4.9086222499
 30
0.0
 10
11.7241371821
 20
4.8763131815
 30
0.0
 10
11.6653831305
 20
4.8466359798
 30
0.0
 10
11.6248229809
 20
4.8288351806
 30
0.0
 10
11.604148705
 20
4.8203949429
 30
0.0
  0
SPLINE
  5
29D
100
AcDbEntity
  8
0
100
AcDbSpline
 62
9
  6
CONTINUOUS
 70
0
 71
3
 72
58
 73
54
 74
0
 42
0.0000001
 43
0.0000001
 44
0.0000000001
 40
0.0
 40
0.0
 40
0.0
 40
0.0
 40
0.0334097541
 40
0.0497718788
 40
0.0658903688
 40
0.0817579464
 40
0.097369425
 40
0.1278054015
 40
0.1426404643
 40
0.1572223531
 40
0.1715583215
 40
0.1856584018
 40
0.1995354379
 40
0.2132050748
 40
0.2266856958
 40
0.2399983007
 40
0.2531663199
 40
0.2662153581
 40
0.2791728704
 40
0.292067775
 40
0.3049300107
 40
0.3177900562
 40
0.3306784261
 40
0.3436251671
 40
0.3566593715
 40
0.3698087296
 40
0.3830991325
 40
0.3965543394
 40
0.4101957117
 40
0.4240420162
 40
0.4381092947
 40
0.4524107936
 40
0.4669569472
 40
0.4817554039
 40
0.5121170072
 40
0.5276915049
 40
0.54352267
 40
0.5596056196
 40
0.5759333553
 40
0.6092784876
 40
0.6262796526
 40
0.6434794123
 40
0.6784059341
 40
0.7139275735
 40
0.749892021
 40
0.7861359745
 40
0.8224893626
 40
0.8587794961
 40
0.8948351936
 40
0.9304909241
 40
0.948122651
 40
0.9655969974
 40
1.0
 40
1.0
 40
1.0
 40
1.0
 10
10.472120279
 20
6.1766798431
 30
0.0
 10
10.441513278
 20
6.163625621
 30
0.0
 10
10.3966480569
 20
6.1423739225
 30
0.0
 10
10.3392260508
 20
6.1105761713
 30
0.0
 10
10.2981341733
 20
6.0854427515
 30
0.0
 10
10.258821712
 20
6.058920628
 30
0.0
 10
10.2093307047
 20
6.0221097724
 30
0.0
 10
10.1632660889
 20
5.9824979609
 30
0.0
 10
10.121176536
 20
5.9402546767
 30
0.0
 10
10.0920742982
 20
5.9077919015
 30
0.0
 10
10.0652440152
 20
5.8743613272
 30
0.0
 10
10.0407489391
 20
5.8400409216
 30
0.0
 10
10.0186483989
 20
5.8049121775
 30
0.0
 10
9.9989957616
 20
5.7690582959
 30
0.0
 10
9.981838787
 20
5.7325644601
 30
0.0
 10
9.9672193479
 20
5.695517562
 30
0.0
 10
9.955173311
 20
5.6580060575
 30
0.0
 10
9.9457303772
 20
5.6201197647
 30
0.0
 10
9.9389139394
 20
5.5819496476
 30
0.0
 10
9.9347409515
 20
5.5435875693
 30
0.0
 10
9.9332218278
 20
5.5051260187
 30
0.0
 10
9.9343603618
 20
5.4666578165
 30
0.0
 10
9.938153702
 20
5.4282758046
 30
0.0
 10
9.944592382
 20
5.3900725371
 30
0.0
 10
9.9536603811
 20
5.3521399839
 30
0.0
 10
9.9653352237
 20
5.3145692535
 30
0.0
 10
9.9795881061
 20
5.2774503426
 30
0.0
 10
9.9963840373
 20
5.2408719156
 30
0.0
 10
10.0156819983
 20
5.2049210995
 30
0.0
 10
10.0374350614
 20
5.1696833391
 30
0.0
 10
10.0615906574
 20
5.1352421099
 30
0.0
 10
10.0880902427
 20
5.1016792099
 30
0.0
 10
10.1168713379
 20
5.0690729189
 30
0.0
 10
10.1585431891
 20
5.0266218177
 30
0.0
 10
10.2042167637
 20
4.986782246
 30
0.0
 10
10.2533420126
 20
4.9497284259
 30
0.0
 10
10.2923918815
 20
4.923012491
 30
0.0
 10
10.3332344489
 20
4.8976766553
 30
0.0
 10
10.3903457617
 20
4.8655935317
 30
0.0
 10
10.4502708519
 20
4.836777351
 30
0.0
 10
10.5125352996
 20
4.8112727702
 30
0.0
 10
10.5772287621
 20
4.7876728409
 30
0.0
 10
10.6609025756
 20
4.7624869538
 30
0.0
 10
10.7644383838
 20
4.739431928
 30
0.0
 10
10.8706488548
 20
4.7236023977
 30
0.0
 10
10.978527212
 20
4.7151478048
 30
0.0
 10
11.0870553693
 20
4.7141470199
 30
0.0
 10
11.1952088756
 20
4.7206097356
 30
0.0
 10
11.3019627302
 20
4.7344746368
 30
0.0
 10
11.3892545055
 20
4.752157148
 30
0.0
 10
11.4574728921
 20
4.7699095147
 30
0.0
 10
11.523789175
 20
4.7898124358
 30
0.0
 10
11.5724265302
 20
4.8074444192
 30
0.0
 10
11.604148705
 20
4.8203949429
 30
0.0
  0
SPLINE
  5
29E
100
AcDbEntity
  8
0
100
AcDbSpline
 62
9
  6
CONTINUOUS
 70
0
 71
3
 72
46
 73
42
 74
0
 42
0.0000001
 43
0.0000001
 44
0.0000000001
 40
0.0
 40
0.0
 40
0.0
 40
0.0
 40
0.0124254032
 40
0.0248640902
 40
0.0373292461
 40
0.0498338599
 40
0.0623906286
 40
0.0750118702
 40
0.0877094442
 40
0.100494671
 40
0.1133782678
 40
0.1263702966
 40
0.1394801094
 40
0.1527163078
 40
0.1660867214
 40
0.1795983806
 40
0.2070645425
 40
0.2351599289
 40
0.2639113916
 40
0.2933331515
 40
0.3234273978
 40
0.3541850368
 40
0.385586566
 40
0.4176029588
 40
0.4501965973
 40
0.4833222061
 40
0.5169277511
 40
0.550955354
 40
0.5853421667
 40
0.6200212273
 40
0.6549223133
 40
0.6899727633
 40
0.7250982986
 40
0.7602238338
 40
0.7952742839
 40
0.8301753699
 40
0.8648544299
 40
0.8992412443
 40
0.9332688597
 40
0.9668742884
 40
1.0
 40
1.0
 40
1.0
 40
1.0
 10
9.0473183383
 20
4.8325377656
 30
0.0
 10
9.0473183383
 20
4.8171097123
 30
0.0
 10
9.0480332662
 20
4.7862323492
 30
0.0
 10
9.0512485892
 20
4.7399782844
 30
0.0
 10
9.0566034993
 20
4.6938229241
 30
0.0
 10
9.0640922524
 20
4.6478172994
 30
0.0
 10
9.0737065906
 20
4.6020105789
 30
0.0
 10
9.0854359702
 20
4.5564521193
 30
0.0
 10
9.0992677041
 20
4.5111908937
 30
0.0
 10
9.1151867048
 20
4.4662755222
 30
0.0
 10
9.1331755953
 20
4.4217541719
 30
0.0
 10
9.1532149168
 20
4.377674619
 30
0.0
 10
9.1752830073
 20
4.3340840577
 30
0.0
 10
9.1993557594
 20
4.2910292766
 30
0.0
 10
9.225407732
 20
4.2485557121
 30
0.0
 10
9.2629451874
 20
4.1924603378
 30
0.0
 10
9.314774512
 20
4.1240142432
 30
0.0
 10
9.3840324608
 20
4.0453924501
 30
0.0
 10
9.4603988832
 20
3.9701569902
 30
0.0
 10
9.5435421856
 20
3.8986292529
 30
0.0
 10
9.6331059824
 20
3.8311100224
 30
0.0
 10
9.7287063533
 20
3.7678844746
 30
0.0
 10
9.8299346229
 20
3.7092197264
 30
0.0
 10
9.9363583342
 20
3.6553637989
 30
0.0
 10
10.0475231631
 20
3.6065445878
 30
0.0
 10
10.1629547616
 20
3.5629690616
 30
0.0
 10
10.282160541
 20
3.5248218845
 30
0.0
 10
10.4046318869
 20
3.4922650159
 30
0.0
 10
10.5298462126
 20
3.465436784
 30
0.0
 10
10.6572691557
 20
3.444451078
 30
0.0
 10
10.7863569284
 20
3.4293972454
 30
0.0
 10
10.9165585672
 20
3.4203392578
 30
0.0
 10
11.0473183385
 20
3.4173155979
 30
0.0
 10
11.1780781085
 20
3.4203392575
 30
0.0
 10
11.3082797514
 20
3.4293972467
 30
0.0
 10
11.4373675089
 20
3.4444510731
 30
0.0
 10
11.564790507
 20
3.4654368019
 30
0.0
 10
11.690004652
 20
3.4922649521
 30
0.0
 10
11.812476598
 20
3.5248221092
 30
0.0
 10
11.9316797247
 20
3.5629681313
 30
0.0
 10
12.0092387311
 20
3.5922469596
 30
0.0
 10
12.0473183383
 20
3.6077928942
 30
0.0
  0
SPLINE
  5
29F
100
AcDbEntity
  8
0
100
AcDbSpline
 62
9
  6
CONTINUOUS
 70
0
 71
3
 72
46
 73
42
 74
0
 42
0.0000001
 43
0.0000001
 44
0.0000000001
 40
0.0
 40
0.0
 40
0.0
 40
0.0
 40
0.0124254032
 40
0.0248640902
 40
0.0373292461
 40
0.0498338599
 40
0.0623906286
 40
0.0750118702
 40
0.0877094442
 40
0.100494671
 40
0.1133782678
 40
0.1263702966
 40
0.1394801094
 40
0.1527163078
 40
0.1660867214
 40
0.1795983807
 40
0.2070645425
 40
0.2351599289
 40
0.2639113916
 40
0.2933331515
 40
0.3234273978
 40
0.3541850368
 40
0.385586566
 40
0.4176029588
 40
0.4501965973
 40
0.4833222061
 40
0.516927751
 40
0.550955354
 40
0.5853421667
 40
0.6200212273
 40
0.6549223133
 40
0.6899727633
 40
0.7250982986
 40
0.7602238338
 40
0.7952742839
 40
0.8301753699
 40
0.8648544299
 40
0.8992412443
 40
0.9332688597
 40
0.9668742884
 40
1.0
 40
1.0
 40
1.0
 40
1.0
 10
9.0473183383
 20
5.4293944618
 30
0.0
 10
9.0473183383
 20
5.4139664086
 30
0.0
 10
9.0480332662
 20
5.3830890455
 30
0.0
 10
9.0512485892
 20
5.3368349806
 30
0.0
 10
9.0566034993
 20
5.2906796203
 30
0.0
 10
9.0640922524
 20
5.2446739957
 30
0.0
 10
9.0737065906
 20
5.1988672751
 30
0.0
 10
9.0854359702
 20
5.1533088155
 30
0.0
 10
9.0992677042
 20
5.10804759
 30
0.0
 10
9.1151867048
 20
5.0631322185
 30
0.0
 10
9.1331755953
 20
5.0186108682
 30
0.0
 10
9.1532149168
 20
4.9745313153
 30
0.0
 10
9.1752830073
 20
4.9309407539
 30
0.0
 10
9.1993557594
 20
4.8878859729
 30
0.0
 10
9.225407732
 20
4.8454124083
 30
0.0
 10
9.2629451874
 20
4.7893170341
 30
0.0
 10
9.314774512
 20
4.7208709394
 30
0.0
 10
9.3840324607
 20
4.6422491464
 30
0.0
 10
9.4603988832
 20
4.5670136865
 30
0.0
 10
9.5435421857
 20
4.4954859492
 30
0.0
 10
9.6331059824
 20
4.4279667187
 30
0.0
 10
9.7287063533
 20
4.3647411709
 30
0.0
 10
9.8299346229
 20
4.3060764227
 30
0.0
 10
9.9363583342
 20
4.2522204952
 30
0.0
 10
10.0475231631
 20
4.2034012841
 30
0.0
 10
10.1629547616
 20
4.1598257578
 30
0.0
 10
10.2821605409
 20
4.1216785808
 30
0.0
 10
10.4046318869
 20
4.0891217122
 30
0.0
 10
10.5298462126
 20
4.0622934803
 30
0.0
 10
10.6572691557
 20
4.0413077742
 30
0.0
 10
10.7863569284
 20
4.0262539416
 30
0.0
 10
10.9165585672
 20
4.0171959541
 30
0.0
 10
11.0473183385
 20
4.0141722942
 30
0.0
 10
11.1780781085
 20
4.0171959538
 30
0.0
 10
11.3082797513
 20
4.0262539429
 30
0.0
 10
11.4373675089
 20
4.0413077694
 30
0.0
 10
11.564790507
 20
4.0622934982
 30
0.0
 10
11.690004652
 20
4.0891216484
 30
0.0
 10
11.812476598
 20
4.1216788055
 30
0.0
 10
11.9316797247
 20
4.1598248276
 30
0.0
 10
12.0092387311
 20
4.1891036559
 30
0.0
 10
12.0473183383
 20
4.2046495904
 30
0.0
  0
SPLINE
  5
2A0
100
AcDbEntity
  8
0
100
AcDbSpline
 62
9
  6
CONTINUOUS
 70
0
 71
3
 72
30
 73
26
 74
0
 42
0.0000001
 43
0.0000001
 44
0.0000000001
 40
0.0
 40
0.0
 40
0.0
 40
0.0
 40
0.0275999492
 40
0.0552294051
 40
0.0829176548
 40
0.1106935507
 40
0.1385852957
 40
0.1666202514
 40
0.1948247603
 40
0.2232239682
 40
0.2518416808
 40
0.2807002481
 40
0.3098204433
 40
0.3392213728
 40
0.3689204278
 40
0.3989332252
 40
0.4599424865
 40
0.5223494139
 40
0.5862136521
 40
0.6515667892
 40
0.7184136865
 40
0.7867341509
 40
0.8564848817
 40
0.9276010938
 40
1.0
 40
1.0
 40
1.0
 40
1.0
 10
13.0473183383
 20
5.4293944618
 30
0.0
 10
13.0473183383
 20
5.4139664086
 30
0.0
 10
13.0466034104
 20
5.3830890455
 30
0.0
 10
13.0433880873
 20
5.3368349806
 30
0.0
 10
13.0380331773
 20
5.2906796203
 30
0.0
 10
13.0305444242
 20
5.2446739957
 30
0.0
 10
13.020930086
 20
5.1988672751
 30
0.0
 10
13.0092007063
 20
5.1533088155
 30
0.0
 10
12.9953689724
 20
5.10804759
 30
0.0
 10
12.9794499717
 20
5.0631322185
 30
0.0
 10
12.9614610813
 20
5.0186108682
 30
0.0
 10
12.9414217597
 20
4.9745313153
 30
0.0
 10
12.9193536693
 20
4.9309407539
 30
0.0
 10
12.8952809171
 20
4.8878859729
 30
0.0
 10
12.8692289446
 20
4.8454124083
 30
0.0
 10
12.8316914892
 20
4.7893170341
 30
0.0
 10
12.7798621644
 20
4.7208709394
 30
0.0
 10
12.7106042164
 20
4.6422491466
 30
0.0
 10
12.634237791
 20
4.5670136855
 30
0.0
 10
12.5510945004
 20
4.4954859532
 30
0.0
 10
12.4615306584
 20
4.4279667041
 30
0.0
 10
12.3659304455
 20
4.3647412132
 30
0.0
 10
12.2647016181
 20
4.3060762822
 30
0.0
 10
12.1582804592
 20
4.2522213223
 30
0.0
 10
12.0847864199
 20
4.2199458707
 30
0.0
 10
12.0473183383
 20
4.2046495904
 30
0.0
  0
SPLINE
  5
2A1
100
AcDbEntity
  8
0
100
AcDbSpline
 62
7
  6
CONTINUOUS
 70
0
 71
3
 72
23
 73
19
 74
0
 42
0.0000001
 43
0.0000001
 44
0.0000000001
 40
0.0
 40
0.0
 40
0.0
 40
0.0
 40
0.1171129211
 40
0.1474859671
 40
0.1782410919
 40
0.240779155
 40
0.3045021332
 40
0.3691410386
 40
0.4344037203
 40
0.4999824161
 40
0.565561744
 40
0.6308263008
 40
0.6954682846
 40
0.7591954627
 40
0.8217387381
 40
0.8524968072
 40
0.8828729928
 40
1.0
 40
1.0
 40
1.0
 40
1.0
 10
10.7755045072
 20
7.0915463859
 30
0.0
 10
10.7938155951
 20
7.0785682368
 30
0.0
 10
10.8184950499
 20
7.064386407
 30
0.0
 10
10.8496623744
 20
7.0504135228
 30
0.0
 10
10.8716656906
 20
7.0415884749
 30
0.0
 10
10.9002349505
 20
7.0320410784
 30
0.0
 10
10.9357347299
 20
7.0230649383
 30
0.0
 10
10.9723045719
 20
7.0165900474
 30
0.0
 10
11.0095930922
 20
7.0126782846
 30
0.0
 10
11.0472432371
 20
7.0113667576
 30
0.0
 10
11.0848941019
 20
7.0126678834
 30
0.0
 10
11.1221847742
 20
7.0165693531
 30
0.0
 10
11.1587581805
 20
7.0230341379
 30
0.0
 10
11.1942629025
 20
7.0320004651
 30
0.0
 10
11.2228372991
 20
7.0415399315
 30
0.0
 10
11.244845404
 20
7.0503588453
 30
0.0
 10
11.2760207681
 20
7.0643232473
 30
0.0
 10
11.3007078911
 20
7.0784982097
 30
0.0
 10
11.319025976
 20
7.0914711524
 30
0.0
  0
SPLINE
  5
2A2
100
AcDbEntity
  8
0
100
AcDbSpline
 62
7
  6
CONTINUOUS
 70
0
 71
3
 72
23
 73
19
 74
0
 42
0.0000001
 43
0.0000001
 44
0.0000000001
 40
0.0
 40
0.0
 40
0.0
 40
0.0
 40
0.0572216495
 40
0.1161616212
 40
0.1766778861
 40
0.2385895225
 40
0.3016839359
 40
0.365723265
 40
0.4304508034
 40
0.4955972641
 40
0.5608866072
 40
0.6260422477
 40
0.6907926385
 40
0.7548774916
 40
0.8180535356
 40
0.8492359961
 40
0.8801110847
 40
1.0
 40
1.0
 40
1.0
 40
1.0
 10
10.785351936
 20
7.0424839576
 30
0.0
 10
10.794042672
 20
7.0369438425
 30
0.0
 10
10.8121825137
 20
7.0264608754
 30
0.0
 10
10.8409560076
 20
7.0127975717
 30
0.0
 10
10.8714772005
 20
7.0010676042
 30
0.0
 10
10.9034856469
 20
6.9913764823
 30
0.0
 10
10.936711839
 20
6.9838108026
 30
0.0
 10
10.9708750321
 20
6.978440181
 30
0.0
 10
11.0056867891
 20
6.9753157063
 30
0.0
 10
11.0408530929
 20
6.974469688
 30
0.0
 10
11.0760770093
 20
6.9759153674
 30
0.0
 10
11.1110610462
 20
6.9796467867
 30
0.0
 10
11.145510122
 20
6.9856388287
 30
0.0
 10
11.1791326997
 20
6.993847179
 30
0.0
 10
11.2063468769
 20
7.0025205227
 30
0.0
 10
11.2274429804
 20
7.0105203461
 30
0.0
 10
11.2576387717
 20
7.0232504254
 30
0.0
 10
11.2817300996
 20
7.0361131288
 30
0.0
 10
11.2998532523
 20
7.0478534732
 30
0.0
  0
SPLINE
  5
2A3
100
AcDbEntity
  8
0
100
AcDbSpline
 62
7
  6
CONTINUOUS
 70
0
 71
3
 72
22
 73
18
 74
0
 42
0.0000001
 43
0.0000001
 44
0.0000000001
 40
0.0
 40
0.0
 40
0.0
 40
0.0
 40
0.0576372321
 40
0.1168492411
 40
0.1774976745
 40
0.2394135262
 40
0.3024022704
 40
0.3662493832
 40
0.4307251434
 40
0.4955895701
 40
0.5605973367
 40
0.6255022091
 40
0.6900620425
 40
0.7540432178
 40
0.8172255008
 40
0.8794069201
 40
1.0
 40
1.0
 40
1.0
 40
1.0
 10
10.7971586871
 20
6.9863906968
 30
0.0
 10
10.8056054548
 20
6.9814092002
 30
0.0
 10
10.8231409701
 20
6.9719928408
 30
0.0
 10
10.8507624846
 20
6.9597226061
 30
0.0
 10
10.8798714183
 20
6.9491999811
 30
0.0
 10
10.9102458627
 20
6.940509922
 30
0.0
 10
10.9416572389
 20
6.9337222094
 30
0.0
 10
10.9738683374
 20
6.928892951
 30
0.0
 10
11.0066361225
 20
6.9260635143
 30
0.0
 10
11.0397132804
 20
6.9252603253
 30
0.0
 10
11.0728502059
 20
6.926494581
 30
0.0
 10
11.105796782
 20
6.9297621623
 30
0.0
 10
11.1383047713
 20
6.9350438952
 30
0.0
 10
11.1701278128
 20
6.9423048522
 30
0.0
 10
11.2010303242
 20
6.951497851
 30
0.0
 10
11.2402708163
 20
6.9660868446
 30
0.0
 10
11.2682810202
 20
6.9799215894
 30
0.0
 10
11.2859175549
 20
6.9904058168
 30
0.0
  0
SPLINE
  5
2A4
100
AcDbEntity
  8
0
100
AcDbSpline
 62
9
  6
CONTINUOUS
 70
0
 71
3
 72
31
 73
27
 74
0
 42
0.0000001
 43
0.0000001
 44
0.0000000001
 40
0.0
 40
0.0
 40
0.0
 40
0.0
 40
0.0251788568
 40
0.0504383377
 40
0.0758572706
 40
0.1015109865
 40
0.1274698022
 40
0.1537977467
 40
0.1805515629
 40
0.2077799966
 40
0.2355233536
 40
0.2638132995
 40
0.2926728796
 40
0.3221166971
 40
0.3827520033
 40
0.413956772
 40
0.4457269905
 40
0.4780409987
 40
0.5108713919
 40
0.5779290514
 40
0.6466040969
 40
0.7165233066
 40
0.7872707044
 40
0.8584028297
 40
0.9294635832
 40
1.0
 40
1.0
 40
1.0
 40
1.0
 10
10.594818356
 20
6.8718018917
 30
0.0
 10
10.5948183749
 20
6.8657496647
 30
0.0
 10
10.59530572
 20
6.8536202319
 30
0.0
 10
10.597495297
 20
6.8354998841
 30
0.0
 10
10.6011362582
 20
6.8174972498
 30
0.0
 10
10.6062161995
 20
6.7996726155
 30
0.0
 10
10.6127179122
 20
6.7820834975
 30
0.0
 10
10.6206195534
 20
6.7647869263
 30
0.0
 10
10.6298947934
 20
6.7478385961
 30
0.0
 10
10.6405129478
 20
6.7312929242
 30
0.0
 10
10.6524391856
 20
6.7152028078
 30
0.0
 10
10.6656343472
 20
6.6996197426
 30
0.0
 10
10.6800562396
 20
6.6845927843
 30
0.0
 10
10.7010590801
 20
6.6651766041
 30
0.0
 10
10.7241596517
 20
6.6472763026
 30
0.0
 10
10.7490144877
 20
6.630979738
 30
0.0
 10
10.7687956833
 20
6.6194123013
 30
0.0
 10
10.7894701462
 20
6.6086573219
 30
0.0
 10
10.8183396479
 20
6.595353381
 30
0.0
 10
10.8562909748
 20
6.5809908938
 30
0.0
 10
10.9039368904
 20
6.5676022432
 30
0.0
 10
10.9534106759
 20
6.5581026588
 30
0.0
 10
11.0040793769
 20
6.5526127203
 30
0.0
 10
11.0552998263
 20
6.5512015629
 30
0.0
 10
11.1064150323
 20
6.5538861413
 30
0.0
 10
11.1401936231
 20
6.5584118958
 30
0.0
 10
11.1568904109
 20
6.5613584903
 30
0.0
  0
SPLINE
  5
2A5
100
AcDbEntity
  8
0
100
AcDbSpline
 62
7
  6
CONTINUOUS
 70
0
 71
3
 72
39
 73
35
 74
0
 42
0.0000001
 43
0.0000001
 44
0.0000000001
 40
0.0
 40
0.0
 40
0.0
 40
0.0
 40
0.0248343026
 40
0.0498053019
 40
0.0750449922
 40
0.1006749411
 40
0.1268030093
 40
0.1535202427
 40
0.1808992531
 40
0.2089933206
 40
0.2233226887
 40
0.2378420292
 40
0.267449908
 40
0.2978204261
 40
0.328935438
 40
0.3607620732
 40
0.3932543191
 40
0.4263546182
 40
0.4599953156
 40
0.494100276
 40
0.5285863139
 40
0.5633645895
 40
0.5983421272
 40
0.6334230943
 40
0.6685102141
 40
0.7035061636
 40
0.7383148317
 40
0.7728427994
 40
0.8070006598
 40
0.8407043912
 40
0.8738769163
 40
0.9064494132
 40
0.9383629912
 40
1.0
 40
1.0
 40
1.0
 40
1.0
 10
10.6410683385
 20
7.274199502
 30
0.0
 10
10.6410683478
 20
7.2670552624
 30
0.0
 10
10.6418266865
 20
7.2527160739
 30
0.0
 10
10.6452291791
 20
7.2313594464
 30
0.0
 10
10.6508766343
 20
7.2102456713
 30
0.0
 10
10.6587348711
 20
7.1894974578
 30
0.0
 10
10.6687568502
 20
7.1692303996
 30
0.0
 10
10.6808839113
 20
7.1495571757
 30
0.0
 10
10.6950453541
 20
7.1305867657
 30
0.0
 10
10.7083883648
 20
7.115547802
 30
0.0
 10
10.7199742008
 20
7.1039623766
 30
0.0
 10
10.7323231983
 20
7.0925419202
 30
0.0
 10
10.7488824968
 20
7.0789033778
 30
0.0
 10
10.7702759005
 20
7.0637328309
 30
0.0
 10
10.793203469
 20
7.0497328625
 30
0.0
 10
10.8175373187
 20
7.0369806908
 30
0.0
 10
10.8431429204
 20
7.0255459216
 30
0.0
 10
10.8698784971
 20
7.0154912909
 30
0.0
 10
10.8975961328
 20
7.0068719747
 30
0.0
 10
10.9261424555
 20
6.9997353511
 30
0.0
 10
10.9553594988
 20
6.9941206776
 30
0.0
 10
10.9850855697
 20
6.9900588675
 30
0.0
 10
11.0151561325
 20
6.9875722998
 30
0.0
 10
11.0454047359
 20
6.986674675
 30
0.0
 10
11.0756639343
 20
6.9873709428
 30
0.0
 10
11.1057662185
 20
6.9896572665
 30
0.0
 10
11.1355449578
 20
6.9935210403
 30
0.0
 10
11.1648353429
 20
6.9989409906
 30
0.0
 10
11.1934752009
 20
7.0058872337
 30
0.0
 10
11.2213062934
 20
7.0143216955
 30
0.0
 10
11.2481737339
 20
7.0241974859
 30
0.0
 10
11.2739320767
 20
7.0354623217
 30
0.0
 10
11.3062164805
 20
7.0520494021
 30
0.0
 10
11.3289515595
 20
7.0666547922
 30
0.0
 10
11.3431286757
 20
7.0773044706
 30
0.0
  0
SPLINE
  5
2A6
100
AcDbEntity
  8
0
100
AcDbSpline
 62
9
  6
CONTINUOUS
 70
0
 71
3
 72
28
 73
24
 74
0
 42
0.0000001
 43
0.0000001
 44
0.0000000001
 40
0.0
 40
0.0
 40
0.0
 40
0.0
 40
0.0257107635
 40
0.0514832403
 40
0.0773781158
 40
0.1034540615
 40
0.1297667957
 40
0.1563683082
 40
0.183306211
 40
0.2106231551
 40
0.2383564641
 40
0.2665379307
 40
0.3243220846
 40
0.3841398594
 40
0.4460434313
 40
0.5100037135
 40
0.5759188409
 40
0.6436237986
 40
0.71290005
 40
0.7834850462
 40
0.8550816003
 40
0.927366017
 40
1.0
 40
1.0
 40
1.0
 40
1.0
 10
11.4535683383
 20
8.082334108
 30
0.0
 10
11.4535683383
 20
8.0776328491
 30
0.0
 10
11.4532410332
 20
8.0682157876
 30
0.0
 10
11.4517701
 20
8.0541329592
 30
0.0
 10
11.449322726
 20
8.0401182926
 30
0.0
 10
11.4459049616
 20
8.0262068586
 30
0.0
 10
11.4415254572
 20
8.0124322243
 30
0.0
 10
11.436195202
 20
7.9988278336
 30
0.0
 10
11.4299273195
 20
7.9854265674
 30
0.0
 10
11.4227374218
 20
7.9722608277
 30
0.0
 10
11.4146429332
 20
7.9593618658
 30
0.0
 10
11.4025725718
 20
7.9424223372
 30
0.0
 10
11.3852598247
 20
7.9220749176
 30
0.0
 10
11.3614230778
 20
7.8994300405
 30
0.0
 10
11.3345791944
 20
7.8785565414
 30
0.0
 10
11.3049889197
 20
7.8596517485
 30
0.0
 10
11.2729357151
 20
7.8428913991
 30
0.0
 10
11.2387263287
 20
7.8284328786
 30
0.0
 10
11.2026875553
 20
7.8164121807
 30
0.0
 10
11.1651638929
 20
7.806942597
 30
0.0
 10
11.1265132838
 20
7.8001138558
 30
0.0
 10
11.0871074618
 20
7.7959904454
 30
0.0
 10
11.0605995915
 20
7.7950719782
 30
0.0
 10
11.0473183383
 20
7.7950719782
 30
0.0
  0
SPLINE
  5
2A7
100
AcDbEntity
  8
0
100
AcDbSpline
 62
7
  6
CONTINUOUS
 70
0
 71
3
 72
29
 73
25
 74
0
 42
0.0000001
 43
0.0000001
 44
0.0000000001
 40
0.0
 40
0.0
 40
0.0
 40
0.0
 40
0.026003108
 40
0.0521211943
 40
0.0784047308
 40
0.1049017016
 40
0.1316570085
 40
0.1587119766
 40
0.1861038712
 40
0.2138655564
 40
0.2420253043
 40
0.2706065829
 40
0.2996280923
 40
0.3291037968
 40
0.3894326296
 40
0.4516314148
 40
0.5156520484
 40
0.5813858175
 40
0.6486712978
 40
0.7173018242
 40
0.7870336868
 40
0.8575935551
 40
0.9286851613
 40
1.0
 40
1.0
 40
1.0
 40
1.0
 10
11.4529325016
 20
7.180777389
 30
0.0
 10
11.4525735147
 20
7.1761166295
 30
0.0
 10
11.45154966
 20
7.1667951405
 30
0.0
 10
11.4491091813
 20
7.1529039168
 30
0.0
 10
11.4457668699
 20
7.1391098837
 30
0.0
 10
11.4415306128
 20
7.1254440918
 30
0.0
 10
11.4364102442
 20
7.1119362244
 30
0.0
 10
11.4304174189
 20
7.0986158847
 30
0.0
 10
11.423565928
 20
7.0855120433
 30
0.0
 10
11.4158714703
 20
7.0726531335
 30
0.0
 10
11.4073514089
 20
7.0600670782
 30
0.0
 10
11.398025202
 20
7.0477811291
 30
0.0
 10
11.3879136836
 20
7.035821494
 30
0.0
 10
11.3733042728
 20
7.0202266674
 30
0.0
 10
11.3531558616
 20
7.0016998543
 30
0.0
 10
11.3264444802
 20
6.981351477
 30
0.0
 10
11.2972481088
 20
6.9628803002
 30
0.0
 10
11.2658289626
 20
6.9464425088
 30
0.0
 10
11.2324663693
 20
6.9321746306
 30
0.0
 10
11.1974572585
 20
6.9201950017
 30
0.0
 10
11.161113099
 20
6.9106020497
 30
0.0
 10
11.1237566491
 20
6.9034735337
 30
0.0
 10
11.0857223099
 20
6.8988652316
 30
0.0
 10
11.0601359889
 20
6.8974958339
 30
0.0
 10
11.0473183383
 20
6.8972387401
 30
0.0
  0
SPLINE
  5
2A8
100
AcDbEntity
  8
0
100
AcDbSpline
 62
7
  6
CONTINUOUS
 70
0
 71
3
 72
20
 73
16
 74
0
 42
0.0000001
 43
0.0000001
 44
0.0000000001
 40
0.0
 40
0.0
 40
0.0
 40
0.0
 40
0.1364611299
 40
0.2042502211
 40
0.2715430674
 40
0.4040564174
 40
0.4690625309
 40
0.5330672641
 40
0.5959685837
 40
0.6576776585
 40
0.7771878081
 40
0.8349469961
 40
0.8913276756
 40
0.9463358825
 40
1.0
 40
1.0
 40
1.0
 40
1.0
 10
11.0473183383
 20
6.8458689443
 30
0.0
 10
11.0296280653
 20
6.8455150876
 30
0.0
 10
11.0031035785
 20
6.8462070909
 30
0.0
 10
10.9680477102
 20
6.8495881993
 30
0.0
 10
10.9336964123
 20
6.85454505
 30
0.0
 10
10.9000846335
 20
6.8618729055
 30
0.0
 10
10.8675793654
 20
6.8715715
 30
0.0
 10
10.8441201602
 20
6.8799044688
 30
0.0
 10
10.8215286827
 20
6.8893045546
 30
0.0
 10
10.7930054453
 20
6.9030532534
 30
0.0
 10
10.7662517045
 20
6.9188600467
 30
0.0
 10
10.741718251
 20
6.9366628253
 30
0.0
 10
10.7248291797
 20
6.9506817056
 30
0.0
 10
10.7093207019
 20
6.9654529702
 30
0.0
 10
10.6998294102
 20
6.9758879313
 30
0.0
 10
10.6953467171
 20
6.9812097639
 30
0.0
  0
SPLINE
  5
2A9
100
AcDbEntity
  8
0
100
AcDbSpline
 62
7
  6
CONTINUOUS
 70
0
 71
3
 72
27
 73
23
 74
0
 42
0.0000001
 43
0.0000001
 44
0.0000000001
 40
0.0
 40
0.0
 40
0.0
 40
0.0
 40
0.0730367886
 40
0.1456482123
 40
0.2175169516
 40
0.2883374166
 40
0.3578268415
 40
0.4257323452
 40
0.4918388645
 40
0.5559780582
 40
0.6180367103
 40
0.6779658134
 40
0.7357889758
 40
0.7916098795
 40
0.8188368033
 40
0.8456412273
 40
0.8720601336
 40
0.8981356107
 40
0.9239145046
 40
0.9494478824
 40
0.9747904769
 40
1.0
 40
1.0
 40
1.0
 40
1.0
 10
11.0473183383
 20
6.8972387401
 30
0.0
 10
11.0345251874
 20
6.8969821377
 30
0.0
 10
11.0089880037
 20
6.8973216857
 30
0.0
 10
10.9709755559
 20
6.9003829734
 30
0.0
 10
10.9336402438
 20
6.9059611988
 30
0.0
 10
10.8973157715
 20
6.9140005993
 30
0.0
 10
10.8623241932
 20
6.9244233994
 30
0.0
 10
10.8289762557
 20
6.9371312083
 30
0.0
 10
10.7975679621
 20
6.9520059808
 30
0.0
 10
10.7683782224
 20
6.9689110597
 30
0.0
 10
10.7416668358
 20
6.987692393
 30
0.0
 10
10.717672086
 20
7.0081812453
 30
0.0
 10
10.6966116146
 20
7.0301908845
 30
0.0
 10
10.6815378062
 20
7.0498046412
 30
0.0
 10
10.6711831038
 20
7.0660386393
 30
0.0
 10
10.6643216099
 20
7.0783604629
 30
0.0
 10
10.6583177961
 20
7.090898904
 30
0.0
 10
10.653185201
 20
7.1036254243
 30
0.0
 10
10.6489356424
 20
7.1165103829
 30
0.0
 10
10.6455790246
 20
7.1295241776
 30
0.0
 10
10.6431233272
 20
7.1426357227
 30
0.0
 10
10.6420884232
 20
7.1514397985
 30
0.0
 10
10.6417239923
 20
7.155841335
 30
0.0
  0
SPLINE
  5
2AA
100
AcDbEntity
  8
0
100
AcDbSpline
 62
7
  6
CONTINUOUS
 70
0
 71
3
 72
27
 73
23
 74
0
 42
0.0000001
 43
0.0000001
 44
0.0000000001
 40
0.0
 40
0.0
 40
0.0
 40
0.0
 40
0.072900422
 40
0.1453832814
 40
0.2171378523
 40
0.2878645152
 40
0.3572856157
 40
0.4251521834
 40
0.4912515136
 40
0.5554156889
 40
0.6175297232
 40
0.6775401702
 40
0.7354633325
 40
0.7913925184
 40
0.8186722805
 40
0.8455264175
 40
0.8719898471
 40
0.8981025631
 40
0.9239092344
 40
0.9494587513
 40
0.9748037663
 40
1.0
 40
1.0
 40
1.0
 40
1.0
 10
11.0473183383
 20
6.9484784872
 30
0.0
 10
11.0346482992
 20
6.9482238949
 30
0.0
 10
11.0093559379
 20
6.9485511843
 30
0.0
 10
10.9717020818
 20
6.9515455202
 30
0.0
 10
10.9347061326
 20
6.9570095462
 30
0.0
 10
10.898692458
 20
6.9648896024
 30
0.0
 10
10.8639742896
 20
6.9751108339
 30
0.0
 10
10.8308540736
 20
6.9875784764
 30
0.0
 10
10.7996201863
 20
7.0021787942
 30
0.0
 10
10.7705447105
 20
7.0187801216
 30
0.0
 10
10.7438814353
 20
7.0372338741
 30
0.0
 10
10.7198635165
 20
7.0573772162
 30
0.0
 10
10.6987044743
 20
7.079030012
 30
0.0
 10
10.6834818988
 20
7.0983396243
 30
0.0
 10
10.6729657898
 20
7.1143341493
 30
0.0
 10
10.6659641366
 20
7.1264796688
 30
0.0
 10
10.6598000723
 20
7.1388447161
 30
0.0
 10
10.6544870762
 20
7.1514016297
 30
0.0
 10
10.6500372006
 20
7.1641217894
 30
0.0
 10
10.6464606653
 20
7.1769765714
 30
0.0
 10
10.6437656084
 20
7.1899358392
 30
0.0
 10
10.642557835
 20
7.1986462297
 30
0.0
 10
10.642104126
 20
7.2030026378
 30
0.0
  0
SPLINE
  5
2AB
100
AcDbEntity
  8
0
100
AcDbSpline
 62
9
  6
CONTINUOUS
 70
0
 71
3
 72
28
 73
24
 74
0
 42
0.0000001
 43
0.0000001
 44
0.0000000001
 40
0.0
 40
0.0
 40
0.0
 40
0.0
 40
0.072633983
 40
0.1449183997
 40
0.2165149538
 40
0.28709995
 40
0.3563762014
 40
0.4240811591
 40
0.4899962865
 40
0.5539565687
 40
0.6158601406
 40
0.6756779154
 40
0.7334620693
 40
0.7616435359
 40
0.7893768449
 40
0.816693789
 40
0.8436316918
 40
0.8702332043
 40
0.8965459385
 40
0.9226218842
 40
0.9485167597
 40
0.9742892365
 40
1.0
 40
1.0
 40
1.0
 40
1.0
 10
11.0473183383
 20
7.7950719782
 30
0.0
 10
11.034037085
 20
7.7950719782
 30
0.0
 10
11.0075292147
 20
7.7959904454
 30
0.0
 10
10.9681233928
 20
7.8001138558
 30
0.0
 10
10.9294727837
 20
7.806942597
 30
0.0
 10
10.8919491213
 20
7.8164121807
 30
0.0
 10
10.8559103479
 20
7.8284328786
 30
0.0
 10
10.8217009615
 20
7.8428913991
 30
0.0
 10
10.7896477569
 20
7.8596517485
 30
0.0
 10
10.7600574821
 20
7.8785565414
 30
0.0
 10
10.7332135988
 20
7.8994300405
 30
0.0
 10
10.7093768519
 20
7.9220749176
 30
0.0
 10
10.6920641048
 20
7.9424223372
 30
0.0
 10
10.6799937434
 20
7.9593618658
 30
0.0
 10
10.6718992548
 20
7.9722608277
 30
0.0
 10
10.6647093571
 20
7.9854265674
 30
0.0
 10
10.6584414746
 20
7.9988278336
 30
0.0
 10
10.6531112193
 20
8.0124322243
 30
0.0
 10
10.648731715
 20
8.0262068586
 30
0.0
 10
10.6453139506
 20
8.0401182926
 30
0.0
 10
10.6428665766
 20
8.0541329592
 30
0.0
 10
10.6413956433
 20
8.0682157876
 30
0.0
 10
10.6410683383
 20
8.0776328491
 30
0.0
 10
10.6410683383
 20
8.082334108
 30
0.0
  0
SPLINE
  5
2AC
100
AcDbEntity
  8
0
100
AcDbSpline
 62
7
  6
CONTINUOUS
 70
0
 71
3
 72
27
 73
23
 74
0
 42
0.0000001
 43
0.0000001
 44
0.0000000001
 40
0.0
 40
0.0
 40
0.0
 40
0.0
 40
0.0491144028
 40
0.0755306463
 40
0.1031050268
 40
0.1317357159
 40
0.1612983417
 40
0.191661
 40
0.2226944079
 40
0.2542762384
 40
0.28629926
 40
0.3512899805
 40
0.4170685141
 40
0.4831942507
 40
0.5493532514
 40
0.6153203882
 40
0.6809314683
 40
0.7460632591
 40
0.8106158577
 40
0.8745052524
 40
0.9376620375
 40
1.0
 40
1.0
 40
1.0
 40
1.0
 10
11.3727462656
 20
6.649481274
 30
0.0
 10
11.3727462656
 20
6.6469717739
 30
0.0
 10
11.3722594361
 20
6.6431040221
 30
0.0
 10
11.3708807861
 20
6.6380169933
 30
0.0
 10
11.3694377471
 20
6.6340440618
 30
0.0
 10
11.3676403323
 20
6.6300438047
 30
0.0
 10
11.3655203102
 20
6.6260431621
 30
0.0
 10
11.3631104739
 20
6.6220665792
 30
0.0
 10
11.3604425688
 20
6.6181335077
 30
0.0
 10
11.3575465288
 20
6.6142591734
 30
0.0
 10
11.3533972515
 20
6.6091624905
 30
0.0
 10
11.3477852747
 20
6.6030130765
 30
0.0
 10
11.3405459481
 20
6.596019447
 30
0.0
 10
11.3328923174
 20
6.5893916606
 30
0.0
 10
11.3249216921
 20
6.5831346551
 30
0.0
 10
11.3167083897
 20
6.5772457718
 30
0.0
 10
11.3083101428
 20
6.5717194496
 30
0.0
 10
11.2997724103
 20
6.5665498798
 30
0.0
 10
11.2911320311
 20
6.5617323065
 30
0.0
 10
11.282419478
 20
6.5572636653
 30
0.0
 10
11.2736614148
 20
6.5531445314
 30
0.0
 10
11.2677672214
 20
6.5506159467
 30
0.0
 10
11.2648183383
 20
6.5494120702
 30
0.0
  0
SPLINE
  5
2AD
100
AcDbEntity
  8
0
100
AcDbSpline
 62
7
  6
CONTINUOUS
 70
0
 71
3
 72
30
 73
26
 74
0
 42
0.0000001
 43
0.0000001
 44
0.0000000001
 40
0.0
 40
0.0
 40
0.0
 40
0.0
 40
0.0756243188
 40
0.1500595809
 40
0.223173971
 40
0.2948411427
 40
0.3649026352
 40
0.4331741896
 40
0.4994463854
 40
0.5634813012
 40
0.6250238685
 40
0.6547928389
 40
0.6838553262
 40
0.712193332
 40
0.7398051328
 40
0.7667070805
 40
0.7929451811
 40
0.8186059901
 40
0.8438245293
 40
0.8687960927
 40
0.8937758784
 40
0.919068103
 40
0.9449996215
 40
0.971890214
 40
1.0
 40
1.0
 40
1.0
 40
1.0
 10
11.2648183383
 20
6.5494120702
 30
0.0
 10
11.2619114896
 20
6.5482253542
 30
0.0
 10
11.2561019508
 20
6.5459707321
 30
0.0
 10
11.247345753
 20
6.542934262
 30
0.0
 10
11.2386361203
 20
6.5402843914
 30
0.0
 10
11.2299999101
 20
6.5380420708
 30
0.0
 10
11.2214671415
 20
6.5362347843
 30
0.0
 10
11.2130742826
 20
6.5348969173
 30
0.0
 10
11.2048657802
 20
6.5340708166
 30
0.0
 10
11.1968982679
 20
6.5338087765
 30
0.0
 10
11.1904462021
 20
6.5341161787
 30
0.0
 10
11.1854839903
 20
6.5347277346
 30
0.0
 10
11.1819200588
 20
6.5353691894
 30
0.0
 10
11.1784895514
 20
6.5362101277
 30
0.0
 10
11.1752112948
 20
6.5372624481
 30
0.0
 10
11.1721068966
 20
6.5385390228
 30
0.0
 10
11.1692007366
 20
6.5400524407
 30
0.0
 10
11.1665204731
 20
6.5418150906
 30
0.0
 10
11.1640969824
 20
6.5438377919
 30
0.0
 10
11.161964058
 20
6.5461282455
 30
0.0
 10
11.1601575164
 20
6.5486892355
 30
0.0
 10
11.1587126344
 20
6.5515159675
 30
0.0
 10
11.1576603097
 20
6.5545952652
 30
0.0
 10
11.157024521
 20
6.5579048213
 30
0.0
 10
11.1568904109
 20
6.5601914338
 30
0.0
 10
11.1568904109
 20
6.5613584903
 30
0.0
  0
SPLINE
  5
2AE
100
AcDbEntity
  8
0
100
AcDbSpline
 62
9
  6
CONTINUOUS
 70
0
 71
3
 72
20
 73
16
 74
0
 42
0.0000001
 43
0.0000001
 44
0.0000000001
 40
0.0
 40
0.0
 40
0.0
 40
0.0
 40
0.1384068763
 40
0.272230525
 40
0.4016121282
 40
0.4647563678
 40
0.5269278772
 40
0.5881972919
 40
0.6486468699
 40
0.7083698895
 40
0.7674699388
 40
0.8260597337
 40
0.8842596729
 40
0.9421962142
 40
1.0
 40
1.0
 40
1.0
 40
1.0
 10
11.3727462656
 20
6.649481274
 30
0.0
 10
11.3826423025
 20
6.6567240722
 30
0.0
 10
11.4014798108
 20
6.6718571198
 30
0.0
 10
11.4269543373
 20
6.6967827744
 30
0.0
 10
11.4454367091
 20
6.7191026332
 30
0.0
 10
11.4583153036
 20
6.7376468041
 30
0.0
 10
11.4669509798
 20
6.7517556943
 30
0.0
 10
11.474619267
 20
6.766142882
 30
0.0
 10
11.4813024996
 20
6.7807756654
 30
0.0
 10
11.4869846973
 20
6.7956202127
 30
0.0
 10
11.4916524364
 20
6.8106422091
 30
0.0
 10
11.495294615
 20
6.825806732
 30
0.0
 10
11.4979024479
 20
6.841078792
 30
0.0
 10
11.4994696137
 20
6.8564218629
 30
0.0
 10
11.4998183366
 20
6.8666802685
 30
0.0
 10
11.4998183206
 20
6.8718018917
 30
0.0
  0
SPLINE
  5
2AF
100
AcDbEntity
  8
0
100
AcDbSpline
 62
7
  6
CONTINUOUS
 70
0
 71
3
 72
21
 73
17
 74
0
 42
0.0000001
 43
0.0000001
 44
0.0000000001
 40
0.0
 40
0.0
 40
0.0
 40
0.0
 40
0.1434926432
 40
0.2132583314
 40
0.2815936825
 40
0.4137535843
 40
0.4776316694
 40
0.5400521346
 40
0.601074632
 40
0.6607877619
 40
0.719309182
 40
0.7767848399
 40
0.8333871322
 40
0.889311756
 40
0.9447733663
 40
1.0
 40
1.0
 40
1.0
 40
1.0
 10
11.2735683383
 20
6.8224821519
 30
0.0
 10
11.2903661786
 20
6.8293398414
 30
0.0
 10
11.3148340814
 20
6.8408413241
 30
0.0
 10
11.3456545475
 20
6.8587032429
 30
0.0
 10
11.3741703107
 20
6.8775614223
 30
0.0
 10
11.400340672
 20
6.8985376794
 30
0.0
 10
11.4236361754
 20
6.9214884939
 30
0.0
 10
11.4393067541
 20
6.9392777746
 30
0.0
 10
11.4533007363
 20
6.9577580429
 30
0.0
 10
11.4655580642
 20
6.9768519386
 30
0.0
 10
11.4760245077
 20
6.9964780746
 30
0.0
 10
11.4846535666
 20
7.0165527365
 30
0.0
 10
11.4914063818
 20
7.0369894602
 30
0.0
 10
11.4962522097
 20
7.0577004692
 30
0.0
 10
11.4991687212
 20
7.0785932019
 30
0.0
 10
11.4998183375
 20
7.0925976189
 30
0.0
 10
11.4998183182
 20
7.099580679
 30
0.0
  0
SPLINE
  5
2B0
100
AcDbEntity
  8
0
100
AcDbSpline
 62
7
  6
CONTINUOUS
 70
0
 71
3
 72
36
 73
32
 74
0
 42
0.0000001
 43
0.0000001
 44
0.0000000001
 40
0.0
 40
0.0
 40
0.0
 40
0.0
 40
0.0667160965
 40
0.1007471289
 40
0.1351375027
 40
0.1698201122
 40
0.2047247894
 40
0.2748891018
 40
0.3100182422
 40
0.3450722903
 40
0.4146402135
 40
0.4490305576
 40
0.4830616535
 40
0.5166706494
 40
0.5497996594
 40
0.5823966445
 40
0.6144163281
 40
0.6458210786
 40
0.676581883
 40
0.7066792156
 40
0.7361040025
 40
0.7648584177
 40
0.7929566896
 40
0.8204256753
 40
0.8473052514
 40
0.8736483883
 40
0.8995207762
 40
0.9250000261
 40
0.9501742228
 40
0.9751400004
 40
1.0
 40
1.0
 40
1.0
 40
1.0
 10
11.2735683383
 20
6.8224821519
 30
0.0
 10
11.2562182433
 20
6.8153990053
 30
0.0
 10
11.2294215204
 20
6.806098584
 30
0.0
 10
11.1927270447
 20
6.7963442618
 30
0.0
 10
11.1643962968
 20
6.7902740163
 30
0.0
 10
11.1355664902
 20
6.7855260327
 30
0.0
 10
11.0965641934
 20
6.7809776844
 30
0.0
 10
11.0571577074
 20
6.7791591337
 30
0.0
 10
11.0177338959
 20
6.7800708101
 30
0.0
 10
10.9785620301
 20
6.7827959022
 30
0.0
 10
10.9398228628
 20
6.7882209585
 30
0.0
 10
10.9019110527
 20
6.7963438736
 30
0.0
 10
10.8742012586
 20
6.8037100045
 30
0.0
 10
10.8472311221
 20
6.8123407611
 30
0.0
 10
10.8211146811
 20
6.8221997397
 30
0.0
 10
10.7959636464
 20
6.8332450741
 30
0.0
 10
10.7718852789
 20
6.8454299783
 30
0.0
 10
10.7489823847
 20
6.8587028793
 30
0.0
 10
10.727352792
 20
6.8730076517
 30
0.0
 10
10.707088993
 20
6.8882838733
 30
0.0
 10
10.6882777911
 20
6.9044670596
 30
0.0
 10
10.6709999759
 20
6.9214889317
 30
0.0
 10
10.6553300366
 20
6.939277652
 30
0.0
 10
10.6413358863
 20
6.9577580663
 30
0.0
 10
10.6290785999
 20
6.9768519255
 30
0.0
 10
10.618612147
 20
6.9964780728
 30
0.0
 10
10.6099830928
 20
7.0165527337
 30
0.0
 10
10.6032302793
 20
7.0369894592
 30
0.0
 10
10.5983844617
 20
7.0577004695
 30
0.0
 10
10.5954679315
 20
7.0785932024
 30
0.0
 10
10.5948183776
 20
7.0925976196
 30
0.0
 10
10.5948183583
 20
7.099580679
 30
0.0
  0
SPLINE
  5
2B1
100
AcDbEntity
  8
0
100
AcDbSpline
 62
9
  6
CONTINUOUS
 70
0
 71
3
 72
30
 73
26
 74
0
 42
0.0000001
 43
0.0000001
 44
0.0000000001
 40
0.0
 40
0.0
 40
0.0
 40
0.0
 40
0.0656022052
 40
0.099025694
 40
0.1327902406
 40
0.2010986231
 40
0.2700689282
 40
0.3392007617
 40
0.4079878151
 40
0.4759365218
 40
0.5425850435
 40
0.607522658
 40
0.6392507106
 40
0.6704309823
 40
0.7310205009
 40
0.7604197296
 40
0.7892052284
 40
0.8173814849
 40
0.844962531
 40
0.8719723454
 40
0.8984451048
 40
0.9244252195
 40
0.9499670958
 40
0.9751345771
 40
1.0
 40
1.0
 40
1.0
 40
1.0
 10
11.2201279562
 20
6.44947808
 30
0.0
 10
11.2078652672
 20
6.4444718582
 30
0.0
 10
11.1889658717
 20
6.4378279899
 30
0.0
 10
11.1631133313
 20
6.4307018602
 30
0.0
 10
11.1364289122
 20
6.4246338851
 30
0.0
 10
11.1022698968
 20
6.4192405223
 30
0.0
 10
11.0606474774
 20
6.4163209268
 30
0.0
 10
11.0188298316
 20
6.4169691158
 30
0.0
 10
10.9774264322
 20
6.421176044
 30
0.0
 10
10.9370370884
 20
6.4288816517
 30
0.0
 10
10.8982505889
 20
6.4399745489
 30
0.0
 10
10.8674892031
 20
6.452005053
 30
0.0
 10
10.8442189355
 20
6.4631996039
 30
0.0
 10
10.8223316916
 20
6.4751610044
 30
0.0
 10
10.8018147249
 20
6.4885975427
 30
0.0
 10
10.782974711
 20
6.5034529222
 30
0.0
 10
10.7699523534
 20
6.5150655502
 30
0.0
 10
10.7579472782
 20
6.5272163493
 30
0.0
 10
10.747003243
 20
6.539861685
 30
0.0
 10
10.737161055
 20
6.552955495
 30
0.0
 10
10.7284574319
 20
6.5664501916
 30
0.0
 10
10.7209251552
 20
6.5802964155
 30
0.0
 10
10.7145927344
 20
6.5944438253
 30
0.0
 10
10.7094847006
 20
6.6088389444
 30
0.0
 10
10.7068951495
 20
6.6186173641
 30
0.0
 10
10.7058153552
 20
6.6235202461
 30
0.0
  0
SPLINE
  5
2B2
100
AcDbEntity
  8
0
100
AcDbSpline
 62
7
  6
CONTINUOUS
 70
0
 71
3
 72
15
 73
11
 74
0
 42
0.0000001
 43
0.0000001
 44
0.0000000001
 40
0.0
 40
0.0
 40
0.0
 40
0.0
 40
0.1223854297
 40
0.2450326345
 40
0.3681969255
 40
0.4921259995
 40
0.6170566226
 40
0.7432116029
 40
0.8707969613
 40
1.0
 40
1.0
 40
1.0
 40
1.0
 10
10.5873564532
 20
6.5340464431
 30
0.0
 10
10.5873597248
 20
6.5390448253
 30
0.0
 10
10.5876929951
 20
6.5490551218
 30
0.0
 10
10.5891710998
 20
6.5640300513
 30
0.0
 10
10.5916245058
 20
6.5789408262
 30
0.0
 10
10.5950476686
 20
6.5937546205
 30
0.0
 10
10.5994330088
 20
6.6084398942
 30
0.0
 10
10.6047710937
 20
6.6229653124
 30
0.0
 10
10.6110498521
 20
6.6372993386
 30
0.0
 10
10.6158223279
 20
6.6466460261
 30
0.0
 10
10.6183556377
 20
6.6512749792
 30
0.0
  0
SPLINE
  5
2B3
100
AcDbEntity
  8
0
100
AcDbSpline
 62
7
  6
CONTINUOUS
 70
0
 71
3
 72
15
 73
11
 74
0
 42
0.0000001
 43
0.0000001
 44
0.0000000001
 40
0.0
 40
0.0
 40
0.0
 40
0.0
 40
0.1313586306
 40
0.2603225453
 40
0.3871319323
 40
0.5120695396
 40
0.6354570704
 40
0.7576498779
 40
0.8790304489
 40
1.0
 40
1.0
 40
1.0
 40
1.0
 10
11.4601781503
 20
6.7166497402
 30
0.0
 10
11.4641996434
 20
6.7110177453
 30
0.0
 10
11.4717923931
 20
6.6995808315
 30
0.0
 10
11.4818406914
 20
6.6818128114
 30
0.0
 10
11.4904050888
 20
6.6636550827
 30
0.0
 10
11.4974545604
 20
6.6451706886
 30
0.0
 10
11.5029641175
 20
6.6264229543
 30
0.0
 10
11.5069138565
 20
6.6074761621
 30
0.0
 10
11.5092894787
 20
6.5883976787
 30
0.0
 10
11.5098183002
 20
6.5756236518
 30
0.0
 10
11.5098183178
 20
6.5692505931
 30
0.0
  0
SPLINE
  5
2B4
100
AcDbEntity
  8
0
100
AcDbSpline
 62
7
  6
CONTINUOUS
 70
0
 71
3
 72
9
 73
5
 74
0
 42
0.0000001
 43
0.0000001
 44
0.0000000001
 40
0.0
 40
0.0
 40
0.0
 40
0.0
 40
0.5061444093
 40
1.0
 40
1.0
 40
1.0
 40
1.0
 10
11.4485235416
 20
6.6965922641
 30
0.0
 10
11.4542044439
 20
6.6895877937
 30
0.0
 10
11.4648529347
 20
6.6752702289
 30
0.0
 10
11.4741799157
 20
6.6600546107
 30
0.0
 10
11.4784177198
 20
6.6523426267
 30
0.0
  0
SPLINE
  5
2B5
100
AcDbEntity
  8
0
100
AcDbSpline
 62
7
  6
CONTINUOUS
 70
0
 71
3
 72
11
 73
7
 74
0
 42
0.0000001
 43
0.0000001
 44
0.0000000001
 40
0.0
 40
0.0
 40
0.0
 40
0.0
 40
0.2557345031
 40
0.5070935555
 40
0.7548813694
 40
1.0
 40
1.0
 40
1.0
 40
1.0
 10
11.4784177198
 20
6.6523426267
 30
0.0
 10
11.4820565195
 20
6.6457207151
 30
0.0
 10
11.4887402568
 20
6.6322887773
 30
0.0
 10
11.4969454532
 20
6.6115201822
 30
0.0
 10
11.5032003642
 20
6.5904094111
 30
0.0
 10
11.5060628233
 20
6.5761058526
 30
0.0
 10
11.5071542685
 20
6.5689463908
 30
0.0
  0
SPLINE
  5
2B6
100
AcDbEntity
  8
0
100
AcDbSpline
 62
7
  6
CONTINUOUS
 70
0
 71
3
 72
10
 73
6
 74
0
 42
0.0000001
 43
0.0000001
 44
0.0000000001
 40
0.0
 40
0.0
 40
0.0
 40
0.0
 40
0.4887328342
 40
0.7417534297
 40
1.0
 40
1.0
 40
1.0
 40
1.0
 10
11.4675552138
 20
6.0583932218
 30
0.0
 10
11.4477321813
 20
6.0433842038
 30
0.0
 10
11.4159396802
 20
6.0227719739
 30
0.0
 10
11.3707812464
 20
5.9993050713
 30
0.0
 10
11.3469819434
 20
5.9887569758
 30
0.0
 10
11.3348183383
 20
5.9837912048
 30
0.0
  0
SPLINE
  5
2B7
100
AcDbEntity
  8
0
100
AcDbSpline
 62
7
  6
CONTINUOUS
 70
0
 71
3
 72
11
 73
7
 74
0
 42
0.0000001
 43
0.0000001
 44
0.0000000001
 40
0.0
 40
0.0
 40
0.0
 40
0.0
 40
0.2446557474
 40
0.4932515703
 40
0.7452341505
 40
1.0
 40
1.0
 40
1.0
 40
1.0
 10
11.3348183383
 20
5.9837912048
 30
0.0
 10
11.3224300842
 20
5.9787337213
 30
0.0
 10
11.2971410207
 20
5.9692879205
 30
0.0
 10
11.2581796414
 20
5.9572463896
 30
0.0
 10
11.2180691537
 20
5.9472717683
 30
0.0
 10
11.1908320037
 20
5.9420601754
 30
0.0
 10
11.1770814628
 20
5.9398078096
 30
0.0
  0
SPLINE
  5
2B8
100
AcDbEntity
  8
0
100
AcDbSpline
 62
7
  6
CONTINUOUS
 70
0
 71
3
 72
40
 73
36
 74
0
 42
0.0000001
 43
0.0000001
 44
0.0000000001
 40
0.0
 40
0.0
 40
0.0
 40
0.0
 40
0.0695845939
 40
0.1051492931
 40
0.141083395
 40
0.1772777618
 40
0.2136189098
 40
0.2499910069
 40
0.2862777197
 40
0.3223640819
 40
0.3581383938
 40
0.3934940831
 40
0.4283316982
 40
0.4625608372
 40
0.4961022133
 40
0.5288897298
 40
0.5608726001
 40
0.592017524
 40
0.607273734
 40
0.6223170722
 40
0.6517664416
 40
0.680402953
 40
0.6944366919
 40
0.708290095
 40
0.7354918428
 40
0.7621204979
 40
0.7883021857
 40
0.8141812396
 40
0.8399149173
 40
0.8656668586
 40
0.8915999111
 40
0.9178689789
 40
0.9446147593
 40
0.9719587685
 40
1.0
 40
1.0
 40
1.0
 40
1.0
 10
11.2793040315
 20
6.2842365444
 30
0.0
 10
11.2563475296
 20
6.2753356419
 30
0.0
 10
11.2207405516
 20
6.2641234842
 30
0.0
 10
11.1719635295
 20
6.2534181942
 30
0.0
 10
11.1343063263
 20
6.2474342712
 30
0.0
 10
11.0960977296
 20
6.2435960983
 30
0.0
 10
11.0575774321
 20
6.2419269849
 30
0.0
 10
11.0189919666
 20
6.2424377791
 30
0.0
 10
10.9805869805
 20
6.2451251684
 30
0.0
 10
10.9426073078
 20
6.2499721319
 30
0.0
 10
10.9052949635
 20
6.2569479555
 30
0.0
 10
10.868887695
 20
6.2660084655
 30
0.0
 10
10.833617449
 20
6.2770963012
 30
0.0
 10
10.7997088718
 20
6.2901414041
 30
0.0
 10
10.767378059
 20
6.3050613733
 30
0.0
 10
10.7368307186
 20
6.3217624918
 30
0.0
 10
10.7082628322
 20
6.3401387947
 30
0.0
 10
10.6861037312
 20
6.3568689231
 30
0.0
 10
10.6695634576
 20
6.3709876718
 30
0.0
 10
10.6540530513
 20
6.3853612582
 30
0.0
 10
10.6361856387
 20
6.4041243577
 30
0.0
 10
10.620272403
 20
6.4241225569
 30
0.0
 10
10.6089544676
 20
6.4406207799
 30
0.0
 10
10.5987109007
 20
6.4572121688
 30
0.0
 10
10.5876438287
 20
6.4785005327
 30
0.0
 10
10.5772347975
 20
6.5048846376
 30
0.0
 10
10.569846087
 20
6.5317876453
 30
0.0
 10
10.565530812
 20
6.5590322586
 30
0.0
 10
10.5643197848
 20
6.5864387969
 30
0.0
 10
10.5662218418
 20
6.6138250549
 30
0.0
 10
10.5712232529
 20
6.6410092562
 30
0.0
 10
10.579288025
 20
6.6678119342
 30
0.0
 10
10.5903598114
 20
6.694058909
 30
0.0
 10
10.6043602681
 20
6.7195784705
 30
0.0
 10
10.61543878
 20
6.7357862015
 30
0.0
 10
10.6214063541
 20
6.7437130696
 30
0.0
  0
SPLINE
  5
2B9
100
AcDbEntity
  8
0
100
AcDbSpline
 62
7
  6
CONTINUOUS
 70
0
 71
3
 72
33
 73
29
 74
0
 42
0.0000001
 43
0.0000001
 44
0.0000000001
 40
0.0
 40
0.0
 40
0.0
 40
0.0
 40
0.031079536
 40
0.0616761682
 40
0.091823453
 40
0.1215607397
 40
0.1509328459
 40
0.1799896771
 40
0.2087857673
 40
0.2373795552
 40
0.2658325882
 40
0.294208657
 40
0.3225727663
 40
0.3509901157
 40
0.379525068
 40
0.408240088
 40
0.4371948572
 40
0.4664454363
 40
0.4960434755
 40
0.5260357149
 40
0.5564635542
 40
0.5873626778
 40
0.6506647894
 40
0.7161360427
 40
0.7838526301
 40
0.8538049583
 40
0.925905315
 40
1.0
 40
1.0
 40
1.0
 40
1.0
 10
11.473319331
 20
6.7435947541
 30
0.0
 10
11.4769147269
 20
6.7388144095
 30
0.0
 10
11.483789654
 20
6.7291287807
 30
0.0
 10
11.4931795611
 20
6.7141462947
 30
0.0
 10
11.5015427528
 20
6.6988600572
 30
0.0
 10
11.5088592342
 20
6.6833058295
 30
0.0
 10
11.5151118393
 20
6.6675192998
 30
0.0
 10
11.5202856131
 20
6.651536954
 30
0.0
 10
11.5243683063
 20
6.6353958437
 30
0.0
 10
11.5273501812
 20
6.6191334685
 30
0.0
 10
11.5292239822
 20
6.6027876748
 30
0.0
 10
11.5299852044
 20
6.5863965988
 30
0.0
 10
11.5296320936
 20
6.5699985099
 30
0.0
 10
11.5281654505
 20
6.5536316925
 30
0.0
 10
11.5255887464
 20
6.5373343527
 30
0.0
 10
11.5219082853
 20
6.5211444512
 30
0.0
 10
11.5171328812
 20
6.5050996203
 30
0.0
 10
11.5112738494
 20
6.4892371112
 30
0.0
 10
11.504345156
 20
6.4735935671
 30
0.0
 10
11.4963633199
 20
6.4582051645
 30
0.0
 10
11.4873466849
 20
6.4431069266
 30
0.0
 10
11.4738674857
 20
6.4232530542
 30
0.0
 10
11.4544655926
 20
6.3993353181
 30
0.0
 10
11.4276419587
 20
6.3725896675
 30
0.0
 10
11.3973351002
 20
6.3477977993
 30
0.0
 10
11.3638263927
 20
6.3251837949
 30
0.0
 10
11.3274260038
 20
6.3049499467
 30
0.0
 10
11.3017706688
 20
6.2933128574
 30
0.0
 10
11.2885683383
 20
6.2879230285
 30
0.0
  0
SPLINE
  5
2BA
100
AcDbEntity
  8
0
100
AcDbSpline
 62
7
  6
CONTINUOUS
 70
0
 71
3
 72
30
 73
26
 74
0
 42
0.0000001
 43
0.0000001
 44
0.0000000001
 40
0.0
 40
0.0
 40
0.0
 40
0.0
 40
0.0707239871
 40
0.1419059322
 40
0.2130993046
 40
0.2838567556
 40
0.3537449104
 40
0.4223587789
 40
0.4893365838
 40
0.5221235152
 40
0.5543935925
 40
0.6172640244
 40
0.6478501946
 40
0.6778512029
 40
0.7360779625
 40
0.7643518236
 40
0.7920858601
 40
0.8193118648
 40
0.8460700217
 40
0.8724087261
 40
0.8983841095
 40
0.9240593783
 40
0.9495038066
 40
0.9747915143
 40
1.0
 40
1.0
 40
1.0
 40
1.0
 10
11.1770814628
 20
6.187295183
 30
0.0
 10
11.1559873931
 20
6.1838399326
 30
0.0
 10
11.1133598201
 20
6.1786376249
 30
0.0
 10
11.0489456151
 20
6.1759546444
 30
0.0
 10
10.9845066304
 20
6.1783808677
 30
0.0
 10
10.9208541993
 20
6.1858871064
 30
0.0
 10
10.8587814835
 20
6.1983806956
 30
0.0
 10
10.7990677651
 20
6.2157061194
 30
0.0
 10
10.7515484793
 20
6.2341267295
 30
0.0
 10
10.715423841
 20
6.2511134863
 30
0.0
 10
10.6812489347
 20
6.2692190516
 30
0.0
 10
10.6489948058
 20
6.2894563412
 30
0.0
 10
10.6190610414
 20
6.3117600554
 30
0.0
 10
10.5914771909
 20
6.3347726244
 30
0.0
 10
10.5663784099
 20
6.359609431
 30
0.0
 10
10.5442050095
 20
6.3860981966
 30
0.0
 10
10.5293204568
 20
6.4064015931
 30
0.0
 10
10.5160713271
 20
6.4272674818
 30
0.0
 10
10.5044994426
 20
6.4486312265
 30
0.0
 10
10.4946426099
 20
6.4704252727
 30
0.0
 10
10.4865329939
 20
6.4925807905
 30
0.0
 10
10.4801973385
 20
6.5150272536
 30
0.0
 10
10.4756566581
 20
6.5376935816
 30
0.0
 10
10.4729261517
 20
6.5605052925
 30
0.0
 10
10.4723183271
 20
6.5757738703
 30
0.0
 10
10.4723183494
 20
6.5833927287
 30
0.0
  0
SPLINE
  5
2BB
100
AcDbEntity
  8
0
100
AcDbSpline
 62
7
  6
CONTINUOUS
 70
0
 71
3
 72
29
 73
25
 74
0
 42
0.0000001
 43
0.0000001
 44
0.0000000001
 40
0.0
 40
0.0
 40
0.0
 40
0.0
 40
0.0260116349
 40
0.0521330884
 40
0.0784154
 40
0.1049071585
 40
0.1316539206
 40
0.1586976731
 40
0.1860763245
 40
0.2138233781
 40
0.2419677022
 40
0.2705333269
 40
0.2995394749
 40
0.329000564
 40
0.3893037492
 40
0.4514839803
 40
0.5154947364
 40
0.5812280862
 40
0.6485226033
 40
0.7171709929
 40
0.7869283874
 40
0.8575198583
 40
0.9286472668
 40
1.0
 40
1.0
 40
1.0
 40
1.0
 10
11.4530451595
 20
7.1309708764
 30
0.0
 10
11.4527184226
 20
7.1262926285
 30
0.0
 10
11.4517570732
 20
7.1169349557
 30
0.0
 10
11.4494032899
 20
7.1029853036
 30
0.0
 10
11.4461407671
 20
7.0891304099
 30
0.0
 10
11.4419773081
 20
7.0754016711
 30
0.0
 10
11.4369226021
 20
7.0618291338
 30
0.0
 10
11.4309882427
 20
7.0484427547
 30
0.0
 10
11.4241880234
 20
7.0352718375
 30
0.0
 10
11.4165376021
 20
7.0223451833
 30
0.0
 10
11.408054372
 20
7.0096910592
 30
0.0
 10
11.3987578736
 20
6.9973370364
 30
0.0
 10
11.38866899
 20
6.9853096732
 30
0.0
 10
11.374080322
 20
6.9696243993
 30
0.0
 10
11.3539399476
 20
6.9509868263
 30
0.0
 10
11.3272130298
 20
6.9305138541
 30
0.0
 10
11.2979772151
 20
6.9119269331
 30
0.0
 10
11.2664969024
 20
6.8953843013
 30
0.0
 10
11.2330538729
 20
6.881024318
 30
0.0
 10
11.1979478058
 20
6.868966926
 30
0.0
 10
11.1614931661
 20
6.8593118963
 30
0.0
 10
11.1240158944
 20
6.852138079
 30
0.0
 10
11.085853766
 20
6.8475020481
 30
0.0
 10
11.060179967
 20
6.8461262142
 30
0.0
 10
11.0473183383
 20
6.8458689443
 30
0.0
  0
SPLINE
  5
2BC
100
AcDbEntity
  8
0
100
AcDbSpline
 62
7
  6
CONTINUOUS
 70
0
 71
3
 72
29
 73
25
 74
0
 42
0.0000001
 43
0.0000001
 44
0.0000000001
 40
0.0
 40
0.0
 40
0.0
 40
0.0
 40
0.0259983921
 40
0.0521169026
 40
0.0784053731
 40
0.1049111186
 40
0.1316783486
 40
0.1587477003
 40
0.186155759
 40
0.2139347077
 40
0.2421121891
 40
0.2707111123
 40
0.2997496441
 40
0.3292412718
 40
0.3895972776
 40
0.4518147616
 40
0.51584403
 40
0.5815757444
 40
0.6488485756
 40
0.7174566571
 40
0.7871576364
 40
0.8576799585
 40
0.9287294701
 40
1.0
 40
1.0
 40
1.0
 40
1.0
 10
11.4528049575
 20
7.2304617605
 30
0.0
 10
11.4524129836
 20
7.2258181638
 30
0.0
 10
11.4513252372
 20
7.2165322419
 30
0.0
 10
11.4487961865
 20
7.2026985799
 30
0.0
 10
11.4453724301
 20
7.1889646031
 30
0.0
 10
11.4410619197
 20
7.1753610173
 30
0.0
 10
11.4358746262
 20
7.1619171416
 30
0.0
 10
11.4298222832
 20
7.1486622096
 30
0.0
 10
11.4229186605
 20
7.1356248627
 30
0.0
 10
11.4151794954
 20
7.1228331682
 30
0.0
 10
11.4066221303
 20
7.1103146938
 30
0.0
 10
11.3972659238
 20
7.0980963738
 30
0.0
 10
11.3871316557
 20
7.0862040621
 30
0.0
 10
11.372501685
 20
7.0706992778
 30
0.0
 10
11.3523459063
 20
7.0522827784
 30
0.0
 10
11.3256513351
 20
7.0320584602
 30
0.0
 10
11.2964962341
 20
7.0137026114
 30
0.0
 10
11.265140581
 20
6.9973693655
 30
0.0
 10
11.2318611811
 20
6.9831934144
 30
0.0
 10
11.196952143
 20
6.9712915023
 30
0.0
 10
11.1607218664
 20
6.9617607247
 30
0.0
 10
11.1234898471
 20
6.9546777704
 30
0.0
 10
11.0855870365
 20
6.9500976476
 30
0.0
 10
11.060090726
 20
6.948735136
 30
0.0
 10
11.0473183383
 20
6.9484784872
 30
0.0
  0
SPLINE
  5
2BD
100
AcDbEntity
  8
0
100
AcDbSpline
 62
7
  6
CONTINUOUS
 70
0
 71
3
 72
15
 73
11
 74
0
 42
0.0000001
 43
0.0000001
 44
0.0000000001
 40
0.0
 40
0.0
 40
0.0
 40
0.0
 40
0.1194661242
 40
0.2397611445
 40
0.361304729
 40
0.4844869061
 40
0.6096614847
 40
0.7371363925
 40
0.8671804243
 40
1.0
 40
1.0
 40
1.0
 40
1.0
 10
10.6415982481
 20
7.1061409986
 30
0.0
 10
10.6420068187
 20
7.1006511993
 30
0.0
 10
10.6433006034
 20
7.0896630751
 30
0.0
 10
10.6466460603
 20
7.0733347021
 30
0.0
 10
10.6513885108
 20
7.0571768546
 30
0.0
 10
10.6575103067
 20
7.0412496038
 30
0.0
 10
10.6649890813
 20
7.0256100718
 30
0.0
 10
10.6737978313
 20
7.0103139908
 30
0.0
 10
10.6839044278
 20
6.9954171069
 30
0.0
 10
10.6914026528
 20
6.9858897762
 30
0.0
 10
10.6953467171
 20
6.9812097639
 30
0.0
  0
ELLIPSE
  5
2BE
100
AcDbEntity
  8
0
100
AcDbEllipse
 62
7
  6
CONTINUOUS
 10
11.0473183383
 20
6.7036008815
 30
0.0
 11
0.4522967215
 21
0.1611958191
 31
0.0
 40
0.084133201
 41
-1.3561925479
 42
-0.7981537211
  0
ENDSEC
  0
SECTION
  2
OBJECTS
  0
DICTIONARY
  5
C
100
AcDbDictionary
280
0
281
1
  3
ACAD_GROUP
350
D
  3
ACAD_MLINESTYLE
350
17
  3
ACAD_LAYOUT
350
1A
  3
ACAD_PLOTSETTINGS
350
19
  3
ACAD_PLOTSTYLENAME
350
E
  0
DICTIONARY
  5
D
102
{ACAD_REACTORS
330
C
102
}
100
AcDbDictionary
280
0
281
1
  0
ACDBDICTIONARYWDFLT
  5
E
102
{ACAD_REACTORS
330
C
102
}
100
AcDbDictionary
281
1
  3
Normal
350
F
100
AcDbDictionaryWithDefault
340
F
  0
DICTIONARY
  5
17
102
{ACAD_REACTORS
330
C
102
}
100
AcDbDictionary
280
0
281
1
  3
Standard
350
18
  0
DICTIONARY
  5
19
102
{ACAD_REACTORS
330
C
102
}
100
AcDbDictionary
281
1
  0
DICTIONARY
  5
1A
102
{ACAD_REACTORS
330
C
102
}
100
AcDbDictionary
281
1
  3
Model
350
2BF
  3
Layout1
350
2C0
  0
ACDBPLACEHOLDER
  5
F
102
{ACAD_REACTORS
330
E
102
}
  0
MLINESTYLE
  5
18
102
{ACAD_REACTORS
330
17
102
}
100
AcDbMlineStyle
  2
STANDARD
 70
0
  3

 62
256
 51
90.0
 52
90.0
 71
2
 49
0.5
 62
256
  6
BYLAYER
 49
-0.5
 62
256
  6
BYLAYER
  0
LAYOUT
  5
2BF
102
{ACAD_REACTORS
330
1A
102
}
100
AcDbPlotSettings
  1

  2
none_device
  4
ANSI_C_(22.00_x_17.00_Inches)
  6

 40
0.0
 41
0.0
 42
0.0
 43
0.0
 44
558.8
 45
431.8
 46
0.0
 47
0.0
 48
0.0
 49
0.0
140
0.0
141
0.0
142
1.0
143
1.0
 70
1024
 72
0
 73
0
 74
0
  7

 75
0
147
1.0
148
0.0
149
0.0
100
AcDbLayout
  1
Model
 70
0
 71
0
 10
0.0
 20
0.0
 11
22.0
 21
17.0
 12
0.0
 22
0.0
 32
0.0
 14
0.0
 24
0.0
 34
0.0
 15
0.0
 25
0.0
 35
0.0
146
0.0
 13
0.0
 23
0.0
 33
0.0
 16
1.0
 26
0.0
 36
0.0
 17
0.0
 27
1.0
 37
0.0
 76
0
330
205
345
0
346
0
  0
LAYOUT
  5
2C0
102
{ACAD_REACTORS
330
1A
102
}
100
AcDbPlotSettings
  1

  2
none_device
  4
ANSI_C_(22.00_x_17.00_Inches)
  6

 40
0.0
 41
0.0
 42
0.0
 43
0.0
 44
558.8
 45
431.8
 46
0.0
 47
0.0
 48
0.0
 49
0.0
140
0.0
141
0.0
142
1.0
143
1.0
 70
0
 72
0
 73
0
 74
0
  7

 75
0
147
1.0
148
0.0
149
0.0
100
AcDbLayout
  1
Layout1
 70
0
 71
1
 10
0.0
 20
0.0
 11
22.0
 21
17.0
 12
0.0
 22
0.0
 32
0.0
 14
0.0
 24
0.0
 34
0.0
 15
0.0
 25
0.0
 35
0.0
146
0.0
 13
0.0
 23
0.0
 33
0.0
 16
1.0
 26
0.0
 36
0.0
 17
0.0
 27
1.0
 37
0.0
 76
0
330
206
345
0
346
0
  0
ENDSEC
  0
EOF
