999
DXF file: 3-994tr_RIGHT.dxf
999
Pro/ENGINEER 2018400 by Parametric Technology Corporation
  0
SECTION
  2
HEADER
  9
$ACADVER
  1
AC1027
  9
$DWGCODEPAGE
  3
ANSI_1252
  9
$EXTMAX
 10
11.0
 20
8.5
 30
0.0
  9
$EXTMIN
 10
0.0
 20
0.0
 30
0.0
  9
$LIMMIN
 10
0.0
 20
0.0
  9
$LIMMAX
 10
11.0
 20
8.5
  9
$VIEWCTR
 10
5.5
 20
4.25
  9
$VIEWSIZE
 40
8.5
  9
$CLAYER
  8
0
  9
$LTSCALE
 40
0.605
  9
$CELTYPE
  6
BYLAYER
  9
$DIMSCALE
 40
1.0
  9
$DIMASZ
 40
0.1
  9
$DIMEXO
 40
0.0625
  9
$DIMDLI
 40
0.418
  9
$DIMEXE
 40
0.125
  9
$DIMCEN
 40
0.099
  9
$DIMLFAC
 40
1.0
  9
$DIMBLK
  1
_FILLED
  9
$DIMALT
 70
1
  9
$DIMALTD
 70
2
  9
$DIMALTTD
 70
2
  9
$DIMALTF
 40
25.4
  9
$DIMTXT
 40
0.08
  9
$DIMTOL
 70
1
  9
$DIMLIM
 70
0
  9
$DIMTFAC
 40
1.0
  9
$DIMTP
 40
0.001
  9
$DIMTM
 40
0.001
  9
$DIMGAP
 40
0.09
  9
$DIMDSEP
 70
46
  9
$AUNITS
 70
0
  9
$PDMODE
 70
3
  9
$PDSIZE
 40
0.3125
  9
$HANDSEED
  5
40A
  9
$TILEMODE
 70
1
  9
$MEASUREMENT
 70
0
  9
$INSUNITS
 70
1
  0
ENDSEC
  0
SECTION
  2
CLASSES
  0
CLASS
  1
ACDBDICTIONARYWDFLT
  2
AcDbDictionaryWithDefault
  3
AutoCAD 2000
 90
0
 91
1
280
0
281
0
  0
CLASS
  1
ACDBPLACEHOLDER
  2
AcDbPlaceHolder
  3
AutoCAD 2000
 90
0
 91
1
280
0
281
0
  0
CLASS
  1
LAYOUT
  2
AcDbLayout
  3
AutoCAD 2000
 90
0
 91
0
280
0
281
0
  0
ENDSEC
  0
SECTION
  2
TABLES
  0
TABLE
  2
VPORT
  5
8
100
AcDbSymbolTable
 70
2
  0
VPORT
  5
1F4
100
AcDbSymbolTableRecord
100
AcDbViewportTableRecord
  2
*ACTIVE
 70
0
 10
0.0
 20
0.0
 11
1.0
 21
1.0
 12
5.5
 22
4.25
 13
0.0
 23
0.0
 14
1.0
 24
1.0
 15
0.0
 25
0.0
 16
0.0
 26
0.0
 36
1.0
 17
0.0
 27
0.0
 37
0.0
 40
8.5
 41
1.2941176471
 42
50.0
 43
0.0
 44
0.0
 50
0.0
 51
0.0
 71
0
 72
100
 73
1
 74
1
 75
0
 76
0
 77
0
 78
0
  0
ENDTAB
  0
TABLE
  2
LTYPE
  5
5
100
AcDbSymbolTable
 70
6
  0
LTYPE
  5
14
100
AcDbSymbolTableRecord
100
AcDbLinetypeTableRecord
  2
BYBLOCK
 70
0
  3

 72
65
 73
0
 40
0.0
  0
LTYPE
  5
15
100
AcDbSymbolTableRecord
100
AcDbLinetypeTableRecord
  2
BYLAYER
 70
0
  3

 72
65
 73
0
 40
0.0
  0
LTYPE
  5
16
100
AcDbSymbolTableRecord
100
AcDbLinetypeTableRecord
  2
CONTINUOUS
 70
64
  3
Solid line
 72
65
 73
0
 40
0.0
  0
LTYPE
  5
1F5
100
AcDbSymbolTableRecord
100
AcDbLinetypeTableRecord
  2
CENTER
 70
64
  3
____ _ ____ _ ____ _ ____ _ ____ _ ____ _ ____
 72
65
 73
4
 40
0.6
 49
0.375
 74
0
 49
-0.075
 74
0
 49
0.075
 74
0
 49
-0.075
 74
0
  0
LTYPE
  5
1F6
100
AcDbSymbolTableRecord
100
AcDbLinetypeTableRecord
  2
HIDDEN
 70
64
  3
- - - - - - - - - - - - - - - - - - - -
 72
65
 73
2
 40
0.2
 49
0.1
 74
0
 49
-0.1
 74
0
  0
LTYPE
  5
1F7
100
AcDbSymbolTableRecord
100
AcDbLinetypeTableRecord
  2
PHANTOM
 70
64
  3
_____ _ _ _____ _ _ _____ _ _ _____
 72
65
 73
6
 40
0.8
 49
0.45
 74
0
 49
-0.05
 74
0
 49
0.1
 74
0
 49
-0.05
 74
0
 49
0.1
 74
0
 49
-0.05
 74
0
  0
LTYPE
  5
1F8
100
AcDbSymbolTableRecord
100
AcDbLinetypeTableRecord
  2
DOT
 70
64
  3
. . . . . . . . . . . . . . . . . . . .
 72
65
 73
2
 40
0.2
 49
0.1
 74
0
 49
-0.1
 74
0
  0
LTYPE
  5
1F9
100
AcDbSymbolTableRecord
100
AcDbLinetypeTableRecord
  2
DASHED
 70
64
  3
- - - - - - - - - - - - - - - - - - - -
 72
65
 73
2
 40
0.2
 49
0.1
 74
0
 49
-0.1
 74
0
  0
ENDTAB
  0
TABLE
  2
LAYER
  5
2
100
AcDbSymbolTable
 70
36
  0
LAYER
  5
10
100
AcDbSymbolTableRecord
100
AcDbLayerTableRecord
  2
0
 70
0
 62
7
  6
CONTINUOUS
370
-3
390
F
  0
LAYER
  5
1FA
100
AcDbSymbolTableRecord
100
AcDbLayerTableRecord
  2
DEFAULT_1
 70
0
 62
7
  6
CENTER
370
-3
390
F
  0
LAYER
  5
1FB
100
AcDbSymbolTableRecord
100
AcDbLayerTableRecord
  2
DEFAULT_2
 70
0
 62
8
  6
HIDDEN
370
-3
390
F
  0
LAYER
  5
1FC
100
AcDbSymbolTableRecord
100
AcDbLayerTableRecord
  2
DEFAULT_3
 70
0
 62
7
  6
PHANTOM
370
-3
390
F
  0
LAYER
  5
1FD
100
AcDbSymbolTableRecord
100
AcDbLayerTableRecord
  2
2-110_ASSY_DATUMS
 70
0
 62
7
  6
CONTINUOUS
370
-3
390
F
  0
LAYER
  5
1FE
100
AcDbSymbolTableRecord
100
AcDbLayerTableRecord
  2
2-266_ASSY_PLANES
 70
0
 62
7
  6
CONTINUOUS
370
-3
390
F
  0
LAYER
  5
1FF
100
AcDbSymbolTableRecord
100
AcDbLayerTableRecord
  2
ALL_ASSEMBLY_MEMBERS
 70
0
 62
7
  6
CONTINUOUS
370
-3
390
F
  0
LAYER
  5
200
100
AcDbSymbolTableRecord
100
AcDbLayerTableRecord
  2
ALL_FEATURES
 70
0
 62
7
  6
CONTINUOUS
370
-3
390
F
  0
LAYER
  5
201
100
AcDbSymbolTableRecord
100
AcDbLayerTableRecord
  2
AXES_FEATURES
 70
0
 62
7
  6
CONTINUOUS
370
-3
390
F
  0
LAYER
  5
202
100
AcDbSymbolTableRecord
100
AcDbLayerTableRecord
  2
CHAMFER_FEATURES
 70
0
 62
7
  6
CONTINUOUS
370
-3
390
F
  0
LAYER
  5
203
100
AcDbSymbolTableRecord
100
AcDbLayerTableRecord
  2
COORDINATE_SYSTEMS
 70
0
 62
7
  6
CONTINUOUS
370
-3
390
F
  0
LAYER
  5
204
100
AcDbSymbolTableRecord
100
AcDbLayerTableRecord
  2
CUT_FEATURES
 70
0
 62
7
  6
CONTINUOUS
370
-3
390
F
  0
LAYER
  5
205
100
AcDbSymbolTableRecord
100
AcDbLayerTableRecord
  2
DATUM_CURVES
 70
0
 62
7
  6
CONTINUOUS
370
-3
390
F
  0
LAYER
  5
206
100
AcDbSymbolTableRecord
100
AcDbLayerTableRecord
  2
DATUM_PLANES
 70
0
 62
7
  6
CONTINUOUS
370
-3
390
F
  0
LAYER
  5
207
100
AcDbSymbolTableRecord
100
AcDbLayerTableRecord
  2
DEFAULT_COORDINATE_SYSTEM
 70
0
 62
7
  6
CONTINUOUS
370
-3
390
F
  0
LAYER
  5
208
100
AcDbSymbolTableRecord
100
AcDbLayerTableRecord
  2
DEFAULT_DATUM_AXES
 70
0
 62
7
  6
CONTINUOUS
370
-3
390
F
  0
LAYER
  5
209
100
AcDbSymbolTableRecord
100
AcDbLayerTableRecord
  2
DEFAULT_DATUM_CURVES
 70
0
 62
7
  6
CONTINUOUS
370
-3
390
F
  0
LAYER
  5
20A
100
AcDbSymbolTableRecord
100
AcDbLayerTableRecord
  2
DEFAULT_DATUM_PLANES
 70
0
 62
7
  6
CONTINUOUS
370
-3
390
F
  0
LAYER
  5
20B
100
AcDbSymbolTableRecord
100
AcDbLayerTableRecord
  2
DEFAULT_SURFACES
 70
0
 62
7
  6
CONTINUOUS
370
-3
390
F
  0
LAYER
  5
20C
100
AcDbSymbolTableRecord
100
AcDbLayerTableRecord
  2
DIMENSIONS
 70
0
 62
7
  6
CONTINUOUS
370
-3
390
F
  0
LAYER
  5
20D
100
AcDbSymbolTableRecord
100
AcDbLayerTableRecord
  2
HOLE_FEATURES
 70
0
 62
7
  6
CONTINUOUS
370
-3
390
F
  0
LAYER
  5
20E
100
AcDbSymbolTableRecord
100
AcDbLayerTableRecord
  2
NOTES
 70
0
 62
7
  6
CONTINUOUS
370
-3
390
F
  0
LAYER
  5
20F
100
AcDbSymbolTableRecord
100
AcDbLayerTableRecord
  2
PART_REFERENCE_DIMENSIONS
 70
0
 62
7
  6
CONTINUOUS
370
-3
390
F
  0
LAYER
  5
210
100
AcDbSymbolTableRecord
100
AcDbLayerTableRecord
  2
PLATED_SURFACE
 70
0
 62
7
  6
CONTINUOUS
370
-3
390
F
  0
LAYER
  5
211
100
AcDbSymbolTableRecord
100
AcDbLayerTableRecord
  2
PLATED_SURFACE_AREA
 70
0
 62
7
  6
CONTINUOUS
370
-3
390
F
  0
LAYER
  5
212
100
AcDbSymbolTableRecord
100
AcDbLayerTableRecord
  2
PROTRUSION
 70
0
 62
7
  6
CONTINUOUS
370
-3
390
F
  0
LAYER
  5
213
100
AcDbSymbolTableRecord
100
AcDbLayerTableRecord
  2
PROTRUSION_FEATURES
 70
0
 62
7
  6
CONTINUOUS
370
-3
390
F
  0
LAYER
  5
214
100
AcDbSymbolTableRecord
100
AcDbLayerTableRecord
  2
QUILT
 70
0
 62
7
  6
CONTINUOUS
370
-3
390
F
  0
LAYER
  5
215
100
AcDbSymbolTableRecord
100
AcDbLayerTableRecord
  2
QUILTS
 70
0
 62
7
  6
CONTINUOUS
370
-3
390
F
  0
LAYER
  5
216
100
AcDbSymbolTableRecord
100
AcDbLayerTableRecord
  2
REFERENCE_DIMENSIONS
 70
0
 62
7
  6
CONTINUOUS
370
-3
390
F
  0
LAYER
  5
217
100
AcDbSymbolTableRecord
100
AcDbLayerTableRecord
  2
ROUND_FEATURES
 70
0
 62
7
  6
CONTINUOUS
370
-3
390
F
  0
LAYER
  5
218
100
AcDbSymbolTableRecord
100
AcDbLayerTableRecord
  2
SHELL_FEATURES
 70
0
 62
7
  6
CONTINUOUS
370
-3
390
F
  0
LAYER
  5
219
100
AcDbSymbolTableRecord
100
AcDbLayerTableRecord
  2
SURFACE_FEATURES
 70
0
 62
7
  6
CONTINUOUS
370
-3
390
F
  0
LAYER
  5
21A
100
AcDbSymbolTableRecord
100
AcDbLayerTableRecord
  2
XSEC_DATUMS
 70
0
 62
7
  6
CONTINUOUS
370
-3
390
F
  0
ENDTAB
  0
TABLE
  2
STYLE
  5
3
100
AcDbSymbolTable
 70
1
  0
STYLE
  5
11
100
AcDbSymbolTableRecord
100
AcDbTextStyleTableRecord
  2
STANDARD
 70
0
 40
0.0
 41
0.8
 50
0.0
 71
0
 42
0.2
  3
txt
  4

  0
STYLE
  5
21B
100
AcDbSymbolTableRecord
100
AcDbTextStyleTableRecord
  2
TEXTSTYLE_1
 70
0
 40
0.0
 41
0.8
 50
0.0
 71
0
 42
0.2
  3
gdt
  4

  0
ENDTAB
  0
TABLE
  2
VIEW
  5
6
100
AcDbSymbolTable
 70
0
  0
ENDTAB
  0
TABLE
  2
UCS
  5
7
100
AcDbSymbolTable
 70
0
  0
ENDTAB
  0
TABLE
  2
APPID
  5
9
100
AcDbSymbolTable
 70
1
  0
APPID
  5
21C
100
AcDbSymbolTableRecord
100
AcDbRegAppTableRecord
  2
ACAD
 70
0
  0
ENDTAB
  0
TABLE
  2
BLOCK_RECORD
  5
1
100
AcDbSymbolTable
 70
0
  0
BLOCK_RECORD
  5
21D
100
AcDbSymbolTableRecord
100
AcDbBlockTableRecord
  2
*Model_Space
  0
BLOCK_RECORD
  5
21E
100
AcDbSymbolTableRecord
100
AcDbBlockTableRecord
  2
*Paper_Space
  0
BLOCK_RECORD
  5
21F
100
AcDbSymbolTableRecord
100
AcDbBlockTableRecord
  2
_FILLED
  0
ENDTAB
  0
TABLE
  2
DIMSTYLE
  5
A
100
AcDbSymbolTable
 70
1
100
AcDbDimStyleTable
 71
0
  0
DIMSTYLE
105
220
100
AcDbSymbolTableRecord
100
AcDbDimStyleTableRecord
  2
STANDARD
 70
0
  3

  4

 40
1.0
 41
0.1
 42
0.0625
 43
0.38
 44
0.125
 45
0.0
 46
0.0
 47
0.001
 48
0.001
140
0.08
141
0.09
142
0.0
143
25.4
144
1.0
145
0.0
146
1.0
147
0.09
 71
1.0
 72
0.0
 73
1
 74
1
 75
0
 76
0
 77
0
 78
4
 79
1
170
1
171
2
172
0
173
0
174
0
175
0
176
0
177
0
178
0
270
2
179
3
271
3
272
3
273
2
274
2
275
0
280
0
281
0
282
0
283
1
284
4
285
0
286
0
287
3
288
0
340
11
278
46
341
21F
342
21F
343
21F
344
21F
  0
ENDTAB
  0
ENDSEC
  0
SECTION
  2
BLOCKS
  0
BLOCK
  5
20
100
AcDbEntity
  8
0
100
AcDbBlockBegin
  2
*Model_Space
 70
0
 10
0.0
 20
0.0
 30
0.0
  3
*Model_Space
  1

  0
ENDBLK
  5
21
100
AcDbEntity
  8
0
100
AcDbBlockEnd
  0
BLOCK
  5
1C
100
AcDbEntity
  8
0
100
AcDbBlockBegin
  2
*Paper_Space
 70
0
 10
0.0
 20
0.0
 30
0.0
  3
*Paper_Space
  1

  0
ENDBLK
  5
1D
100
AcDbEntity
  8
0
100
AcDbBlockEnd
  0
BLOCK
  5
221
100
AcDbEntity
  8
0
100
AcDbBlockBegin
  2
_FILLED
 70
64
 10
0.0
 20
0.0
  3
_FILLED
  1

  0
SOLID
  5
222
100
AcDbEntity
  8
0
  6
BYBLOCK
 62
0
100
AcDbTrace
 10
0.0
 20
0.0
 11
-1.0
 21
0.2
 12
-1.0
 22
-0.2
 13
-1.0
 23
-0.2
  0
ENDBLK
  5
223
100
AcDbEntity
  8
0
  6
BYBLOCK
 62
0
100
AcDbBlockEnd
  0
ENDSEC
  0
SECTION
  2
ENTITIES
  0
MTEXT
  5
224
100
AcDbEntity
  8
0
100
AcDbMText
 62
2
  6
CONTINUOUS
  7
STANDARD
 71
3
 72
1
 10
3.2909948342
 20
2.039996118
 30
0.0
 11
1.0
 21
0.0
 31
0.0
 73
2
 44
0.9
  1
SCALE  .500
 40
0.08
 41
0.704
  0
LINE
  5
225
100
AcDbEntity
  8
0
100
AcDbLine
 62
7
  6
CONTINUOUS
 10
0.0
 20
0.0
 11
0.0
 21
8.5
  0
LINE
  5
226
100
AcDbEntity
  8
0
100
AcDbLine
 62
7
  6
CONTINUOUS
 10
0.0
 20
0.0
 11
11.0
 21
0.0
  0
LINE
  5
227
100
AcDbEntity
  8
0
100
AcDbLine
 62
7
  6
CONTINUOUS
 10
0.0
 20
8.5
 11
11.0
 21
8.5
  0
LINE
  5
228
100
AcDbEntity
  8
0
100
AcDbLine
 62
7
  6
CONTINUOUS
 10
11.0
 20
0.0
 11
11.0
 21
8.5
  0
LINE
  5
229
100
AcDbEntity
  8
ALL_ASSEMBLY_MEMBERS
100
AcDbLine
 62
7
  6
CONTINUOUS
 10
6.3590043894
 20
3.0458268634
 11
6.2892727592
 21
3.0458268634
  0
LINE
  5
22A
100
AcDbEntity
  8
ALL_ASSEMBLY_MEMBERS
100
AcDbLine
 62
7
  6
CONTINUOUS
 10
4.1217789957
 20
4.8583268634
 11
4.1217789957
 21
4.4833268634
  0
LINE
  5
22B
100
AcDbEntity
  8
ALL_ASSEMBLY_MEMBERS
100
AcDbLine
 62
7
  6
CONTINUOUS
 10
4.1605289957
 20
4.4871778744
 11
4.1605289957
 21
3.9833268634
  0
LINE
  5
22C
100
AcDbEntity
  8
ALL_ASSEMBLY_MEMBERS
100
AcDbLine
 62
7
  6
CONTINUOUS
 10
4.1605289957
 20
4.8544758515
 11
4.1605289957
 21
5.3583268634
  0
LINE
  5
22D
100
AcDbEntity
  8
ALL_ASSEMBLY_MEMBERS
100
AcDbLine
 62
7
  6
CONTINUOUS
 10
4.3830289957
 20
4.4871778381
 11
4.3830289957
 21
3.9833268634
  0
LINE
  5
22E
100
AcDbEntity
  8
ALL_ASSEMBLY_MEMBERS
100
AcDbLine
 62
7
  6
CONTINUOUS
 10
4.3830289957
 20
4.8544758885
 11
4.3830289957
 21
5.3583268634
  0
LINE
  5
22F
100
AcDbEntity
  8
ALL_ASSEMBLY_MEMBERS
100
AcDbLine
 62
7
  6
CONTINUOUS
 10
4.4217789957
 20
4.8583268634
 11
4.4217789957
 21
4.4833268634
  0
LINE
  5
230
100
AcDbEntity
  8
ALL_ASSEMBLY_MEMBERS
100
AcDbLine
 62
7
  6
CONTINUOUS
 10
4.1605289957
 20
3.9833268634
 11
4.3830289957
 21
3.9833268634
  0
LINE
  5
231
100
AcDbEntity
  8
ALL_ASSEMBLY_MEMBERS
100
AcDbLine
 62
7
  6
CONTINUOUS
 10
4.7017789957
 20
4.9989518634
 11
4.7017789957
 21
4.3427018634
  0
LINE
  5
232
100
AcDbEntity
  8
ALL_ASSEMBLY_MEMBERS
100
AcDbLine
 62
7
  6
CONTINUOUS
 10
4.8102319903
 20
4.6908268634
 11
4.7986849849
 21
4.6708268634
  0
LINE
  5
233
100
AcDbEntity
  8
ALL_ASSEMBLY_MEMBERS
100
AcDbLine
 62
7
  6
CONTINUOUS
 10
4.8333260011
 20
4.6508268634
 11
4.8448730065
 21
4.6708268634
  0
LINE
  5
234
100
AcDbEntity
  8
ALL_ASSEMBLY_MEMBERS
100
AcDbLine
 62
7
  6
CONTINUOUS
 10
5.8216293894
 20
4.1783268634
 11
6.1230043894
 21
4.1783268634
  0
LINE
  5
235
100
AcDbEntity
  8
ALL_ASSEMBLY_MEMBERS
100
AcDbLine
 62
7
  6
CONTINUOUS
 10
5.6247789957
 20
4.1858268634
 11
5.0932789957
 21
4.1858268634
  0
LINE
  5
236
100
AcDbEntity
  8
ALL_ASSEMBLY_MEMBERS
100
AcDbLine
 62
7
  6
CONTINUOUS
 10
5.7695624603
 20
4.1860768634
 11
5.7586184173
 21
4.1860768634
  0
LINE
  5
237
100
AcDbEntity
  8
ALL_ASSEMBLY_MEMBERS
100
AcDbLine
 62
7
  6
CONTINUOUS
 10
5.7349063192
 20
4.1861048126
 11
5.7239622763
 21
4.1861048126
  0
LINE
  5
238
100
AcDbEntity
  8
ALL_ASSEMBLY_MEMBERS
100
AcDbLine
 62
7
  6
CONTINUOUS
 10
5.7586184173
 20
4.1878105708
 11
5.7349063192
 21
4.1878105708
  0
LINE
  5
239
100
AcDbEntity
  8
ALL_ASSEMBLY_MEMBERS
100
AcDbLine
 62
7
  6
CONTINUOUS
 10
5.7239622763
 20
4.1878105708
 11
5.6838341138
 21
4.1878105708
  0
LINE
  5
23A
100
AcDbEntity
  8
ALL_ASSEMBLY_MEMBERS
100
AcDbLine
 62
7
  6
CONTINUOUS
 10
5.6247789957
 20
4.1885433988
 11
5.6838341138
 21
4.1885433988
  0
LINE
  5
23B
100
AcDbEntity
  8
ALL_ASSEMBLY_MEMBERS
100
AcDbLine
 62
7
  6
CONTINUOUS
 10
5.7695624603
 20
4.1885433988
 11
5.8216293894
 21
4.1885433988
  0
LINE
  5
23C
100
AcDbEntity
  8
ALL_ASSEMBLY_MEMBERS
100
AcDbLine
 62
7
  6
CONTINUOUS
 10
5.7695624603
 20
4.1885814044
 11
5.6838341138
 21
4.1885814044
  0
LINE
  5
23D
100
AcDbEntity
  8
ALL_ASSEMBLY_MEMBERS
100
AcDbLine
 62
7
  6
CONTINUOUS
 10
5.7418651603
 20
4.1910608158
 11
5.6838341138
 21
4.1910608158
  0
LINE
  5
23E
100
AcDbEntity
  8
ALL_ASSEMBLY_MEMBERS
100
AcDbLine
 62
7
  6
CONTINUOUS
 10
5.0932789957
 20
4.2670768634
 11
4.9372789957
 21
4.2670768634
  0
LINE
  5
23F
100
AcDbEntity
  8
ALL_ASSEMBLY_MEMBERS
100
AcDbLine
 62
7
  6
CONTINUOUS
 10
4.7986849849
 20
4.6708268634
 11
4.8102319903
 21
4.6508268634
  0
LINE
  5
240
100
AcDbEntity
  8
ALL_ASSEMBLY_MEMBERS
100
AcDbLine
 62
7
  6
CONTINUOUS
 10
4.8448730065
 20
4.6708268634
 11
4.8333260011
 21
4.6908268634
  0
LINE
  5
241
100
AcDbEntity
  8
ALL_ASSEMBLY_MEMBERS
100
AcDbLine
 62
7
  6
CONTINUOUS
 10
4.9217789957
 20
4.9989518634
 11
4.9217789957
 21
4.3427018634
  0
LINE
  5
242
100
AcDbEntity
  8
ALL_ASSEMBLY_MEMBERS
100
AcDbLine
 62
7
  6
CONTINUOUS
 10
4.9372789957
 20
4.2670768634
 11
4.9372789957
 21
5.0745768634
  0
LINE
  5
243
100
AcDbEntity
  8
ALL_ASSEMBLY_MEMBERS
100
AcDbLine
 62
7
  6
CONTINUOUS
 10
4.7974234983
 20
4.692413582
 11
4.7974510285
 21
4.6924446016
  0
LINE
  5
244
100
AcDbEntity
  8
ALL_ASSEMBLY_MEMBERS
100
AcDbLine
 62
7
  6
CONTINUOUS
 10
4.7974283323
 20
4.6924092968
 11
4.7974563029
 21
4.6924399139
  0
LINE
  5
245
100
AcDbEntity
  8
ALL_ASSEMBLY_MEMBERS
100
AcDbLine
 62
7
  6
CONTINUOUS
 10
4.9217789957
 20
4.3427018634
 11
4.8645289957
 21
4.3427018634
  0
LINE
  5
246
100
AcDbEntity
  8
ALL_ASSEMBLY_MEMBERS
100
AcDbLine
 62
7
  6
CONTINUOUS
 10
4.7790289957
 20
4.3427018634
 11
4.7017789957
 21
4.3427018634
  0
LINE
  5
247
100
AcDbEntity
  8
ALL_ASSEMBLY_MEMBERS
100
AcDbLine
 62
7
  6
CONTINUOUS
 10
5.0932789957
 20
4.1858268634
 11
5.0932789957
 21
5.1558268634
  0
LINE
  5
248
100
AcDbEntity
  8
ALL_ASSEMBLY_MEMBERS
100
AcDbLine
 62
7
  6
CONTINUOUS
 10
6.1230043894
 20
5.2008268634
 11
6.2025043894
 21
5.2308268634
  0
LINE
  5
249
100
AcDbEntity
  8
ALL_ASSEMBLY_MEMBERS
100
AcDbLine
 62
7
  6
CONTINUOUS
 10
5.7349063192
 20
4.4422160576
 11
5.7184902548
 21
4.4422160576
  0
LINE
  5
24A
100
AcDbEntity
  8
ALL_ASSEMBLY_MEMBERS
100
AcDbLine
 62
7
  6
CONTINUOUS
 10
5.7330823121
 20
4.4483583393
 11
5.720314262
 21
4.4483583393
  0
LINE
  5
24B
100
AcDbEntity
  8
ALL_ASSEMBLY_MEMBERS
100
AcDbLine
 62
7
  6
CONTINUOUS
 10
5.7330823121
 20
4.4492089087
 11
5.720314262
 21
4.4492089087
  0
LINE
  5
24C
100
AcDbEntity
  8
ALL_ASSEMBLY_MEMBERS
100
AcDbLine
 62
7
  6
CONTINUOUS
 10
5.7330823121
 20
4.4808457595
 11
5.720314262
 21
4.4808457595
  0
LINE
  5
24D
100
AcDbEntity
  8
ALL_ASSEMBLY_MEMBERS
100
AcDbLine
 62
7
  6
CONTINUOUS
 10
4.4217789957
 20
4.4833268634
 11
4.3892789957
 21
4.4833268634
  0
LINE
  5
24E
100
AcDbEntity
  8
ALL_ASSEMBLY_MEMBERS
100
AcDbLine
 62
7
  6
CONTINUOUS
 10
4.1542789957
 20
4.4833268634
 11
4.1217789957
 21
4.4833268634
  0
LINE
  5
24F
100
AcDbEntity
  8
ALL_ASSEMBLY_MEMBERS
100
AcDbLine
 62
7
  6
CONTINUOUS
 10
5.7349063192
 20
4.4871976568
 11
5.7184902548
 21
4.4871976568
  0
LINE
  5
250
100
AcDbEntity
  8
ALL_ASSEMBLY_MEMBERS
100
AcDbLine
 62
7
  6
CONTINUOUS
 10
5.7349063192
 20
4.4880419217
 11
5.7184902548
 21
4.4880419217
  0
LINE
  5
251
100
AcDbEntity
  8
ALL_ASSEMBLY_MEMBERS
100
AcDbLine
 62
7
  6
CONTINUOUS
 10
5.7494983816
 20
4.4974302352
 11
5.7458503622
 21
4.4974302352
  0
LINE
  5
252
100
AcDbEntity
  8
ALL_ASSEMBLY_MEMBERS
100
AcDbLine
 62
7
  6
CONTINUOUS
 10
5.6929541509
 20
4.4974302352
 11
5.6838341138
 21
4.4974302352
  0
LINE
  5
253
100
AcDbEntity
  8
ALL_ASSEMBLY_MEMBERS
100
AcDbLine
 62
7
  6
CONTINUOUS
 10
5.7494983816
 20
4.5051607443
 11
5.7458503622
 21
4.5051607443
  0
LINE
  5
254
100
AcDbEntity
  8
ALL_ASSEMBLY_MEMBERS
100
AcDbLine
 62
7
  6
CONTINUOUS
 10
5.7494983816
 20
4.5060043491
 11
5.7458503622
 21
4.5060043491
  0
LINE
  5
255
100
AcDbEntity
  8
ALL_ASSEMBLY_MEMBERS
100
AcDbLine
 62
7
  6
CONTINUOUS
 10
5.6929541509
 20
4.544534971
 11
5.6838341138
 21
4.544534971
  0
LINE
  5
256
100
AcDbEntity
  8
ALL_ASSEMBLY_MEMBERS
100
AcDbLine
 62
7
  6
CONTINUOUS
 10
5.6929541509
 20
4.5453816842
 11
5.6838341138
 21
4.5453816842
  0
LINE
  5
257
100
AcDbEntity
  8
ALL_ASSEMBLY_MEMBERS
100
AcDbLine
 62
7
  6
CONTINUOUS
 10
4.7017789957
 20
4.5458268634
 11
4.4217789957
 21
4.5458268634
  0
LINE
  5
258
100
AcDbEntity
  8
ALL_ASSEMBLY_MEMBERS
100
AcDbLine
 62
7
  6
CONTINUOUS
 10
5.7695624603
 20
4.5552390358
 11
5.6838341138
 21
4.5552390358
  0
LINE
  5
259
100
AcDbEntity
  8
ALL_ASSEMBLY_MEMBERS
100
AcDbLine
 62
7
  6
CONTINUOUS
 10
6.1230043894
 20
4.1408268634
 11
6.2025043894
 21
4.1108268634
  0
LINE
  5
25A
100
AcDbEntity
  8
ALL_ASSEMBLY_MEMBERS
100
AcDbLine
 62
7
  6
CONTINUOUS
 10
5.2317789957
 20
5.1528156555
 11
5.2317789957
 21
5.2671101314
  0
LINE
  5
25B
100
AcDbEntity
  8
ALL_ASSEMBLY_MEMBERS
100
AcDbLine
 62
7
  6
CONTINUOUS
 10
5.754970403
 20
4.5633240968
 11
5.6838341138
 21
4.5633240968
  0
LINE
  5
25C
100
AcDbEntity
  8
ALL_ASSEMBLY_MEMBERS
100
AcDbLine
 62
7
  6
CONTINUOUS
 10
5.7536323067
 20
4.5641744168
 11
5.6838341138
 21
4.5641744168
  0
LINE
  5
25D
100
AcDbEntity
  8
ALL_ASSEMBLY_MEMBERS
100
AcDbLine
 62
7
  6
CONTINUOUS
 10
5.7567944102
 20
4.57145835
 11
5.7422023478
 21
4.57145835
  0
LINE
  5
25E
100
AcDbEntity
  8
ALL_ASSEMBLY_MEMBERS
100
AcDbLine
 62
7
  6
CONTINUOUS
 10
5.7567944102
 20
4.5723106519
 11
5.7422023478
 21
4.5723106519
  0
LINE
  5
25F
100
AcDbEntity
  8
ALL_ASSEMBLY_MEMBERS
100
AcDbLine
 62
7
  6
CONTINUOUS
 10
4.9217789957
 20
4.5918268634
 11
4.9372789957
 21
4.5918268634
  0
LINE
  5
260
100
AcDbEntity
  8
ALL_ASSEMBLY_MEMBERS
100
AcDbLine
 62
7
  6
CONTINUOUS
 10
4.8102319903
 20
4.6508268634
 11
4.8333260011
 21
4.6508268634
  0
LINE
  5
261
100
AcDbEntity
  8
ALL_ASSEMBLY_MEMBERS
100
AcDbLine
 62
7
  6
CONTINUOUS
 10
5.772416791
 20
4.6580315878
 11
5.6838341138
 21
4.6580315878
  0
LINE
  5
262
100
AcDbEntity
  8
ALL_ASSEMBLY_MEMBERS
100
AcDbLine
 62
7
  6
CONTINUOUS
 10
5.772416791
 20
4.6836221389
 11
5.6838341138
 21
4.6836221389
  0
LINE
  5
263
100
AcDbEntity
  8
ALL_ASSEMBLY_MEMBERS
100
AcDbLine
 62
7
  6
CONTINUOUS
 10
5.3617789957
 20
5.1528159901
 11
5.3617789957
 21
5.2671101314
  0
LINE
  5
264
100
AcDbEntity
  8
ALL_ASSEMBLY_MEMBERS
100
AcDbLine
 62
7
  6
CONTINUOUS
 10
4.8333260011
 20
4.6908268634
 11
4.8102319903
 21
4.6908268634
  0
LINE
  5
265
100
AcDbEntity
  8
ALL_ASSEMBLY_MEMBERS
100
AcDbLine
 62
7
  6
CONTINUOUS
 10
4.9217789957
 20
4.7498268634
 11
4.9372789957
 21
4.7498268634
  0
LINE
  5
266
100
AcDbEntity
  8
ALL_ASSEMBLY_MEMBERS
100
AcDbLine
 62
7
  6
CONTINUOUS
 10
5.714842238
 20
4.7713777248
 11
5.7075462094
 21
4.7713777248
  0
LINE
  5
267
100
AcDbEntity
  8
ALL_ASSEMBLY_MEMBERS
100
AcDbLine
 62
7
  6
CONTINUOUS
 10
5.714842238
 20
4.7722295073
 11
5.7075462094
 21
4.7722295073
  0
LINE
  5
268
100
AcDbEntity
  8
ALL_ASSEMBLY_MEMBERS
100
AcDbLine
 62
7
  6
CONTINUOUS
 10
5.7695624603
 20
4.7749006376
 11
5.7604424245
 21
4.7749006376
  0
LINE
  5
269
100
AcDbEntity
  8
ALL_ASSEMBLY_MEMBERS
100
AcDbLine
 62
7
  6
CONTINUOUS
 10
5.7695624603
 20
4.7757515582
 11
5.7604424245
 21
4.7757515582
  0
LINE
  5
26A
100
AcDbEntity
  8
ALL_ASSEMBLY_MEMBERS
100
AcDbLine
 62
7
  6
CONTINUOUS
 10
5.7130182308
 20
4.7810173123
 11
5.7093702165
 21
4.7810173123
  0
LINE
  5
26B
100
AcDbEntity
  8
ALL_ASSEMBLY_MEMBERS
100
AcDbLine
 62
7
  6
CONTINUOUS
 10
4.7017789957
 20
4.7958268634
 11
4.4217789957
 21
4.7958268634
  0
LINE
  5
26C
100
AcDbEntity
  8
ALL_ASSEMBLY_MEMBERS
100
AcDbLine
 62
7
  6
CONTINUOUS
 10
5.7604424245
 20
4.8249500458
 11
5.7318035644
 21
4.8249500458
  0
LINE
  5
26D
100
AcDbEntity
  8
ALL_ASSEMBLY_MEMBERS
100
AcDbLine
 62
7
  6
CONTINUOUS
 10
5.7604424245
 20
4.8257938882
 11
5.7312583049
 21
4.8257938882
  0
LINE
  5
26E
100
AcDbEntity
  8
ALL_ASSEMBLY_MEMBERS
100
AcDbLine
 62
7
  6
CONTINUOUS
 10
5.7695624603
 20
4.8342295384
 11
5.7221382691
 21
4.8342295384
  0
LINE
  5
26F
100
AcDbEntity
  8
ALL_ASSEMBLY_MEMBERS
100
AcDbLine
 62
7
  6
CONTINUOUS
 10
5.7695624603
 20
4.8467656698
 11
5.6838341138
 21
4.8467656698
  0
LINE
  5
270
100
AcDbEntity
  8
ALL_ASSEMBLY_MEMBERS
100
AcDbLine
 62
7
  6
CONTINUOUS
 10
5.7695624603
 20
4.8476095236
 11
5.6838341138
 21
4.8476095236
  0
LINE
  5
271
100
AcDbEntity
  8
ALL_ASSEMBLY_MEMBERS
100
AcDbLine
 62
7
  6
CONTINUOUS
 10
5.754970403
 20
4.8575499062
 11
5.6838341138
 21
4.8575499062
  0
LINE
  5
272
100
AcDbEntity
  8
ALL_ASSEMBLY_MEMBERS
100
AcDbLine
 62
7
  6
CONTINUOUS
 10
4.4217789957
 20
4.8583268634
 11
4.3892789957
 21
4.8583268634
  0
LINE
  5
273
100
AcDbEntity
  8
ALL_ASSEMBLY_MEMBERS
100
AcDbLine
 62
7
  6
CONTINUOUS
 10
4.1542789957
 20
4.8583268634
 11
4.1217789957
 21
4.8583268634
  0
LINE
  5
274
100
AcDbEntity
  8
ALL_ASSEMBLY_MEMBERS
100
AcDbLine
 62
7
  6
CONTINUOUS
 10
5.7567944102
 20
4.8674089974
 11
5.7422023478
 21
4.8674089974
  0
LINE
  5
275
100
AcDbEntity
  8
ALL_ASSEMBLY_MEMBERS
100
AcDbLine
 62
7
  6
CONTINUOUS
 10
5.7695624603
 20
4.8795797368
 11
5.6838341138
 21
4.8795797368
  0
LINE
  5
276
100
AcDbEntity
  8
ALL_ASSEMBLY_MEMBERS
100
AcDbLine
 62
7
  6
CONTINUOUS
 10
5.7695624603
 20
4.8804274361
 11
5.6838341138
 21
4.8804274361
  0
LINE
  5
277
100
AcDbEntity
  8
ALL_ASSEMBLY_MEMBERS
100
AcDbLine
 62
7
  6
CONTINUOUS
 10
5.754970403
 20
4.8900954161
 11
5.6838341138
 21
4.8900954161
  0
LINE
  5
278
100
AcDbEntity
  8
ALL_ASSEMBLY_MEMBERS
100
AcDbLine
 62
7
  6
CONTINUOUS
 10
5.7567944102
 20
4.8996805804
 11
5.7422023478
 21
4.8996805804
  0
LINE
  5
279
100
AcDbEntity
  8
ALL_ASSEMBLY_MEMBERS
100
AcDbLine
 62
7
  6
CONTINUOUS
 10
5.6247789957
 20
5.1558268634
 11
5.6247789957
 21
4.1858268634
  0
LINE
  5
27A
100
AcDbEntity
  8
ALL_ASSEMBLY_MEMBERS
100
AcDbLine
 62
7
  6
CONTINUOUS
 10
5.6838341138
 20
5.1552912109
 11
5.6838341138
 21
5.1511108291
  0
LINE
  5
27B
100
AcDbEntity
  8
ALL_ASSEMBLY_MEMBERS
100
AcDbLine
 62
7
  6
CONTINUOUS
 10
5.6838341138
 20
4.1878105708
 11
5.6838341138
 21
4.1910608158
  0
LINE
  5
27C
100
AcDbEntity
  8
ALL_ASSEMBLY_MEMBERS
100
AcDbLine
 62
7
  6
CONTINUOUS
 10
5.6838341138
 20
4.4974302352
 11
5.6838341138
 21
4.5453816842
  0
LINE
  5
27D
100
AcDbEntity
  8
ALL_ASSEMBLY_MEMBERS
100
AcDbLine
 62
7
  6
CONTINUOUS
 10
5.6838341138
 20
4.5552390358
 11
5.6838341138
 21
4.5641744168
  0
LINE
  5
27E
100
AcDbEntity
  8
ALL_ASSEMBLY_MEMBERS
100
AcDbLine
 62
7
  6
CONTINUOUS
 10
5.6838341138
 20
4.6580315878
 11
5.6838341138
 21
4.6836221389
  0
LINE
  5
27F
100
AcDbEntity
  8
ALL_ASSEMBLY_MEMBERS
100
AcDbLine
 62
7
  6
CONTINUOUS
 10
5.6838341138
 20
4.7984207655
 11
5.6838341138
 21
4.8087535332
  0
LINE
  5
280
100
AcDbEntity
  8
ALL_ASSEMBLY_MEMBERS
100
AcDbLine
 62
7
  6
CONTINUOUS
 10
5.6838341138
 20
4.8467656698
 11
5.6838341138
 21
4.8575499062
  0
LINE
  5
281
100
AcDbEntity
  8
ALL_ASSEMBLY_MEMBERS
100
AcDbLine
 62
7
  6
CONTINUOUS
 10
5.6838341138
 20
4.8795797368
 11
5.6838341138
 21
4.8900954161
  0
LINE
  5
282
100
AcDbEntity
  8
ALL_ASSEMBLY_MEMBERS
100
AcDbLine
 62
7
  6
CONTINUOUS
 10
5.6838341138
 20
5.0584122189
 11
5.6838341138
 21
5.0751115314
  0
LINE
  5
283
100
AcDbEntity
  8
ALL_ASSEMBLY_MEMBERS
100
AcDbLine
 62
7
  6
CONTINUOUS
 10
5.6856581211
 20
5.1555042909
 11
5.6856581211
 21
5.1542664286
  0
LINE
  5
284
100
AcDbEntity
  8
ALL_ASSEMBLY_MEMBERS
100
AcDbLine
 62
7
  6
CONTINUOUS
 10
5.6856581211
 20
5.1527665248
 11
5.6856581211
 21
5.1502855321
  0
LINE
  5
285
100
AcDbEntity
  8
ALL_ASSEMBLY_MEMBERS
100
AcDbLine
 62
7
  6
CONTINUOUS
 10
5.6856581211
 20
4.7897476104
 11
5.6856581211
 21
4.7888996438
  0
LINE
  5
286
100
AcDbEntity
  8
ALL_ASSEMBLY_MEMBERS
100
AcDbLine
 62
7
  6
CONTINUOUS
 10
5.6856581211
 20
4.4720094059
 11
5.6856581211
 21
4.4728553091
  0
LINE
  5
287
100
AcDbEntity
  8
ALL_ASSEMBLY_MEMBERS
100
AcDbLine
 62
7
  6
CONTINUOUS
 10
5.6911301431
 20
5.1555745066
 11
5.6911301431
 21
5.1547239402
  0
LINE
  5
288
100
AcDbEntity
  8
ALL_ASSEMBLY_MEMBERS
100
AcDbLine
 62
7
  6
CONTINUOUS
 10
5.6911301431
 20
5.1519731597
 11
5.6911301431
 21
5.1494880548
  0
LINE
  5
289
100
AcDbEntity
  8
ALL_ASSEMBLY_MEMBERS
100
AcDbLine
 62
7
  6
CONTINUOUS
 10
5.6911301431
 20
4.7810173123
 11
5.6911301431
 21
4.7801675913
  0
LINE
  5
28A
100
AcDbEntity
  8
ALL_ASSEMBLY_MEMBERS
100
AcDbLine
 62
7
  6
CONTINUOUS
 10
5.6911301431
 20
4.4783143792
 11
5.6911301431
 21
4.4791594786
  0
LINE
  5
28B
100
AcDbEntity
  8
ALL_ASSEMBLY_MEMBERS
100
AcDbLine
 62
7
  6
CONTINUOUS
 10
5.6929541509
 20
4.4974302352
 11
5.6929541509
 21
4.5339172611
  0
LINE
  5
28C
100
AcDbEntity
  8
ALL_ASSEMBLY_MEMBERS
100
AcDbLine
 62
7
  6
CONTINUOUS
 10
5.6929541509
 20
4.544534971
 11
5.6929541509
 21
4.5453816842
  0
LINE
  5
28D
100
AcDbEntity
  8
ALL_ASSEMBLY_MEMBERS
100
AcDbLine
 62
7
  6
CONTINUOUS
 10
5.6929541509
 20
4.7984207655
 11
5.6929541509
 21
4.8087535332
  0
LINE
  5
28E
100
AcDbEntity
  8
ALL_ASSEMBLY_MEMBERS
100
AcDbLine
 62
7
  6
CONTINUOUS
 10
5.694778158
 20
5.1541631362
 11
5.694778158
 21
5.1529132726
  0
LINE
  5
28F
100
AcDbEntity
  8
ALL_ASSEMBLY_MEMBERS
100
AcDbLine
 62
7
  6
CONTINUOUS
 10
5.694778158
 20
4.815596763
 11
5.694778158
 21
4.8147522685
  0
LINE
  5
290
100
AcDbEntity
  8
ALL_ASSEMBLY_MEMBERS
100
AcDbLine
 62
7
  6
CONTINUOUS
 10
5.694778158
 20
4.4582570326
 11
5.694778158
 21
4.4591053224
  0
LINE
  5
291
100
AcDbEntity
  8
ALL_ASSEMBLY_MEMBERS
100
AcDbLine
 62
7
  6
CONTINUOUS
 10
5.6966021652
 20
5.1555698148
 11
5.6966021652
 21
5.1549513633
  0
LINE
  5
292
100
AcDbEntity
  8
ALL_ASSEMBLY_MEMBERS
100
AcDbLine
 62
7
  6
CONTINUOUS
 10
5.6966021652
 20
5.1514492943
 11
5.6966021652
 21
5.1489614666
  0
LINE
  5
293
100
AcDbEntity
  8
ALL_ASSEMBLY_MEMBERS
100
AcDbLine
 62
7
  6
CONTINUOUS
 10
5.6966021652
 20
4.4821134638
 11
5.6966021652
 21
4.4829581641
  0
LINE
  5
294
100
AcDbEntity
  8
ALL_ASSEMBLY_MEMBERS
100
AcDbLine
 62
7
  6
CONTINUOUS
 10
5.6984261723
 20
5.154461217
 11
5.6984261723
 21
5.1524611161
  0
LINE
  5
295
100
AcDbEntity
  8
ALL_ASSEMBLY_MEMBERS
100
AcDbLine
 62
7
  6
CONTINUOUS
 10
5.6984261723
 20
4.820705472
 11
5.6984261723
 21
4.8198613557
  0
LINE
  5
296
100
AcDbEntity
  8
ALL_ASSEMBLY_MEMBERS
100
AcDbLine
 62
7
  6
CONTINUOUS
 10
5.6984261723
 20
4.7757515582
 11
5.6984261723
 21
4.7749006376
  0
LINE
  5
297
100
AcDbEntity
  8
ALL_ASSEMBLY_MEMBERS
100
AcDbLine
 62
7
  6
CONTINUOUS
 10
5.6984261723
 20
4.4545348113
 11
5.6984261723
 21
4.4553839016
  0
LINE
  5
298
100
AcDbEntity
  8
ALL_ASSEMBLY_MEMBERS
100
AcDbLine
 62
7
  6
CONTINUOUS
 10
5.7038981951
 20
5.1555471788
 11
5.7038981951
 21
5.1550833924
  0
LINE
  5
299
100
AcDbEntity
  8
ALL_ASSEMBLY_MEMBERS
100
AcDbLine
 62
7
  6
CONTINUOUS
 10
5.7038981951
 20
5.1510800429
 11
5.7038981951
 21
5.1485902924
  0
LINE
  5
29A
100
AcDbEntity
  8
ALL_ASSEMBLY_MEMBERS
100
AcDbLine
 62
7
  6
CONTINUOUS
 10
5.7038981951
 20
4.4846528833
 11
5.7038981951
 21
4.4854973522
  0
LINE
  5
29B
100
AcDbEntity
  8
ALL_ASSEMBLY_MEMBERS
100
AcDbLine
 62
7
  6
CONTINUOUS
 10
4.9217789957
 20
4.9989518634
 11
4.7017789957
 21
4.9989518634
  0
LINE
  5
29C
100
AcDbEntity
  8
ALL_ASSEMBLY_MEMBERS
100
AcDbLine
 62
7
  6
CONTINUOUS
 10
5.772416791
 20
5.0584122189
 11
5.6838341138
 21
5.0584122189
  0
LINE
  5
29D
100
AcDbEntity
  8
ALL_ASSEMBLY_MEMBERS
100
AcDbLine
 62
7
  6
CONTINUOUS
 10
5.772416791
 20
5.0604333943
 11
5.6838341138
 21
5.0604333943
  0
LINE
  5
29E
100
AcDbEntity
  8
ALL_ASSEMBLY_MEMBERS
100
AcDbLine
 62
7
  6
CONTINUOUS
 10
5.0932789957
 20
5.0745768634
 11
4.9372789957
 21
5.0745768634
  0
LINE
  5
29F
100
AcDbEntity
  8
ALL_ASSEMBLY_MEMBERS
100
AcDbLine
 62
7
  6
CONTINUOUS
 10
5.772416791
 20
5.0751115314
 11
5.6838341138
 21
5.0751115314
  0
LINE
  5
2A0
100
AcDbEntity
  8
ALL_ASSEMBLY_MEMBERS
100
AcDbLine
 62
7
  6
CONTINUOUS
 10
5.7057222022
 20
4.8232560823
 11
5.7057222022
 21
4.8342295384
  0
LINE
  5
2A1
100
AcDbEntity
  8
ALL_ASSEMBLY_MEMBERS
100
AcDbLine
 62
7
  6
CONTINUOUS
 10
5.7075462094
 20
4.7722295073
 11
5.7075462094
 21
4.7713777248
  0
LINE
  5
2A2
100
AcDbEntity
  8
ALL_ASSEMBLY_MEMBERS
100
AcDbLine
 62
7
  6
CONTINUOUS
 10
5.7093702165
 20
5.1555300076
 11
5.7093702165
 21
5.1551435362
  0
LINE
  5
2A3
100
AcDbEntity
  8
ALL_ASSEMBLY_MEMBERS
100
AcDbLine
 62
7
  6
CONTINUOUS
 10
5.7093702165
 20
5.1548036672
 11
5.7093702165
 21
5.152333171
  0
LINE
  5
2A4
100
AcDbEntity
  8
ALL_ASSEMBLY_MEMBERS
100
AcDbLine
 62
7
  6
CONTINUOUS
 10
5.7093702165
 20
5.1508894024
 11
5.7093702165
 21
5.148398658
  0
LINE
  5
2A5
100
AcDbEntity
  8
ALL_ASSEMBLY_MEMBERS
100
AcDbLine
 62
7
  6
CONTINUOUS
 10
5.7093702165
 20
4.4495909002
 11
5.7093702165
 21
4.4504411592
  0
LINE
  5
2A6
100
AcDbEntity
  8
ALL_ASSEMBLY_MEMBERS
100
AcDbLine
 62
7
  6
CONTINUOUS
 10
5.7093702165
 20
4.4859246047
 11
5.7093702165
 21
4.4867689682
  0
LINE
  5
2A7
100
AcDbEntity
  8
ALL_ASSEMBLY_MEMBERS
100
AcDbLine
 62
7
  6
CONTINUOUS
 10
5.714842238
 20
4.7722295073
 11
5.714842238
 21
4.7713777248
  0
LINE
  5
2A8
100
AcDbEntity
  8
ALL_ASSEMBLY_MEMBERS
100
AcDbLine
 62
7
  6
CONTINUOUS
 10
5.7184902548
 20
5.1555089338
 11
5.7184902548
 21
5.1551997677
  0
LINE
  5
2A9
100
AcDbEntity
  8
ALL_ASSEMBLY_MEMBERS
100
AcDbLine
 62
7
  6
CONTINUOUS
 10
5.7184902548
 20
5.150694745
 11
5.7184902548
 21
5.148202985
  0
LINE
  5
2AA
100
AcDbEntity
  8
ALL_ASSEMBLY_MEMBERS
100
AcDbLine
 62
7
  6
CONTINUOUS
 10
5.7184902548
 20
4.4871976568
 11
5.7184902548
 21
4.4880419217
  0
LINE
  5
2AB
100
AcDbEntity
  8
ALL_ASSEMBLY_MEMBERS
100
AcDbLine
 62
7
  6
CONTINUOUS
 10
5.720314262
 20
5.1548794745
 11
5.720314262
 21
5.1524093672
  0
LINE
  5
2AC
100
AcDbEntity
  8
ALL_ASSEMBLY_MEMBERS
100
AcDbLine
 62
7
  6
CONTINUOUS
 10
5.720314262
 20
4.4483583393
 11
5.720314262
 21
4.4492089087
  0
LINE
  5
2AD
100
AcDbEntity
  8
ALL_ASSEMBLY_MEMBERS
100
AcDbLine
 62
7
  6
CONTINUOUS
 10
5.7221382691
 20
4.8215598493
 11
5.7221382691
 21
4.8342295384
  0
LINE
  5
2AE
100
AcDbEntity
  8
ALL_ASSEMBLY_MEMBERS
100
AcDbLine
 62
7
  6
CONTINUOUS
 10
5.7239622763
 20
4.7757515582
 11
5.7239622763
 21
4.7749006376
  0
LINE
  5
2AF
100
AcDbEntity
  8
ALL_ASSEMBLY_MEMBERS
100
AcDbLine
 62
7
  6
CONTINUOUS
 10
5.7239622763
 20
4.1861048126
 11
5.7239622763
 21
4.1878105708
  0
LINE
  5
2B0
100
AcDbEntity
  8
ALL_ASSEMBLY_MEMBERS
100
AcDbLine
 62
7
  6
CONTINUOUS
 10
5.7276102906
 20
4.815596763
 11
5.7276102906
 21
4.8147522685
  0
LINE
  5
2B1
100
AcDbEntity
  8
ALL_ASSEMBLY_MEMBERS
100
AcDbLine
 62
7
  6
CONTINUOUS
 10
5.7294342978
 20
4.7984207655
 11
5.7294342978
 21
4.8087535332
  0
LINE
  5
2B2
100
AcDbEntity
  8
ALL_ASSEMBLY_MEMBERS
100
AcDbLine
 62
7
  6
CONTINUOUS
 10
5.7312583049
 20
4.7810173123
 11
5.7312583049
 21
4.7801675913
  0
LINE
  5
2B3
100
AcDbEntity
  8
ALL_ASSEMBLY_MEMBERS
100
AcDbLine
 62
7
  6
CONTINUOUS
 10
5.7330823121
 20
5.1548794745
 11
5.7330823121
 21
5.1524093672
  0
LINE
  5
2B4
100
AcDbEntity
  8
ALL_ASSEMBLY_MEMBERS
100
AcDbLine
 62
7
  6
CONTINUOUS
 10
5.7330823121
 20
4.4483583393
 11
5.7330823121
 21
4.4492089087
  0
LINE
  5
2B5
100
AcDbEntity
  8
ALL_ASSEMBLY_MEMBERS
100
AcDbLine
 62
7
  6
CONTINUOUS
 10
5.7349063192
 20
5.1555089338
 11
5.7349063192
 21
5.1551997677
  0
LINE
  5
2B6
100
AcDbEntity
  8
ALL_ASSEMBLY_MEMBERS
100
AcDbLine
 62
7
  6
CONTINUOUS
 10
5.7349063192
 20
5.150694745
 11
5.7349063192
 21
5.148202985
  0
LINE
  5
2B7
100
AcDbEntity
  8
ALL_ASSEMBLY_MEMBERS
100
AcDbLine
 62
7
  6
CONTINUOUS
 10
5.7349063192
 20
4.1861048126
 11
5.7349063192
 21
4.1878105708
  0
LINE
  5
2B8
100
AcDbEntity
  8
ALL_ASSEMBLY_MEMBERS
100
AcDbLine
 62
7
  6
CONTINUOUS
 10
5.7349063192
 20
4.4871976568
 11
5.7349063192
 21
4.4880419217
  0
LINE
  5
2B9
100
AcDbEntity
  8
ALL_ASSEMBLY_MEMBERS
100
AcDbLine
 62
7
  6
CONTINUOUS
 10
5.7367303264
 20
4.7897476104
 11
5.7367303264
 21
4.7888996438
  0
LINE
  5
2BA
100
AcDbEntity
  8
ALL_ASSEMBLY_MEMBERS
100
AcDbLine
 62
7
  6
CONTINUOUS
 10
5.7385543335
 20
4.5077482539
 11
5.7385543335
 21
4.5085918737
  0
LINE
  5
2BB
100
AcDbEntity
  8
ALL_ASSEMBLY_MEMBERS
100
AcDbLine
 62
7
  6
CONTINUOUS
 10
5.7385543335
 20
4.7984207655
 11
5.7385543335
 21
4.8087535332
  0
LINE
  5
2BC
100
AcDbEntity
  8
ALL_ASSEMBLY_MEMBERS
100
AcDbLine
 62
7
  6
CONTINUOUS
 10
5.738952224
 20
4.1950145813
 11
5.738952224
 21
4.1925146744
  0
LINE
  5
2BD
100
AcDbEntity
  8
ALL_ASSEMBLY_MEMBERS
100
AcDbLine
 62
7
  6
CONTINUOUS
 10
5.7422023478
 20
4.8996805804
 11
5.7422023478
 21
4.8988282785
  0
LINE
  5
2BE
100
AcDbEntity
  8
ALL_ASSEMBLY_MEMBERS
100
AcDbLine
 62
7
  6
CONTINUOUS
 10
5.7422023478
 20
4.8674089974
 11
5.7422023478
 21
4.8665633996
  0
LINE
  5
2BF
100
AcDbEntity
  8
ALL_ASSEMBLY_MEMBERS
100
AcDbLine
 62
7
  6
CONTINUOUS
 10
5.7422023478
 20
4.57145835
 11
5.7422023478
 21
4.5723106519
  0
LINE
  5
2C0
100
AcDbEntity
  8
ALL_ASSEMBLY_MEMBERS
100
AcDbLine
 62
7
  6
CONTINUOUS
 10
5.744026355
 20
5.1555300076
 11
5.744026355
 21
5.1551435362
  0
LINE
  5
2C1
100
AcDbEntity
  8
ALL_ASSEMBLY_MEMBERS
100
AcDbLine
 62
7
  6
CONTINUOUS
 10
5.744026355
 20
5.1548036672
 11
5.744026355
 21
5.152333171
  0
LINE
  5
2C2
100
AcDbEntity
  8
ALL_ASSEMBLY_MEMBERS
100
AcDbLine
 62
7
  6
CONTINUOUS
 10
5.744026355
 20
5.1508894024
 11
5.744026355
 21
5.148398658
  0
LINE
  5
2C3
100
AcDbEntity
  8
ALL_ASSEMBLY_MEMBERS
100
AcDbLine
 62
7
  6
CONTINUOUS
 10
5.744026355
 20
4.4495909002
 11
5.744026355
 21
4.4504411592
  0
LINE
  5
2C4
100
AcDbEntity
  8
ALL_ASSEMBLY_MEMBERS
100
AcDbLine
 62
7
  6
CONTINUOUS
 10
5.744026355
 20
4.4859246047
 11
5.744026355
 21
4.4867689682
  0
LINE
  5
2C5
100
AcDbEntity
  8
ALL_ASSEMBLY_MEMBERS
100
AcDbLine
 62
7
  6
CONTINUOUS
 10
5.7458503622
 20
4.5051607443
 11
5.7458503622
 21
4.5060043491
  0
LINE
  5
2C6
100
AcDbEntity
  8
ALL_ASSEMBLY_MEMBERS
100
AcDbLine
 62
7
  6
CONTINUOUS
 10
5.7494983816
 20
5.1555471788
 11
5.7494983816
 21
5.1550833924
  0
LINE
  5
2C7
100
AcDbEntity
  8
ALL_ASSEMBLY_MEMBERS
100
AcDbLine
 62
7
  6
CONTINUOUS
 10
5.7494983816
 20
5.1510800429
 11
5.7494983816
 21
5.1485902924
  0
LINE
  5
2C8
100
AcDbEntity
  8
ALL_ASSEMBLY_MEMBERS
100
AcDbLine
 62
7
  6
CONTINUOUS
 10
5.7494983816
 20
4.4846528833
 11
5.7494983816
 21
4.4854973522
  0
LINE
  5
2C9
100
AcDbEntity
  8
ALL_ASSEMBLY_MEMBERS
100
AcDbLine
 62
7
  6
CONTINUOUS
 10
5.7494983816
 20
4.5051607443
 11
5.7494983816
 21
4.5060043491
  0
LINE
  5
2CA
100
AcDbEntity
  8
ALL_ASSEMBLY_MEMBERS
100
AcDbLine
 62
7
  6
CONTINUOUS
 10
5.7494983816
 20
4.5365636167
 11
5.7494983816
 21
4.5440495534
  0
LINE
  5
2CB
100
AcDbEntity
  8
ALL_ASSEMBLY_MEMBERS
100
AcDbLine
 62
7
  6
CONTINUOUS
 10
5.754970403
 20
5.154461217
 11
5.754970403
 21
5.1524611161
  0
LINE
  5
2CC
100
AcDbEntity
  8
ALL_ASSEMBLY_MEMBERS
100
AcDbLine
 62
7
  6
CONTINUOUS
 10
5.754970403
 20
4.4545348113
 11
5.754970403
 21
4.4553839016
  0
LINE
  5
2CD
100
AcDbEntity
  8
ALL_ASSEMBLY_MEMBERS
100
AcDbLine
 62
7
  6
CONTINUOUS
 10
5.754970403
 20
4.5077482539
 11
5.754970403
 21
4.5085918737
  0
LINE
  5
2CE
100
AcDbEntity
  8
ALL_ASSEMBLY_MEMBERS
100
AcDbLine
 62
7
  6
CONTINUOUS
 10
5.7567944102
 20
5.1555698148
 11
5.7567944102
 21
5.1549513633
  0
LINE
  5
2CF
100
AcDbEntity
  8
ALL_ASSEMBLY_MEMBERS
100
AcDbLine
 62
7
  6
CONTINUOUS
 10
5.7567944102
 20
5.1514492943
 11
5.7567944102
 21
5.1489614666
  0
LINE
  5
2D0
100
AcDbEntity
  8
ALL_ASSEMBLY_MEMBERS
100
AcDbLine
 62
7
  6
CONTINUOUS
 10
5.7567944102
 20
4.4821134638
 11
5.7567944102
 21
4.4829581641
  0
LINE
  5
2D1
100
AcDbEntity
  8
ALL_ASSEMBLY_MEMBERS
100
AcDbLine
 62
7
  6
CONTINUOUS
 10
5.7567944102
 20
4.5418724657
 11
5.7567944102
 21
4.5427187777
  0
LINE
  5
2D2
100
AcDbEntity
  8
ALL_ASSEMBLY_MEMBERS
100
AcDbLine
 62
7
  6
CONTINUOUS
 10
5.7567944102
 20
4.57145835
 11
5.7567944102
 21
4.5723106519
  0
LINE
  5
2D3
100
AcDbEntity
  8
ALL_ASSEMBLY_MEMBERS
100
AcDbLine
 62
7
  6
CONTINUOUS
 10
5.7586184173
 20
5.1541631362
 11
5.7586184173
 21
5.1529132726
  0
LINE
  5
2D4
100
AcDbEntity
  8
ALL_ASSEMBLY_MEMBERS
100
AcDbLine
 62
7
  6
CONTINUOUS
 10
5.7586184173
 20
4.1860768688
 11
5.7586184173
 21
4.1878105708
  0
LINE
  5
2D5
100
AcDbEntity
  8
ALL_ASSEMBLY_MEMBERS
100
AcDbLine
 62
7
  6
CONTINUOUS
 10
5.7586184173
 20
4.4582570326
 11
5.7586184173
 21
4.4591053224
  0
LINE
  5
2D6
100
AcDbEntity
  8
ALL_ASSEMBLY_MEMBERS
100
AcDbLine
 62
7
  6
CONTINUOUS
 10
5.7586184173
 20
4.5116395307
 11
5.7586184173
 21
4.5124832242
  0
LINE
  5
2D7
100
AcDbEntity
  8
ALL_ASSEMBLY_MEMBERS
100
AcDbLine
 62
7
  6
CONTINUOUS
 10
5.7604424245
 20
4.5181516926
 11
5.7604424245
 21
4.5233854675
  0
LINE
  5
2D8
100
AcDbEntity
  8
ALL_ASSEMBLY_MEMBERS
100
AcDbLine
 62
7
  6
CONTINUOUS
 10
5.7604424245
 20
4.7749006376
 11
5.7604424245
 21
4.8257938882
  0
LINE
  5
2D9
100
AcDbEntity
  8
ALL_ASSEMBLY_MEMBERS
100
AcDbLine
 62
7
  6
CONTINUOUS
 10
5.7622664316
 20
5.1555745066
 11
5.7622664316
 21
5.1547239402
  0
LINE
  5
2DA
100
AcDbEntity
  8
ALL_ASSEMBLY_MEMBERS
100
AcDbLine
 62
7
  6
CONTINUOUS
 10
5.7622664316
 20
5.1519731597
 11
5.7622664316
 21
5.1494880548
  0
LINE
  5
2DB
100
AcDbEntity
  8
ALL_ASSEMBLY_MEMBERS
100
AcDbLine
 62
7
  6
CONTINUOUS
 10
5.7622664316
 20
4.4783143792
 11
5.7622664316
 21
4.4791594786
  0
LINE
  5
2DC
100
AcDbEntity
  8
ALL_ASSEMBLY_MEMBERS
100
AcDbLine
 62
7
  6
CONTINUOUS
 10
5.7640904388
 20
4.5365636167
 11
5.7640904388
 21
4.5374092102
  0
LINE
  5
2DD
100
AcDbEntity
  8
ALL_ASSEMBLY_MEMBERS
100
AcDbLine
 62
7
  6
CONTINUOUS
 10
5.7677384531
 20
5.1555042909
 11
5.7677384531
 21
5.1542664286
  0
LINE
  5
2DE
100
AcDbEntity
  8
ALL_ASSEMBLY_MEMBERS
100
AcDbLine
 62
7
  6
CONTINUOUS
 10
5.7677384531
 20
5.1527665248
 11
5.7677384531
 21
5.1502855321
  0
LINE
  5
2DF
100
AcDbEntity
  8
ALL_ASSEMBLY_MEMBERS
100
AcDbLine
 62
7
  6
CONTINUOUS
 10
5.7677384531
 20
4.4720094059
 11
5.7677384531
 21
4.4728553091
  0
LINE
  5
2E0
100
AcDbEntity
  8
ALL_ASSEMBLY_MEMBERS
100
AcDbLine
 62
7
  6
CONTINUOUS
 10
5.7677384531
 20
4.531276271
 11
5.7677384531
 21
4.5321212577
  0
LINE
  5
2E1
100
AcDbEntity
  8
ALL_ASSEMBLY_MEMBERS
100
AcDbLine
 62
7
  6
CONTINUOUS
 10
5.7695624603
 20
5.1552912109
 11
5.7695624603
 21
5.1511108291
  0
LINE
  5
2E2
100
AcDbEntity
  8
ALL_ASSEMBLY_MEMBERS
100
AcDbLine
 62
7
  6
CONTINUOUS
 10
5.7695624603
 20
4.1860768729
 11
5.7695624603
 21
4.1910608158
  0
LINE
  5
2E3
100
AcDbEntity
  8
ALL_ASSEMBLY_MEMBERS
100
AcDbLine
 62
7
  6
CONTINUOUS
 10
5.7695624603
 20
4.516846587
 11
5.7695624603
 21
4.5220750194
  0
LINE
  5
2E4
100
AcDbEntity
  8
ALL_ASSEMBLY_MEMBERS
100
AcDbLine
 62
7
  6
CONTINUOUS
 10
5.7695624603
 20
4.5552390358
 11
5.7695624603
 21
4.5641744168
  0
LINE
  5
2E5
100
AcDbEntity
  8
ALL_ASSEMBLY_MEMBERS
100
AcDbLine
 62
7
  6
CONTINUOUS
 10
5.7695624603
 20
4.7749006376
 11
5.7695624603
 21
4.8342295384
  0
LINE
  5
2E6
100
AcDbEntity
  8
ALL_ASSEMBLY_MEMBERS
100
AcDbLine
 62
7
  6
CONTINUOUS
 10
5.7695624603
 20
4.8467656698
 11
5.7695624603
 21
4.8575499062
  0
LINE
  5
2E7
100
AcDbEntity
  8
ALL_ASSEMBLY_MEMBERS
100
AcDbLine
 62
7
  6
CONTINUOUS
 10
5.7695624603
 20
4.8795797368
 11
5.7695624603
 21
4.8900954161
  0
LINE
  5
2E8
100
AcDbEntity
  8
ALL_ASSEMBLY_MEMBERS
100
AcDbLine
 62
7
  6
CONTINUOUS
 10
5.772416791
 20
4.1950145813
 11
5.772416791
 21
4.1925146744
  0
LINE
  5
2E9
100
AcDbEntity
  8
ALL_ASSEMBLY_MEMBERS
100
AcDbLine
 62
7
  6
CONTINUOUS
 10
5.772416791
 20
4.6580315878
 11
5.772416791
 21
4.6836221389
  0
LINE
  5
2EA
100
AcDbEntity
  8
ALL_ASSEMBLY_MEMBERS
100
AcDbLine
 62
7
  6
CONTINUOUS
 10
5.772416791
 20
5.0584122189
 11
5.772416791
 21
5.0751115314
  0
LINE
  5
2EB
100
AcDbEntity
  8
ALL_ASSEMBLY_MEMBERS
100
AcDbLine
 62
7
  6
CONTINUOUS
 10
5.8216293894
 20
5.1633268634
 11
5.8216293894
 21
4.1783268634
  0
LINE
  5
2EC
100
AcDbEntity
  8
ALL_ASSEMBLY_MEMBERS
100
AcDbLine
 62
7
  6
CONTINUOUS
 10
5.9666391102
 20
5.1633268633
 11
5.9662631088
 21
5.1633195619
  0
LINE
  5
2ED
100
AcDbEntity
  8
ALL_ASSEMBLY_MEMBERS
100
AcDbLine
 62
7
  6
CONTINUOUS
 10
5.9662682492
 20
5.1633196795
 11
5.9666391102
 21
5.1633268633
  0
LINE
  5
2EE
100
AcDbEntity
  8
ALL_ASSEMBLY_MEMBERS
100
AcDbLine
 62
7
  6
CONTINUOUS
 10
5.7349063192
 20
5.148202985
 11
5.7184902548
 21
5.148202985
  0
LINE
  5
2EF
100
AcDbEntity
  8
ALL_ASSEMBLY_MEMBERS
100
AcDbLine
 62
7
  6
CONTINUOUS
 10
5.7349063192
 20
5.150694745
 11
5.7184902548
 21
5.150694745
  0
LINE
  5
2F0
100
AcDbEntity
  8
ALL_ASSEMBLY_MEMBERS
100
AcDbLine
 62
7
  6
CONTINUOUS
 10
5.7330823121
 20
5.1516279134
 11
5.720314262
 21
5.1516279134
  0
LINE
  5
2F1
100
AcDbEntity
  8
ALL_ASSEMBLY_MEMBERS
100
AcDbLine
 62
7
  6
CONTINUOUS
 10
5.7330823121
 20
5.1524093672
 11
5.720314262
 21
5.1524093672
  0
LINE
  5
2F2
100
AcDbEntity
  8
ALL_ASSEMBLY_MEMBERS
100
AcDbLine
 62
7
  6
CONTINUOUS
 10
5.6247789957
 20
5.1531103279
 11
5.6838341138
 21
5.1531103279
  0
LINE
  5
2F3
100
AcDbEntity
  8
ALL_ASSEMBLY_MEMBERS
100
AcDbLine
 62
7
  6
CONTINUOUS
 10
5.7695624603
 20
5.1531103279
 11
5.8216293894
 21
5.1531103279
  0
LINE
  5
2F4
100
AcDbEntity
  8
ALL_ASSEMBLY_MEMBERS
100
AcDbLine
 62
7
  6
CONTINUOUS
 10
5.7330823121
 20
5.1548794745
 11
5.720314262
 21
5.1548794745
  0
LINE
  5
2F5
100
AcDbEntity
  8
ALL_ASSEMBLY_MEMBERS
100
AcDbLine
 62
7
  6
CONTINUOUS
 10
5.7349063192
 20
5.1551997677
 11
5.7184902548
 21
5.1551997677
  0
LINE
  5
2F6
100
AcDbEntity
  8
ALL_ASSEMBLY_MEMBERS
100
AcDbLine
 62
7
  6
CONTINUOUS
 10
5.7349063192
 20
5.1555089338
 11
5.7184902548
 21
5.1555089338
  0
LINE
  5
2F7
100
AcDbEntity
  8
ALL_ASSEMBLY_MEMBERS
100
AcDbLine
 62
7
  6
CONTINUOUS
 10
5.6247789957
 20
5.1558268634
 11
5.3842789957
 21
5.1558268634
  0
LINE
  5
2F8
100
AcDbEntity
  8
ALL_ASSEMBLY_MEMBERS
100
AcDbLine
 62
7
  6
CONTINUOUS
 10
5.2092789957
 20
5.1558268634
 11
5.0932789957
 21
5.1558268634
  0
LINE
  5
2F9
100
AcDbEntity
  8
ALL_ASSEMBLY_MEMBERS
100
AcDbLine
 62
7
  6
CONTINUOUS
 10
5.9566293894
 20
5.1632253405
 11
5.8766293894
 21
5.1632253405
  0
LINE
  5
2FA
100
AcDbEntity
  8
ALL_ASSEMBLY_MEMBERS
100
AcDbLine
 62
7
  6
CONTINUOUS
 10
5.8216293894
 20
5.1633268634
 11
5.8666293894
 21
5.1633268634
  0
LINE
  5
2FB
100
AcDbEntity
  8
ALL_ASSEMBLY_MEMBERS
100
AcDbLine
 62
7
  6
CONTINUOUS
 10
5.9666293894
 20
5.1633268634
 11
6.1230043894
 21
5.1633268634
  0
LINE
  5
2FC
100
AcDbEntity
  8
ALL_ASSEMBLY_MEMBERS
100
AcDbLine
 62
7
  6
CONTINUOUS
 10
5.8666196737
 20
5.1633268634
 11
5.8669893359
 21
5.1633197027
  0
LINE
  5
2FD
100
AcDbEntity
  8
ALL_ASSEMBLY_MEMBERS
100
AcDbLine
 62
7
  6
CONTINUOUS
 10
5.8669949587
 20
5.1633195791
 11
5.8666196715
 21
5.1633268633
  0
LINE
  5
2FE
100
AcDbEntity
  8
ALL_ASSEMBLY_MEMBERS
100
AcDbLine
 62
7
  6
CONTINUOUS
 10
5.2317789957
 20
5.2671101314
 11
5.3617789957
 21
5.2671101314
  0
LINE
  5
2FF
100
AcDbEntity
  8
ALL_ASSEMBLY_MEMBERS
100
AcDbLine
 62
7
  6
CONTINUOUS
 10
6.1958671657
 20
5.2808268634
 11
6.2025043894
 21
5.2808268634
  0
LINE
  5
300
100
AcDbEntity
  8
ALL_ASSEMBLY_MEMBERS
100
AcDbLine
 62
7
  6
CONTINUOUS
 10
5.3413244502
 20
5.2955510227
 11
5.2522335412
 21
5.2955510227
  0
LINE
  5
301
100
AcDbEntity
  8
ALL_ASSEMBLY_MEMBERS
100
AcDbLine
 62
7
  6
CONTINUOUS
 10
6.1958671657
 20
5.3458268634
 11
6.2025043894
 21
5.3458268634
  0
LINE
  5
302
100
AcDbEntity
  8
ALL_ASSEMBLY_MEMBERS
100
AcDbLine
 62
7
  6
CONTINUOUS
 10
4.1605289957
 20
5.3583268634
 11
4.3830289957
 21
5.3583268634
  0
LINE
  5
303
100
AcDbEntity
  8
ALL_ASSEMBLY_MEMBERS
100
AcDbLine
 62
7
  6
CONTINUOUS
 10
6.1958671657
 20
5.3708268634
 11
6.2025043894
 21
5.3708268634
  0
LINE
  5
304
100
AcDbEntity
  8
ALL_ASSEMBLY_MEMBERS
100
AcDbLine
 62
7
  6
CONTINUOUS
 10
6.1958671657
 20
5.4358268634
 11
6.2025043894
 21
5.4358268634
  0
LINE
  5
305
100
AcDbEntity
  8
ALL_ASSEMBLY_MEMBERS
100
AcDbLine
 62
7
  6
CONTINUOUS
 10
6.1230043894
 20
4.1408278829
 11
6.1230043894
 21
5.2008258438
  0
LINE
  5
306
100
AcDbEntity
  8
ALL_ASSEMBLY_MEMBERS
100
AcDbLine
 62
7
  6
CONTINUOUS
 10
6.1958671657
 20
5.4358268634
 11
6.1958671657
 21
5.3708268634
  0
LINE
  5
307
100
AcDbEntity
  8
ALL_ASSEMBLY_MEMBERS
100
AcDbLine
 62
7
  6
CONTINUOUS
 10
6.1958671657
 20
5.2808268634
 11
6.1958671657
 21
5.3458268634
  0
LINE
  5
308
100
AcDbEntity
  8
ALL_ASSEMBLY_MEMBERS
100
AcDbLine
 62
7
  6
CONTINUOUS
 10
6.2025043894
 20
3.1294051185
 11
6.2025043894
 21
6.2122486082
  0
LINE
  5
309
100
AcDbEntity
  8
ALL_ASSEMBLY_MEMBERS
100
AcDbLine
 62
7
  6
CONTINUOUS
 10
6.2234728942
 20
3.0997177877
 11
6.2234728942
 21
6.241935939
  0
LINE
  5
30A
100
AcDbEntity
  8
ALL_ASSEMBLY_MEMBERS
100
AcDbLine
 62
7
  6
CONTINUOUS
 10
6.2602632142
 20
3.0650510212
 11
6.2602632142
 21
6.2766027055
  0
LINE
  5
30B
100
AcDbEntity
  8
ALL_ASSEMBLY_MEMBERS
100
AcDbLine
 62
7
  6
CONTINUOUS
 10
6.2892727592
 20
3.0458268634
 11
6.2892727592
 21
6.2958268634
  0
LINE
  5
30C
100
AcDbEntity
  8
ALL_ASSEMBLY_MEMBERS
100
AcDbLine
 62
7
  6
CONTINUOUS
 10
6.3590043894
 20
6.2958268634
 11
6.3590043894
 21
3.0458268634
  0
LINE
  5
30D
100
AcDbEntity
  8
ALL_ASSEMBLY_MEMBERS
100
AcDbLine
 62
7
  6
CONTINUOUS
 10
6.3590043894
 20
6.2958268634
 11
6.2892727592
 21
6.2958268634
  0
ARC
  5
30E
100
AcDbEntity
  8
ALL_ASSEMBLY_MEMBERS
100
AcDbCircle
 62
7
  6
CONTINUOUS
 10
5.9566289021
 20
5.655736248
 40
0.4925109075
100
AcDbArc
 50
270.0000566929
 51
271.1214557203
  0
ARC
  5
30F
100
AcDbEntity
  8
ALL_ASSEMBLY_MEMBERS
100
AcDbCircle
 62
7
  6
CONTINUOUS
 10
5.8766227207
 20
5.6550058984
 40
0.4917805579
100
AcDbArc
 50
268.8775733666
 51
270.0007769503
  0
ARC
  5
310
100
AcDbEntity
  8
ALL_ASSEMBLY_MEMBERS
100
AcDbCircle
 62
7
  6
CONTINUOUS
 10
5.2967789957
 20
5.1628268634
 40
0.14
100
AcDbArc
 50
71.446995465
 51
108.553004535
  0
CIRCLE
  5
311
100
AcDbEntity
  8
ALL_ASSEMBLY_MEMBERS
100
AcDbCircle
 62
7
  6
CONTINUOUS
 10
4.2717789957
 20
4.6708268634
 40
0.1175
  0
CIRCLE
  5
312
100
AcDbEntity
  8
ALL_ASSEMBLY_MEMBERS
100
AcDbCircle
 62
7
  6
CONTINUOUS
 10
4.2717789957
 20
4.6708268634
 40
0.11125
  0
ARC
  5
313
100
AcDbEntity
  8
ALL_ASSEMBLY_MEMBERS
100
AcDbCircle
 62
7
  6
CONTINUOUS
 10
6.2025043894
 20
3.040609472
 40
0.0627173913
100
AcDbArc
 50
22.9364108859
 51
70.4680059554
  0
ARC
  5
314
100
AcDbEntity
  8
ALL_ASSEMBLY_MEMBERS
100
AcDbCircle
 62
7
  6
CONTINUOUS
 10
6.2025043894
 20
6.3010442547
 40
0.0627173913
100
AcDbArc
 50
289.5319940446
 51
337.0635891141
  0
ARC
  5
315
100
AcDbEntity
  8
ALL_ASSEMBLY_MEMBERS
100
AcDbCircle
 62
7
  6
CONTINUOUS
 10
5.7556843971
 20
4.236855501
 40
0.0454241773
100
AcDbArc
 50
270.0001392816
 51
270.9972673085
  0
CIRCLE
  5
316
100
AcDbEntity
  8
ALL_ASSEMBLY_MEMBERS
100
AcDbCircle
 62
7
  6
CONTINUOUS
 10
4.8217789957
 20
4.6708268634
 40
0.04275
  0
ARC
  5
317
100
AcDbEntity
  8
ALL_ASSEMBLY_MEMBERS
100
AcDbCircle
 62
7
  6
CONTINUOUS
 10
4.8217789957
 20
4.6708268634
 40
0.041
100
AcDbArc
 50
192.0125345809
 51
191.7447639377
  0
ARC
  5
318
100
AcDbEntity
  8
ALL_ASSEMBLY_MEMBERS
100
AcDbCircle
 62
7
  6
CONTINUOUS
 10
4.8212817814
 20
4.6723266466
 40
0.0408486462
100
AcDbArc
 50
193.9468736418
 51
194.216447712
  0
ARC
  5
319
100
AcDbEntity
  8
ALL_ASSEMBLY_MEMBERS
100
AcDbCircle
 62
7
  6
CONTINUOUS
 10
4.8217789957
 20
4.6708268634
 40
0.0325449999
100
AcDbArc
 50
139.0174920094
 51
228.9886794061
  0
ARC
  5
31A
100
AcDbEntity
  8
ALL_ASSEMBLY_MEMBERS
100
AcDbCircle
 62
7
  6
CONTINUOUS
 10
4.821723464
 20
4.6707628588
 40
0.0324602631
100
AcDbArc
 50
228.0369306149
 51
228.9885077706
  0
ARC
  5
31B
100
AcDbEntity
  8
ALL_ASSEMBLY_MEMBERS
100
AcDbCircle
 62
7
  6
CONTINUOUS
 10
4.8217038297
 20
4.6708921163
 40
0.0324454616
100
AcDbArc
 50
138.4470393357
 51
139.0174285026
  0
ARC
  5
31C
100
AcDbEntity
  8
ALL_ASSEMBLY_MEMBERS
100
AcDbCircle
 62
7
  6
CONTINUOUS
 10
4.8169678188
 20
4.6740517294
 40
0.0323360116
100
AcDbArc
 50
234.7848547658
 51
239.2253844727
  0
ARC
  5
31D
100
AcDbEntity
  8
ALL_ASSEMBLY_MEMBERS
100
AcDbCircle
 62
7
  6
CONTINUOUS
 10
6.2340043894
 20
3.1294051185
 40
0.0315
100
AcDbArc
 50
180.0
 51
250.4680059544
  0
ARC
  5
31E
100
AcDbEntity
  8
ALL_ASSEMBLY_MEMBERS
100
AcDbCircle
 62
7
  6
CONTINUOUS
 10
6.2340043894
 20
6.2122486082
 40
0.0315
100
AcDbArc
 50
109.5319940456
 51
180.0
  0
ARC
  5
31F
100
AcDbEntity
  8
ALL_ASSEMBLY_MEMBERS
100
AcDbCircle
 62
7
  6
CONTINUOUS
 10
6.2892727592
 20
3.0773268634
 40
0.0315
100
AcDbArc
 50
202.9364108859
 51
270.0
  0
ARC
  5
320
100
AcDbEntity
  8
ALL_ASSEMBLY_MEMBERS
100
AcDbCircle
 62
7
  6
CONTINUOUS
 10
6.2892727592
 20
6.2643268634
 40
0.0315
100
AcDbArc
 50
90.0
 51
157.0635891141
  0
CIRCLE
  5
321
100
AcDbEntity
  8
ALL_ASSEMBLY_MEMBERS
100
AcDbCircle
 62
7
  6
CONTINUOUS
 10
4.8217789957
 20
4.6708268634
 40
0.031
  0
ARC
  5
322
100
AcDbEntity
  8
ALL_ASSEMBLY_MEMBERS
100
AcDbCircle
 62
7
  6
CONTINUOUS
 10
5.2617789957
 20
5.2671101314
 40
0.03
100
AcDbArc
 50
108.553004535
 51
180.0
  0
ARC
  5
323
100
AcDbEntity
  8
ALL_ASSEMBLY_MEMBERS
100
AcDbCircle
 62
7
  6
CONTINUOUS
 10
5.3317789957
 20
5.2671101314
 40
0.03
100
AcDbArc
 50
0.0
 51
71.446995465
  0
SPLINE
  5
324
100
AcDbEntity
  8
ALL_ASSEMBLY_MEMBERS
100
AcDbSpline
 62
7
  6
CONTINUOUS
 70
0
 71
3
 72
51
 73
47
 74
0
 42
0.0000001
 43
0.0000001
 44
0.0000000001
 40
0.0
 40
0.0
 40
0.0
 40
0.0
 40
0.0312468437
 40
0.046879652
 40
0.0625101336
 40
0.0937582182
 40
0.1250069892
 40
0.1406356536
 40
0.1562642793
 40
0.1875136417
 40
0.2187629202
 40
0.2500119329
 40
0.2812604929
 40
0.296888431
 40
0.3125163591
 40
0.3437641762
 40
0.3750121123
 40
0.3906399935
 40
0.4062679263
 40
0.4375155227
 40
0.4687627653
 40
0.4843902736
 40
0.5000177973
 40
0.5312646089
 40
0.5625115846
 40
0.5781391506
 40
0.5937666869
 40
0.625013021
 40
0.656258784
 40
0.6718857557
 40
0.6875127773
 40
0.7187583024
 40
0.7500038296
 40
0.7656308334
 40
0.7812577957
 40
0.7968846812
 40
0.812511329
 40
0.8281378083
 40
0.8437642312
 40
0.8593906938
 40
0.875017463
 40
0.9062613824
 40
0.9375033807
 40
0.9531310039
 40
0.9687613992
 40
1.0
 40
1.0
 40
1.0
 40
1.0
 10
4.7816841294
 20
4.6622948044
 30
0.0
 10
4.7819743942
 20
4.6611490713
 30
0.0
 10
4.7824848122
 20
4.6594478159
 30
0.0
 10
4.7833102253
 20
4.6572315177
 30
0.0
 10
4.7842314932
 20
4.6550531019
 30
0.0
 10
4.7855596613
 20
4.6524087171
 30
0.0
 10
4.7871139771
 20
4.649890628
 30
0.0
 10
4.7884857172
 20
4.6479640935
 30
0.0
 10
4.7899408746
 20
4.6460997522
 30
0.0
 10
4.7919117007
 20
4.6438921018
 30
0.0
 10
4.7945009659
 20
4.6414625791
 30
0.0
 10
4.7972950965
 20
4.6392717557
 30
0.0
 10
4.7997771721
 20
4.6376601328
 30
0.0
 10
4.8018423694
 20
4.6365077761
 30
0.0
 10
4.8039570695
 20
4.6354490334
 30
0.0
 10
4.8066861613
 20
4.6343047191
 30
0.0
 10
4.8095071472
 20
4.6334104812
 30
0.0
 10
4.8118046747
 20
4.6328498248
 30
0.0
 10
4.8141252113
 20
4.63239374
 30
0.0
 10
4.817061025
 20
4.6320212535
 30
0.0
 10
4.8200185701
 20
4.6319172477
 30
0.0
 10
4.8223821711
 20
4.631995785
 30
0.0
 10
4.8247396855
 20
4.6321823948
 30
0.0
 10
4.8276668896
 20
4.6326176783
 30
0.0
 10
4.8305417198
 20
4.6333202444
 30
0.0
 10
4.8327947533
 20
4.6340390345
 30
0.0
 10
4.8350120901
 20
4.6348613005
 30
0.0
 10
4.8377088103
 20
4.6360802824
 30
0.0
 10
4.8402805353
 20
4.6375447187
 30
0.0
 10
4.8422487486
 20
4.6388556808
 30
0.0
 10
4.8441534448
 20
4.6402573141
 30
0.0
 10
4.8464081109
 20
4.6421743289
 30
0.0
 10
4.848472508
 20
4.6442949721
 30
0.0
 10
4.8499981208
 20
4.646101862
 30
0.0
 10
4.8510771005
 20
4.6475099959
 30
0.0
 10
4.852088082
 20
4.6489676564
 30
0.0
 10
4.8530287712
 20
4.6504716326
 30
0.0
 10
4.8538967214
 20
4.6520187126
 30
0.0
 10
4.8546899036
 20
4.6536054056
 30
0.0
 10
4.8554064547
 20
4.6552282065
 30
0.0
 10
4.856256809
 20
4.6574347673
 30
0.0
 10
4.8571198767
 20
4.660265644
 30
0.0
 10
4.8577062434
 20
4.6631665326
 30
0.0
 10
4.8580055265
 20
4.66551247
 30
0.0
 10
4.8581905293
 20
4.6678698473
 30
0.0
 10
4.8582004109
 20
4.6696463539
 30
0.0
 10
4.8581492385
 20
4.6708268634
 30
0.0
  0
SPLINE
  5
325
100
AcDbEntity
  8
ALL_ASSEMBLY_MEMBERS
100
AcDbSpline
 62
7
  6
CONTINUOUS
 70
0
 71
3
 72
45
 73
41
 74
0
 42
0.0000001
 43
0.0000001
 44
0.0000000001
 40
0.0
 40
0.0
 40
0.0
 40
0.0
 40
0.0312443913
 40
0.0625045778
 40
0.0937586114
 40
0.1250086056
 40
0.1562602379
 40
0.1875121543
 40
0.2187631937
 40
0.2500136699
 40
0.2812644036
 40
0.3125149675
 40
0.3281429587
 40
0.3437708426
 40
0.3750207752
 40
0.3906483796
 40
0.4062758482
 40
0.4219032039
 40
0.4375305859
 40
0.4687797469
 40
0.500028972
 40
0.5312782965
 40
0.5625275099
 40
0.5937763633
 40
0.6250247555
 40
0.640651642
 40
0.656278377
 40
0.6875259544
 40
0.7187732236
 40
0.7343998672
 40
0.7500264502
 40
0.7812731576
 40
0.8125195071
 40
0.8281456401
 40
0.8437719521
 40
0.8750179404
 40
0.9062617073
 40
0.9375079568
 40
0.968762097
 40
1.0
 40
1.0
 40
1.0
 40
1.0
 10
4.8581492385
 20
4.6708268634
 30
0.0
 10
4.8581114981
 20
4.6716975059
 30
0.0
 10
4.8579731012
 20
4.6734371526
 30
0.0
 10
4.8575782626
 20
4.6760244577
 30
0.0
 10
4.8569968557
 20
4.6785766452
 30
0.0
 10
4.8562318667
 20
4.6810796637
 30
0.0
 10
4.8552864774
 20
4.6835202286
 30
0.0
 10
4.8541654957
 20
4.6858853395
 30
0.0
 10
4.8528739758
 20
4.6881617892
 30
0.0
 10
4.8514186786
 20
4.6903371856
 30
0.0
 10
4.849806775
 20
4.6923991406
 30
0.0
 10
4.8483399002
 20
4.6940136048
 30
0.0
 10
4.8470970892
 20
4.6952367762
 30
0.0
 10
4.8458097259
 20
4.6964128837
 30
0.0
 10
4.8444573636
 20
4.6975161865
 30
0.0
 10
4.84304652
 20
4.698540853
 30
0.0
 10
4.8419602106
 20
4.6992693278
 30
0.0
 10
4.8408473379
 20
4.6999565196
 30
0.0
 10
4.8393302729
 20
4.7008161308
 30
0.0
 10
4.837374797
 20
4.7017827034
 30
0.0
 10
4.8349475975
 20
4.7027617772
 30
0.0
 10
4.8324531283
 20
4.7035542253
 30
0.0
 10
4.8299055737
 20
4.7041545165
 30
0.0
 10
4.8273197393
 20
4.7045587861
 30
0.0
 10
4.8251450803
 20
4.7047295061
 30
0.0
 10
4.8234017945
 20
4.7047655703
 30
0.0
 10
4.8216584245
 20
4.7047345
 30
0.0
 10
4.8194834362
 20
4.7045693204
 30
0.0
 10
4.8173277178
 20
4.7042364164
 30
0.0
 10
4.8156229831
 20
4.7038701658
 30
0.0
 10
4.8139338028
 20
4.7034378882
 30
0.0
 10
4.8118558868
 20
4.7027744662
 30
0.0
 10
4.8098363219
 20
4.7019503045
 30
0.0
 10
4.8082635613
 20
4.7011976082
 30
0.0
 10
4.8067217322
 20
4.7003834693
 30
0.0
 10
4.8048564298
 20
4.699252742
 30
0.0
 10
4.8027328102
 20
4.6977231604
 30
0.0
 10
4.8007370803
 20
4.6960295137
 30
0.0
 10
4.7988832275
 20
4.6941821369
 30
0.0
 10
4.7977493704
 20
4.6928554198
 30
0.0
 10
4.7972104551
 20
4.6921708048
 30
0.0
  0
SPLINE
  5
326
100
AcDbEntity
  8
ALL_ASSEMBLY_MEMBERS
100
AcDbSpline
 62
7
  6
CONTINUOUS
 70
0
 71
3
 72
28
 73
24
 74
0
 42
0.0000001
 43
0.0000001
 44
0.0000000001
 40
0.0
 40
0.0
 40
0.0
 40
0.0
 40
0.0626154987
 40
0.0939393407
 40
0.1252584574
 40
0.1878593455
 40
0.2504402684
 40
0.2817334623
 40
0.3130227492
 40
0.3443079094
 40
0.3755889024
 40
0.4381221626
 40
0.5006376158
 40
0.5631329006
 40
0.6256079837
 40
0.6568447815
 40
0.6880765896
 40
0.7505064874
 40
0.8129137195
 40
0.8441146311
 40
0.8753077792
 40
0.9376593361
 40
1.0
 40
1.0
 40
1.0
 40
1.0
 10
4.787528517
 20
4.6933636047
 30
0.0
 10
4.7870756738
 20
4.6924003123
 30
0.0
 10
4.786452932
 20
4.6909274487
 30
0.0
 10
4.7857417658
 20
4.6889199748
 30
0.0
 10
4.7851115334
 20
4.6868857791
 30
0.0
 10
4.7844783676
 20
4.6842986459
 30
0.0
 10
4.784057854
 20
4.6816688895
 30
0.0
 10
4.7838523047
 20
4.6795506301
 30
0.0
 10
4.783764021
 20
4.6779569097
 30
0.0
 10
4.7837423263
 20
4.6763610875
 30
0.0
 10
4.7838027993
 20
4.6742348241
 30
0.0
 10
4.7840465257
 20
4.6715850202
 30
0.0
 10
4.7846098304
 20
4.6684431037
 30
0.0
 10
4.7854426823
 20
4.665362586
 30
0.0
 10
4.7863595902
 20
4.6628664649
 30
0.0
 10
4.7872236505
 20
4.6609255258
 30
0.0
 10
4.7881737064
 20
4.65902605
 30
0.0
 10
4.7895203268
 20
4.656735624
 30
0.0
 10
4.7910712709
 20
4.6545787695
 30
0.0
 10
4.7924273446
 20
4.6529463196
 30
0.0
 10
4.7938579588
 20
4.6513800433
 30
0.0
 10
4.7957822727
 20
4.6495521256
 30
0.0
 10
4.7974554685
 20
4.6482445058
 30
0.0
 10
4.7983213128
 20
4.6476334504
 30
0.0
  0
SPLINE
  5
327
100
AcDbEntity
  8
ALL_ASSEMBLY_MEMBERS
100
AcDbSpline
 62
7
  6
CONTINUOUS
 70
0
 71
3
 72
20
 73
16
 74
0
 42
0.0000001
 43
0.0000001
 44
0.0000000001
 40
0.0
 40
0.0
 40
0.0
 40
0.0
 40
0.0161728331
 40
0.0258036186
 40
0.0369209756
 40
0.0643334836
 40
0.0992315881
 40
0.1417947005
 40
0.1919721843
 40
0.2494665808
 40
0.313814204
 40
0.4610154349
 40
0.6286948361
 40
0.8109417894
 40
1.0
 40
1.0
 40
1.0
 40
1.0
 10
5.762574001
 20
4.1925146917
 30
0.0
 10
5.7625739994
 20
4.192553244
 30
0.0
 10
5.7625531138
 20
4.1926150193
 30
0.0
 10
5.7624997377
 20
4.1926850831
 30
0.0
 10
5.7624161645
 20
4.1927645358
 30
0.0
 10
5.7622676342
 20
4.1928593444
 30
0.0
 10
5.762040491
 20
4.1929645122
 30
0.0
 10
5.7617535485
 20
4.1930667497
 30
0.0
 10
5.7614089496
 20
4.1931648371
 30
0.0
 10
5.7610094171
 20
4.1932577252
 30
0.0
 10
5.7603794778
 20
4.1933787456
 30
0.0
 10
5.7594838388
 20
4.1935052167
 30
0.0
 10
5.7583036537
 20
4.1936158459
 30
0.0
 10
5.7570203578
 20
4.1936842571
 30
0.0
 10
5.7561351786
 20
4.193699963
 30
0.0
 10
5.7556845075
 20
4.193699963
 30
0.0
  0
SPLINE
  5
328
100
AcDbEntity
  8
ALL_ASSEMBLY_MEMBERS
100
AcDbSpline
 62
7
  6
CONTINUOUS
 70
0
 71
3
 72
23
 73
19
 74
0
 42
0.0000001
 43
0.0000001
 44
0.0000000001
 40
0.0
 40
0.0
 40
0.0
 40
0.0
 40
0.0078034152
 40
0.0161641464
 40
0.0256081261
 40
0.0365034451
 40
0.0490751587
 40
0.0634558353
 40
0.0979038589
 40
0.1401458142
 40
0.1900907423
 40
0.247437934
 40
0.3118120388
 40
0.3826710245
 40
0.459367591
 40
0.6275128975
 40
0.8101911166
 40
1.0
 40
1.0
 40
1.0
 40
1.0
 10
5.7724165678
 20
4.1925147152
 30
0.0
 10
5.7724165696
 20
4.1924697582
 30
0.0
 10
5.7724022322
 20
4.1923761214
 30
0.0
 10
5.7723390957
 20
4.1922410583
 30
0.0
 10
5.7722362811
 20
4.192110164
 30
0.0
 10
5.7720947798
 20
4.1919829467
 30
0.0
 10
5.7719150526
 20
4.191858711
 30
0.0
 10
5.7716056109
 20
4.1916864666
 30
0.0
 10
5.7711194859
 20
4.1914851833
 30
0.0
 10
5.7704222097
 20
4.1912688019
 30
0.0
 10
5.7695842447
 20
4.1910667797
 30
0.0
 10
5.7686127327
 20
4.1908802532
 30
0.0
 10
5.7675160206
 20
4.1907110179
 30
0.0
 10
5.7663043121
 20
4.1905598222
 30
0.0
 10
5.7644945013
 20
4.1903777009
 30
0.0
 10
5.7620368122
 20
4.1902068867
 30
0.0
 10
5.7589241208
 20
4.1900860455
 30
0.0
 10
5.7567780337
 20
4.1900591585
 30
0.0
 10
5.7556845075
 20
4.1900591585
 30
0.0
  0
SPLINE
  5
329
100
AcDbEntity
  8
ALL_ASSEMBLY_MEMBERS
100
AcDbSpline
 62
7
  6
CONTINUOUS
 70
0
 71
3
 72
20
 73
16
 74
0
 42
0.0000001
 43
0.0000001
 44
0.0000000001
 40
0.0
 40
0.0
 40
0.0
 40
0.0
 40
0.189057575
 40
0.3713042276
 40
0.5389848736
 40
0.6861864316
 40
0.7505333508
 40
0.8080268943
 40
0.8582038084
 40
0.9007670648
 40
0.9356657355
 40
0.9630788201
 40
0.9741963456
 40
0.9838271894
 40
1.0
 40
1.0
 40
1.0
 40
1.0
 10
5.7556845075
 20
4.193699963
 30
0.0
 10
5.7552338379
 20
4.193699963
 30
0.0
 10
5.7543486609
 20
4.193684258
 30
0.0
 10
5.7530653643
 20
4.1936158459
 30
0.0
 10
5.7518851763
 20
4.1935052153
 30
0.0
 10
5.750989535
 20
4.1933787461
 30
0.0
 10
5.7503595985
 20
4.1932577269
 30
0.0
 10
5.7499600709
 20
4.1931648396
 30
0.0
 10
5.7496154753
 20
4.1930667519
 30
0.0
 10
5.7493285327
 20
4.192964514
 30
0.0
 10
5.7491013863
 20
4.1928593456
 30
0.0
 10
5.7489528526
 20
4.1927645367
 30
0.0
 10
5.7488692771
 20
4.1926850836
 30
0.0
 10
5.7488159004
 20
4.1926150196
 30
0.0
 10
5.7487950151
 20
4.192553244
 30
0.0
 10
5.7487950139
 20
4.1925146917
 30
0.0
  0
SPLINE
  5
32A
100
AcDbEntity
  8
ALL_ASSEMBLY_MEMBERS
100
AcDbSpline
 62
7
  6
CONTINUOUS
 70
0
 71
3
 72
23
 73
19
 74
0
 42
0.0000001
 43
0.0000001
 44
0.0000000001
 40
0.0
 40
0.0
 40
0.0
 40
0.0
 40
0.1898090382
 40
0.3724871401
 40
0.5406320978
 40
0.6173287805
 40
0.6881879839
 40
0.752562232
 40
0.8099093563
 40
0.859854115
 40
0.9020959549
 40
0.9365440101
 40
0.9509247321
 40
0.9634964936
 40
0.9743918508
 40
0.9838358491
 40
0.9921965845
 40
1.0
 40
1.0
 40
1.0
 40
1.0
 10
5.7556845075
 20
4.1900591585
 30
0.0
 10
5.7545909804
 20
4.1900591585
 30
0.0
 10
5.7524448931
 20
4.1900860459
 30
0.0
 10
5.7493322035
 20
4.1902068863
 30
0.0
 10
5.7468745164
 20
4.1903777006
 30
0.0
 10
5.7450647058
 20
4.1905598223
 30
0.0
 10
5.7438529946
 20
4.1907110183
 30
0.0
 10
5.7427562807
 20
4.1908802532
 30
0.0
 10
5.7417847691
 20
4.1910667793
 30
0.0
 10
5.7409468061
 20
4.1912688012
 30
0.0
 10
5.7402495315
 20
4.1914851828
 30
0.0
 10
5.7397634068
 20
4.1916864661
 30
0.0
 10
5.7394539643
 20
4.1918587105
 30
0.0
 10
5.7392742363
 20
4.1919829463
 30
0.0
 10
5.7391327342
 20
4.1921101637
 30
0.0
 10
5.7390299191
 20
4.1922410581
 30
0.0
 10
5.7389667827
 20
4.1923761213
 30
0.0
 10
5.7389524453
 20
4.1924697582
 30
0.0
 10
5.7389524472
 20
4.1925147152
 30
0.0
  0
LINE
  5
32B
100
AcDbEntity
  8
ALL_ASSEMBLY_MEMBERS
100
AcDbLine
 62
7
  6
CONTINUOUS
 10
5.7556845075
 20
4.1955715893
 11
5.7632947789
 21
4.1952074401
  0
SPLINE
  5
32C
100
AcDbEntity
  8
ALL_ASSEMBLY_MEMBERS
100
AcDbSpline
 62
7
  6
CONTINUOUS
 70
0
 71
3
 72
19
 73
15
 74
0
 42
0.0000001
 43
0.0000001
 44
0.0000000001
 40
0.0
 40
0.0
 40
0.0
 40
0.0
 40
0.20355588
 40
0.388916636
 40
0.5529760947
 40
0.6930837406
 40
0.7535900277
 40
0.8074763989
 40
0.8546516999
 40
0.8951680966
 40
0.9292150896
 40
0.95723513
 40
0.9801956094
 40
1.0
 40
1.0
 40
1.0
 40
1.0
 10
5.7632947789
 20
4.1952074401
 30
0.0
 10
5.763955629
 20
4.1951410028
 30
0.0
 10
5.7652164032
 20
4.194994298
 30
0.0
 10
5.7670002243
 20
4.1947200316
 30
0.0
 10
5.7685674891
 20
4.194409124
 30
0.0
 10
5.7697212045
 20
4.194113932
 30
0.0
 10
5.7705122109
 20
4.1938603842
 30
0.0
 10
5.7710062226
 20
4.1936756353
 30
0.0
 10
5.7714287141
 20
4.1934879365
 30
0.0
 10
5.7717783865
 20
4.1932983568
 30
0.0
 10
5.7720545592
 20
4.1931076717
 30
0.0
 10
5.7722569144
 20
4.1929155651
 30
0.0
 10
5.7723848951
 20
4.1927196468
 30
0.0
 10
5.7724165652
 20
4.1925793348
 30
0.0
 10
5.7724165678
 20
4.1925147152
 30
0.0
  0
SPLINE
  5
32D
100
AcDbEntity
  8
ALL_ASSEMBLY_MEMBERS
100
AcDbSpline
 62
7
  6
CONTINUOUS
 70
0
 71
3
 72
18
 73
14
 74
0
 42
0.0000001
 43
0.0000001
 44
0.0000000001
 40
0.0
 40
0.0
 40
0.0
 40
0.0
 40
0.0196331412
 40
0.0421488034
 40
0.0696179638
 40
0.1031481057
 40
0.143227933
 40
0.1900563012
 40
0.3040558468
 40
0.4444578624
 40
0.6090795544
 40
0.7953332078
 40
1.0
 40
1.0
 40
1.0
 40
1.0
 10
5.7487950139
 20
4.1925146917
 30
0.0
 10
5.748795013
 20
4.1924881697
 30
0.0
 10
5.7488079619
 20
4.1924308279
 30
0.0
 10
5.7488614949
 20
4.1923518016
 30
0.0
 10
5.748946178
 20
4.192276179
 30
0.0
 10
5.7490617802
 20
4.1922027721
 30
0.0
 10
5.7492081312
 20
4.1921311699
 30
0.0
 10
5.7494609204
 20
4.1920318132
 30
0.0
 10
5.749852611
 20
4.1919188197
 30
0.0
 10
5.7504065901
 20
4.191801423
 30
0.0
 10
5.7510622191
 20
4.1916969475
 30
0.0
 10
5.7518075007
 20
4.1916077205
 30
0.0
 10
5.7523336263
 20
4.1915612757
 30
0.0
 10
5.7526093208
 20
4.1915404462
 30
0.0
  0
LINE
  5
32E
100
AcDbEntity
  8
ALL_ASSEMBLY_MEMBERS
100
AcDbLine
 62
7
  6
CONTINUOUS
 10
5.7526093208
 20
4.1915404462
 11
5.7556845075
 21
4.1914313237
  0
SPLINE
  5
32F
100
AcDbEntity
  8
ALL_ASSEMBLY_MEMBERS
100
AcDbSpline
 62
7
  6
CONTINUOUS
 70
0
 71
3
 72
23
 73
19
 74
0
 42
0.0000001
 43
0.0000001
 44
0.0000000001
 40
0.0
 40
0.0
 40
0.0
 40
0.0
 40
0.0078812127
 40
0.0164536615
 40
0.0261985843
 40
0.0374419714
 40
0.0503770288
 40
0.0651150352
 40
0.1002079959
 40
0.1429471231
 40
0.1932146859
 40
0.2507048315
 40
0.3150490248
 40
0.385731092
 40
0.4621336633
 40
0.6294611839
 40
0.8111746924
 40
1.0
 40
1.0
 40
1.0
 40
1.0
 10
5.7724165656
 20
4.1950146226
 30
0.0
 10
5.7724165632
 20
4.1950603795
 30
0.0
 10
5.772401793
 20
4.195156342
 30
0.0
 10
5.7723384937
 20
4.1952961958
 30
0.0
 10
5.7722356909
 20
4.195434852
 30
0.0
 10
5.7720941846
 20
4.1955727149
 30
0.0
 10
5.7719144134
 20
4.1957102438
 30
0.0
 10
5.771605619
 20
4.1959044536
 30
0.0
 10
5.7711206604
 20
4.1961393468
 30
0.0
 10
5.7704243633
 20
4.1964022061
 30
0.0
 10
5.7695880481
 20
4.1966569987
 30
0.0
 10
5.7686186959
 20
4.1969006132
 30
0.0
 10
5.7675243731
 20
4.1971293211
 30
0.0
 10
5.766314903
 20
4.1973401766
 30
0.0
 10
5.7645080711
 20
4.1976014584
 30
0.0
 10
5.7620502583
 20
4.197857518
 30
0.0
 10
5.758932339
 20
4.198045051
 30
0.0
 10
5.7567807918
 20
4.1980876612
 30
0.0
 10
5.7556845075
 20
4.1980876612
 30
0.0
  0
SPLINE
  5
330
100
AcDbEntity
  8
ALL_ASSEMBLY_MEMBERS
100
AcDbSpline
 62
7
  6
CONTINUOUS
 70
0
 71
3
 72
19
 73
15
 74
0
 42
0.0000001
 43
0.0000001
 44
0.0000000001
 40
0.0
 40
0.0
 40
0.0
 40
0.0
 40
0.0198049523
 40
0.0427658196
 40
0.0707860016
 40
0.1048329554
 40
0.1453492186
 40
0.1925243779
 40
0.2464106673
 40
0.3069168988
 40
0.4470242174
 40
0.6110828505
 40
0.7964431978
 40
1.0
 40
1.0
 40
1.0
 40
1.0
 10
5.7389524472
 20
4.1925147152
 30
0.0
 10
5.73895245
 20
4.1925793319
 30
0.0
 10
5.738984117
 20
4.1927196368
 30
0.0
 10
5.739112086
 20
4.1929155466
 30
0.0
 10
5.7393144229
 20
4.1931076451
 30
0.0
 10
5.7395905715
 20
4.1932983222
 30
0.0
 10
5.7399402141
 20
4.1934878941
 30
0.0
 10
5.7403626707
 20
4.1936755855
 30
0.0
 10
5.740856643
 20
4.1938603277
 30
0.0
 10
5.7416475869
 20
4.1941138672
 30
0.0
 10
5.7428012107
 20
4.1944090516
 30
0.0
 10
5.7443683526
 20
4.1947199546
 30
0.0
 10
5.7461520398
 20
4.1949942203
 30
0.0
 10
5.7474127222
 20
4.1951409283
 30
0.0
 10
5.7480735265
 20
4.1952073685
 30
0.0
  0
LINE
  5
331
100
AcDbEntity
  8
ALL_ASSEMBLY_MEMBERS
100
AcDbLine
 62
7
  6
CONTINUOUS
 10
5.7480735265
 20
4.1952073685
 11
5.7556845075
 21
4.1955715893
  0
LINE
  5
332
100
AcDbEntity
  8
ALL_ASSEMBLY_MEMBERS
100
AcDbLine
 62
7
  6
CONTINUOUS
 10
5.7564749921
 20
4.1914382043
 11
5.7587596199
 21
4.1915404412
  0
SPLINE
  5
333
100
AcDbEntity
  8
ALL_ASSEMBLY_MEMBERS
100
AcDbSpline
 62
7
  6
CONTINUOUS
 70
0
 71
3
 72
18
 73
14
 74
0
 42
0.0000001
 43
0.0000001
 44
0.0000000001
 40
0.0
 40
0.0
 40
0.0
 40
0.0
 40
0.2046682898
 40
0.3909226323
 40
0.5555427642
 40
0.6959425846
 40
0.8099416072
 40
0.856770528
 40
0.8968510988
 40
0.9303819048
 40
0.9578513979
 40
0.9803670226
 40
1.0
 40
1.0
 40
1.0
 40
1.0
 10
5.7587596199
 20
4.1915404412
 30
0.0
 10
5.7590353215
 20
4.1915612708
 30
0.0
 10
5.7595614598
 20
4.1916077158
 30
0.0
 10
5.7603067563
 20
4.1916969414
 30
0.0
 10
5.7609623936
 20
4.1918014155
 30
0.0
 10
5.7615163774
 20
4.1919188123
 30
0.0
 10
5.7619080723
 20
4.1920318072
 30
0.0
 10
5.7621608677
 20
4.1921311647
 30
0.0
 10
5.7623072244
 20
4.1922027678
 30
0.0
 10
5.7624228318
 20
4.1922761756
 30
0.0
 10
5.7625075187
 20
4.192351799
 30
0.0
 10
5.7625610535
 20
4.1924308267
 30
0.0
 10
5.7625740021
 20
4.1924881694
 30
0.0
 10
5.762574001
 20
4.1925146917
 30
0.0
  0
SPLINE
  5
334
100
AcDbEntity
  8
ALL_ASSEMBLY_MEMBERS
100
AcDbSpline
 62
7
  6
CONTINUOUS
 70
0
 71
3
 72
23
 73
19
 74
0
 42
0.0000001
 43
0.0000001
 44
0.0000000001
 40
0.0
 40
0.0
 40
0.0
 40
0.0
 40
0.1888229036
 40
0.3705327349
 40
0.5378605567
 40
0.6142646738
 40
0.6849485675
 40
0.7492938873
 40
0.8067841067
 40
0.8570512933
 40
0.899790283
 40
0.9348837029
 40
0.9496220702
 40
0.9625575115
 40
0.9738012536
 40
0.9835463683
 40
0.9921188286
 40
1.0
 40
1.0
 40
1.0
 40
1.0
 10
5.7556845075
 20
4.1980876612
 30
0.0
 10
5.7545882372
 20
4.1980876612
 30
0.0
 10
5.7524367252
 20
4.1980450557
 30
0.0
 10
5.7493188396
 20
4.1978575231
 30
0.0
 10
5.7468610369
 20
4.1976014701
 30
0.0
 10
5.7450541839
 20
4.1973401847
 30
0.0
 10
5.7438446877
 20
4.1971293279
 30
0.0
 10
5.7427503468
 20
4.1969006207
 30
0.0
 10
5.7417809892
 20
4.196657008
 30
0.0
 10
5.7409446762
 20
4.1964022167
 30
0.0
 10
5.7402483799
 20
4.196139356
 30
0.0
 10
5.7397634179
 20
4.1959044609
 30
0.0
 10
5.7394546166
 20
4.1957102491
 30
0.0
 10
5.7392748391
 20
4.1955727181
 30
0.0
 10
5.7391333264
 20
4.1954348541
 30
0.0
 10
5.739030519
 20
4.1952961971
 30
0.0
 10
5.7389672197
 20
4.1951563419
 30
0.0
 10
5.7389524512
 20
4.1950603793
 30
0.0
 10
5.7389524496
 20
4.1950146227
 30
0.0
  0
SPLINE
  5
335
100
AcDbEntity
  8
ALL_ASSEMBLY_MEMBERS
100
AcDbSpline
 62
7
  6
CONTINUOUS
 70
0
 71
3
 72
15
 73
11
 74
0
 42
0.0000001
 43
0.0000001
 44
0.0000000001
 40
0.0
 40
0.0
 40
0.0
 40
0.0
 40
0.0383023088
 40
0.1469422305
 40
0.3089839169
 40
0.4999851369
 40
0.6909880625
 40
0.853042422
 40
0.9616934259
 40
1.0
 40
1.0
 40
1.0
 40
1.0
 10
4.7790289957
 20
4.3427018634
 30
0.0
 10
4.7801144543
 20
4.3428432928
 30
0.0
 10
4.784281333
 20
4.3433658745
 30
0.0
 10
4.7930631219
 20
4.3443021914
 30
0.0
 10
4.806227808
 20
4.3452441346
 30
0.0
 10
4.8217777693
 20
4.3456361202
 30
0.0
 10
4.8373280942
 20
4.3452442137
 30
0.0
 10
4.8504935138
 20
4.3443023205
 30
0.0
 10
4.8592761033
 20
4.3433659532
 30
0.0
 10
4.8634434166
 20
4.3428433117
 30
0.0
 10
4.8645289957
 20
4.3427018634
 30
0.0
  0
SPLINE
  5
336
100
AcDbEntity
  8
ALL_ASSEMBLY_MEMBERS
100
AcDbSpline
 62
7
  6
CONTINUOUS
 70
0
 71
3
 72
22
 73
18
 74
0
 42
0.0000001
 43
0.0000001
 44
0.0000000001
 40
0.0
 40
0.0
 40
0.0
 40
0.0
 40
0.0470169065
 40
0.0939668494
 40
0.1406975986
 40
0.1870636559
 40
0.2783272011
 40
0.3670674104
 40
0.4526923789
 40
0.5346252977
 40
0.6123170905
 40
0.6851724454
 40
0.7525171542
 40
0.8136034493
 40
0.8675768674
 40
0.9135372253
 40
1.0
 40
1.0
 40
1.0
 40
1.0
 10
4.2717789957
 20
4.5247104714
 30
0.0
 10
4.2737574839
 20
4.5247104714
 30
0.0
 10
4.2777120996
 20
4.5246285951
 30
0.0
 10
4.2836231986
 20
4.524268611
 30
0.0
 10
4.2894885114
 20
4.5236796154
 30
0.0
 10
4.2971730891
 20
4.5226034829
 30
0.0
 10
4.3065282422
 20
4.5207635444
 30
0.0
 10
4.3173359518
 20
4.517884208
 30
0.0
 10
4.3275844295
 20
4.5145080063
 30
0.0
 10
4.3372198745
 20
4.5108016971
 30
0.0
 10
4.3461980642
 20
4.506910426
 30
0.0
 10
4.3544820325
 20
4.5029767908
 30
0.0
 10
4.3620258151
 20
4.4991229705
 30
0.0
 10
4.3687782051
 20
4.4954720106
 30
0.0
 10
4.3746752576
 20
4.4921342491
 30
0.0
 10
4.3814422315
 20
4.4881676628
 30
0.0
 10
4.386196091
 20
4.485259258
 30
0.0
 10
4.3892789957
 20
4.4833268634
 30
0.0
  0
SPLINE
  5
337
100
AcDbEntity
  8
ALL_ASSEMBLY_MEMBERS
100
AcDbSpline
 62
7
  6
CONTINUOUS
 70
0
 71
3
 72
22
 73
18
 74
0
 42
0.0000001
 43
0.0000001
 44
0.0000000001
 40
0.0
 40
0.0
 40
0.0
 40
0.0
 40
0.0470169959
 40
0.0939672355
 40
0.1406985116
 40
0.1870650763
 40
0.2783291469
 40
0.3670697843
 40
0.4526945474
 40
0.5346274792
 40
0.6123190281
 40
0.6851743167
 40
0.7525188554
 40
0.8136049704
 40
0.8675781337
 40
0.9135380797
 40
1.0
 40
1.0
 40
1.0
 40
1.0
 10
4.2717789957
 20
4.8169432553
 30
0.0
 10
4.2698005038
 20
4.8169432553
 30
0.0
 10
4.2658458718
 20
4.8170251401
 30
0.0
 10
4.2599347358
 20
4.8173851444
 30
0.0
 10
4.2540693667
 20
4.8179741349
 30
0.0
 10
4.2463847194
 20
4.8190502487
 30
0.0
 10
4.2370295202
 20
4.8208902705
 30
0.0
 10
4.2262217704
 20
4.8237695742
 30
0.0
 10
4.2159732966
 20
4.8271458226
 30
0.0
 10
4.2063378724
 20
4.8308521322
 30
0.0
 10
4.1973596961
 20
4.834743403
 30
0.0
 10
4.1890757507
 20
4.8386770391
 30
0.0
 10
4.1815319872
 20
4.8425308579
 30
0.0
 10
4.1747796197
 20
4.8461818058
 30
0.0
 10
4.1688826031
 20
4.849519558
 30
0.0
 10
4.1621156825
 20
4.8534861087
 30
0.0
 10
4.1573618665
 20
4.8563944819
 30
0.0
 10
4.1542789957
 20
4.8583268634
 30
0.0
  0
SPLINE
  5
338
100
AcDbEntity
  8
ALL_ASSEMBLY_MEMBERS
100
AcDbSpline
 62
7
  6
CONTINUOUS
 70
0
 71
3
 72
22
 73
18
 74
0
 42
0.0000001
 43
0.0000001
 44
0.0000000001
 40
0.0
 40
0.0
 40
0.0
 40
0.0
 40
0.0864620487
 40
0.1324220865
 40
0.1863953286
 40
0.2474815153
 40
0.3148261001
 40
0.3876813749
 40
0.4653729098
 40
0.5473057554
 40
0.6329304255
 40
0.7216708783
 40
0.8129347367
 40
0.8593013171
 40
0.9060326705
 40
0.9529829765
 40
1.0
 40
1.0
 40
1.0
 40
1.0
 10
4.1542789957
 20
4.4833268634
 30
0.0
 10
4.1573618714
 20
4.4852592472
 30
0.0
 10
4.1621156951
 20
4.4881676256
 30
0.0
 10
4.1688826264
 20
4.4921341828
 30
0.0
 10
4.1747796523
 20
4.4954719392
 30
0.0
 10
4.1815320275
 20
4.4991228903
 30
0.0
 10
4.1890757957
 20
4.5029767097
 30
0.0
 10
4.1973597425
 20
4.5069103445
 30
0.0
 10
4.2063379153
 20
4.5108016111
 30
0.0
 10
4.2159733319
 20
4.5145079181
 30
0.0
 10
4.2262217936
 20
4.5178841539
 30
0.0
 10
4.2370295215
 20
4.5207634587
 30
0.0
 10
4.2463847041
 20
4.5226034838
 30
0.0
 10
4.2540693479
 20
4.5236795869
 30
0.0
 10
4.2599347238
 20
4.5242685755
 30
0.0
 10
4.2658458667
 20
4.5246285843
 30
0.0
 10
4.2698005026
 20
4.5247104714
 30
0.0
 10
4.2717789957
 20
4.5247104714
 30
0.0
  0
SPLINE
  5
339
100
AcDbEntity
  8
ALL_ASSEMBLY_MEMBERS
100
AcDbSpline
 62
7
  6
CONTINUOUS
 70
0
 71
3
 72
22
 73
18
 74
0
 42
0.0000001
 43
0.0000001
 44
0.0000000001
 40
0.0
 40
0.0
 40
0.0
 40
0.0
 40
0.0864626485
 40
0.1324229167
 40
0.1863962579
 40
0.2474824846
 40
0.3148271507
 40
0.387682524
 40
0.4653743366
 40
0.5473073416
 40
0.632932404
 40
0.7216727932
 40
0.8129365499
 40
0.8593025867
 40
0.9060332512
 40
0.9529831228
 40
1.0
 40
1.0
 40
1.0
 40
1.0
 10
4.3892789957
 20
4.8583268634
 30
0.0
 10
4.3861960958
 20
4.856394471
 30
0.0
 10
4.3814422438
 20
4.8534860713
 30
0.0
 10
4.3746752804
 20
4.8495194915
 30
0.0
 10
4.3687782371
 20
4.846181734
 30
0.0
 10
4.3620258543
 20
4.8425307773
 30
0.0
 10
4.3544820759
 20
4.8386769571
 30
0.0
 10
4.3461981085
 20
4.8347433207
 30
0.0
 10
4.337219915
 20
4.8308520451
 30
0.0
 10
4.327584462
 20
4.8271457334
 30
0.0
 10
4.3173359724
 20
4.8237695195
 30
0.0
 10
4.306528241
 20
4.8208901838
 30
0.0
 10
4.2971730715
 20
4.8190502497
 30
0.0
 10
4.2894884909
 20
4.8179741062
 30
0.0
 10
4.2836231857
 20
4.8173851084
 30
0.0
 10
4.2777120942
 20
4.8170251292
 30
0.0
 10
4.2737574826
 20
4.8169432553
 30
0.0
 10
4.2717789957
 20
4.8169432553
 30
0.0
  0
SPLINE
  5
33A
100
AcDbEntity
  8
ALL_ASSEMBLY_MEMBERS
100
AcDbSpline
 62
7
  6
CONTINUOUS
 70
0
 71
3
 72
15
 73
11
 74
0
 42
0.0000001
 43
0.0000001
 44
0.0000000001
 40
0.0
 40
0.0
 40
0.0
 40
0.0
 40
0.0414435246
 40
0.1545446594
 40
0.3155773785
 40
0.499997749
 40
0.6844188229
 40
0.8454517666
 40
0.9585542087
 40
1.0
 40
1.0
 40
1.0
 40
1.0
 10
5.3842789957
 20
5.1558268634
 30
0.0
 10
5.3818800102
 20
5.1554601895
 30
0.0
 10
5.3729259121
 20
5.1541453046
 30
0.0
 10
5.354583825
 20
5.1518664134
 30
0.0
 10
5.327812408
 20
5.1496483804
 30
0.0
 10
5.2967793501
 20
5.1487462165
 30
0.0
 10
5.2657462777
 20
5.1496483374
 30
0.0
 10
5.2389747274
 20
5.1518663499
 30
0.0
 10
5.2206324179
 20
5.1541452559
 30
0.0
 10
5.2116781124
 20
5.1554601693
 30
0.0
 10
5.2092789957
 20
5.1558268634
 30
0.0
  0
ELLIPSE
  5
33B
100
AcDbEntity
  8
ALL_ASSEMBLY_MEMBERS
100
AcDbEllipse
 62
7
  6
CONTINUOUS
 10
5.6875122713
 20
4.6708268634
 30
0.0
 11
-0.0
 21
0.48475
 31
0.0
 40
0.2210555332
 41
6.3004893413
 42
6.3175170955
  0
ELLIPSE
  5
33C
100
AcDbEntity
  8
ALL_ASSEMBLY_MEMBERS
100
AcDbEllipse
 62
7
  6
CONTINUOUS
 10
5.6923330603
 20
4.6708268634
 30
0.0
 11
0.0
 21
0.48475
 31
0.0
 40
0.7957997678
 41
6.2863035852
 42
6.3004893413
  0
ELLIPSE
  5
33D
100
AcDbEntity
  8
ALL_ASSEMBLY_MEMBERS
100
AcDbEllipse
 62
7
  6
CONTINUOUS
 10
5.7610635145
 20
4.6708268634
 30
0.0
 11
0.0
 21
0.48475
 31
0.0
 40
0.7957996981
 41
-0.0173040341
 42
-0.0031182781
  0
ELLIPSE
  5
33E
100
AcDbEntity
  8
ALL_ASSEMBLY_MEMBERS
100
AcDbEllipse
 62
7
  6
CONTINUOUS
 10
5.7658843031
 20
4.6708268634
 30
0.0
 11
0.0
 21
0.48475
 31
0.0
 40
0.2210555139
 41
-0.0343317884
 42
-0.0173040341
  0
ELLIPSE
  5
33F
100
AcDbEntity
  8
ALL_ASSEMBLY_MEMBERS
100
AcDbEllipse
 62
7
  6
CONTINUOUS
 10
5.8452669989
 20
4.6708268634
 30
0.0
 11
3.2147129739
 21
-0.0
 31
0.0
 40
0.1507910672
 41
1.6102429677
 42
1.6130823074
  0
ELLIPSE
  5
340
100
AcDbEntity
  8
ALL_ASSEMBLY_MEMBERS
100
AcDbEllipse
 62
7
  6
CONTINUOUS
 10
5.7909077965
 20
4.6708268634
 30
0.0
 11
1.9288162072
 21
-0.0
 31
0.0
 40
0.2513199538
 41
1.6130823074
 42
1.6159220045
  0
ELLIPSE
  5
341
100
AcDbEntity
  8
ALL_ASSEMBLY_MEMBERS
100
AcDbEllipse
 62
7
  6
CONTINUOUS
 10
5.7619047721
 20
4.6708268634
 30
0.0
 11
1.2858813755
 21
0.0
 31
0.0
 40
0.3769787861
 41
1.6159220045
 42
1.621602498
  0
ELLIPSE
  5
342
100
AcDbEntity
  8
ALL_ASSEMBLY_MEMBERS
100
AcDbEllipse
 62
7
  6
CONTINUOUS
 10
5.7292534356
 20
4.6708268634
 30
0.0
 11
0.6429400371
 21
0.0
 31
0.0
 40
0.7539583352
 41
1.621602498
 42
1.6301263818
  0
ELLIPSE
  5
343
100
AcDbEntity
  8
ALL_ASSEMBLY_MEMBERS
100
AcDbEllipse
 62
7
  6
CONTINUOUS
 10
5.7140041005
 20
4.6708268634
 30
0.0
 11
-0.0
 21
0.48475
 31
0.0
 40
0.7957993124
 41
0.059330055
 42
0.0735464445
  0
ELLIPSE
  5
344
100
AcDbEntity
  8
ALL_ASSEMBLY_MEMBERS
100
AcDbEllipse
 62
7
  6
CONTINUOUS
 10
5.6935320103
 20
4.6708268634
 30
0.0
 11
0.0
 21
0.48475
 31
0.0
 40
0.2210555332
 41
0.0735464445
 42
0.0906260353
  0
ELLIPSE
  5
345
100
AcDbEntity
  8
ALL_ASSEMBLY_MEMBERS
100
AcDbEllipse
 62
7
  6
CONTINUOUS
 10
5.7598645646
 20
4.6708268634
 30
0.0
 11
0.0
 21
0.48475
 31
0.0
 40
0.2210555139
 41
-0.0906260353
 42
-0.0735464445
  0
ELLIPSE
  5
346
100
AcDbEntity
  8
ALL_ASSEMBLY_MEMBERS
100
AcDbEllipse
 62
7
  6
CONTINUOUS
 10
5.7393924762
 20
4.6708268634
 30
0.0
 11
0.0
 21
0.48475
 31
0.0
 40
0.7957992427
 41
-0.0735464445
 42
-0.059330055
  0
ELLIPSE
  5
347
100
AcDbEntity
  8
ALL_ASSEMBLY_MEMBERS
100
AcDbEllipse
 62
7
  6
CONTINUOUS
 10
5.7241431435
 20
4.6708268634
 30
0.0
 11
0.642939962
 21
0.0
 31
0.0
 40
0.7539584232
 41
7.794651579
 42
7.8031754627
  0
ELLIPSE
  5
348
100
AcDbEntity
  8
ALL_ASSEMBLY_MEMBERS
100
AcDbEllipse
 62
7
  6
CONTINUOUS
 10
5.6914918146
 20
4.6708268634
 30
0.0
 11
1.2858811504
 21
-0.0
 31
0.0
 40
0.3769788521
 41
1.5199901556
 42
1.5256706491
  0
ELLIPSE
  5
349
100
AcDbEntity
  8
ALL_ASSEMBLY_MEMBERS
100
AcDbEllipse
 62
7
  6
CONTINUOUS
 10
5.6624886989
 20
4.6708268634
 30
0.0
 11
1.9288180083
 21
0.0
 31
0.0
 40
0.2513197191
 41
1.5256706491
 42
1.5285103462
  0
ELLIPSE
  5
34A
100
AcDbEntity
  8
ALL_ASSEMBLY_MEMBERS
100
AcDbEllipse
 62
7
  6
CONTINUOUS
 10
5.6081296107
 20
4.6708268634
 30
0.0
 11
3.2147120734
 21
0.0
 31
0.0
 40
0.1507911094
 41
1.5285103462
 42
1.5313496859
  0
ELLIPSE
  5
34B
100
AcDbEntity
  8
ALL_ASSEMBLY_MEMBERS
100
AcDbEllipse
 62
7
  6
CONTINUOUS
 10
5.7720799037
 20
4.6708268634
 30
0.0
 11
0.0
 21
0.48475
 31
0.0
 40
0.2652667178
 41
0.0906260353
 42
0.1048790886
  0
ELLIPSE
  5
34C
100
AcDbEntity
  8
ALL_ASSEMBLY_MEMBERS
100
AcDbEllipse
 62
7
  6
CONTINUOUS
 10
5.8034900214
 20
4.6708268634
 30
0.0
 11
-0.0
 21
0.48475
 31
0.0
 40
0.8842220554
 41
0.1048790886
 42
0.1134410125
  0
ELLIPSE
  5
34D
100
AcDbEntity
  8
ALL_ASSEMBLY_MEMBERS
100
AcDbEllipse
 62
7
  6
CONTINUOUS
 10
5.8641395432
 20
4.6708268634
 30
0.0
 11
0.9644099335
 21
-0.0
 31
0.0
 40
0.5026389538
 41
1.6842373393
 42
1.6956663613
  0
ELLIPSE
  5
34E
100
AcDbEntity
  8
ALL_ASSEMBLY_MEMBERS
100
AcDbEllipse
 62
7
  6
CONTINUOUS
 10
6.2244809454
 20
4.6708268634
 30
0.0
 11
3.857654488
 21
0.0
 31
0.0
 40
0.1256592578
 41
1.6956663613
 42
1.6985261089
  0
ELLIPSE
  5
34F
100
AcDbEntity
  8
ALL_ASSEMBLY_MEMBERS
100
AcDbEllipse
 62
7
  6
CONTINUOUS
 10
5.228915514
 20
4.6708268634
 30
0.0
 11
3.8576553886
 21
0.0
 31
0.0
 40
0.1256592285
 41
1.4430665446
 42
1.4459262923
  0
ELLIPSE
  5
350
100
AcDbEntity
  8
ALL_ASSEMBLY_MEMBERS
100
AcDbEllipse
 62
7
  6
CONTINUOUS
 10
5.5892570704
 20
4.6708268634
 30
0.0
 11
0.9644095958
 21
0.0
 31
0.0
 40
0.5026391298
 41
1.4459262923
 42
1.4573553143
  0
ELLIPSE
  5
351
100
AcDbEntity
  8
ALL_ASSEMBLY_MEMBERS
100
AcDbEllipse
 62
7
  6
CONTINUOUS
 10
5.649906554
 20
4.6708268634
 30
0.0
 11
-0.0
 21
0.48475
 31
0.0
 40
0.8842220554
 41
-0.1134410125
 42
-0.1048790886
  0
ELLIPSE
  5
352
100
AcDbEntity
  8
ALL_ASSEMBLY_MEMBERS
100
AcDbEllipse
 62
7
  6
CONTINUOUS
 10
5.6813166717
 20
4.6708268634
 30
0.0
 11
0.0
 21
0.48475
 31
0.0
 40
0.2652667178
 41
-0.1048790886
 42
-0.0906260353
  0
ELLIPSE
  5
353
100
AcDbEntity
  8
ALL_ASSEMBLY_MEMBERS
100
AcDbEllipse
 62
7
  6
CONTINUOUS
 10
5.8388852029
 20
4.6708268634
 30
0.0
 11
0.5716780154
 21
-0.4744956074
 31
0.0
 40
0.1734875795
 41
1.8341228243
 42
1.8564220296
  0
ELLIPSE
  5
354
100
AcDbEntity
  8
ALL_ASSEMBLY_MEMBERS
100
AcDbEllipse
 62
7
  6
CONTINUOUS
 10
5.7963250275
 20
4.6708268634
 30
0.0
 11
0.5716778757
 21
-0.4744956116
 31
0.0
 40
0.1734875871
 41
1.7601616376
 42
1.7823049235
  0
ELLIPSE
  5
355
100
AcDbEntity
  8
ALL_ASSEMBLY_MEMBERS
100
AcDbEllipse
 62
7
  6
CONTINUOUS
 10
5.7396595333
 20
4.6708268634
 30
0.0
 11
0.117123106
 21
0.4846535957
 31
0.0
 40
0.0825387411
 41
1.3243861563
 42
1.3391838673
  0
ELLIPSE
  5
356
100
AcDbEntity
  8
ALL_ASSEMBLY_MEMBERS
100
AcDbEllipse
 62
7
  6
CONTINUOUS
 10
5.7597415739
 20
4.6708268634
 30
0.0
 11
0.3205164298
 21
0.4819141273
 31
0.0
 40
0.1633544133
 41
1.4274608739
 42
1.438573063
  0
ELLIPSE
  5
357
100
AcDbEntity
  8
ALL_ASSEMBLY_MEMBERS
100
AcDbEllipse
 62
7
  6
CONTINUOUS
 10
5.8044655424
 20
4.6708268634
 30
0.0
 11
0.7387483593
 21
0.4700085841
 31
0.0
 40
0.1605905019
 41
1.5775999118
 42
1.5850154544
  0
ELLIPSE
  5
358
100
AcDbEntity
  8
ALL_ASSEMBLY_MEMBERS
100
AcDbEllipse
 62
7
  6
CONTINUOUS
 10
5.8904418941
 20
4.6708268634
 30
0.0
 11
1.4844556253
 21
0.4605286781
 31
0.0
 40
0.1019322549
 41
1.6552211679
 42
1.6589312972
  0
ELLIPSE
  5
359
100
AcDbEntity
  8
ALL_ASSEMBLY_MEMBERS
100
AcDbEllipse
 62
7
  6
CONTINUOUS
 10
5.5319466361
 20
4.6708268634
 30
0.0
 11
1.4844549309
 21
-0.4605286823
 31
0.0
 40
0.1019322941
 41
1.4826613836
 42
1.4863715129
  0
ELLIPSE
  5
35A
100
AcDbEntity
  8
ALL_ASSEMBLY_MEMBERS
100
AcDbEllipse
 62
7
  6
CONTINUOUS
 10
5.6179228875
 20
4.6708268634
 30
0.0
 11
0.7387485344
 21
-0.47000858
 31
0.0
 40
0.1605904861
 41
1.5565771643
 42
1.5639927069
  0
ELLIPSE
  5
35B
100
AcDbEntity
  8
ALL_ASSEMBLY_MEMBERS
100
AcDbEllipse
 62
7
  6
CONTINUOUS
 10
5.6626468747
 20
4.6708268634
 30
0.0
 11
-0.3205164298
 21
0.4819141273
 31
0.0
 40
0.1633544133
 41
-1.438573063
 42
-1.4274608739
  0
ELLIPSE
  5
35C
100
AcDbEntity
  8
ALL_ASSEMBLY_MEMBERS
100
AcDbEllipse
 62
7
  6
CONTINUOUS
 10
5.9271655794
 20
4.6708268634
 30
0.0
 11
3.8575848219
 21
0.456341581
 31
0.0
 40
0.0423861521
 41
-1.6322987713
 42
-1.629457479
  0
ELLIPSE
  5
35D
100
AcDbEntity
  8
ALL_ASSEMBLY_MEMBERS
100
AcDbEllipse
 62
7
  6
CONTINUOUS
 10
5.6827289153
 20
4.6708268634
 30
0.0
 11
-0.117123106
 21
0.4846535957
 31
0.0
 40
0.0825387411
 41
-1.3391838673
 42
-1.3243861563
  0
ELLIPSE
  5
35E
100
AcDbEntity
  8
ALL_ASSEMBLY_MEMBERS
100
AcDbEllipse
 62
7
  6
CONTINUOUS
 10
5.7638192067
 20
4.6708268634
 30
0.0
 11
0.9622071635
 21
0.4656770005
 31
0.0
 40
0.1399266045
 41
-1.7062712763
 42
-1.6949013418
  0
ELLIPSE
  5
35F
100
AcDbEntity
  8
ALL_ASSEMBLY_MEMBERS
100
AcDbEllipse
 62
7
  6
CONTINUOUS
 10
5.727489712
 20
4.6708268634
 30
0.0
 11
0.4203531079
 21
0.479141308
 31
0.0
 40
0.1749164141
 41
-1.8439863269
 42
-1.8354531791
  0
ELLIPSE
  5
360
100
AcDbEntity
  8
ALL_ASSEMBLY_MEMBERS
100
AcDbEllipse
 62
7
  6
CONTINUOUS
 10
5.7045916167
 20
4.6708268634
 30
0.0
 11
0.1217484006
 21
0.4846385345
 31
0.0
 40
0.0853799597
 41
-1.9890427863
 42
-1.9748081556
  0
ELLIPSE
  5
361
100
AcDbEntity
  8
ALL_ASSEMBLY_MEMBERS
100
AcDbEllipse
 62
7
  6
CONTINUOUS
 10
5.7109156963
 20
4.6708268634
 30
0.0
 11
0.9880542361
 21
0.465285186
 31
0.0
 40
0.1376303424
 41
1.5113205669
 42
1.5186896574
  0
ELLIPSE
  5
362
100
AcDbEntity
  8
ALL_ASSEMBLY_MEMBERS
100
AcDbEllipse
 62
7
  6
CONTINUOUS
 10
5.7067525249
 20
4.6708268634
 30
0.0
 11
0.6553159276
 21
0.4721187462
 31
0.0
 40
0.1677639688
 41
1.4631295299
 42
1.4741845703
  0
ELLIPSE
  5
363
100
AcDbEntity
  8
ALL_ASSEMBLY_MEMBERS
100
AcDbEllipse
 62
7
  6
CONTINUOUS
 10
5.6981602176
 20
4.6708268634
 30
0.0
 11
0.2873264341
 21
0.4826711449
 31
0.0
 40
0.1560789432
 41
1.3380452399
 42
1.356477401
  0
ELLIPSE
  5
364
100
AcDbEntity
  8
ALL_ASSEMBLY_MEMBERS
100
AcDbEllipse
 62
7
  6
CONTINUOUS
 10
5.6898254818
 20
4.6708268634
 30
0.0
 11
0.0934735408
 21
0.4847090996
 31
0.0
 40
0.0673658948
 41
1.2768224913
 42
1.2952689988
  0
ELLIPSE
  5
365
100
AcDbEntity
  8
ALL_ASSEMBLY_MEMBERS
100
AcDbEllipse
 62
7
  6
CONTINUOUS
 10
5.732562966
 20
4.6708268634
 30
0.0
 11
-0.0934735326
 21
0.4847090996
 31
0.0
 40
0.0673658893
 41
-1.2952689966
 42
-1.2768224891
  0
ELLIPSE
  5
366
100
AcDbEntity
  8
ALL_ASSEMBLY_MEMBERS
100
AcDbEllipse
 62
7
  6
CONTINUOUS
 10
5.724228231
 20
4.6708268634
 30
0.0
 11
-0.287326408
 21
0.4826711454
 31
0.0
 40
0.1560789367
 41
-1.3564773887
 42
-1.3380452276
  0
ELLIPSE
  5
367
100
AcDbEntity
  8
ALL_ASSEMBLY_MEMBERS
100
AcDbEllipse
 62
7
  6
CONTINUOUS
 10
5.7488049586
 20
4.6708268634
 30
0.0
 11
-0.1217484006
 21
0.4846385345
 31
0.0
 40
0.0853799597
 41
-4.3083771516
 42
-4.2941425209
  0
ELLIPSE
  5
368
100
AcDbEntity
  8
ALL_ASSEMBLY_MEMBERS
100
AcDbEllipse
 62
7
  6
CONTINUOUS
 10
5.7259068633
 20
4.6708268634
 30
0.0
 11
-0.4203531079
 21
0.479141308
 31
0.0
 40
0.1749164141
 41
-4.4477321281
 42
-4.4391989803
  0
ELLIPSE
  5
369
100
AcDbEntity
  8
ALL_ASSEMBLY_MEMBERS
100
AcDbEllipse
 62
7
  6
CONTINUOUS
 10
5.6895773458
 20
4.6708268634
 30
0.0
 11
0.962207503
 21
-0.4656769952
 31
0.0
 40
0.1399265741
 41
-1.4466913509
 42
-1.4353214165
  0
ELLIPSE
  5
36A
100
AcDbEntity
  8
ALL_ASSEMBLY_MEMBERS
100
AcDbEllipse
 62
7
  6
CONTINUOUS
 10
5.526231043
 20
4.6708268634
 30
0.0
 11
3.8575839213
 21
-0.4563415814
 31
0.0
 40
0.0423861617
 41
-1.5121351722
 42
-1.5092938799
  0
ELLIPSE
  5
36B
100
AcDbEntity
  8
ALL_ASSEMBLY_MEMBERS
100
AcDbEllipse
 62
7
  6
CONTINUOUS
 10
5.8488138096
 20
4.6708268634
 30
0.0
 11
0.7463252756
 21
-0.4698307894
 31
0.0
 40
0.1599009769
 41
-1.6130857077
 42
-1.5959095904
  0
ELLIPSE
  5
36C
100
AcDbEntity
  8
ALL_ASSEMBLY_MEMBERS
100
AcDbEllipse
 62
7
  6
CONTINUOUS
 10
5.7284260912
 20
4.6708268634
 30
0.0
 11
0.5597140252
 21
-0.4748533936
 31
0.0
 40
0.1741096516
 41
-1.4868806225
 42
-1.4159149133
  0
ELLIPSE
  5
36D
100
AcDbEntity
  8
ALL_ASSEMBLY_MEMBERS
100
AcDbEllipse
 62
7
  6
CONTINUOUS
 10
5.7251455882
 20
4.6708268634
 30
0.0
 11
0.9622042765
 21
-0.4656770454
 31
0.0
 40
0.139926863
 41
-1.4949495759
 42
-1.489275252
  0
ELLIPSE
  5
36E
100
AcDbEntity
  8
ALL_ASSEMBLY_MEMBERS
100
AcDbEllipse
 62
7
  6
CONTINUOUS
 10
5.7027974748
 20
4.6708268634
 30
0.0
 11
2.5716108227
 21
-0.4573304865
 31
0.0
 40
0.0624983615
 41
-1.5457781432
 42
-1.5429408411
  0
ELLIPSE
  5
36F
100
AcDbEntity
  8
ALL_ASSEMBLY_MEMBERS
100
AcDbEllipse
 62
7
  6
CONTINUOUS
 10
5.792551269
 20
4.6708268634
 30
0.0
 11
2.5716108227
 21
0.4573304865
 31
0.0
 40
0.0624983615
 41
-1.5986518125
 42
-1.5958145104
  0
ELLIPSE
  5
370
100
AcDbEntity
  8
ALL_ASSEMBLY_MEMBERS
100
AcDbEllipse
 62
7
  6
CONTINUOUS
 10
5.7657335865
 20
4.6708268634
 30
0.0
 11
0.6379530235
 21
0.4725921354
 31
0.0
 40
0.1691116546
 41
-1.7093280947
 42
-1.6979797282
  0
ELLIPSE
  5
371
100
AcDbEntity
  8
ALL_ASSEMBLY_MEMBERS
100
AcDbEllipse
 62
7
  6
CONTINUOUS
 10
5.7792603559
 20
4.6708268634
 30
0.0
 11
0.10123742
 21
0.4846944896
 31
0.0
 40
0.0724615456
 41
-2.012460577
 42
-1.9953544323
  0
ELLIPSE
  5
372
100
AcDbEntity
  8
ALL_ASSEMBLY_MEMBERS
100
AcDbEllipse
 62
7
  6
CONTINUOUS
 10
5.8092173189
 20
4.6708268634
 30
0.0
 11
0.3768576551
 21
0.4804196369
 31
0.0
 40
0.1715483869
 41
-1.9081086021
 42
-1.8938294856
  0
ELLIPSE
  5
373
100
AcDbEntity
  8
ALL_ASSEMBLY_MEMBERS
100
AcDbEllipse
 62
7
  6
CONTINUOUS
 10
5.7649120132
 20
4.6708268634
 30
0.0
 11
0.3118799231
 21
0.4821211713
 31
0.0
 40
0.1616508637
 41
-1.8182260229
 42
-1.8068779936
  0
ELLIPSE
  5
374
100
AcDbEntity
  8
ALL_ASSEMBLY_MEMBERS
100
AcDbEllipse
 62
7
  6
CONTINUOUS
 10
5.8405178806
 20
4.6708268634
 30
0.0
 11
0.6379533341
 21
0.4725921268
 31
0.0
 40
0.1691116311
 41
-1.8260145634
 42
-1.8174352631
  0
ELLIPSE
  5
375
100
AcDbEntity
  8
ALL_ASSEMBLY_MEMBERS
100
AcDbEllipse
 62
7
  6
CONTINUOUS
 10
5.9242410317
 20
4.6708268634
 30
0.0
 11
1.2847916974
 21
0.4619431809
 31
0.0
 40
0.1143679302
 41
-1.7482093125
 42
-1.7424844324
  0
ELLIPSE
  5
376
100
AcDbEntity
  8
ALL_ASSEMBLY_MEMBERS
100
AcDbEllipse
 62
7
  6
CONTINUOUS
 10
5.7667963067
 20
4.6708268634
 30
0.0
 11
0.10123742
 21
0.4846944896
 31
0.0
 40
0.0724615456
 41
-1.89593605
 42
-1.8789114217
  0
ELLIPSE
  5
377
100
AcDbEntity
  8
ALL_ASSEMBLY_MEMBERS
100
AcDbEllipse
 62
7
  6
CONTINUOUS
 10
6.0116141013
 20
4.6708268634
 30
0.0
 11
1.9284678459
 21
0.4586391126
 31
0.0
 40
0.0813849018
 41
-1.7293289027
 42
-1.7264648042
  0
ELLIPSE
  5
378
100
AcDbEntity
  8
ALL_ASSEMBLY_MEMBERS
100
AcDbEllipse
 62
7
  6
CONTINUOUS
 10
6.1900055157
 20
4.6708268634
 30
0.0
 11
3.2146291591
 21
0.4566950122
 31
0.0
 40
0.0505558762
 41
-1.7200233845
 42
-1.7171581365
  0
ELLIPSE
  5
379
100
AcDbEntity
  8
ALL_ASSEMBLY_MEMBERS
100
AcDbEllipse
 62
7
  6
CONTINUOUS
 10
5.2633909309
 20
4.6708268634
 30
0.0
 11
3.2146300597
 21
-0.4566950116
 31
0.0
 40
0.0505558626
 41
-1.4244345211
 42
-1.421569273
  0
ELLIPSE
  5
37A
100
AcDbEntity
  8
ALL_ASSEMBLY_MEMBERS
100
AcDbEllipse
 62
7
  6
CONTINUOUS
 10
5.4417827201
 20
4.6708268634
 30
0.0
 11
1.9284660439
 21
-0.458639118
 31
0.0
 40
0.0813849697
 41
-1.4151278149
 42
-1.4122637165
  0
ELLIPSE
  5
37B
100
AcDbEntity
  8
ALL_ASSEMBLY_MEMBERS
100
AcDbEllipse
 62
7
  6
CONTINUOUS
 10
5.8154339874
 20
4.6708268634
 30
0.0
 11
0.9622070503
 21
-0.4656770023
 31
0.0
 40
0.1399266146
 41
-1.5716017881
 42
-1.5659156053
  0
ELLIPSE
  5
37C
100
AcDbEntity
  8
ALL_ASSEMBLY_MEMBERS
100
AcDbEllipse
 62
7
  6
CONTINUOUS
 10
5.5291555144
 20
4.6708268634
 30
0.0
 11
1.2847919231
 21
-0.461943179
 31
0.0
 40
0.1143679148
 41
-1.3991082341
 42
-1.393383354
  0
ELLIPSE
  5
37D
100
AcDbEntity
  8
ALL_ASSEMBLY_MEMBERS
100
AcDbEllipse
 62
7
  6
CONTINUOUS
 10
5.612878685
 20
4.6708268634
 30
0.0
 11
0.6379534101
 21
-0.4725921247
 31
0.0
 40
0.1691116253
 41
-1.3241574099
 42
-1.3155781096
  0
ELLIPSE
  5
37E
100
AcDbEntity
  8
ALL_ASSEMBLY_MEMBERS
100
AcDbEllipse
 62
7
  6
CONTINUOUS
 10
5.7818430816
 20
4.6708268634
 30
0.0
 11
-0.4203531079
 21
0.479141308
 31
0.0
 40
0.1749164141
 41
-4.5783263692
 42
-4.5698008357
  0
ELLIPSE
  5
37F
100
AcDbEntity
  8
ALL_ASSEMBLY_MEMBERS
100
AcDbEllipse
 62
7
  6
CONTINUOUS
 10
5.6441792517
 20
4.6708268634
 30
0.0
 11
-0.3768576893
 21
0.480419636
 31
0.0
 40
0.1715483905
 41
-4.3893558366
 42
-4.3750767201
  0
ELLIPSE
  5
380
100
AcDbEntity
  8
ALL_ASSEMBLY_MEMBERS
100
AcDbEllipse
 62
7
  6
CONTINUOUS
 10
5.7655858153
 20
4.6708268634
 30
0.0
 11
-0.1217484712
 21
0.4846385342
 31
0.0
 40
0.0853800028
 41
-4.4389790303
 42
-4.4247782581
  0
ELLIPSE
  5
381
100
AcDbEntity
  8
ALL_ASSEMBLY_MEMBERS
100
AcDbEllipse
 62
7
  6
CONTINUOUS
 10
5.6741362173
 20
4.6708268634
 30
0.0
 11
-0.101237429
 21
0.4846944896
 31
0.0
 40
0.0724615514
 41
-4.2878308774
 42
-4.2707247327
  0
ELLIPSE
  5
382
100
AcDbEntity
  8
ALL_ASSEMBLY_MEMBERS
100
AcDbEllipse
 62
7
  6
CONTINUOUS
 10
5.6825527259
 20
4.6708268634
 30
0.0
 11
1.9288162072
 21
0.0
 31
0.0
 40
0.2513199538
 41
7.8400775852
 42
7.8429147916
  0
ELLIPSE
  5
383
100
AcDbEntity
  8
ALL_ASSEMBLY_MEMBERS
100
AcDbEllipse
 62
7
  6
CONTINUOUS
 10
5.6646741305
 20
4.6708268634
 30
0.0
 11
3.2147129739
 21
-0.0
 31
0.0
 40
0.1507910672
 41
7.837240283
 42
7.8400775852
  0
ELLIPSE
  5
384
100
AcDbEntity
  8
ALL_ASSEMBLY_MEMBERS
100
AcDbEllipse
 62
7
  6
CONTINUOUS
 10
5.7887224285
 20
4.6708268634
 30
0.0
 11
3.2147120734
 21
0.0
 31
0.0
 40
0.1507911094
 41
1.5847003756
 42
1.5875376778
  0
ELLIPSE
  5
385
100
AcDbEntity
  8
ALL_ASSEMBLY_MEMBERS
100
AcDbEllipse
 62
7
  6
CONTINUOUS
 10
5.7045916167
 20
4.6708268634
 30
0.0
 11
0.0
 21
0.48475
 31
0.0
 40
0.2652664142
 41
0.0763914046
 42
0.0906260353
  0
ELLIPSE
  5
386
100
AcDbEntity
  8
ALL_ASSEMBLY_MEMBERS
100
AcDbEllipse
 62
7
  6
CONTINUOUS
 10
5.727489712
 20
4.6708268634
 30
0.0
 11
-0.0
 21
0.48475
 31
0.0
 40
0.8842220554
 41
0.0678582568
 42
0.0763914046
  0
ELLIPSE
  5
387
100
AcDbEntity
  8
ALL_ASSEMBLY_MEMBERS
100
AcDbEllipse
 62
7
  6
CONTINUOUS
 10
5.7638192067
 20
4.6708268634
 30
0.0
 11
0.9644109754
 21
-0.0
 31
0.0
 40
0.5026384108
 41
1.6272846492
 42
1.6386545836
  0
ELLIPSE
  5
388
100
AcDbEntity
  8
ALL_ASSEMBLY_MEMBERS
100
AcDbEllipse
 62
7
  6
CONTINUOUS
 10
5.7638192067
 20
4.6708268634
 30
0.0
 11
0.9595037988
 21
0.0
 31
0.0
 40
0.5026384108
 41
1.6275738566
 42
1.6336193552
  0
ELLIPSE
  5
389
100
AcDbEntity
  8
ALL_ASSEMBLY_MEMBERS
100
AcDbEllipse
 62
7
  6
CONTINUOUS
 10
5.9271655794
 20
4.6708268634
 30
0.0
 11
3.857633315
 21
0.0
 31
0.0
 40
0.1256599475
 41
1.6244433569
 42
1.6272846492
  0
ELLIPSE
  5
38A
100
AcDbEntity
  8
ALL_ASSEMBLY_MEMBERS
100
AcDbEllipse
 62
7
  6
CONTINUOUS
 10
5.9271655794
 20
4.6708268634
 30
0.0
 11
3.8380046625
 21
-0.0
 31
0.0
 40
0.1256599475
 41
1.6247179887
 42
1.6275738566
  0
ELLIPSE
  5
38B
100
AcDbEntity
  8
ALL_ASSEMBLY_MEMBERS
100
AcDbEllipse
 62
7
  6
CONTINUOUS
 10
5.7708438707
 20
4.6708268634
 30
0.0
 11
1.9288180083
 21
-0.0
 31
0.0
 40
0.2513197191
 41
1.5818631691
 42
1.5847003756
  0
ELLIPSE
  5
38C
100
AcDbEntity
  8
ALL_ASSEMBLY_MEMBERS
100
AcDbEllipse
 62
7
  6
CONTINUOUS
 10
5.7637287351
 20
4.6708268634
 30
0.0
 11
1.2858811504
 21
-0.0
 31
0.0
 40
0.3769788521
 41
1.5761890168
 42
1.5818631691
  0
ELLIPSE
  5
38D
100
AcDbEntity
  8
ALL_ASSEMBLY_MEMBERS
100
AcDbEllipse
 62
7
  6
CONTINUOUS
 10
5.8242931734
 20
4.6708268634
 30
0.0
 11
0.57167825
 21
-0.4744956005
 31
0.0
 40
0.1734875667
 41
1.8341227539
 42
1.8564219592
  0
ELLIPSE
  5
38E
100
AcDbEntity
  8
ALL_ASSEMBLY_MEMBERS
100
AcDbEllipse
 62
7
  6
CONTINUOUS
 10
5.8242931734
 20
4.6708268634
 30
0.0
 11
0.5687694008
 21
-0.4720812421
 31
0.0
 40
0.1734875667
 41
8.1199044316
 42
8.140341655
  0
ELLIPSE
  5
38F
100
AcDbEntity
  8
ALL_ASSEMBLY_MEMBERS
100
AcDbEllipse
 62
7
  6
CONTINUOUS
 10
5.7602615693
 20
4.6708268634
 30
0.0
 11
0.642939962
 21
-0.0
 31
0.0
 40
0.7539584232
 41
7.8508633559
 42
7.859374324
  0
ELLIPSE
  5
390
100
AcDbEntity
  8
ALL_ASSEMBLY_MEMBERS
100
AcDbEllipse
 62
7
  6
CONTINUOUS
 10
5.781732981
 20
4.6708268634
 30
0.0
 11
0.5716781103
 21
-0.4744956046
 31
0.0
 40
0.1734875743
 41
1.7601615672
 42
1.7823048532
  0
ELLIPSE
  5
391
100
AcDbEntity
  8
ALL_ASSEMBLY_MEMBERS
100
AcDbEllipse
 62
7
  6
CONTINUOUS
 10
5.781732981
 20
4.6708268634
 30
0.0
 11
0.5687692618
 21
-0.4720812463
 31
0.0
 40
0.1734875743
 41
8.0454832217
 42
8.0658410218
  0
ELLIPSE
  5
392
100
AcDbEntity
  8
ALL_ASSEMBLY_MEMBERS
100
AcDbEllipse
 62
7
  6
CONTINUOUS
 10
5.7106146654
 20
4.6708268634
 30
0.0
 11
-0.3622025764
 21
0.4808294012
 31
0.0
 40
0.1698707729
 41
-1.3947898515
 42
-1.3800412872
  0
ELLIPSE
  5
393
100
AcDbEntity
  8
ALL_ASSEMBLY_MEMBERS
100
AcDbEllipse
 62
7
  6
CONTINUOUS
 10
5.7106146654
 20
4.6708268634
 30
0.0
 11
-0.3603595945
 21
0.4783828148
 31
0.0
 40
0.1698707729
 41
-1.3950241974
 42
-1.3802000911
  0
ELLIPSE
  5
394
100
AcDbEntity
  8
ALL_ASSEMBLY_MEMBERS
100
AcDbEllipse
 62
7
  6
CONTINUOUS
 10
5.7219450862
 20
4.6708268634
 30
0.0
 11
-0.1171229363
 21
0.4846535963
 31
0.0
 40
0.082538636
 41
-1.3022224851
 42
-1.2874639355
  0
ELLIPSE
  5
395
100
AcDbEntity
  8
ALL_ASSEMBLY_MEMBERS
100
AcDbEllipse
 62
7
  6
CONTINUOUS
 10
5.7219450862
 20
4.6708268634
 30
0.0
 11
-0.116526984
 21
0.4821875514
 31
0.0
 40
0.082538636
 41
4.9806527798
 42
4.9954870257
  0
ELLIPSE
  5
396
100
AcDbEntity
  8
ALL_ASSEMBLY_MEMBERS
100
AcDbEllipse
 62
7
  6
CONTINUOUS
 10
5.6741362173
 20
4.6708268634
 30
0.0
 11
-0.0
 21
0.48475
 31
0.0
 40
0.2210555332
 41
-0.10773218
 42
-0.0906260353
  0
ELLIPSE
  5
397
100
AcDbEntity
  8
ALL_ASSEMBLY_MEMBERS
100
AcDbEllipse
 62
7
  6
CONTINUOUS
 10
5.6741362173
 20
4.6708268634
 30
0.0
 11
0.0
 21
0.4822834646
 31
0.0
 40
0.2210555332
 41
-0.1082853113
 42
-0.0910908057
  0
ELLIPSE
  5
398
100
AcDbEntity
  8
ALL_ASSEMBLY_MEMBERS
100
AcDbEllipse
 62
7
  6
CONTINUOUS
 10
5.6441792517
 20
4.6708268634
 30
0.0
 11
0.0
 21
0.48475
 31
0.0
 40
0.7958002231
 41
-0.1220112966
 42
-0.10773218
  0
ELLIPSE
  5
399
100
AcDbEntity
  8
ALL_ASSEMBLY_MEMBERS
100
AcDbEllipse
 62
7
  6
CONTINUOUS
 10
5.6441792517
 20
4.6708268634
 30
0.0
 11
0.0
 21
0.4822834646
 31
0.0
 40
0.7958002231
 41
-0.1226384364
 42
-0.1082853113
  0
ELLIPSE
  5
39A
100
AcDbEntity
  8
ALL_ASSEMBLY_MEMBERS
100
AcDbEllipse
 62
7
  6
CONTINUOUS
 10
5.612878685
 20
4.6708268634
 30
0.0
 11
0.6429400371
 21
0.0
 31
0.0
 40
0.7539583352
 41
1.4402057299
 42
1.4487850302
  0
ELLIPSE
  5
39B
100
AcDbEntity
  8
ALL_ASSEMBLY_MEMBERS
100
AcDbEllipse
 62
7
  6
CONTINUOUS
 10
5.612878685
 20
4.6708268634
 30
0.0
 11
0.6396685892
 21
-0.0
 31
0.0
 40
0.7539583352
 41
1.4395339999
 42
1.4481578904
  0
ELLIPSE
  5
39C
100
AcDbEntity
  8
ALL_ASSEMBLY_MEMBERS
100
AcDbEllipse
 62
7
  6
CONTINUOUS
 10
5.7004433624
 20
4.6708268634
 30
0.0
 11
0.1171229363
 21
0.4846535963
 31
0.0
 40
0.082538636
 41
1.2874639355
 42
1.3022224851
  0
ELLIPSE
  5
39D
100
AcDbEntity
  8
ALL_ASSEMBLY_MEMBERS
100
AcDbEllipse
 62
7
  6
CONTINUOUS
 10
5.7004433624
 20
4.6708268634
 30
0.0
 11
0.116526984
 21
0.4821875514
 31
0.0
 40
0.082538636
 41
1.2876982814
 42
1.3025325273
  0
ELLIPSE
  5
39E
100
AcDbEntity
  8
ALL_ASSEMBLY_MEMBERS
100
AcDbEllipse
 62
7
  6
CONTINUOUS
 10
5.6813166717
 20
4.6708268634
 30
0.0
 11
-0.1211290532
 21
0.4821725657
 31
0.0
 40
0.0853800458
 41
-4.2918879649
 42
-4.2793511418
  0
ELLIPSE
  5
39F
100
AcDbEntity
  8
ALL_ASSEMBLY_MEMBERS
100
AcDbEllipse
 62
7
  6
CONTINUOUS
 10
5.7098853768
 20
4.6708268634
 30
0.0
 11
0.3205164298
 21
0.4819141273
 31
0.0
 40
0.1633544133
 41
1.364678812
 42
1.3757409965
  0
ELLIPSE
  5
3A0
100
AcDbEntity
  8
ALL_ASSEMBLY_MEMBERS
100
AcDbEllipse
 62
7
  6
CONTINUOUS
 10
5.7098853768
 20
4.6708268634
 30
0.0
 11
0.318885558
 21
0.4794620215
 31
0.0
 40
0.1633544133
 41
1.3648564897
 42
1.3759753424
  0
ELLIPSE
  5
3A1
100
AcDbEntity
  8
ALL_ASSEMBLY_MEMBERS
100
AcDbEllipse
 62
7
  6
CONTINUOUS
 10
5.7328037755
 20
4.6708268634
 30
0.0
 11
0.9880542361
 21
0.465285186
 31
0.0
 40
0.1376303424
 41
1.533430284
 42
1.5408026323
  0
ELLIPSE
  5
3A2
100
AcDbEntity
  8
ALL_ASSEMBLY_MEMBERS
100
AcDbEllipse
 62
7
  6
CONTINUOUS
 10
5.7328037755
 20
4.6708268634
 30
0.0
 11
0.9830267564
 21
0.4629176926
 31
0.0
 40
0.1376303424
 41
1.5335702205
 42
1.5409803099
  0
ELLIPSE
  5
3A3
100
AcDbEntity
  8
ALL_ASSEMBLY_MEMBERS
100
AcDbEllipse
 62
7
  6
CONTINUOUS
 10
5.6813166717
 20
4.6708268634
 30
0.0
 11
-0.1217485418
 21
0.484638534
 31
0.0
 40
0.0853800458
 41
-4.2941425674
 42
-4.2798895141
  0
ELLIPSE
  5
3A4
100
AcDbEntity
  8
ALL_ASSEMBLY_MEMBERS
100
AcDbEllipse
 62
7
  6
CONTINUOUS
 10
5.5291555144
 20
4.6708268634
 30
0.0
 11
1.2858776966
 21
0.0
 31
0.0
 40
0.3769798646
 41
7.7176661569
 42
7.7233910371
  0
ELLIPSE
  5
3A5
100
AcDbEntity
  8
ALL_ASSEMBLY_MEMBERS
100
AcDbEllipse
 62
7
  6
CONTINUOUS
 10
5.5291555144
 20
4.6708268634
 30
0.0
 11
1.2793348128
 21
0.0
 31
0.0
 40
0.3769798646
 41
1.4337793091
 42
1.4395339999
  0
ELLIPSE
  5
3A6
100
AcDbEntity
  8
ALL_ASSEMBLY_MEMBERS
100
AcDbEllipse
 62
7
  6
CONTINUOUS
 10
5.649906554
 20
4.6708268634
 30
0.0
 11
-0.4182142408
 21
0.4767033111
 31
0.0
 40
0.1749164141
 41
-4.4101729241
 42
-4.4015666817
  0
ELLIPSE
  5
3A7
100
AcDbEntity
  8
ALL_ASSEMBLY_MEMBERS
100
AcDbEllipse
 62
7
  6
CONTINUOUS
 10
5.649906554
 20
4.6708268634
 30
0.0
 11
-0.4203531079
 21
0.479141308
 31
0.0
 40
0.1749164141
 41
-4.4107112963
 42
-4.4021493725
  0
ELLIPSE
  5
3A8
100
AcDbEntity
  8
ALL_ASSEMBLY_MEMBERS
100
AcDbEllipse
 62
7
  6
CONTINUOUS
 10
5.4417827201
 20
4.6708268634
 30
0.0
 11
1.928827244
 21
0.0
 31
0.0
 40
0.2513185157
 41
1.4316167513
 42
1.4344808497
  0
ELLIPSE
  5
3A9
100
AcDbEntity
  8
ALL_ASSEMBLY_MEMBERS
100
AcDbEllipse
 62
7
  6
CONTINUOUS
 10
5.5892570704
 20
4.6708268634
 30
0.0
 11
0.9573098206
 21
-0.463307535
 31
0.0
 40
0.1399267287
 41
-1.3891557708
 42
-1.3776674525
  0
ELLIPSE
  5
3AA
100
AcDbEntity
  8
ALL_ASSEMBLY_MEMBERS
100
AcDbEllipse
 62
7
  6
CONTINUOUS
 10
5.5892570704
 20
4.6708268634
 30
0.0
 11
0.9622057766
 21
-0.4656770221
 31
0.0
 40
0.1399267287
 41
-1.3897384615
 42
-1.3783094395
  0
ELLIPSE
  5
3AB
100
AcDbEntity
  8
ALL_ASSEMBLY_MEMBERS
100
AcDbEllipse
 62
7
  6
CONTINUOUS
 10
5.4417827201
 20
4.6708268634
 30
0.0
 11
1.9190128639
 21
0.0
 31
0.0
 40
0.2513185157
 41
1.4309002792
 42
1.4337793091
  0
ELLIPSE
  5
3AC
100
AcDbEntity
  8
ALL_ASSEMBLY_MEMBERS
100
AcDbEllipse
 62
7
  6
CONTINUOUS
 10
5.228915514
 20
4.6708268634
 30
0.0
 11
3.8379783783
 21
-0.4540195858
 31
0.0
 40
0.0423859163
 41
-1.4402702398
 42
-1.4373956289
  0
ELLIPSE
  5
3AD
100
AcDbEntity
  8
ALL_ASSEMBLY_MEMBERS
100
AcDbEllipse
 62
7
  6
CONTINUOUS
 10
5.228915514
 20
4.6708268634
 30
0.0
 11
3.8576068963
 21
-0.4563415717
 31
0.0
 40
0.0423859163
 41
-1.4409122269
 42
-1.4380524792
  0
ELLIPSE
  5
3AE
100
AcDbEntity
  8
ALL_ASSEMBLY_MEMBERS
100
AcDbEllipse
 62
7
  6
CONTINUOUS
 10
5.6756539293
 20
4.6708268634
 30
0.0
 11
-0.0934736487
 21
0.4847090994
 31
0.0
 40
0.0673659664
 41
-1.3359330152
 42
-1.3174326445
  0
ELLIPSE
  5
3AF
100
AcDbEntity
  8
ALL_ASSEMBLY_MEMBERS
100
AcDbEllipse
 62
7
  6
CONTINUOUS
 10
5.6756539293
 20
4.6708268634
 30
0.0
 11
-0.0929980302
 21
0.4822427721
 31
0.0
 40
0.0673659664
 41
-1.3364524313
 42
-1.3178566306
  0
ELLIPSE
  5
3B0
100
AcDbEntity
  8
ALL_ASSEMBLY_MEMBERS
100
AcDbEllipse
 62
7
  6
CONTINUOUS
 10
5.2633909309
 20
4.6708268634
 30
0.0
 11
3.2147129739
 21
0.0
 31
0.0
 40
0.1507910672
 41
1.4287515033
 42
1.4316167513
  0
ELLIPSE
  5
3B1
100
AcDbEntity
  8
ALL_ASSEMBLY_MEMBERS
100
AcDbEllipse
 62
7
  6
CONTINUOUS
 10
5.6556455457
 20
4.6708268634
 30
0.0
 11
-0.2873264341
 21
0.4826711449
 31
0.0
 40
0.1560789432
 41
-1.4341230973
 42
-1.4155878961
  0
ELLIPSE
  5
3B2
100
AcDbEntity
  8
ALL_ASSEMBLY_MEMBERS
100
AcDbEllipse
 62
7
  6
CONTINUOUS
 10
5.6556455457
 20
4.6708268634
 30
0.0
 11
-0.2858644416
 21
0.4802151872
 31
0.0
 40
0.1560789432
 41
-1.4347384861
 42
-1.4161073122
  0
ELLIPSE
  5
3B3
100
AcDbEntity
  8
ALL_ASSEMBLY_MEMBERS
100
AcDbEllipse
 62
7
  6
CONTINUOUS
 10
5.6122755123
 20
4.6708268634
 30
0.0
 11
0.6553159276
 21
-0.4721187462
 31
0.0
 40
0.1677639688
 41
1.5601896397
 42
1.5713302259
  0
ELLIPSE
  5
3B4
100
AcDbEntity
  8
ALL_ASSEMBLY_MEMBERS
100
AcDbEllipse
 62
7
  6
CONTINUOUS
 10
5.6122755123
 20
4.6708268634
 30
0.0
 11
0.6519815079
 21
-0.4697164819
 31
0.0
 40
0.1677639688
 41
1.5595163628
 42
1.5707148371
  0
ELLIPSE
  5
3B5
100
AcDbEntity
  8
ALL_ASSEMBLY_MEMBERS
100
AcDbEllipse
 62
7
  6
CONTINUOUS
 10
5.5368939845
 20
4.6708268634
 30
0.0
 11
1.2364591409
 21
-0.462368365
 31
0.0
 40
0.1177519922
 41
1.4764767822
 42
1.4839128544
  0
ELLIPSE
  5
3B6
100
AcDbEntity
  8
ALL_ASSEMBLY_MEMBERS
100
AcDbEllipse
 62
7
  6
CONTINUOUS
 10
5.5368939845
 20
4.6708268634
 30
0.0
 11
1.2301677117
 21
-0.4600157132
 31
0.0
 40
0.1177519922
 41
1.475764772
 42
1.4832395775
  0
ELLIPSE
  5
3B7
100
AcDbEntity
  8
ALL_ASSEMBLY_MEMBERS
100
AcDbEllipse
 62
7
  6
CONTINUOUS
 10
5.8854944868
 20
4.6708268634
 30
0.0
 11
1.2364593147
 21
0.4623683634
 31
0.0
 40
0.1177519797
 41
1.6576798102
 42
1.6651158823
  0
ELLIPSE
  5
3B8
100
AcDbEntity
  8
ALL_ASSEMBLY_MEMBERS
100
AcDbEllipse
 62
7
  6
CONTINUOUS
 10
5.8854944868
 20
4.6708268634
 30
0.0
 11
1.2301678846
 21
0.4600157117
 31
0.0
 40
0.1177519797
 41
1.6583530871
 42
1.6658278925
  0
ELLIPSE
  5
3B9
100
AcDbEntity
  8
ALL_ASSEMBLY_MEMBERS
100
AcDbEllipse
 62
7
  6
CONTINUOUS
 10
5.8101129287
 20
4.6708268634
 30
0.0
 11
0.6553158691
 21
0.4721187478
 31
0.0
 40
0.1677639734
 41
1.5702624133
 42
1.5814029995
  0
ELLIPSE
  5
3BA
100
AcDbEntity
  8
ALL_ASSEMBLY_MEMBERS
100
AcDbEllipse
 62
7
  6
CONTINUOUS
 10
5.8101129287
 20
4.6708268634
 30
0.0
 11
0.6519814497
 21
0.4697164835
 31
0.0
 40
0.1677639734
 41
1.5708778021
 42
1.5820762764
  0
ELLIPSE
  5
3BB
100
AcDbEntity
  8
ALL_ASSEMBLY_MEMBERS
100
AcDbEllipse
 62
7
  6
CONTINUOUS
 10
5.7667428992
 20
4.6708268634
 30
0.0
 11
0.287326408
 21
0.4826711454
 31
0.0
 40
0.1560789367
 41
1.4155878838
 42
1.434123085
  0
ELLIPSE
  5
3BC
100
AcDbEntity
  8
ALL_ASSEMBLY_MEMBERS
100
AcDbEllipse
 62
7
  6
CONTINUOUS
 10
5.7667428992
 20
4.6708268634
 30
0.0
 11
0.2858644157
 21
0.4802151878
 31
0.0
 40
0.1560789367
 41
1.4161072999
 42
1.4347384738
  0
ELLIPSE
  5
3BD
100
AcDbEntity
  8
ALL_ASSEMBLY_MEMBERS
100
AcDbEllipse
 62
7
  6
CONTINUOUS
 10
5.7467345173
 20
4.6708268634
 30
0.0
 11
0.0934736405
 21
0.4847090994
 31
0.0
 40
0.0673659609
 41
1.3174326423
 42
1.335933013
  0
ELLIPSE
  5
3BE
100
AcDbEntity
  8
ALL_ASSEMBLY_MEMBERS
100
AcDbEllipse
 62
7
  6
CONTINUOUS
 10
5.7467345173
 20
4.6708268634
 30
0.0
 11
0.092998022
 21
0.4822427721
 31
0.0
 40
0.0673659609
 41
1.3178566284
 42
1.3364524291
  0
ELLIPSE
  5
3BF
100
AcDbEntity
  8
ALL_ASSEMBLY_MEMBERS
100
AcDbEllipse
 62
7
  6
CONTINUOUS
 10
5.2633909309
 20
4.6708268634
 30
0.0
 11
3.1983556692
 21
0.0
 31
0.0
 40
0.1507910672
 41
1.4280200816
 42
1.4309002792
  0
ELLIPSE
  5
3C0
100
AcDbEntity
  8
ALL_ASSEMBLY_MEMBERS
100
AcDbEllipse
 62
7
  6
CONTINUOUS
 10
6.2244809454
 20
4.6708268634
 30
0.0
 11
3.8379774823
 21
0.4540195862
 31
0.0
 40
0.0423859259
 41
-1.704197027
 42
-1.7013224161
  0
ELLIPSE
  5
3C1
100
AcDbEntity
  8
ALL_ASSEMBLY_MEMBERS
100
AcDbEllipse
 62
7
  6
CONTINUOUS
 10
6.2244809454
 20
4.6708268634
 30
0.0
 11
3.8576059957
 21
0.4563415721
 31
0.0
 40
0.0423859259
 41
-1.7035401767
 42
-1.700680429
  0
ELLIPSE
  5
3C2
100
AcDbEntity
  8
ALL_ASSEMBLY_MEMBERS
100
AcDbEllipse
 62
7
  6
CONTINUOUS
 10
5.8641395432
 20
4.6708268634
 30
0.0
 11
0.9573101584
 21
0.4633075297
 31
0.0
 40
0.1399266983
 41
-1.7639251619
 42
-1.7524368436
  0
ELLIPSE
  5
3C3
100
AcDbEntity
  8
ALL_ASSEMBLY_MEMBERS
100
AcDbEllipse
 62
7
  6
CONTINUOUS
 10
5.8641395432
 20
4.6708268634
 30
0.0
 11
0.9622061161
 21
0.4656770168
 31
0.0
 40
0.1399266983
 41
-1.7632831748
 42
-1.7518541529
  0
ELLIPSE
  5
3C4
100
AcDbEntity
  8
ALL_ASSEMBLY_MEMBERS
100
AcDbEllipse
 62
7
  6
CONTINUOUS
 10
6.1900055157
 20
4.6708268634
 30
0.0
 11
3.2147120734
 21
0.0
 31
0.0
 40
0.1507911094
 41
1.7099759023
 42
1.7128411503
  0
ELLIPSE
  5
3C5
100
AcDbEntity
  8
ALL_ASSEMBLY_MEMBERS
100
AcDbEllipse
 62
7
  6
CONTINUOUS
 10
6.1900055157
 20
4.6708268634
 30
0.0
 11
3.1983547732
 21
-0.0
 31
0.0
 40
0.1507911094
 41
1.7106923744
 42
1.713572572
  0
ELLIPSE
  5
3C6
100
AcDbEntity
  8
ALL_ASSEMBLY_MEMBERS
100
AcDbEllipse
 62
7
  6
CONTINUOUS
 10
6.0116141013
 20
4.6708268634
 30
0.0
 11
1.9288290452
 21
-0.0
 31
0.0
 40
0.251318281
 41
1.7071118038
 42
1.7099759023
  0
ELLIPSE
  5
3C7
100
AcDbEntity
  8
ALL_ASSEMBLY_MEMBERS
100
AcDbEllipse
 62
7
  6
CONTINUOUS
 10
5.8034900214
 20
4.6708268634
 30
0.0
 11
0.4182142408
 21
0.4767033111
 31
0.0
 40
0.1749164141
 41
-1.8816186254
 42
-1.8730123831
  0
ELLIPSE
  5
3C8
100
AcDbEntity
  8
ALL_ASSEMBLY_MEMBERS
100
AcDbEllipse
 62
7
  6
CONTINUOUS
 10
5.8034900214
 20
4.6708268634
 30
0.0
 11
0.4203531079
 21
0.479141308
 31
0.0
 40
0.1749164141
 41
-1.8810359347
 42
-1.8724740109
  0
ELLIPSE
  5
3C9
100
AcDbEntity
  8
ALL_ASSEMBLY_MEMBERS
100
AcDbEllipse
 62
7
  6
CONTINUOUS
 10
6.0116141013
 20
4.6708268634
 30
0.0
 11
1.9190146559
 21
0.0
 31
0.0
 40
0.251318281
 41
1.7078133445
 42
1.7106923744
  0
ELLIPSE
  5
3CA
100
AcDbEntity
  8
ALL_ASSEMBLY_MEMBERS
100
AcDbEllipse
 62
7
  6
CONTINUOUS
 10
5.7720799037
 20
4.6708268634
 30
0.0
 11
0.1211290532
 21
0.4821725657
 31
0.0
 40
0.0853800458
 41
-2.0038341653
 42
-1.9912973423
  0
ELLIPSE
  5
3CB
100
AcDbEntity
  8
ALL_ASSEMBLY_MEMBERS
100
AcDbEllipse
 62
7
  6
CONTINUOUS
 10
5.7720799037
 20
4.6708268634
 30
0.0
 11
0.1217485418
 21
0.484638534
 31
0.0
 40
0.0853800458
 41
-2.0032957931
 42
-1.9890427398
  0
ELLIPSE
  5
3CC
100
AcDbEntity
  8
ALL_ASSEMBLY_MEMBERS
100
AcDbEllipse
 62
7
  6
CONTINUOUS
 10
5.9242410317
 20
4.6708268634
 30
0.0
 11
1.2858774715
 21
0.0
 31
0.0
 40
0.3769799306
 41
1.7013869237
 42
1.7071118038
  0
ELLIPSE
  5
3CD
100
AcDbEntity
  8
ALL_ASSEMBLY_MEMBERS
100
AcDbEllipse
 62
7
  6
CONTINUOUS
 10
5.9242410317
 20
4.6708268634
 30
0.0
 11
1.2793345889
 21
0.0
 31
0.0
 40
0.3769799306
 41
1.7020586537
 42
1.7078133445
  0
ELLIPSE
  5
3CE
100
AcDbEntity
  8
ALL_ASSEMBLY_MEMBERS
100
AcDbEllipse
 62
7
  6
CONTINUOUS
 10
5.8405178806
 20
4.6708268634
 30
0.0
 11
0.642939962
 21
0.0
 31
0.0
 40
0.7539584232
 41
1.6928076234
 42
1.7013869237
  0
ELLIPSE
  5
3CF
100
AcDbEntity
  8
ALL_ASSEMBLY_MEMBERS
100
AcDbEllipse
 62
7
  6
CONTINUOUS
 10
5.8405178806
 20
4.6708268634
 30
0.0
 11
0.6396685145
 21
0.0
 31
0.0
 40
0.7539584232
 41
1.6934347632
 42
1.7020586537
  0
ELLIPSE
  5
3D0
100
AcDbEntity
  8
ALL_ASSEMBLY_MEMBERS
100
AcDbEllipse
 62
7
  6
CONTINUOUS
 10
5.8634058293
 20
4.6708268634
 30
0.0
 11
0.7463249724
 21
-0.4698307965
 31
0.0
 40
0.1599010046
 41
-1.6130856485
 42
-1.5959095311
  0
ELLIPSE
  5
3D1
100
AcDbEntity
  8
ALL_ASSEMBLY_MEMBERS
100
AcDbEllipse
 62
7
  6
CONTINUOUS
 10
5.8634058293
 20
4.6708268634
 30
0.0
 11
0.7425274748
 21
-0.4674401739
 31
0.0
 40
0.1599010046
 41
-1.6138200371
 42
-1.5965544644
  0
ELLIPSE
  5
3D2
100
AcDbEntity
  8
ALL_ASSEMBLY_MEMBERS
100
AcDbEllipse
 62
7
  6
CONTINUOUS
 10
5.8092173189
 20
4.6708268634
 30
0.0
 11
0.0
 21
0.48475
 31
0.0
 40
0.7958001534
 41
0.10773218
 42
0.1220112966
  0
ELLIPSE
  5
3D3
100
AcDbEntity
  8
ALL_ASSEMBLY_MEMBERS
100
AcDbEllipse
 62
7
  6
CONTINUOUS
 10
5.8092173189
 20
4.6708268634
 30
0.0
 11
0.0
 21
0.4822834646
 31
0.0
 40
0.7958001534
 41
0.1082853113
 42
0.1226384364
  0
ELLIPSE
  5
3D4
100
AcDbEntity
  8
ALL_ASSEMBLY_MEMBERS
100
AcDbEllipse
 62
7
  6
CONTINUOUS
 10
5.6081296107
 20
4.6708268634
 30
0.0
 11
3.1982722808
 21
-0.4543712279
 31
0.0
 40
0.0505558762
 41
-1.5239656048
 42
-1.5211117194
  0
ELLIPSE
  5
3D5
100
AcDbEntity
  8
ALL_ASSEMBLY_MEMBERS
100
AcDbEllipse
 62
7
  6
CONTINUOUS
 10
5.6081296107
 20
4.6708268634
 30
0.0
 11
3.2146291591
 21
-0.4566950122
 31
0.0
 40
0.0505558762
 41
-1.5241674517
 42
-1.521328112
  0
ELLIPSE
  5
3D6
100
AcDbEntity
  8
ALL_ASSEMBLY_MEMBERS
100
AcDbEllipse
 62
7
  6
CONTINUOUS
 10
5.7792603559
 20
4.6708268634
 30
0.0
 11
0.0
 21
0.48475
 31
0.0
 40
0.2210555139
 41
0.0906260353
 42
0.10773218
  0
ELLIPSE
  5
3D7
100
AcDbEntity
  8
ALL_ASSEMBLY_MEMBERS
100
AcDbEllipse
 62
7
  6
CONTINUOUS
 10
5.7792603559
 20
4.6708268634
 30
0.0
 11
-0.0
 21
0.4822834646
 31
0.0
 40
0.2210555139
 41
0.0910908057
 42
0.1082853113
  0
ELLIPSE
  5
3D8
100
AcDbEntity
  8
ALL_ASSEMBLY_MEMBERS
100
AcDbEllipse
 62
7
  6
CONTINUOUS
 10
5.6624886989
 20
4.6708268634
 30
0.0
 11
1.9186443081
 21
-0.4563054692
 31
0.0
 40
0.0813853176
 41
-1.5089407422
 42
-1.5060864941
  0
ELLIPSE
  5
3D9
100
AcDbEntity
  8
ALL_ASSEMBLY_MEMBERS
100
AcDbEllipse
 62
7
  6
CONTINUOUS
 10
5.6624886989
 20
4.6708268634
 30
0.0
 11
1.9284568033
 21
-0.4586391457
 31
0.0
 40
0.0813853176
 41
-1.5091571348
 42
-1.5063174377
  0
ELLIPSE
  5
3DA
100
AcDbEntity
  8
ALL_ASSEMBLY_MEMBERS
100
AcDbEllipse
 62
7
  6
CONTINUOUS
 10
5.6914918146
 20
4.6708268634
 30
0.0
 11
1.2782580077
 21
-0.4595926617
 31
0.0
 40
0.114367678
 41
-1.484342408
 42
-1.4786327952
  0
ELLIPSE
  5
3DB
100
AcDbEntity
  8
ALL_ASSEMBLY_MEMBERS
100
AcDbEllipse
 62
7
  6
CONTINUOUS
 10
5.6914918146
 20
4.6708268634
 30
0.0
 11
1.2847953844
 21
-0.4619431499
 31
0.0
 40
0.114367678
 41
-1.4845733516
 42
-1.478892858
  0
ELLIPSE
  5
3DC
100
AcDbEntity
  8
ALL_ASSEMBLY_MEMBERS
100
AcDbEllipse
 62
7
  6
CONTINUOUS
 10
5.7241431435
 20
4.6708268634
 30
0.0
 11
0.6347072598
 21
-0.4701874538
 31
0.0
 40
0.1691116311
 41
-1.3951024531
 42
-1.386534842
  0
ELLIPSE
  5
3DD
100
AcDbEntity
  8
ALL_ASSEMBLY_MEMBERS
100
AcDbEllipse
 62
7
  6
CONTINUOUS
 10
5.7241431435
 20
4.6708268634
 30
0.0
 11
0.6379533341
 21
-0.4725921268
 31
0.0
 40
0.1691116311
 41
-1.3953625159
 42
-1.3868386321
  0
ELLIPSE
  5
3DE
100
AcDbEntity
  8
ALL_ASSEMBLY_MEMBERS
100
AcDbEllipse
 62
7
  6
CONTINUOUS
 10
5.7393924762
 20
4.6708268634
 30
0.0
 11
-0.3749396591
 21
0.4779751482
 31
0.0
 40
0.1715483401
 41
-4.4374539601
 42
-4.4231645383
  0
ELLIPSE
  5
3DF
100
AcDbEntity
  8
ALL_ASSEMBLY_MEMBERS
100
AcDbEllipse
 62
7
  6
CONTINUOUS
 10
5.7393924762
 20
4.6708268634
 30
0.0
 11
-0.3768572076
 21
0.4804196496
 31
0.0
 40
0.1715483401
 41
-4.4377577502
 42
-4.4235413607
  0
ELLIPSE
  5
3E0
100
AcDbEntity
  8
ALL_ASSEMBLY_MEMBERS
100
AcDbEllipse
 62
7
  6
CONTINUOUS
 10
5.7598645646
 20
4.6708268634
 30
0.0
 11
-0.1007222974
 21
0.4822282366
 31
0.0
 40
0.0724615456
 41
-4.3045336433
 42
-4.2873661045
  0
ELLIPSE
  5
3E1
100
AcDbEntity
  8
ALL_ASSEMBLY_MEMBERS
100
AcDbEllipse
 62
7
  6
CONTINUOUS
 10
5.7598645646
 20
4.6708268634
 30
0.0
 11
-0.10123742
 21
0.4846944896
 31
0.0
 40
0.0724615456
 41
-4.3049104657
 42
-4.2878308749
  0
ELLIPSE
  5
3E2
100
AcDbEntity
  8
ALL_ASSEMBLY_MEMBERS
100
AcDbEllipse
 62
7
  6
CONTINUOUS
 10
5.6931350056
 20
4.6708268634
 30
0.0
 11
0.6429400371
 21
0.0
 31
0.0
 40
0.7539583352
 41
7.8485889439
 42
7.857099912
  0
ELLIPSE
  5
3E3
100
AcDbEntity
  8
ALL_ASSEMBLY_MEMBERS
100
AcDbEllipse
 62
7
  6
CONTINUOUS
 10
5.526231043
 20
4.6708268634
 30
0.0
 11
3.8576324144
 21
0.0
 31
0.0
 40
0.1256599769
 41
1.5143080044
 42
1.5171492967
  0
ELLIPSE
  5
3E4
100
AcDbEntity
  8
ALL_ASSEMBLY_MEMBERS
100
AcDbEllipse
 62
7
  6
CONTINUOUS
 10
5.526231043
 20
4.6708268634
 30
0.0
 11
3.8380037666
 21
0.0
 31
0.0
 40
0.1256599769
 41
7.7972041041
 42
7.8000599721
  0
ELLIPSE
  5
3E5
100
AcDbEntity
  8
ALL_ASSEMBLY_MEMBERS
100
AcDbEllipse
 62
7
  6
CONTINUOUS
 10
5.7729757398
 20
4.6708268634
 30
0.0
 11
-0.0866566919
 21
0.4847194462
 31
0.0
 40
0.0628055002
 41
-4.4316026612
 42
-4.4117214252
  0
ELLIPSE
  5
3E6
100
AcDbEntity
  8
ALL_ASSEMBLY_MEMBERS
100
AcDbEllipse
 62
7
  6
CONTINUOUS
 10
5.7729757398
 20
4.6708268634
 30
0.0
 11
-0.0862157599
 21
0.4822530662
 31
0.0
 40
0.0628055002
 41
-4.4318947599
 42
-4.4119116145
  0
ELLIPSE
  5
3E7
100
AcDbEntity
  8
ALL_ASSEMBLY_MEMBERS
100
AcDbEllipse
 62
7
  6
CONTINUOUS
 10
5.7860689583
 20
4.6708268634
 30
0.0
 11
-0.3118799231
 21
0.4821211713
 31
0.0
 40
0.1616508637
 41
-4.5359371337
 42
-4.5245667903
  0
ELLIPSE
  5
3E8
100
AcDbEntity
  8
ALL_ASSEMBLY_MEMBERS
100
AcDbEllipse
 62
7
  6
CONTINUOUS
 10
5.7860689583
 20
4.6708268634
 30
0.0
 11
-0.310292996
 21
0.4796680121
 31
0.0
 40
0.1616508637
 41
-4.5362876155
 42
-4.524858889
  0
ELLIPSE
  5
3E9
100
AcDbEntity
  8
ALL_ASSEMBLY_MEMBERS
100
AcDbEllipse
 62
7
  6
CONTINUOUS
 10
5.8080474622
 20
4.6708268634
 30
0.0
 11
0.6379532564
 21
-0.4725921289
 31
0.0
 40
0.169111637
 41
-1.525970049
 42
-1.5145908343
  0
ELLIPSE
  5
3EA
100
AcDbEntity
  8
ALL_ASSEMBLY_MEMBERS
100
AcDbEllipse
 62
7
  6
CONTINUOUS
 10
5.8080474622
 20
4.6708268634
 30
0.0
 11
0.6347071826
 21
-0.470187456
 31
0.0
 40
0.169111637
 41
-1.5263790513
 42
-1.5149413162
  0
ELLIPSE
  5
3EB
100
AcDbEntity
  8
ALL_ASSEMBLY_MEMBERS
100
AcDbEllipse
 62
7
  6
CONTINUOUS
 10
5.9618065448
 20
4.6708268634
 30
0.0
 11
2.5715997839
 21
-0.4573305014
 31
0.0
 40
0.0624986133
 41
-1.6423298464
 42
-1.639483481
  0
ELLIPSE
  5
3EC
100
AcDbEntity
  8
ALL_ASSEMBLY_MEMBERS
100
AcDbEllipse
 62
7
  6
CONTINUOUS
 10
5.9618065448
 20
4.6708268634
 30
0.0
 11
2.5585148082
 21
-0.4550034836
 31
0.0
 40
0.0624986133
 41
-1.6427535031
 42
-1.6398924833
  0
ELLIPSE
  5
3ED
100
AcDbEntity
  8
ALL_ASSEMBLY_MEMBERS
100
AcDbEllipse
 62
7
  6
CONTINUOUS
 10
5.6895773458
 20
4.6708268634
 30
0.0
 11
0.9644113131
 21
0.0
 31
0.0
 40
0.5026382348
 41
7.7861233771
 42
7.7974933116
  0
ELLIPSE
  5
3EE
100
AcDbEntity
  8
ALL_ASSEMBLY_MEMBERS
100
AcDbEllipse
 62
7
  6
CONTINUOUS
 10
5.6895773458
 20
4.6708268634
 30
0.0
 11
0.9595041348
 21
0.0
 31
0.0
 40
0.5026382348
 41
7.7911586055
 42
7.7972041041
  0
ELLIPSE
  5
3EF
100
AcDbEntity
  8
ALL_ASSEMBLY_MEMBERS
100
AcDbEllipse
 62
7
  6
CONTINUOUS
 10
5.7259068633
 20
4.6708268634
 30
0.0
 11
-0.0
 21
0.48475
 31
0.0
 40
0.8842220554
 41
6.2067939025
 42
6.2153270503
  0
ELLIPSE
  5
3F0
100
AcDbEntity
  8
ALL_ASSEMBLY_MEMBERS
100
AcDbEllipse
 62
7
  6
CONTINUOUS
 10
5.7488049586
 20
4.6708268634
 30
0.0
 11
0.0
 21
0.48475
 31
0.0
 40
0.2652664142
 41
6.1925592719
 42
6.2067939025
  0
ELLIPSE
  5
3F1
100
AcDbEntity
  8
ALL_ASSEMBLY_MEMBERS
100
AcDbEllipse
 62
7
  6
CONTINUOUS
 10
5.6896678391
 20
4.6708268634
 30
0.0
 11
1.2858813755
 21
0.0
 31
0.0
 40
0.3769787861
 41
7.8429147916
 42
7.8485889439
  0
ELLIPSE
  5
3F2
100
AcDbEntity
  8
ALL_ASSEMBLY_MEMBERS
100
AcDbEllipse
 62
7
  6
CONTINUOUS
 10
5.6935320103
 20
4.6708268634
 30
0.0
 11
0.1007223063
 21
0.4822282366
 31
0.0
 40
0.0724615514
 41
-1.9958192001
 42
-1.9786516613
  0
ELLIPSE
  5
3F3
100
AcDbEntity
  8
ALL_ASSEMBLY_MEMBERS
100
AcDbEllipse
 62
7
  6
CONTINUOUS
 10
5.6935320103
 20
4.6708268634
 30
0.0
 11
0.101237429
 21
0.4846944896
 31
0.0
 40
0.0724615514
 41
-1.9953544298
 42
-1.9782748389
  0
ELLIPSE
  5
3F4
100
AcDbEntity
  8
ALL_ASSEMBLY_MEMBERS
100
AcDbEllipse
 62
7
  6
CONTINUOUS
 10
5.7567582388
 20
4.6708268634
 30
0.0
 11
0.1217484712
 21
0.4846385342
 31
0.0
 40
0.0853800028
 41
-1.8839500288
 42
-1.8697617145
  0
ELLIPSE
  5
3F5
100
AcDbEntity
  8
ALL_ASSEMBLY_MEMBERS
100
AcDbEllipse
 62
7
  6
CONTINUOUS
 10
5.7567582388
 20
4.6708268634
 30
0.0
 11
0.121128983
 21
0.482172566
 31
0.0
 40
0.0853800028
 41
-1.8838760368
 42
-1.8713258838
  0
ELLIPSE
  5
3F6
100
AcDbEntity
  8
ALL_ASSEMBLY_MEMBERS
100
AcDbEllipse
 62
7
  6
CONTINUOUS
 10
5.7524178211
 20
4.6708268634
 30
0.0
 11
0.4203531079
 21
0.479141308
 31
0.0
 40
0.1749164141
 41
-1.7616396296
 42
-1.7531282233
  0
ELLIPSE
  5
3F7
100
AcDbEntity
  8
ALL_ASSEMBLY_MEMBERS
100
AcDbEllipse
 62
7
  6
CONTINUOUS
 10
5.7524178211
 20
4.6708268634
 30
0.0
 11
0.4182142408
 21
0.4767033111
 31
0.0
 40
0.1749164141
 41
-1.7616091722
 42
-1.7530542313
  0
ELLIPSE
  5
3F8
100
AcDbEntity
  8
ALL_ASSEMBLY_MEMBERS
100
AcDbEllipse
 62
7
  6
CONTINUOUS
 10
5.7492270881
 20
4.6708268634
 30
0.0
 11
0.9622070503
 21
0.4656770023
 31
0.0
 40
0.1399266146
 41
-1.6381317277
 42
-1.6324577399
  0
ELLIPSE
  5
3F9
100
AcDbEntity
  8
ALL_ASSEMBLY_MEMBERS
100
AcDbEllipse
 62
7
  6
CONTINUOUS
 10
5.7492270881
 20
4.6708268634
 30
0.0
 11
0.9573110879
 21
0.4633075153
 31
0.0
 40
0.1399266146
 41
-1.638130289
 42
-1.6324272825
  0
ELLIPSE
  5
3FA
100
AcDbEntity
  8
ALL_ASSEMBLY_MEMBERS
100
AcDbEllipse
 62
7
  6
CONTINUOUS
 10
5.7462120868
 20
4.6708268634
 30
0.0
 11
1.2847953844
 21
-0.4619431499
 31
0.0
 40
0.114367678
 41
-1.5356543218
 42
-1.5299803341
  0
ELLIPSE
  5
3FB
100
AcDbEntity
  8
ALL_ASSEMBLY_MEMBERS
100
AcDbEllipse
 62
7
  6
CONTINUOUS
 10
5.7462120868
 20
4.6708268634
 30
0.0
 11
1.2782580077
 21
-0.4595926617
 31
0.0
 40
0.114367678
 41
-1.5356847793
 42
-1.5299817728
  0
ELLIPSE
  5
3FC
100
AcDbEntity
  8
ALL_ASSEMBLY_MEMBERS
100
AcDbEllipse
 62
7
  6
CONTINUOUS
 10
5.7419729703
 20
4.6708268634
 30
0.0
 11
0.5681047491
 21
-0.4746020763
 31
0.0
 40
0.1736797508
 41
-1.5122023158
 42
-1.4326628245
  0
ELLIPSE
  5
3FD
100
AcDbEntity
  8
ALL_ASSEMBLY_MEMBERS
100
AcDbEllipse
 62
7
  6
CONTINUOUS
 10
5.7419729703
 20
4.6708268634
 30
0.0
 11
0.5652140828
 21
-0.4721871761
 31
0.0
 40
0.1736797508
 41
-1.5126406373
 42
-1.4326932819
  0
ELLIPSE
  5
3FE
100
AcDbEntity
  8
ALL_ASSEMBLY_MEMBERS
100
AcDbEllipse
 62
7
  6
CONTINUOUS
 10
5.8452669989
 20
4.6708268634
 30
0.0
 11
3.2146300597
 21
0.4566950116
 31
0.0
 40
0.0505558626
 41
-1.6202645376
 42
-1.6174251979
  0
ELLIPSE
  5
3FF
100
AcDbEntity
  8
ALL_ASSEMBLY_MEMBERS
100
AcDbEllipse
 62
7
  6
CONTINUOUS
 10
5.8452669989
 20
4.6708268634
 30
0.0
 11
3.1982731769
 21
0.4543712273
 31
0.0
 40
0.0505558626
 41
-1.6204809302
 42
-1.6176270448
  0
ELLIPSE
  5
400
100
AcDbEntity
  8
ALL_ASSEMBLY_MEMBERS
100
AcDbEllipse
 62
7
  6
CONTINUOUS
 10
5.7909077965
 20
4.6708268634
 30
0.0
 11
1.9284550012
 21
0.4586391511
 31
0.0
 40
0.0813853855
 41
-1.6352752504
 42
-1.6324355533
  0
ELLIPSE
  5
401
100
AcDbEntity
  8
ALL_ASSEMBLY_MEMBERS
100
AcDbEllipse
 62
7
  6
CONTINUOUS
 10
5.7909077965
 20
4.6708268634
 30
0.0
 11
1.9186425152
 21
0.4563054746
 31
0.0
 40
0.0813853855
 41
-1.635506194
 42
-1.6326519458
  0
ELLIPSE
  5
402
100
AcDbEntity
  8
ALL_ASSEMBLY_MEMBERS
100
AcDbEllipse
 62
7
  6
CONTINUOUS
 10
5.7619047721
 20
4.6708268634
 30
0.0
 11
1.28479561
 21
0.461943148
 31
0.0
 40
0.1143676625
 41
-1.6626997827
 42
-1.6570192891
  0
ELLIPSE
  5
403
100
AcDbEntity
  8
ALL_ASSEMBLY_MEMBERS
100
AcDbEllipse
 62
7
  6
CONTINUOUS
 10
5.7619047721
 20
4.6708268634
 30
0.0
 11
1.2782582322
 21
0.4595926598
 31
0.0
 40
0.1143676625
 41
-1.6629598455
 42
-1.6572502327
  0
ELLIPSE
  5
404
100
AcDbEntity
  8
ALL_ASSEMBLY_MEMBERS
100
AcDbEllipse
 62
7
  6
CONTINUOUS
 10
5.7292534356
 20
4.6708268634
 30
0.0
 11
0.6379534101
 21
0.4725921247
 31
0.0
 40
0.1691116253
 41
-1.754754002
 42
-1.7462301183
  0
ELLIPSE
  5
405
100
AcDbEntity
  8
ALL_ASSEMBLY_MEMBERS
100
AcDbEllipse
 62
7
  6
CONTINUOUS
 10
5.7292534356
 20
4.6708268634
 30
0.0
 11
0.6347073354
 21
0.4701874517
 31
0.0
 40
0.1691116253
 41
-1.7550577922
 42
-1.7464901811
  0
ELLIPSE
  5
406
100
AcDbEntity
  8
ALL_ASSEMBLY_MEMBERS
100
AcDbEllipse
 62
7
  6
CONTINUOUS
 10
5.7140041005
 20
4.6708268634
 30
0.0
 11
0.3768572419
 21
0.4804196487
 31
0.0
 40
0.1715483437
 41
-1.8596439314
 42
-1.8454275419
  0
ELLIPSE
  5
407
100
AcDbEntity
  8
ALL_ASSEMBLY_MEMBERS
100
AcDbEllipse
 62
7
  6
CONTINUOUS
 10
5.7140041005
 20
4.6708268634
 30
0.0
 11
0.3749396931
 21
0.4779751472
 31
0.0
 40
0.1715483437
 41
-1.8600207538
 42
-1.8457313321
  0
ENDSEC
  0
SECTION
  2
OBJECTS
  0
DICTIONARY
  5
C
100
AcDbDictionary
280
0
281
1
  3
ACAD_GROUP
350
D
  3
ACAD_MLINESTYLE
350
17
  3
ACAD_LAYOUT
350
1A
  3
ACAD_PLOTSETTINGS
350
19
  3
ACAD_PLOTSTYLENAME
350
E
  0
DICTIONARY
  5
D
102
{ACAD_REACTORS
330
C
102
}
100
AcDbDictionary
280
0
281
1
  0
ACDBDICTIONARYWDFLT
  5
E
102
{ACAD_REACTORS
330
C
102
}
100
AcDbDictionary
281
1
  3
Normal
350
F
100
AcDbDictionaryWithDefault
340
F
  0
DICTIONARY
  5
17
102
{ACAD_REACTORS
330
C
102
}
100
AcDbDictionary
280
0
281
1
  3
Standard
350
18
  0
DICTIONARY
  5
19
102
{ACAD_REACTORS
330
C
102
}
100
AcDbDictionary
281
1
  0
DICTIONARY
  5
1A
102
{ACAD_REACTORS
330
C
102
}
100
AcDbDictionary
281
1
  3
Model
350
408
  3
Layout1
350
409
  0
ACDBPLACEHOLDER
  5
F
102
{ACAD_REACTORS
330
E
102
}
  0
MLINESTYLE
  5
18
102
{ACAD_REACTORS
330
17
102
}
100
AcDbMlineStyle
  2
STANDARD
 70
0
  3

 62
256
 51
90.0
 52
90.0
 71
2
 49
0.5
 62
256
  6
BYLAYER
 49
-0.5
 62
256
  6
BYLAYER
  0
LAYOUT
  5
408
102
{ACAD_REACTORS
330
1A
102
}
100
AcDbPlotSettings
  1

  2
none_device
  4
ANSI_A_(11.00_x_8.50_Inches)
  6

 40
0.0
 41
0.0
 42
0.0
 43
0.0
 44
279.4
 45
215.9
 46
0.0
 47
0.0
 48
0.0
 49
0.0
140
0.0
141
0.0
142
1.0
143
1.0
 70
1024
 72
0
 73
0
 74
0
  7

 75
0
147
1.0
148
0.0
149
0.0
100
AcDbLayout
  1
Model
 70
0
 71
0
 10
0.0
 20
0.0
 11
11.0
 21
8.5
 12
0.0
 22
0.0
 32
0.0
 14
0.0
 24
0.0
 34
0.0
 15
0.0
 25
0.0
 35
0.0
146
0.0
 13
0.0
 23
0.0
 33
0.0
 16
1.0
 26
0.0
 36
0.0
 17
0.0
 27
1.0
 37
0.0
 76
0
330
21D
345
0
346
0
  0
LAYOUT
  5
409
102
{ACAD_REACTORS
330
1A
102
}
100
AcDbPlotSettings
  1

  2
none_device
  4
ANSI_A_(11.00_x_8.50_Inches)
  6

 40
0.0
 41
0.0
 42
0.0
 43
0.0
 44
279.4
 45
215.9
 46
0.0
 47
0.0
 48
0.0
 49
0.0
140
0.0
141
0.0
142
1.0
143
1.0
 70
0
 72
0
 73
0
 74
0
  7

 75
0
147
1.0
148
0.0
149
0.0
100
AcDbLayout
  1
Layout1
 70
0
 71
1
 10
0.0
 20
0.0
 11
11.0
 21
8.5
 12
0.0
 22
0.0
 32
0.0
 14
0.0
 24
0.0
 34
0.0
 15
0.0
 25
0.0
 35
0.0
146
0.0
 13
0.0
 23
0.0
 33
0.0
 16
1.0
 26
0.0
 36
0.0
 17
0.0
 27
1.0
 37
0.0
 76
0
330
21E
345
0
346
0
  0
ENDSEC
  0
EOF
