999
DXF file: 3-994ts_RIGHT.dxf
999
Pro/ENGINEER 2018400 by Parametric Technology Corporation
  0
SECTION
  2
HEADER
  9
$ACADVER
  1
AC1027
  9
$DWGCODEPAGE
  3
ANSI_1252
  9
$EXTMAX
 10
11.0
 20
8.5
 30
0.0
  9
$EXTMIN
 10
0.0
 20
0.0
 30
0.0
  9
$LIMMIN
 10
0.0
 20
0.0
  9
$LIMMAX
 10
11.0
 20
8.5
  9
$VIEWCTR
 10
5.5
 20
4.25
  9
$VIEWSIZE
 40
8.5
  9
$CLAYER
  8
0
  9
$LTSCALE
 40
0.605
  9
$CELTYPE
  6
BYLAYER
  9
$DIMSCALE
 40
1.0
  9
$DIMASZ
 40
0.1
  9
$DIMEXO
 40
0.0625
  9
$DIMDLI
 40
0.418
  9
$DIMEXE
 40
0.125
  9
$DIMCEN
 40
0.099
  9
$DIMLFAC
 40
1.0
  9
$DIMBLK
  1
_FILLED
  9
$DIMALT
 70
1
  9
$DIMALTD
 70
2
  9
$DIMALTTD
 70
2
  9
$DIMALTF
 40
25.4
  9
$DIMTXT
 40
0.08
  9
$DIMTOL
 70
1
  9
$DIMLIM
 70
0
  9
$DIMTFAC
 40
1.0
  9
$DIMTP
 40
0.001
  9
$DIMTM
 40
0.001
  9
$DIMGAP
 40
0.09
  9
$DIMDSEP
 70
46
  9
$AUNITS
 70
0
  9
$PDMODE
 70
3
  9
$PDSIZE
 40
0.3125
  9
$HANDSEED
  5
3FF
  9
$TILEMODE
 70
1
  9
$MEASUREMENT
 70
0
  9
$INSUNITS
 70
1
  0
ENDSEC
  0
SECTION
  2
CLASSES
  0
CLASS
  1
ACDBDICTIONARYWDFLT
  2
AcDbDictionaryWithDefault
  3
AutoCAD 2000
 90
0
 91
1
280
0
281
0
  0
CLASS
  1
ACDBPLACEHOLDER
  2
AcDbPlaceHolder
  3
AutoCAD 2000
 90
0
 91
1
280
0
281
0
  0
CLASS
  1
LAYOUT
  2
AcDbLayout
  3
AutoCAD 2000
 90
0
 91
0
280
0
281
0
  0
ENDSEC
  0
SECTION
  2
TABLES
  0
TABLE
  2
VPORT
  5
8
100
AcDbSymbolTable
 70
2
  0
VPORT
  5
1F4
100
AcDbSymbolTableRecord
100
AcDbViewportTableRecord
  2
*ACTIVE
 70
0
 10
0.0
 20
0.0
 11
1.0
 21
1.0
 12
5.5
 22
4.25
 13
0.0
 23
0.0
 14
1.0
 24
1.0
 15
0.0
 25
0.0
 16
0.0
 26
0.0
 36
1.0
 17
0.0
 27
0.0
 37
0.0
 40
8.5
 41
1.2941176471
 42
50.0
 43
0.0
 44
0.0
 50
0.0
 51
0.0
 71
0
 72
100
 73
1
 74
1
 75
0
 76
0
 77
0
 78
0
  0
ENDTAB
  0
TABLE
  2
LTYPE
  5
5
100
AcDbSymbolTable
 70
6
  0
LTYPE
  5
14
100
AcDbSymbolTableRecord
100
AcDbLinetypeTableRecord
  2
BYBLOCK
 70
0
  3

 72
65
 73
0
 40
0.0
  0
LTYPE
  5
15
100
AcDbSymbolTableRecord
100
AcDbLinetypeTableRecord
  2
BYLAYER
 70
0
  3

 72
65
 73
0
 40
0.0
  0
LTYPE
  5
16
100
AcDbSymbolTableRecord
100
AcDbLinetypeTableRecord
  2
CONTINUOUS
 70
64
  3
Solid line
 72
65
 73
0
 40
0.0
  0
LTYPE
  5
1F5
100
AcDbSymbolTableRecord
100
AcDbLinetypeTableRecord
  2
CENTER
 70
64
  3
____ _ ____ _ ____ _ ____ _ ____ _ ____ _ ____
 72
65
 73
4
 40
0.6
 49
0.375
 74
0
 49
-0.075
 74
0
 49
0.075
 74
0
 49
-0.075
 74
0
  0
LTYPE
  5
1F6
100
AcDbSymbolTableRecord
100
AcDbLinetypeTableRecord
  2
HIDDEN
 70
64
  3
- - - - - - - - - - - - - - - - - - - -
 72
65
 73
2
 40
0.2
 49
0.1
 74
0
 49
-0.1
 74
0
  0
LTYPE
  5
1F7
100
AcDbSymbolTableRecord
100
AcDbLinetypeTableRecord
  2
PHANTOM
 70
64
  3
_____ _ _ _____ _ _ _____ _ _ _____
 72
65
 73
6
 40
0.8
 49
0.45
 74
0
 49
-0.05
 74
0
 49
0.1
 74
0
 49
-0.05
 74
0
 49
0.1
 74
0
 49
-0.05
 74
0
  0
LTYPE
  5
1F8
100
AcDbSymbolTableRecord
100
AcDbLinetypeTableRecord
  2
DOT
 70
64
  3
. . . . . . . . . . . . . . . . . . . .
 72
65
 73
2
 40
0.2
 49
0.1
 74
0
 49
-0.1
 74
0
  0
LTYPE
  5
1F9
100
AcDbSymbolTableRecord
100
AcDbLinetypeTableRecord
  2
DASHED
 70
64
  3
- - - - - - - - - - - - - - - - - - - -
 72
65
 73
2
 40
0.2
 49
0.1
 74
0
 49
-0.1
 74
0
  0
ENDTAB
  0
TABLE
  2
LAYER
  5
2
100
AcDbSymbolTable
 70
36
  0
LAYER
  5
10
100
AcDbSymbolTableRecord
100
AcDbLayerTableRecord
  2
0
 70
0
 62
7
  6
CONTINUOUS
370
-3
390
F
  0
LAYER
  5
1FA
100
AcDbSymbolTableRecord
100
AcDbLayerTableRecord
  2
DEFAULT_1
 70
0
 62
7
  6
CENTER
370
-3
390
F
  0
LAYER
  5
1FB
100
AcDbSymbolTableRecord
100
AcDbLayerTableRecord
  2
DEFAULT_2
 70
0
 62
8
  6
HIDDEN
370
-3
390
F
  0
LAYER
  5
1FC
100
AcDbSymbolTableRecord
100
AcDbLayerTableRecord
  2
DEFAULT_3
 70
0
 62
7
  6
PHANTOM
370
-3
390
F
  0
LAYER
  5
1FD
100
AcDbSymbolTableRecord
100
AcDbLayerTableRecord
  2
2-110_ASSY_DATUMS
 70
0
 62
7
  6
CONTINUOUS
370
-3
390
F
  0
LAYER
  5
1FE
100
AcDbSymbolTableRecord
100
AcDbLayerTableRecord
  2
2-266_ASSY_PLANES
 70
0
 62
7
  6
CONTINUOUS
370
-3
390
F
  0
LAYER
  5
1FF
100
AcDbSymbolTableRecord
100
AcDbLayerTableRecord
  2
AA
 70
0
 62
7
  6
CONTINUOUS
370
-3
390
F
  0
LAYER
  5
200
100
AcDbSymbolTableRecord
100
AcDbLayerTableRecord
  2
ALL_ASSEMBLY_MEMBERS
 70
0
 62
7
  6
CONTINUOUS
370
-3
390
F
  0
LAYER
  5
201
100
AcDbSymbolTableRecord
100
AcDbLayerTableRecord
  2
ALL_FEATURES
 70
0
 62
7
  6
CONTINUOUS
370
-3
390
F
  0
LAYER
  5
202
100
AcDbSymbolTableRecord
100
AcDbLayerTableRecord
  2
AXES_FEATURES
 70
0
 62
7
  6
CONTINUOUS
370
-3
390
F
  0
LAYER
  5
203
100
AcDbSymbolTableRecord
100
AcDbLayerTableRecord
  2
CHAMFER_FEATURES
 70
0
 62
7
  6
CONTINUOUS
370
-3
390
F
  0
LAYER
  5
204
100
AcDbSymbolTableRecord
100
AcDbLayerTableRecord
  2
CURVE
 70
0
 62
7
  6
CONTINUOUS
370
-3
390
F
  0
LAYER
  5
205
100
AcDbSymbolTableRecord
100
AcDbLayerTableRecord
  2
CUT_FEATURES
 70
0
 62
7
  6
CONTINUOUS
370
-3
390
F
  0
LAYER
  5
206
100
AcDbSymbolTableRecord
100
AcDbLayerTableRecord
  2
DATUM_CURVES
 70
0
 62
7
  6
CONTINUOUS
370
-3
390
F
  0
LAYER
  5
207
100
AcDbSymbolTableRecord
100
AcDbLayerTableRecord
  2
DATUM_PLANES
 70
0
 62
7
  6
CONTINUOUS
370
-3
390
F
  0
LAYER
  5
208
100
AcDbSymbolTableRecord
100
AcDbLayerTableRecord
  2
DEFAULT_COORDINATE_SYSTEM
 70
0
 62
7
  6
CONTINUOUS
370
-3
390
F
  0
LAYER
  5
209
100
AcDbSymbolTableRecord
100
AcDbLayerTableRecord
  2
DEFAULT_DATUM_AXES
 70
0
 62
7
  6
CONTINUOUS
370
-3
390
F
  0
LAYER
  5
20A
100
AcDbSymbolTableRecord
100
AcDbLayerTableRecord
  2
DEFAULT_DATUM_CURVES
 70
0
 62
7
  6
CONTINUOUS
370
-3
390
F
  0
LAYER
  5
20B
100
AcDbSymbolTableRecord
100
AcDbLayerTableRecord
  2
DEFAULT_DATUM_PLANES
 70
0
 62
7
  6
CONTINUOUS
370
-3
390
F
  0
LAYER
  5
20C
100
AcDbSymbolTableRecord
100
AcDbLayerTableRecord
  2
DEFAULT_SURFACES
 70
0
 62
7
  6
CONTINUOUS
370
-3
390
F
  0
LAYER
  5
20D
100
AcDbSymbolTableRecord
100
AcDbLayerTableRecord
  2
DIMENSIONS
 70
0
 62
7
  6
CONTINUOUS
370
-3
390
F
  0
LAYER
  5
20E
100
AcDbSymbolTableRecord
100
AcDbLayerTableRecord
  2
HOLE_FEATURES
 70
0
 62
7
  6
CONTINUOUS
370
-3
390
F
  0
LAYER
  5
20F
100
AcDbSymbolTableRecord
100
AcDbLayerTableRecord
  2
LAY0001
 70
0
 62
7
  6
CONTINUOUS
370
-3
390
F
  0
LAYER
  5
210
100
AcDbSymbolTableRecord
100
AcDbLayerTableRecord
  2
NOTES
 70
0
 62
7
  6
CONTINUOUS
370
-3
390
F
  0
LAYER
  5
211
100
AcDbSymbolTableRecord
100
AcDbLayerTableRecord
  2
PART_REFERENCE_DIMENSIONS
 70
0
 62
7
  6
CONTINUOUS
370
-3
390
F
  0
LAYER
  5
212
100
AcDbSymbolTableRecord
100
AcDbLayerTableRecord
  2
PLATED_SURFACE
 70
0
 62
7
  6
CONTINUOUS
370
-3
390
F
  0
LAYER
  5
213
100
AcDbSymbolTableRecord
100
AcDbLayerTableRecord
  2
PLATED_SURFACE_AREA
 70
0
 62
7
  6
CONTINUOUS
370
-3
390
F
  0
LAYER
  5
214
100
AcDbSymbolTableRecord
100
AcDbLayerTableRecord
  2
PROTRUSION
 70
0
 62
7
  6
CONTINUOUS
370
-3
390
F
  0
LAYER
  5
215
100
AcDbSymbolTableRecord
100
AcDbLayerTableRecord
  2
PROTRUSION_FEATURES
 70
0
 62
7
  6
CONTINUOUS
370
-3
390
F
  0
LAYER
  5
216
100
AcDbSymbolTableRecord
100
AcDbLayerTableRecord
  2
QUILT
 70
0
 62
7
  6
CONTINUOUS
370
-3
390
F
  0
LAYER
  5
217
100
AcDbSymbolTableRecord
100
AcDbLayerTableRecord
  2
QUILTS
 70
0
 62
7
  6
CONTINUOUS
370
-3
390
F
  0
LAYER
  5
218
100
AcDbSymbolTableRecord
100
AcDbLayerTableRecord
  2
REFERENCE_DIMENSIONS
 70
0
 62
7
  6
CONTINUOUS
370
-3
390
F
  0
LAYER
  5
219
100
AcDbSymbolTableRecord
100
AcDbLayerTableRecord
  2
ROUND_FEATURES
 70
0
 62
7
  6
CONTINUOUS
370
-3
390
F
  0
LAYER
  5
21A
100
AcDbSymbolTableRecord
100
AcDbLayerTableRecord
  2
SHELL_FEATURES
 70
0
 62
7
  6
CONTINUOUS
370
-3
390
F
  0
LAYER
  5
21B
100
AcDbSymbolTableRecord
100
AcDbLayerTableRecord
  2
XSEC_DATUMS
 70
0
 62
7
  6
CONTINUOUS
370
-3
390
F
  0
ENDTAB
  0
TABLE
  2
STYLE
  5
3
100
AcDbSymbolTable
 70
1
  0
STYLE
  5
11
100
AcDbSymbolTableRecord
100
AcDbTextStyleTableRecord
  2
STANDARD
 70
0
 40
0.0
 41
0.8
 50
0.0
 71
0
 42
0.2
  3
txt
  4

  0
STYLE
  5
21C
100
AcDbSymbolTableRecord
100
AcDbTextStyleTableRecord
  2
TEXTSTYLE_1
 70
0
 40
0.0
 41
0.8
 50
0.0
 71
0
 42
0.2
  3
gdt
  4

  0
ENDTAB
  0
TABLE
  2
VIEW
  5
6
100
AcDbSymbolTable
 70
0
  0
ENDTAB
  0
TABLE
  2
UCS
  5
7
100
AcDbSymbolTable
 70
0
  0
ENDTAB
  0
TABLE
  2
APPID
  5
9
100
AcDbSymbolTable
 70
1
  0
APPID
  5
21D
100
AcDbSymbolTableRecord
100
AcDbRegAppTableRecord
  2
ACAD
 70
0
  0
ENDTAB
  0
TABLE
  2
BLOCK_RECORD
  5
1
100
AcDbSymbolTable
 70
0
  0
BLOCK_RECORD
  5
21E
100
AcDbSymbolTableRecord
100
AcDbBlockTableRecord
  2
*Model_Space
  0
BLOCK_RECORD
  5
21F
100
AcDbSymbolTableRecord
100
AcDbBlockTableRecord
  2
*Paper_Space
  0
BLOCK_RECORD
  5
220
100
AcDbSymbolTableRecord
100
AcDbBlockTableRecord
  2
_FILLED
  0
ENDTAB
  0
TABLE
  2
DIMSTYLE
  5
A
100
AcDbSymbolTable
 70
1
100
AcDbDimStyleTable
 71
0
  0
DIMSTYLE
105
221
100
AcDbSymbolTableRecord
100
AcDbDimStyleTableRecord
  2
STANDARD
 70
0
  3

  4

 40
1.0
 41
0.1
 42
0.0625
 43
0.38
 44
0.125
 45
0.0
 46
0.0
 47
0.001
 48
0.001
140
0.08
141
0.09
142
0.0
143
25.4
144
1.0
145
0.0
146
1.0
147
0.09
 71
1.0
 72
0.0
 73
1
 74
1
 75
0
 76
0
 77
0
 78
4
 79
1
170
1
171
2
172
0
173
0
174
0
175
0
176
0
177
0
178
0
270
2
179
3
271
3
272
3
273
2
274
2
275
0
280
0
281
0
282
0
283
1
284
4
285
0
286
0
287
3
288
0
340
11
278
46
341
220
342
220
343
220
344
220
  0
ENDTAB
  0
ENDSEC
  0
SECTION
  2
BLOCKS
  0
BLOCK
  5
20
100
AcDbEntity
  8
0
100
AcDbBlockBegin
  2
*Model_Space
 70
0
 10
0.0
 20
0.0
 30
0.0
  3
*Model_Space
  1

  0
ENDBLK
  5
21
100
AcDbEntity
  8
0
100
AcDbBlockEnd
  0
BLOCK
  5
1C
100
AcDbEntity
  8
0
100
AcDbBlockBegin
  2
*Paper_Space
 70
0
 10
0.0
 20
0.0
 30
0.0
  3
*Paper_Space
  1

  0
ENDBLK
  5
1D
100
AcDbEntity
  8
0
100
AcDbBlockEnd
  0
BLOCK
  5
222
100
AcDbEntity
  8
0
100
AcDbBlockBegin
  2
_FILLED
 70
64
 10
0.0
 20
0.0
  3
_FILLED
  1

  0
SOLID
  5
223
100
AcDbEntity
  8
0
  6
BYBLOCK
 62
0
100
AcDbTrace
 10
0.0
 20
0.0
 11
-1.0
 21
0.2
 12
-1.0
 22
-0.2
 13
-1.0
 23
-0.2
  0
ENDBLK
  5
224
100
AcDbEntity
  8
0
  6
BYBLOCK
 62
0
100
AcDbBlockEnd
  0
ENDSEC
  0
SECTION
  2
ENTITIES
  0
MTEXT
  5
225
100
AcDbEntity
  8
0
100
AcDbMText
 62
2
  6
CONTINUOUS
  7
STANDARD
 71
3
 72
1
 10
5.1656444099
 20
3.4004774845
 30
0.0
 11
1.0
 21
0.0
 31
0.0
 73
2
 44
0.9
  1
SCALE  .500
 40
0.08
 41
0.704
  0
LINE
  5
226
100
AcDbEntity
  8
0
100
AcDbLine
 62
7
  6
CONTINUOUS
 10
0.0
 20
0.0
 11
0.0
 21
8.5
  0
LINE
  5
227
100
AcDbEntity
  8
0
100
AcDbLine
 62
7
  6
CONTINUOUS
 10
0.0
 20
0.0
 11
11.0
 21
0.0
  0
LINE
  5
228
100
AcDbEntity
  8
0
100
AcDbLine
 62
7
  6
CONTINUOUS
 10
0.0
 20
8.5
 11
11.0
 21
8.5
  0
LINE
  5
229
100
AcDbEntity
  8
0
100
AcDbLine
 62
7
  6
CONTINUOUS
 10
11.0
 20
0.0
 11
11.0
 21
8.5
  0
LINE
  5
22A
100
AcDbEntity
  8
ALL_ASSEMBLY_MEMBERS
100
AcDbLine
 62
7
  6
CONTINUOUS
 10
6.0336946068
 20
3.4954774845
 11
6.1276946068
 21
3.4954774845
  0
LINE
  5
22B
100
AcDbEntity
  8
ALL_ASSEMBLY_MEMBERS
100
AcDbLine
 62
7
  6
CONTINUOUS
 10
4.0007192131
 20
5.3079774845
 11
4.0007192131
 21
4.9329774845
  0
LINE
  5
22C
100
AcDbEntity
  8
ALL_ASSEMBLY_MEMBERS
100
AcDbLine
 62
7
  6
CONTINUOUS
 10
4.0394692131
 20
4.9368284955
 11
4.0394692131
 21
4.4329774845
  0
LINE
  5
22D
100
AcDbEntity
  8
ALL_ASSEMBLY_MEMBERS
100
AcDbLine
 62
7
  6
CONTINUOUS
 10
4.0394692131
 20
5.3041264727
 11
4.0394692131
 21
5.8079774845
  0
LINE
  5
22E
100
AcDbEntity
  8
ALL_ASSEMBLY_MEMBERS
100
AcDbLine
 62
7
  6
CONTINUOUS
 10
4.2619692131
 20
4.9368284592
 11
4.2619692131
 21
4.4329774845
  0
LINE
  5
22F
100
AcDbEntity
  8
ALL_ASSEMBLY_MEMBERS
100
AcDbLine
 62
7
  6
CONTINUOUS
 10
4.2619692131
 20
5.3041265097
 11
4.2619692131
 21
5.8079774845
  0
LINE
  5
230
100
AcDbEntity
  8
ALL_ASSEMBLY_MEMBERS
100
AcDbLine
 62
7
  6
CONTINUOUS
 10
4.3007192131
 20
5.3079774845
 11
4.3007192131
 21
4.9329774845
  0
LINE
  5
231
100
AcDbEntity
  8
ALL_ASSEMBLY_MEMBERS
100
AcDbLine
 62
7
  6
CONTINUOUS
 10
4.0394692131
 20
4.4329774845
 11
4.2619692131
 21
4.4329774845
  0
LINE
  5
232
100
AcDbEntity
  8
ALL_ASSEMBLY_MEMBERS
100
AcDbLine
 62
7
  6
CONTINUOUS
 10
4.5807192131
 20
5.4486024845
 11
4.5807192131
 21
4.7923524845
  0
LINE
  5
233
100
AcDbEntity
  8
ALL_ASSEMBLY_MEMBERS
100
AcDbLine
 62
7
  6
CONTINUOUS
 10
4.6891722077
 20
5.1404774845
 11
4.6776252023
 21
5.1204774845
  0
LINE
  5
234
100
AcDbEntity
  8
ALL_ASSEMBLY_MEMBERS
100
AcDbLine
 62
7
  6
CONTINUOUS
 10
4.7122662185
 20
5.1004774845
 11
4.7238132239
 21
5.1204774845
  0
LINE
  5
235
100
AcDbEntity
  8
ALL_ASSEMBLY_MEMBERS
100
AcDbLine
 62
7
  6
CONTINUOUS
 10
5.7005696068
 20
4.6279774845
 11
5.8916946068
 21
4.6279774845
  0
LINE
  5
236
100
AcDbEntity
  8
ALL_ASSEMBLY_MEMBERS
100
AcDbLine
 62
7
  6
CONTINUOUS
 10
5.5037192131
 20
4.6354774845
 11
4.9722192131
 21
4.6354774845
  0
LINE
  5
237
100
AcDbEntity
  8
ALL_ASSEMBLY_MEMBERS
100
AcDbLine
 62
7
  6
CONTINUOUS
 10
5.6485026777
 20
4.6357274845
 11
5.6375586347
 21
4.6357274845
  0
LINE
  5
238
100
AcDbEntity
  8
ALL_ASSEMBLY_MEMBERS
100
AcDbLine
 62
7
  6
CONTINUOUS
 10
5.6138465366
 20
4.6357554337
 11
5.6029024937
 21
4.6357554337
  0
LINE
  5
239
100
AcDbEntity
  8
ALL_ASSEMBLY_MEMBERS
100
AcDbLine
 62
7
  6
CONTINUOUS
 10
5.6375586347
 20
4.6374611919
 11
5.6138465366
 21
4.6374611919
  0
LINE
  5
23A
100
AcDbEntity
  8
ALL_ASSEMBLY_MEMBERS
100
AcDbLine
 62
7
  6
CONTINUOUS
 10
5.6029024937
 20
4.6374611919
 11
5.5627743312
 21
4.6374611919
  0
LINE
  5
23B
100
AcDbEntity
  8
ALL_ASSEMBLY_MEMBERS
100
AcDbLine
 62
7
  6
CONTINUOUS
 10
5.5037192131
 20
4.6381940199
 11
5.5627743312
 21
4.6381940199
  0
LINE
  5
23C
100
AcDbEntity
  8
ALL_ASSEMBLY_MEMBERS
100
AcDbLine
 62
7
  6
CONTINUOUS
 10
5.6485026777
 20
4.6381940199
 11
5.7005696068
 21
4.6381940199
  0
LINE
  5
23D
100
AcDbEntity
  8
ALL_ASSEMBLY_MEMBERS
100
AcDbLine
 62
7
  6
CONTINUOUS
 10
5.6485026777
 20
4.6382320255
 11
5.5627743312
 21
4.6382320255
  0
LINE
  5
23E
100
AcDbEntity
  8
ALL_ASSEMBLY_MEMBERS
100
AcDbLine
 62
7
  6
CONTINUOUS
 10
5.6208053777
 20
4.640711437
 11
5.5627743312
 21
4.640711437
  0
LINE
  5
23F
100
AcDbEntity
  8
ALL_ASSEMBLY_MEMBERS
100
AcDbLine
 62
7
  6
CONTINUOUS
 10
4.9722192131
 20
4.7167274845
 11
4.8162192131
 21
4.7167274845
  0
LINE
  5
240
100
AcDbEntity
  8
ALL_ASSEMBLY_MEMBERS
100
AcDbLine
 62
7
  6
CONTINUOUS
 10
4.6776252023
 20
5.1204774845
 11
4.6891722077
 21
5.1004774845
  0
LINE
  5
241
100
AcDbEntity
  8
ALL_ASSEMBLY_MEMBERS
100
AcDbLine
 62
7
  6
CONTINUOUS
 10
4.7238132239
 20
5.1204774845
 11
4.7122662185
 21
5.1404774845
  0
LINE
  5
242
100
AcDbEntity
  8
ALL_ASSEMBLY_MEMBERS
100
AcDbLine
 62
7
  6
CONTINUOUS
 10
4.8007192131
 20
5.4486024845
 11
4.8007192131
 21
4.7923524845
  0
LINE
  5
243
100
AcDbEntity
  8
ALL_ASSEMBLY_MEMBERS
100
AcDbLine
 62
7
  6
CONTINUOUS
 10
4.8162192131
 20
4.7167274845
 11
4.8162192131
 21
5.5242274845
  0
LINE
  5
244
100
AcDbEntity
  8
ALL_ASSEMBLY_MEMBERS
100
AcDbLine
 62
7
  6
CONTINUOUS
 10
4.6763637157
 20
5.1420642032
 11
4.6763912459
 21
5.1420952227
  0
LINE
  5
245
100
AcDbEntity
  8
ALL_ASSEMBLY_MEMBERS
100
AcDbLine
 62
7
  6
CONTINUOUS
 10
4.6763685497
 20
5.1420599179
 11
4.6763965203
 21
5.142090535
  0
LINE
  5
246
100
AcDbEntity
  8
ALL_ASSEMBLY_MEMBERS
100
AcDbLine
 62
7
  6
CONTINUOUS
 10
4.8007192131
 20
4.7923524845
 11
4.7434692131
 21
4.7923524845
  0
LINE
  5
247
100
AcDbEntity
  8
ALL_ASSEMBLY_MEMBERS
100
AcDbLine
 62
7
  6
CONTINUOUS
 10
4.6579692131
 20
4.7923524845
 11
4.5807192131
 21
4.7923524845
  0
LINE
  5
248
100
AcDbEntity
  8
ALL_ASSEMBLY_MEMBERS
100
AcDbLine
 62
7
  6
CONTINUOUS
 10
4.9722192131
 20
4.6354774845
 11
4.9722192131
 21
5.6054774845
  0
LINE
  5
249
100
AcDbEntity
  8
ALL_ASSEMBLY_MEMBERS
100
AcDbLine
 62
7
  6
CONTINUOUS
 10
5.8916946068
 20
5.6504774845
 11
5.9711946068
 21
5.6804774845
  0
LINE
  5
24A
100
AcDbEntity
  8
ALL_ASSEMBLY_MEMBERS
100
AcDbLine
 62
7
  6
CONTINUOUS
 10
5.6138465366
 20
4.8918666787
 11
5.5974304722
 21
4.8918666787
  0
LINE
  5
24B
100
AcDbEntity
  8
ALL_ASSEMBLY_MEMBERS
100
AcDbLine
 62
7
  6
CONTINUOUS
 10
5.6120225295
 20
4.8980089604
 11
5.5992544794
 21
4.8980089604
  0
LINE
  5
24C
100
AcDbEntity
  8
ALL_ASSEMBLY_MEMBERS
100
AcDbLine
 62
7
  6
CONTINUOUS
 10
5.6120225295
 20
4.8988595298
 11
5.5992544794
 21
4.8988595298
  0
LINE
  5
24D
100
AcDbEntity
  8
ALL_ASSEMBLY_MEMBERS
100
AcDbLine
 62
7
  6
CONTINUOUS
 10
5.6120225295
 20
4.9304963806
 11
5.5992544794
 21
4.9304963806
  0
LINE
  5
24E
100
AcDbEntity
  8
ALL_ASSEMBLY_MEMBERS
100
AcDbLine
 62
7
  6
CONTINUOUS
 10
4.3007192131
 20
4.9329774845
 11
4.2682192131
 21
4.9329774845
  0
LINE
  5
24F
100
AcDbEntity
  8
ALL_ASSEMBLY_MEMBERS
100
AcDbLine
 62
7
  6
CONTINUOUS
 10
4.0332192131
 20
4.9329774845
 11
4.0007192131
 21
4.9329774845
  0
LINE
  5
250
100
AcDbEntity
  8
ALL_ASSEMBLY_MEMBERS
100
AcDbLine
 62
7
  6
CONTINUOUS
 10
5.6138465366
 20
4.9368482779
 11
5.5974304722
 21
4.9368482779
  0
LINE
  5
251
100
AcDbEntity
  8
ALL_ASSEMBLY_MEMBERS
100
AcDbLine
 62
7
  6
CONTINUOUS
 10
5.6138465366
 20
4.9376925429
 11
5.5974304722
 21
4.9376925429
  0
LINE
  5
252
100
AcDbEntity
  8
ALL_ASSEMBLY_MEMBERS
100
AcDbLine
 62
7
  6
CONTINUOUS
 10
5.628438599
 20
4.9470808563
 11
5.6247905795
 21
4.9470808563
  0
LINE
  5
253
100
AcDbEntity
  8
ALL_ASSEMBLY_MEMBERS
100
AcDbLine
 62
7
  6
CONTINUOUS
 10
5.5718943682
 20
4.9470808563
 11
5.5627743312
 21
4.9470808563
  0
LINE
  5
254
100
AcDbEntity
  8
ALL_ASSEMBLY_MEMBERS
100
AcDbLine
 62
7
  6
CONTINUOUS
 10
5.628438599
 20
4.9548113654
 11
5.6247905795
 21
4.9548113654
  0
LINE
  5
255
100
AcDbEntity
  8
ALL_ASSEMBLY_MEMBERS
100
AcDbLine
 62
7
  6
CONTINUOUS
 10
5.628438599
 20
4.9556549703
 11
5.6247905795
 21
4.9556549703
  0
LINE
  5
256
100
AcDbEntity
  8
ALL_ASSEMBLY_MEMBERS
100
AcDbLine
 62
7
  6
CONTINUOUS
 10
5.5718943682
 20
4.9941855921
 11
5.5627743312
 21
4.9941855921
  0
LINE
  5
257
100
AcDbEntity
  8
ALL_ASSEMBLY_MEMBERS
100
AcDbLine
 62
7
  6
CONTINUOUS
 10
5.5718943682
 20
4.9950323053
 11
5.5627743312
 21
4.9950323053
  0
LINE
  5
258
100
AcDbEntity
  8
ALL_ASSEMBLY_MEMBERS
100
AcDbLine
 62
7
  6
CONTINUOUS
 10
4.5807192131
 20
4.9954774845
 11
4.3007192131
 21
4.9954774845
  0
LINE
  5
259
100
AcDbEntity
  8
ALL_ASSEMBLY_MEMBERS
100
AcDbLine
 62
7
  6
CONTINUOUS
 10
5.6485026777
 20
5.004889657
 11
5.5627743312
 21
5.004889657
  0
LINE
  5
25A
100
AcDbEntity
  8
ALL_ASSEMBLY_MEMBERS
100
AcDbLine
 62
7
  6
CONTINUOUS
 10
5.8916946068
 20
4.5904774845
 11
5.9711946068
 21
4.5604774845
  0
LINE
  5
25B
100
AcDbEntity
  8
ALL_ASSEMBLY_MEMBERS
100
AcDbLine
 62
7
  6
CONTINUOUS
 10
5.1107192131
 20
5.6024662767
 11
5.1107192131
 21
5.7167607525
  0
LINE
  5
25C
100
AcDbEntity
  8
ALL_ASSEMBLY_MEMBERS
100
AcDbLine
 62
7
  6
CONTINUOUS
 10
5.6339106204
 20
5.012974718
 11
5.5627743312
 21
5.012974718
  0
LINE
  5
25D
100
AcDbEntity
  8
ALL_ASSEMBLY_MEMBERS
100
AcDbLine
 62
7
  6
CONTINUOUS
 10
5.6325725241
 20
5.013825038
 11
5.5627743312
 21
5.013825038
  0
LINE
  5
25E
100
AcDbEntity
  8
ALL_ASSEMBLY_MEMBERS
100
AcDbLine
 62
7
  6
CONTINUOUS
 10
5.6357346276
 20
5.0211089711
 11
5.6211425652
 21
5.0211089711
  0
LINE
  5
25F
100
AcDbEntity
  8
ALL_ASSEMBLY_MEMBERS
100
AcDbLine
 62
7
  6
CONTINUOUS
 10
5.6357346276
 20
5.021961273
 11
5.6211425652
 21
5.021961273
  0
LINE
  5
260
100
AcDbEntity
  8
ALL_ASSEMBLY_MEMBERS
100
AcDbLine
 62
7
  6
CONTINUOUS
 10
4.8007192131
 20
5.0414774845
 11
4.8162192131
 21
5.0414774845
  0
LINE
  5
261
100
AcDbEntity
  8
ALL_ASSEMBLY_MEMBERS
100
AcDbLine
 62
7
  6
CONTINUOUS
 10
4.6891722077
 20
5.1004774845
 11
4.7122662185
 21
5.1004774845
  0
LINE
  5
262
100
AcDbEntity
  8
ALL_ASSEMBLY_MEMBERS
100
AcDbLine
 62
7
  6
CONTINUOUS
 10
5.6513570084
 20
5.1076822089
 11
5.5627743312
 21
5.1076822089
  0
LINE
  5
263
100
AcDbEntity
  8
ALL_ASSEMBLY_MEMBERS
100
AcDbLine
 62
7
  6
CONTINUOUS
 10
5.6513570084
 20
5.1332727601
 11
5.5627743312
 21
5.1332727601
  0
LINE
  5
264
100
AcDbEntity
  8
ALL_ASSEMBLY_MEMBERS
100
AcDbLine
 62
7
  6
CONTINUOUS
 10
5.2407192131
 20
5.6024666112
 11
5.2407192131
 21
5.7167607525
  0
LINE
  5
265
100
AcDbEntity
  8
ALL_ASSEMBLY_MEMBERS
100
AcDbLine
 62
7
  6
CONTINUOUS
 10
4.7122662185
 20
5.1404774845
 11
4.6891722077
 21
5.1404774845
  0
LINE
  5
266
100
AcDbEntity
  8
ALL_ASSEMBLY_MEMBERS
100
AcDbLine
 62
7
  6
CONTINUOUS
 10
4.8007192131
 20
5.1994774845
 11
4.8162192131
 21
5.1994774845
  0
LINE
  5
267
100
AcDbEntity
  8
ALL_ASSEMBLY_MEMBERS
100
AcDbLine
 62
7
  6
CONTINUOUS
 10
5.5937824554
 20
5.2210283459
 11
5.5864864268
 21
5.2210283459
  0
LINE
  5
268
100
AcDbEntity
  8
ALL_ASSEMBLY_MEMBERS
100
AcDbLine
 62
7
  6
CONTINUOUS
 10
5.5937824554
 20
5.2218801284
 11
5.5864864268
 21
5.2218801284
  0
LINE
  5
269
100
AcDbEntity
  8
ALL_ASSEMBLY_MEMBERS
100
AcDbLine
 62
7
  6
CONTINUOUS
 10
5.6485026777
 20
5.2245512587
 11
5.6393826419
 21
5.2245512587
  0
LINE
  5
26A
100
AcDbEntity
  8
ALL_ASSEMBLY_MEMBERS
100
AcDbLine
 62
7
  6
CONTINUOUS
 10
5.6485026777
 20
5.2254021793
 11
5.6393826419
 21
5.2254021793
  0
LINE
  5
26B
100
AcDbEntity
  8
ALL_ASSEMBLY_MEMBERS
100
AcDbLine
 62
7
  6
CONTINUOUS
 10
5.5919584482
 20
5.2306679334
 11
5.5883104339
 21
5.2306679334
  0
LINE
  5
26C
100
AcDbEntity
  8
ALL_ASSEMBLY_MEMBERS
100
AcDbLine
 62
7
  6
CONTINUOUS
 10
4.5807192131
 20
5.2454774845
 11
4.3007192131
 21
5.2454774845
  0
LINE
  5
26D
100
AcDbEntity
  8
ALL_ASSEMBLY_MEMBERS
100
AcDbLine
 62
7
  6
CONTINUOUS
 10
5.6393826419
 20
5.274600667
 11
5.6107437818
 21
5.274600667
  0
LINE
  5
26E
100
AcDbEntity
  8
ALL_ASSEMBLY_MEMBERS
100
AcDbLine
 62
7
  6
CONTINUOUS
 10
5.6393826419
 20
5.2754445093
 11
5.6101985223
 21
5.2754445093
  0
LINE
  5
26F
100
AcDbEntity
  8
ALL_ASSEMBLY_MEMBERS
100
AcDbLine
 62
7
  6
CONTINUOUS
 10
5.6485026777
 20
5.2838801595
 11
5.6010784865
 21
5.2838801595
  0
LINE
  5
270
100
AcDbEntity
  8
ALL_ASSEMBLY_MEMBERS
100
AcDbLine
 62
7
  6
CONTINUOUS
 10
5.6485026777
 20
5.2964162909
 11
5.5627743312
 21
5.2964162909
  0
LINE
  5
271
100
AcDbEntity
  8
ALL_ASSEMBLY_MEMBERS
100
AcDbLine
 62
7
  6
CONTINUOUS
 10
5.6485026777
 20
5.2972601447
 11
5.5627743312
 21
5.2972601447
  0
LINE
  5
272
100
AcDbEntity
  8
ALL_ASSEMBLY_MEMBERS
100
AcDbLine
 62
7
  6
CONTINUOUS
 10
5.6339106204
 20
5.3072005273
 11
5.5627743312
 21
5.3072005273
  0
LINE
  5
273
100
AcDbEntity
  8
ALL_ASSEMBLY_MEMBERS
100
AcDbLine
 62
7
  6
CONTINUOUS
 10
4.3007192131
 20
5.3079774845
 11
4.2682192131
 21
5.3079774845
  0
LINE
  5
274
100
AcDbEntity
  8
ALL_ASSEMBLY_MEMBERS
100
AcDbLine
 62
7
  6
CONTINUOUS
 10
4.0332192131
 20
5.3079774845
 11
4.0007192131
 21
5.3079774845
  0
LINE
  5
275
100
AcDbEntity
  8
ALL_ASSEMBLY_MEMBERS
100
AcDbLine
 62
7
  6
CONTINUOUS
 10
5.6357346276
 20
5.3170596185
 11
5.6211425652
 21
5.3170596185
  0
LINE
  5
276
100
AcDbEntity
  8
ALL_ASSEMBLY_MEMBERS
100
AcDbLine
 62
7
  6
CONTINUOUS
 10
5.6485026777
 20
5.3292303579
 11
5.5627743312
 21
5.3292303579
  0
LINE
  5
277
100
AcDbEntity
  8
ALL_ASSEMBLY_MEMBERS
100
AcDbLine
 62
7
  6
CONTINUOUS
 10
5.6485026777
 20
5.3300780572
 11
5.5627743312
 21
5.3300780572
  0
LINE
  5
278
100
AcDbEntity
  8
ALL_ASSEMBLY_MEMBERS
100
AcDbLine
 62
7
  6
CONTINUOUS
 10
5.6339106204
 20
5.3397460373
 11
5.5627743312
 21
5.3397460373
  0
LINE
  5
279
100
AcDbEntity
  8
ALL_ASSEMBLY_MEMBERS
100
AcDbLine
 62
7
  6
CONTINUOUS
 10
5.6357346276
 20
5.3493312015
 11
5.6211425652
 21
5.3493312015
  0
LINE
  5
27A
100
AcDbEntity
  8
ALL_ASSEMBLY_MEMBERS
100
AcDbLine
 62
7
  6
CONTINUOUS
 10
5.5037192131
 20
5.6054774845
 11
5.5037192131
 21
4.6354774845
  0
LINE
  5
27B
100
AcDbEntity
  8
ALL_ASSEMBLY_MEMBERS
100
AcDbLine
 62
7
  6
CONTINUOUS
 10
5.5627743312
 20
5.604941832
 11
5.5627743312
 21
5.6007614503
  0
LINE
  5
27C
100
AcDbEntity
  8
ALL_ASSEMBLY_MEMBERS
100
AcDbLine
 62
7
  6
CONTINUOUS
 10
5.5627743312
 20
4.6374611919
 11
5.5627743312
 21
4.640711437
  0
LINE
  5
27D
100
AcDbEntity
  8
ALL_ASSEMBLY_MEMBERS
100
AcDbLine
 62
7
  6
CONTINUOUS
 10
5.5627743312
 20
4.9470808563
 11
5.5627743312
 21
4.9950323053
  0
LINE
  5
27E
100
AcDbEntity
  8
ALL_ASSEMBLY_MEMBERS
100
AcDbLine
 62
7
  6
CONTINUOUS
 10
5.5627743312
 20
5.004889657
 11
5.5627743312
 21
5.013825038
  0
LINE
  5
27F
100
AcDbEntity
  8
ALL_ASSEMBLY_MEMBERS
100
AcDbLine
 62
7
  6
CONTINUOUS
 10
5.5627743312
 20
5.1076822089
 11
5.5627743312
 21
5.1332727601
  0
LINE
  5
280
100
AcDbEntity
  8
ALL_ASSEMBLY_MEMBERS
100
AcDbLine
 62
7
  6
CONTINUOUS
 10
5.5627743312
 20
5.2480713866
 11
5.5627743312
 21
5.2584041543
  0
LINE
  5
281
100
AcDbEntity
  8
ALL_ASSEMBLY_MEMBERS
100
AcDbLine
 62
7
  6
CONTINUOUS
 10
5.5627743312
 20
5.2964162909
 11
5.5627743312
 21
5.3072005273
  0
LINE
  5
282
100
AcDbEntity
  8
ALL_ASSEMBLY_MEMBERS
100
AcDbLine
 62
7
  6
CONTINUOUS
 10
5.5627743312
 20
5.3292303579
 11
5.5627743312
 21
5.3397460373
  0
LINE
  5
283
100
AcDbEntity
  8
ALL_ASSEMBLY_MEMBERS
100
AcDbLine
 62
7
  6
CONTINUOUS
 10
5.5627743312
 20
5.50806284
 11
5.5627743312
 21
5.5247621525
  0
LINE
  5
284
100
AcDbEntity
  8
ALL_ASSEMBLY_MEMBERS
100
AcDbLine
 62
7
  6
CONTINUOUS
 10
5.5645983385
 20
5.605154912
 11
5.5645983385
 21
5.6039170497
  0
LINE
  5
285
100
AcDbEntity
  8
ALL_ASSEMBLY_MEMBERS
100
AcDbLine
 62
7
  6
CONTINUOUS
 10
5.5645983385
 20
5.602417146
 11
5.5645983385
 21
5.5999361532
  0
LINE
  5
286
100
AcDbEntity
  8
ALL_ASSEMBLY_MEMBERS
100
AcDbLine
 62
7
  6
CONTINUOUS
 10
5.5645983385
 20
5.2393982315
 11
5.5645983385
 21
5.238550265
  0
LINE
  5
287
100
AcDbEntity
  8
ALL_ASSEMBLY_MEMBERS
100
AcDbLine
 62
7
  6
CONTINUOUS
 10
5.5645983385
 20
4.921660027
 11
5.5645983385
 21
4.9225059303
  0
LINE
  5
288
100
AcDbEntity
  8
ALL_ASSEMBLY_MEMBERS
100
AcDbLine
 62
7
  6
CONTINUOUS
 10
5.5700703605
 20
5.6052251277
 11
5.5700703605
 21
5.6043745613
  0
LINE
  5
289
100
AcDbEntity
  8
ALL_ASSEMBLY_MEMBERS
100
AcDbLine
 62
7
  6
CONTINUOUS
 10
5.5700703605
 20
5.6016237808
 11
5.5700703605
 21
5.5991386759
  0
LINE
  5
28A
100
AcDbEntity
  8
ALL_ASSEMBLY_MEMBERS
100
AcDbLine
 62
7
  6
CONTINUOUS
 10
5.5700703605
 20
5.2306679334
 11
5.5700703605
 21
5.2298182124
  0
LINE
  5
28B
100
AcDbEntity
  8
ALL_ASSEMBLY_MEMBERS
100
AcDbLine
 62
7
  6
CONTINUOUS
 10
5.5700703605
 20
4.9279650003
 11
5.5700703605
 21
4.9288100997
  0
LINE
  5
28C
100
AcDbEntity
  8
ALL_ASSEMBLY_MEMBERS
100
AcDbLine
 62
7
  6
CONTINUOUS
 10
5.5718943682
 20
4.9470808563
 11
5.5718943682
 21
4.9835678823
  0
LINE
  5
28D
100
AcDbEntity
  8
ALL_ASSEMBLY_MEMBERS
100
AcDbLine
 62
7
  6
CONTINUOUS
 10
5.5718943682
 20
4.9941855921
 11
5.5718943682
 21
4.9950323053
  0
LINE
  5
28E
100
AcDbEntity
  8
ALL_ASSEMBLY_MEMBERS
100
AcDbLine
 62
7
  6
CONTINUOUS
 10
5.5718943682
 20
5.2480713866
 11
5.5718943682
 21
5.2584041543
  0
LINE
  5
28F
100
AcDbEntity
  8
ALL_ASSEMBLY_MEMBERS
100
AcDbLine
 62
7
  6
CONTINUOUS
 10
5.5737183754
 20
5.6038137573
 11
5.5737183754
 21
5.6025638937
  0
LINE
  5
290
100
AcDbEntity
  8
ALL_ASSEMBLY_MEMBERS
100
AcDbLine
 62
7
  6
CONTINUOUS
 10
5.5737183754
 20
5.2652473841
 11
5.5737183754
 21
5.2644028897
  0
LINE
  5
291
100
AcDbEntity
  8
ALL_ASSEMBLY_MEMBERS
100
AcDbLine
 62
7
  6
CONTINUOUS
 10
5.5737183754
 20
4.9079076537
 11
5.5737183754
 21
4.9087559436
  0
LINE
  5
292
100
AcDbEntity
  8
ALL_ASSEMBLY_MEMBERS
100
AcDbLine
 62
7
  6
CONTINUOUS
 10
5.5755423826
 20
5.605220436
 11
5.5755423826
 21
5.6046019844
  0
LINE
  5
293
100
AcDbEntity
  8
ALL_ASSEMBLY_MEMBERS
100
AcDbLine
 62
7
  6
CONTINUOUS
 10
5.5755423826
 20
5.6010999154
 11
5.5755423826
 21
5.5986120877
  0
LINE
  5
294
100
AcDbEntity
  8
ALL_ASSEMBLY_MEMBERS
100
AcDbLine
 62
7
  6
CONTINUOUS
 10
5.5755423826
 20
4.9317640849
 11
5.5755423826
 21
4.9326087853
  0
LINE
  5
295
100
AcDbEntity
  8
ALL_ASSEMBLY_MEMBERS
100
AcDbLine
 62
7
  6
CONTINUOUS
 10
5.5773663897
 20
5.6041118381
 11
5.5773663897
 21
5.6021117372
  0
LINE
  5
296
100
AcDbEntity
  8
ALL_ASSEMBLY_MEMBERS
100
AcDbLine
 62
7
  6
CONTINUOUS
 10
5.5773663897
 20
5.2703560931
 11
5.5773663897
 21
5.2695119768
  0
LINE
  5
297
100
AcDbEntity
  8
ALL_ASSEMBLY_MEMBERS
100
AcDbLine
 62
7
  6
CONTINUOUS
 10
5.5773663897
 20
5.2254021793
 11
5.5773663897
 21
5.2245512587
  0
LINE
  5
298
100
AcDbEntity
  8
ALL_ASSEMBLY_MEMBERS
100
AcDbLine
 62
7
  6
CONTINUOUS
 10
5.5773663897
 20
4.9041854324
 11
5.5773663897
 21
4.9050345227
  0
LINE
  5
299
100
AcDbEntity
  8
ALL_ASSEMBLY_MEMBERS
100
AcDbLine
 62
7
  6
CONTINUOUS
 10
5.5828384124
 20
5.6051977999
 11
5.5828384124
 21
5.6047340135
  0
LINE
  5
29A
100
AcDbEntity
  8
ALL_ASSEMBLY_MEMBERS
100
AcDbLine
 62
7
  6
CONTINUOUS
 10
5.5828384124
 20
5.600730664
 11
5.5828384124
 21
5.5982409135
  0
LINE
  5
29B
100
AcDbEntity
  8
ALL_ASSEMBLY_MEMBERS
100
AcDbLine
 62
7
  6
CONTINUOUS
 10
5.5828384124
 20
4.9343035045
 11
5.5828384124
 21
4.9351479733
  0
LINE
  5
29C
100
AcDbEntity
  8
ALL_ASSEMBLY_MEMBERS
100
AcDbLine
 62
7
  6
CONTINUOUS
 10
4.8007192131
 20
5.4486024845
 11
4.5807192131
 21
5.4486024845
  0
LINE
  5
29D
100
AcDbEntity
  8
ALL_ASSEMBLY_MEMBERS
100
AcDbLine
 62
7
  6
CONTINUOUS
 10
5.6513570084
 20
5.50806284
 11
5.5627743312
 21
5.50806284
  0
LINE
  5
29E
100
AcDbEntity
  8
ALL_ASSEMBLY_MEMBERS
100
AcDbLine
 62
7
  6
CONTINUOUS
 10
5.6513570084
 20
5.5100840154
 11
5.5627743312
 21
5.5100840154
  0
LINE
  5
29F
100
AcDbEntity
  8
ALL_ASSEMBLY_MEMBERS
100
AcDbLine
 62
7
  6
CONTINUOUS
 10
4.9722192131
 20
5.5242274845
 11
4.8162192131
 21
5.5242274845
  0
LINE
  5
2A0
100
AcDbEntity
  8
ALL_ASSEMBLY_MEMBERS
100
AcDbLine
 62
7
  6
CONTINUOUS
 10
5.6513570084
 20
5.5247621525
 11
5.5627743312
 21
5.5247621525
  0
LINE
  5
2A1
100
AcDbEntity
  8
ALL_ASSEMBLY_MEMBERS
100
AcDbLine
 62
7
  6
CONTINUOUS
 10
5.5846624196
 20
5.2729067035
 11
5.5846624196
 21
5.2838801595
  0
LINE
  5
2A2
100
AcDbEntity
  8
ALL_ASSEMBLY_MEMBERS
100
AcDbLine
 62
7
  6
CONTINUOUS
 10
5.5864864268
 20
5.2218801284
 11
5.5864864268
 21
5.2210283459
  0
LINE
  5
2A3
100
AcDbEntity
  8
ALL_ASSEMBLY_MEMBERS
100
AcDbLine
 62
7
  6
CONTINUOUS
 10
5.5883104339
 20
5.6051806287
 11
5.5883104339
 21
5.6047941573
  0
LINE
  5
2A4
100
AcDbEntity
  8
ALL_ASSEMBLY_MEMBERS
100
AcDbLine
 62
7
  6
CONTINUOUS
 10
5.5883104339
 20
5.6044542883
 11
5.5883104339
 21
5.6019837922
  0
LINE
  5
2A5
100
AcDbEntity
  8
ALL_ASSEMBLY_MEMBERS
100
AcDbLine
 62
7
  6
CONTINUOUS
 10
5.5883104339
 20
5.6005400235
 11
5.5883104339
 21
5.5980492791
  0
LINE
  5
2A6
100
AcDbEntity
  8
ALL_ASSEMBLY_MEMBERS
100
AcDbLine
 62
7
  6
CONTINUOUS
 10
5.5883104339
 20
4.8992415213
 11
5.5883104339
 21
4.9000917804
  0
LINE
  5
2A7
100
AcDbEntity
  8
ALL_ASSEMBLY_MEMBERS
100
AcDbLine
 62
7
  6
CONTINUOUS
 10
5.5883104339
 20
4.9355752259
 11
5.5883104339
 21
4.9364195893
  0
LINE
  5
2A8
100
AcDbEntity
  8
ALL_ASSEMBLY_MEMBERS
100
AcDbLine
 62
7
  6
CONTINUOUS
 10
5.5937824554
 20
5.2218801284
 11
5.5937824554
 21
5.2210283459
  0
LINE
  5
2A9
100
AcDbEntity
  8
ALL_ASSEMBLY_MEMBERS
100
AcDbLine
 62
7
  6
CONTINUOUS
 10
5.5974304722
 20
5.6051595549
 11
5.5974304722
 21
5.6048503888
  0
LINE
  5
2AA
100
AcDbEntity
  8
ALL_ASSEMBLY_MEMBERS
100
AcDbLine
 62
7
  6
CONTINUOUS
 10
5.5974304722
 20
5.6003453661
 11
5.5974304722
 21
5.5978536061
  0
LINE
  5
2AB
100
AcDbEntity
  8
ALL_ASSEMBLY_MEMBERS
100
AcDbLine
 62
7
  6
CONTINUOUS
 10
5.5974304722
 20
4.9368482779
 11
5.5974304722
 21
4.9376925429
  0
LINE
  5
2AC
100
AcDbEntity
  8
ALL_ASSEMBLY_MEMBERS
100
AcDbLine
 62
7
  6
CONTINUOUS
 10
5.5992544794
 20
5.6045300956
 11
5.5992544794
 21
5.6020599883
  0
LINE
  5
2AD
100
AcDbEntity
  8
ALL_ASSEMBLY_MEMBERS
100
AcDbLine
 62
7
  6
CONTINUOUS
 10
5.5992544794
 20
4.8980089604
 11
5.5992544794
 21
4.8988595298
  0
LINE
  5
2AE
100
AcDbEntity
  8
ALL_ASSEMBLY_MEMBERS
100
AcDbLine
 62
7
  6
CONTINUOUS
 10
5.6010784865
 20
5.2712104704
 11
5.6010784865
 21
5.2838801595
  0
LINE
  5
2AF
100
AcDbEntity
  8
ALL_ASSEMBLY_MEMBERS
100
AcDbLine
 62
7
  6
CONTINUOUS
 10
5.6029024937
 20
5.2254021793
 11
5.6029024937
 21
5.2245512587
  0
LINE
  5
2B0
100
AcDbEntity
  8
ALL_ASSEMBLY_MEMBERS
100
AcDbLine
 62
7
  6
CONTINUOUS
 10
5.6029024937
 20
4.6357554337
 11
5.6029024937
 21
4.6374611919
  0
LINE
  5
2B1
100
AcDbEntity
  8
ALL_ASSEMBLY_MEMBERS
100
AcDbLine
 62
7
  6
CONTINUOUS
 10
5.606550508
 20
5.2652473841
 11
5.606550508
 21
5.2644028897
  0
LINE
  5
2B2
100
AcDbEntity
  8
ALL_ASSEMBLY_MEMBERS
100
AcDbLine
 62
7
  6
CONTINUOUS
 10
5.6083745152
 20
5.2480713866
 11
5.6083745152
 21
5.2584041543
  0
LINE
  5
2B3
100
AcDbEntity
  8
ALL_ASSEMBLY_MEMBERS
100
AcDbLine
 62
7
  6
CONTINUOUS
 10
5.6101985223
 20
5.2306679334
 11
5.6101985223
 21
5.2298182124
  0
LINE
  5
2B4
100
AcDbEntity
  8
ALL_ASSEMBLY_MEMBERS
100
AcDbLine
 62
7
  6
CONTINUOUS
 10
5.6120225295
 20
5.6045300956
 11
5.6120225295
 21
5.6020599883
  0
LINE
  5
2B5
100
AcDbEntity
  8
ALL_ASSEMBLY_MEMBERS
100
AcDbLine
 62
7
  6
CONTINUOUS
 10
5.6120225295
 20
4.8980089604
 11
5.6120225295
 21
4.8988595298
  0
LINE
  5
2B6
100
AcDbEntity
  8
ALL_ASSEMBLY_MEMBERS
100
AcDbLine
 62
7
  6
CONTINUOUS
 10
5.6138465366
 20
5.6051595549
 11
5.6138465366
 21
5.6048503888
  0
LINE
  5
2B7
100
AcDbEntity
  8
ALL_ASSEMBLY_MEMBERS
100
AcDbLine
 62
7
  6
CONTINUOUS
 10
5.6138465366
 20
5.6003453661
 11
5.6138465366
 21
5.5978536061
  0
LINE
  5
2B8
100
AcDbEntity
  8
ALL_ASSEMBLY_MEMBERS
100
AcDbLine
 62
7
  6
CONTINUOUS
 10
5.6138465366
 20
4.6357554337
 11
5.6138465366
 21
4.6374611919
  0
LINE
  5
2B9
100
AcDbEntity
  8
ALL_ASSEMBLY_MEMBERS
100
AcDbLine
 62
7
  6
CONTINUOUS
 10
5.6138465366
 20
4.9368482779
 11
5.6138465366
 21
4.9376925429
  0
LINE
  5
2BA
100
AcDbEntity
  8
ALL_ASSEMBLY_MEMBERS
100
AcDbLine
 62
7
  6
CONTINUOUS
 10
5.6156705438
 20
5.2393982315
 11
5.6156705438
 21
5.238550265
  0
LINE
  5
2BB
100
AcDbEntity
  8
ALL_ASSEMBLY_MEMBERS
100
AcDbLine
 62
7
  6
CONTINUOUS
 10
5.6174945509
 20
4.957398875
 11
5.6174945509
 21
4.9582424948
  0
LINE
  5
2BC
100
AcDbEntity
  8
ALL_ASSEMBLY_MEMBERS
100
AcDbLine
 62
7
  6
CONTINUOUS
 10
5.6174945509
 20
5.2480713866
 11
5.6174945509
 21
5.2584041543
  0
LINE
  5
2BD
100
AcDbEntity
  8
ALL_ASSEMBLY_MEMBERS
100
AcDbLine
 62
7
  6
CONTINUOUS
 10
5.6178924414
 20
4.6446652024
 11
5.6178924414
 21
4.6421652955
  0
LINE
  5
2BE
100
AcDbEntity
  8
ALL_ASSEMBLY_MEMBERS
100
AcDbLine
 62
7
  6
CONTINUOUS
 10
5.6211425652
 20
5.3493312015
 11
5.6211425652
 21
5.3484788996
  0
LINE
  5
2BF
100
AcDbEntity
  8
ALL_ASSEMBLY_MEMBERS
100
AcDbLine
 62
7
  6
CONTINUOUS
 10
5.6211425652
 20
5.3170596185
 11
5.6211425652
 21
5.3162140207
  0
LINE
  5
2C0
100
AcDbEntity
  8
ALL_ASSEMBLY_MEMBERS
100
AcDbLine
 62
7
  6
CONTINUOUS
 10
5.6211425652
 20
5.0211089711
 11
5.6211425652
 21
5.021961273
  0
LINE
  5
2C1
100
AcDbEntity
  8
ALL_ASSEMBLY_MEMBERS
100
AcDbLine
 62
7
  6
CONTINUOUS
 10
5.6229665724
 20
5.6051806287
 11
5.6229665724
 21
5.6047941573
  0
LINE
  5
2C2
100
AcDbEntity
  8
ALL_ASSEMBLY_MEMBERS
100
AcDbLine
 62
7
  6
CONTINUOUS
 10
5.6229665724
 20
5.6044542883
 11
5.6229665724
 21
5.6019837922
  0
LINE
  5
2C3
100
AcDbEntity
  8
ALL_ASSEMBLY_MEMBERS
100
AcDbLine
 62
7
  6
CONTINUOUS
 10
5.6229665724
 20
5.6005400235
 11
5.6229665724
 21
5.5980492791
  0
LINE
  5
2C4
100
AcDbEntity
  8
ALL_ASSEMBLY_MEMBERS
100
AcDbLine
 62
7
  6
CONTINUOUS
 10
5.6229665724
 20
4.8992415213
 11
5.6229665724
 21
4.9000917804
  0
LINE
  5
2C5
100
AcDbEntity
  8
ALL_ASSEMBLY_MEMBERS
100
AcDbLine
 62
7
  6
CONTINUOUS
 10
5.6229665724
 20
4.9355752259
 11
5.6229665724
 21
4.9364195893
  0
LINE
  5
2C6
100
AcDbEntity
  8
ALL_ASSEMBLY_MEMBERS
100
AcDbLine
 62
7
  6
CONTINUOUS
 10
5.6247905795
 20
4.9548113654
 11
5.6247905795
 21
4.9556549703
  0
LINE
  5
2C7
100
AcDbEntity
  8
ALL_ASSEMBLY_MEMBERS
100
AcDbLine
 62
7
  6
CONTINUOUS
 10
5.628438599
 20
5.6051977999
 11
5.628438599
 21
5.6047340135
  0
LINE
  5
2C8
100
AcDbEntity
  8
ALL_ASSEMBLY_MEMBERS
100
AcDbLine
 62
7
  6
CONTINUOUS
 10
5.628438599
 20
5.600730664
 11
5.628438599
 21
5.5982409135
  0
LINE
  5
2C9
100
AcDbEntity
  8
ALL_ASSEMBLY_MEMBERS
100
AcDbLine
 62
7
  6
CONTINUOUS
 10
5.628438599
 20
4.9343035045
 11
5.628438599
 21
4.9351479733
  0
LINE
  5
2CA
100
AcDbEntity
  8
ALL_ASSEMBLY_MEMBERS
100
AcDbLine
 62
7
  6
CONTINUOUS
 10
5.628438599
 20
4.9548113654
 11
5.628438599
 21
4.9556549703
  0
LINE
  5
2CB
100
AcDbEntity
  8
ALL_ASSEMBLY_MEMBERS
100
AcDbLine
 62
7
  6
CONTINUOUS
 10
5.628438599
 20
4.9862142378
 11
5.628438599
 21
4.9937001745
  0
LINE
  5
2CC
100
AcDbEntity
  8
ALL_ASSEMBLY_MEMBERS
100
AcDbLine
 62
7
  6
CONTINUOUS
 10
5.6339106204
 20
5.6041118381
 11
5.6339106204
 21
5.6021117372
  0
LINE
  5
2CD
100
AcDbEntity
  8
ALL_ASSEMBLY_MEMBERS
100
AcDbLine
 62
7
  6
CONTINUOUS
 10
5.6339106204
 20
4.9041854324
 11
5.6339106204
 21
4.9050345227
  0
LINE
  5
2CE
100
AcDbEntity
  8
ALL_ASSEMBLY_MEMBERS
100
AcDbLine
 62
7
  6
CONTINUOUS
 10
5.6339106204
 20
4.957398875
 11
5.6339106204
 21
4.9582424948
  0
LINE
  5
2CF
100
AcDbEntity
  8
ALL_ASSEMBLY_MEMBERS
100
AcDbLine
 62
7
  6
CONTINUOUS
 10
5.6357346276
 20
5.605220436
 11
5.6357346276
 21
5.6046019844
  0
LINE
  5
2D0
100
AcDbEntity
  8
ALL_ASSEMBLY_MEMBERS
100
AcDbLine
 62
7
  6
CONTINUOUS
 10
5.6357346276
 20
5.6010999154
 11
5.6357346276
 21
5.5986120877
  0
LINE
  5
2D1
100
AcDbEntity
  8
ALL_ASSEMBLY_MEMBERS
100
AcDbLine
 62
7
  6
CONTINUOUS
 10
5.6357346276
 20
4.9317640849
 11
5.6357346276
 21
4.9326087853
  0
LINE
  5
2D2
100
AcDbEntity
  8
ALL_ASSEMBLY_MEMBERS
100
AcDbLine
 62
7
  6
CONTINUOUS
 10
5.6357346276
 20
4.9915230869
 11
5.6357346276
 21
4.9923693988
  0
LINE
  5
2D3
100
AcDbEntity
  8
ALL_ASSEMBLY_MEMBERS
100
AcDbLine
 62
7
  6
CONTINUOUS
 10
5.6357346276
 20
5.0211089711
 11
5.6357346276
 21
5.021961273
  0
LINE
  5
2D4
100
AcDbEntity
  8
ALL_ASSEMBLY_MEMBERS
100
AcDbLine
 62
7
  6
CONTINUOUS
 10
5.6375586347
 20
5.6038137573
 11
5.6375586347
 21
5.6025638937
  0
LINE
  5
2D5
100
AcDbEntity
  8
ALL_ASSEMBLY_MEMBERS
100
AcDbLine
 62
7
  6
CONTINUOUS
 10
5.6375586347
 20
4.6357274899
 11
5.6375586347
 21
4.6374611919
  0
LINE
  5
2D6
100
AcDbEntity
  8
ALL_ASSEMBLY_MEMBERS
100
AcDbLine
 62
7
  6
CONTINUOUS
 10
5.6375586347
 20
4.9079076537
 11
5.6375586347
 21
4.9087559436
  0
LINE
  5
2D7
100
AcDbEntity
  8
ALL_ASSEMBLY_MEMBERS
100
AcDbLine
 62
7
  6
CONTINUOUS
 10
5.6375586347
 20
4.9612901518
 11
5.6375586347
 21
4.9621338453
  0
LINE
  5
2D8
100
AcDbEntity
  8
ALL_ASSEMBLY_MEMBERS
100
AcDbLine
 62
7
  6
CONTINUOUS
 10
5.6393826419
 20
4.9678023137
 11
5.6393826419
 21
4.9730360886
  0
LINE
  5
2D9
100
AcDbEntity
  8
ALL_ASSEMBLY_MEMBERS
100
AcDbLine
 62
7
  6
CONTINUOUS
 10
5.6393826419
 20
5.2245512587
 11
5.6393826419
 21
5.2754445093
  0
LINE
  5
2DA
100
AcDbEntity
  8
ALL_ASSEMBLY_MEMBERS
100
AcDbLine
 62
7
  6
CONTINUOUS
 10
5.641206649
 20
5.6052251277
 11
5.641206649
 21
5.6043745613
  0
LINE
  5
2DB
100
AcDbEntity
  8
ALL_ASSEMBLY_MEMBERS
100
AcDbLine
 62
7
  6
CONTINUOUS
 10
5.641206649
 20
5.6016237808
 11
5.641206649
 21
5.5991386759
  0
LINE
  5
2DC
100
AcDbEntity
  8
ALL_ASSEMBLY_MEMBERS
100
AcDbLine
 62
7
  6
CONTINUOUS
 10
5.641206649
 20
4.9279650003
 11
5.641206649
 21
4.9288100997
  0
LINE
  5
2DD
100
AcDbEntity
  8
ALL_ASSEMBLY_MEMBERS
100
AcDbLine
 62
7
  6
CONTINUOUS
 10
5.6430306562
 20
4.9862142378
 11
5.6430306562
 21
4.9870598313
  0
LINE
  5
2DE
100
AcDbEntity
  8
ALL_ASSEMBLY_MEMBERS
100
AcDbLine
 62
7
  6
CONTINUOUS
 10
5.6466786705
 20
5.605154912
 11
5.6466786705
 21
5.6039170497
  0
LINE
  5
2DF
100
AcDbEntity
  8
ALL_ASSEMBLY_MEMBERS
100
AcDbLine
 62
7
  6
CONTINUOUS
 10
5.6466786705
 20
5.602417146
 11
5.6466786705
 21
5.5999361532
  0
LINE
  5
2E0
100
AcDbEntity
  8
ALL_ASSEMBLY_MEMBERS
100
AcDbLine
 62
7
  6
CONTINUOUS
 10
5.6466786705
 20
4.921660027
 11
5.6466786705
 21
4.9225059303
  0
LINE
  5
2E1
100
AcDbEntity
  8
ALL_ASSEMBLY_MEMBERS
100
AcDbLine
 62
7
  6
CONTINUOUS
 10
5.6466786705
 20
4.9809268921
 11
5.6466786705
 21
4.9817718788
  0
LINE
  5
2E2
100
AcDbEntity
  8
ALL_ASSEMBLY_MEMBERS
100
AcDbLine
 62
7
  6
CONTINUOUS
 10
5.6485026777
 20
5.604941832
 11
5.6485026777
 21
5.6007614503
  0
LINE
  5
2E3
100
AcDbEntity
  8
ALL_ASSEMBLY_MEMBERS
100
AcDbLine
 62
7
  6
CONTINUOUS
 10
5.6485026777
 20
4.635727494
 11
5.6485026777
 21
4.640711437
  0
LINE
  5
2E4
100
AcDbEntity
  8
ALL_ASSEMBLY_MEMBERS
100
AcDbLine
 62
7
  6
CONTINUOUS
 10
5.6485026777
 20
4.9664972082
 11
5.6485026777
 21
4.9717256405
  0
LINE
  5
2E5
100
AcDbEntity
  8
ALL_ASSEMBLY_MEMBERS
100
AcDbLine
 62
7
  6
CONTINUOUS
 10
5.6485026777
 20
5.004889657
 11
5.6485026777
 21
5.013825038
  0
LINE
  5
2E6
100
AcDbEntity
  8
ALL_ASSEMBLY_MEMBERS
100
AcDbLine
 62
7
  6
CONTINUOUS
 10
5.6485026777
 20
5.2245512587
 11
5.6485026777
 21
5.2838801595
  0
LINE
  5
2E7
100
AcDbEntity
  8
ALL_ASSEMBLY_MEMBERS
100
AcDbLine
 62
7
  6
CONTINUOUS
 10
5.6485026777
 20
5.2964162909
 11
5.6485026777
 21
5.3072005273
  0
LINE
  5
2E8
100
AcDbEntity
  8
ALL_ASSEMBLY_MEMBERS
100
AcDbLine
 62
7
  6
CONTINUOUS
 10
5.6485026777
 20
5.3292303579
 11
5.6485026777
 21
5.3397460373
  0
LINE
  5
2E9
100
AcDbEntity
  8
ALL_ASSEMBLY_MEMBERS
100
AcDbLine
 62
7
  6
CONTINUOUS
 10
5.6513570084
 20
4.6446652024
 11
5.6513570084
 21
4.6421652955
  0
LINE
  5
2EA
100
AcDbEntity
  8
ALL_ASSEMBLY_MEMBERS
100
AcDbLine
 62
7
  6
CONTINUOUS
 10
5.6513570084
 20
5.1076822089
 11
5.6513570084
 21
5.1332727601
  0
LINE
  5
2EB
100
AcDbEntity
  8
ALL_ASSEMBLY_MEMBERS
100
AcDbLine
 62
7
  6
CONTINUOUS
 10
5.6513570084
 20
5.50806284
 11
5.6513570084
 21
5.5247621525
  0
LINE
  5
2EC
100
AcDbEntity
  8
ALL_ASSEMBLY_MEMBERS
100
AcDbLine
 62
7
  6
CONTINUOUS
 10
5.7005696068
 20
5.6129774845
 11
5.7005696068
 21
4.6279774845
  0
LINE
  5
2ED
100
AcDbEntity
  8
ALL_ASSEMBLY_MEMBERS
100
AcDbLine
 62
7
  6
CONTINUOUS
 10
5.8455793276
 20
5.6129774844
 11
5.8452033262
 21
5.612970183
  0
LINE
  5
2EE
100
AcDbEntity
  8
ALL_ASSEMBLY_MEMBERS
100
AcDbLine
 62
7
  6
CONTINUOUS
 10
5.8452084666
 20
5.6129703006
 11
5.8455793276
 21
5.6129774844
  0
LINE
  5
2EF
100
AcDbEntity
  8
ALL_ASSEMBLY_MEMBERS
100
AcDbLine
 62
7
  6
CONTINUOUS
 10
5.6138465366
 20
5.5978536061
 11
5.5974304722
 21
5.5978536061
  0
LINE
  5
2F0
100
AcDbEntity
  8
ALL_ASSEMBLY_MEMBERS
100
AcDbLine
 62
7
  6
CONTINUOUS
 10
5.6138465366
 20
5.6003453661
 11
5.5974304722
 21
5.6003453661
  0
LINE
  5
2F1
100
AcDbEntity
  8
ALL_ASSEMBLY_MEMBERS
100
AcDbLine
 62
7
  6
CONTINUOUS
 10
5.6120225295
 20
5.6012785345
 11
5.5992544794
 21
5.6012785345
  0
LINE
  5
2F2
100
AcDbEntity
  8
ALL_ASSEMBLY_MEMBERS
100
AcDbLine
 62
7
  6
CONTINUOUS
 10
5.6120225295
 20
5.6020599883
 11
5.5992544794
 21
5.6020599883
  0
LINE
  5
2F3
100
AcDbEntity
  8
ALL_ASSEMBLY_MEMBERS
100
AcDbLine
 62
7
  6
CONTINUOUS
 10
5.5037192131
 20
5.602760949
 11
5.5627743312
 21
5.602760949
  0
LINE
  5
2F4
100
AcDbEntity
  8
ALL_ASSEMBLY_MEMBERS
100
AcDbLine
 62
7
  6
CONTINUOUS
 10
5.6485026777
 20
5.602760949
 11
5.7005696068
 21
5.602760949
  0
LINE
  5
2F5
100
AcDbEntity
  8
ALL_ASSEMBLY_MEMBERS
100
AcDbLine
 62
7
  6
CONTINUOUS
 10
5.6120225295
 20
5.6045300956
 11
5.5992544794
 21
5.6045300956
  0
LINE
  5
2F6
100
AcDbEntity
  8
ALL_ASSEMBLY_MEMBERS
100
AcDbLine
 62
7
  6
CONTINUOUS
 10
5.6138465366
 20
5.6048503888
 11
5.5974304722
 21
5.6048503888
  0
LINE
  5
2F7
100
AcDbEntity
  8
ALL_ASSEMBLY_MEMBERS
100
AcDbLine
 62
7
  6
CONTINUOUS
 10
5.6138465366
 20
5.6051595549
 11
5.5974304722
 21
5.6051595549
  0
LINE
  5
2F8
100
AcDbEntity
  8
ALL_ASSEMBLY_MEMBERS
100
AcDbLine
 62
7
  6
CONTINUOUS
 10
5.5037192131
 20
5.6054774845
 11
5.2632192131
 21
5.6054774845
  0
LINE
  5
2F9
100
AcDbEntity
  8
ALL_ASSEMBLY_MEMBERS
100
AcDbLine
 62
7
  6
CONTINUOUS
 10
5.0882192131
 20
5.6054774845
 11
4.9722192131
 21
5.6054774845
  0
LINE
  5
2FA
100
AcDbEntity
  8
ALL_ASSEMBLY_MEMBERS
100
AcDbLine
 62
7
  6
CONTINUOUS
 10
5.8355696068
 20
5.6128759616
 11
5.7555696068
 21
5.6128759616
  0
LINE
  5
2FB
100
AcDbEntity
  8
ALL_ASSEMBLY_MEMBERS
100
AcDbLine
 62
7
  6
CONTINUOUS
 10
5.7005696068
 20
5.6129774845
 11
5.7455696068
 21
5.6129774845
  0
LINE
  5
2FC
100
AcDbEntity
  8
ALL_ASSEMBLY_MEMBERS
100
AcDbLine
 62
7
  6
CONTINUOUS
 10
5.8455696068
 20
5.6129774845
 11
5.8916946068
 21
5.6129774845
  0
LINE
  5
2FD
100
AcDbEntity
  8
ALL_ASSEMBLY_MEMBERS
100
AcDbLine
 62
7
  6
CONTINUOUS
 10
5.7455598911
 20
5.6129774845
 11
5.7459295533
 21
5.6129703238
  0
LINE
  5
2FE
100
AcDbEntity
  8
ALL_ASSEMBLY_MEMBERS
100
AcDbLine
 62
7
  6
CONTINUOUS
 10
5.7459351761
 20
5.6129702002
 11
5.7455598889
 21
5.6129774844
  0
LINE
  5
2FF
100
AcDbEntity
  8
ALL_ASSEMBLY_MEMBERS
100
AcDbLine
 62
7
  6
CONTINUOUS
 10
5.1107192131
 20
5.7167607525
 11
5.2407192131
 21
5.7167607525
  0
LINE
  5
300
100
AcDbEntity
  8
ALL_ASSEMBLY_MEMBERS
100
AcDbLine
 62
7
  6
CONTINUOUS
 10
5.2202646676
 20
5.7452016438
 11
5.1311737585
 21
5.7452016438
  0
LINE
  5
301
100
AcDbEntity
  8
ALL_ASSEMBLY_MEMBERS
100
AcDbLine
 62
7
  6
CONTINUOUS
 10
5.8916946068
 20
4.590478504
 11
5.8916946068
 21
5.6504764649
  0
LINE
  5
302
100
AcDbEntity
  8
ALL_ASSEMBLY_MEMBERS
100
AcDbLine
 62
7
  6
CONTINUOUS
 10
5.9711946068
 20
3.5529774845
 11
5.9711946068
 21
6.6879774845
  0
LINE
  5
303
100
AcDbEntity
  8
ALL_ASSEMBLY_MEMBERS
100
AcDbLine
 62
7
  6
CONTINUOUS
 10
4.0394692131
 20
5.8079774845
 11
4.2619692131
 21
5.8079774845
  0
LINE
  5
304
100
AcDbEntity
  8
ALL_ASSEMBLY_MEMBERS
100
AcDbLine
 62
7
  6
CONTINUOUS
 10
6.0336946068
 20
3.4954774845
 11
6.0336946068
 21
6.7454774845
  0
LINE
  5
305
100
AcDbEntity
  8
ALL_ASSEMBLY_MEMBERS
100
AcDbLine
 62
7
  6
CONTINUOUS
 10
6.1276946068
 20
3.4954774845
 11
6.1276946068
 21
6.7454774845
  0
LINE
  5
306
100
AcDbEntity
  8
ALL_ASSEMBLY_MEMBERS
100
AcDbLine
 62
7
  6
CONTINUOUS
 10
6.0336946068
 20
6.7454774845
 11
6.1276946068
 21
6.7454774845
  0
ARC
  5
307
100
AcDbEntity
  8
ALL_ASSEMBLY_MEMBERS
100
AcDbCircle
 62
7
  6
CONTINUOUS
 10
4.7006636814
 20
5.1204134799
 40
0.0324602631
100
AcDbArc
 50
228.0369306149
 51
228.9885077706
  0
CIRCLE
  5
308
100
AcDbEntity
  8
ALL_ASSEMBLY_MEMBERS
100
AcDbCircle
 62
7
  6
CONTINUOUS
 10
4.1507192131
 20
5.1204774845
 40
0.1175
  0
CIRCLE
  5
309
100
AcDbEntity
  8
ALL_ASSEMBLY_MEMBERS
100
AcDbCircle
 62
7
  6
CONTINUOUS
 10
4.1507192131
 20
5.1204774845
 40
0.11125
  0
CIRCLE
  5
30A
100
AcDbEntity
  8
ALL_ASSEMBLY_MEMBERS
100
AcDbCircle
 62
7
  6
CONTINUOUS
 10
4.7007192131
 20
5.1204774845
 40
0.04275
  0
ARC
  5
30B
100
AcDbEntity
  8
ALL_ASSEMBLY_MEMBERS
100
AcDbCircle
 62
7
  6
CONTINUOUS
 10
4.7007192131
 20
5.1204774845
 40
0.041
100
AcDbArc
 50
192.0125345809
 51
191.7447639377
  0
ARC
  5
30C
100
AcDbEntity
  8
ALL_ASSEMBLY_MEMBERS
100
AcDbCircle
 62
7
  6
CONTINUOUS
 10
4.7002219988
 20
5.1219772677
 40
0.0408486462
100
AcDbArc
 50
193.9468736418
 51
194.216447712
  0
ARC
  5
30D
100
AcDbEntity
  8
ALL_ASSEMBLY_MEMBERS
100
AcDbCircle
 62
7
  6
CONTINUOUS
 10
4.7007192131
 20
5.1204774845
 40
0.0325449999
100
AcDbArc
 50
139.0174920094
 51
228.9886794061
  0
ARC
  5
30E
100
AcDbEntity
  8
ALL_ASSEMBLY_MEMBERS
100
AcDbCircle
 62
7
  6
CONTINUOUS
 10
4.7006440471
 20
5.1205427374
 40
0.0324454616
100
AcDbArc
 50
138.4470393359
 51
139.0174285027
  0
ARC
  5
30F
100
AcDbEntity
  8
ALL_ASSEMBLY_MEMBERS
100
AcDbCircle
 62
7
  6
CONTINUOUS
 10
4.6959080362
 20
5.1237023505
 40
0.0323360116
100
AcDbArc
 50
234.7848547658
 51
239.2253844728
  0
CIRCLE
  5
310
100
AcDbEntity
  8
ALL_ASSEMBLY_MEMBERS
100
AcDbCircle
 62
7
  6
CONTINUOUS
 10
4.7007192131
 20
5.1204774845
 40
0.031
  0
ARC
  5
311
100
AcDbEntity
  8
ALL_ASSEMBLY_MEMBERS
100
AcDbCircle
 62
7
  6
CONTINUOUS
 10
5.9711946068
 20
3.4902600932
 40
0.0627173913
100
AcDbArc
 50
4.7718880608
 51
90.0
  0
ARC
  5
312
100
AcDbEntity
  8
ALL_ASSEMBLY_MEMBERS
100
AcDbCircle
 62
7
  6
CONTINUOUS
 10
5.6346246145
 20
4.6865061222
 40
0.0454241773
100
AcDbArc
 50
270.0001392816
 51
270.9972673085
  0
ARC
  5
313
100
AcDbEntity
  8
ALL_ASSEMBLY_MEMBERS
100
AcDbCircle
 62
7
  6
CONTINUOUS
 10
5.8355691195
 20
6.1053868691
 40
0.4925109075
100
AcDbArc
 50
270.000056693
 51
271.1214557203
  0
ARC
  5
314
100
AcDbEntity
  8
ALL_ASSEMBLY_MEMBERS
100
AcDbCircle
 62
7
  6
CONTINUOUS
 10
5.7555629381
 20
6.1046565195
 40
0.4917805579
100
AcDbArc
 50
268.8775733667
 51
270.0007769503
  0
ARC
  5
315
100
AcDbEntity
  8
ALL_ASSEMBLY_MEMBERS
100
AcDbCircle
 62
7
  6
CONTINUOUS
 10
5.1757192131
 20
5.6124774845
 40
0.14
100
AcDbArc
 50
71.446995465
 51
108.553004535
  0
ARC
  5
316
100
AcDbEntity
  8
ALL_ASSEMBLY_MEMBERS
100
AcDbCircle
 62
7
  6
CONTINUOUS
 10
5.9711946068
 20
6.7506948758
 40
0.0627173913
100
AcDbArc
 50
270.0
 51
355.2281119392
  0
ARC
  5
317
100
AcDbEntity
  8
ALL_ASSEMBLY_MEMBERS
100
AcDbCircle
 62
7
  6
CONTINUOUS
 10
5.1407192131
 20
5.7167607525
 40
0.03
100
AcDbArc
 50
108.553004535
 51
180.0
  0
ARC
  5
318
100
AcDbEntity
  8
ALL_ASSEMBLY_MEMBERS
100
AcDbCircle
 62
7
  6
CONTINUOUS
 10
5.2107192131
 20
5.7167607525
 40
0.03
100
AcDbArc
 50
0.0
 51
71.446995465
  0
SPLINE
  5
319
100
AcDbEntity
  8
ALL_ASSEMBLY_MEMBERS
100
AcDbSpline
 62
7
  6
CONTINUOUS
 70
0
 71
3
 72
51
 73
47
 74
0
 42
0.0000001
 43
0.0000001
 44
0.0000000001
 40
0.0
 40
0.0
 40
0.0
 40
0.0
 40
0.0312468437
 40
0.046879652
 40
0.0625101336
 40
0.0937582182
 40
0.1250069892
 40
0.1406356536
 40
0.1562642793
 40
0.1875136417
 40
0.2187629202
 40
0.2500119329
 40
0.2812604929
 40
0.296888431
 40
0.3125163591
 40
0.3437641762
 40
0.3750121123
 40
0.3906399935
 40
0.4062679263
 40
0.4375155227
 40
0.4687627653
 40
0.4843902736
 40
0.5000177973
 40
0.5312646089
 40
0.5625115846
 40
0.5781391506
 40
0.5937666869
 40
0.625013021
 40
0.656258784
 40
0.6718857557
 40
0.6875127773
 40
0.7187583024
 40
0.7500038296
 40
0.7656308334
 40
0.7812577957
 40
0.7968846812
 40
0.812511329
 40
0.8281378083
 40
0.8437642312
 40
0.8593906938
 40
0.875017463
 40
0.9062613824
 40
0.9375033807
 40
0.9531310039
 40
0.9687613992
 40
1.0
 40
1.0
 40
1.0
 40
1.0
 10
4.6606243468
 20
5.1119454255
 30
0.0
 10
4.6609146116
 20
5.1107996924
 30
0.0
 10
4.6614250296
 20
5.109098437
 30
0.0
 10
4.6622504427
 20
5.1068821388
 30
0.0
 10
4.6631717106
 20
5.104703723
 30
0.0
 10
4.6644998787
 20
5.1020593382
 30
0.0
 10
4.6660541945
 20
5.0995412491
 30
0.0
 10
4.6674259345
 20
5.0976147146
 30
0.0
 10
4.668881092
 20
5.0957503733
 30
0.0
 10
4.6708519181
 20
5.093542723
 30
0.0
 10
4.6734411833
 20
5.0911132002
 30
0.0
 10
4.6762353139
 20
5.0889223769
 30
0.0
 10
4.6787173894
 20
5.0873107539
 30
0.0
 10
4.6807825868
 20
5.0861583972
 30
0.0
 10
4.6828972869
 20
5.0850996545
 30
0.0
 10
4.6856263787
 20
5.0839553403
 30
0.0
 10
4.6884473646
 20
5.0830611023
 30
0.0
 10
4.6907448921
 20
5.0825004459
 30
0.0
 10
4.6930654287
 20
5.0820443611
 30
0.0
 10
4.6960012424
 20
5.0816718746
 30
0.0
 10
4.6989587875
 20
5.0815678688
 30
0.0
 10
4.7013223884
 20
5.0816464061
 30
0.0
 10
4.7036799029
 20
5.0818330159
 30
0.0
 10
4.706607107
 20
5.0822682994
 30
0.0
 10
4.7094819372
 20
5.0829708655
 30
0.0
 10
4.7117349707
 20
5.0836896556
 30
0.0
 10
4.7139523075
 20
5.0845119217
 30
0.0
 10
4.7166490277
 20
5.0857309035
 30
0.0
 10
4.7192207527
 20
5.0871953399
 30
0.0
 10
4.721188966
 20
5.0885063019
 30
0.0
 10
4.7230936622
 20
5.0899079352
 30
0.0
 10
4.7253483283
 20
5.09182495
 30
0.0
 10
4.7274127254
 20
5.0939455932
 30
0.0
 10
4.7289383382
 20
5.0957524832
 30
0.0
 10
4.7300173179
 20
5.097160617
 30
0.0
 10
4.7310282994
 20
5.0986182776
 30
0.0
 10
4.7319689886
 20
5.1001222537
 30
0.0
 10
4.7328369388
 20
5.1016693337
 30
0.0
 10
4.733630121
 20
5.1032560268
 30
0.0
 10
4.7343466721
 20
5.1048788277
 30
0.0
 10
4.7351970264
 20
5.1070853884
 30
0.0
 10
4.7360600941
 20
5.1099162651
 30
0.0
 10
4.7366464608
 20
5.1128171537
 30
0.0
 10
4.7369457439
 20
5.1151630911
 30
0.0
 10
4.7371307467
 20
5.1175204684
 30
0.0
 10
4.7371406283
 20
5.119296975
 30
0.0
 10
4.7370894559
 20
5.1204774845
 30
0.0
  0
SPLINE
  5
31A
100
AcDbEntity
  8
ALL_ASSEMBLY_MEMBERS
100
AcDbSpline
 62
7
  6
CONTINUOUS
 70
0
 71
3
 72
45
 73
41
 74
0
 42
0.0000001
 43
0.0000001
 44
0.0000000001
 40
0.0
 40
0.0
 40
0.0
 40
0.0
 40
0.0312443913
 40
0.0625045778
 40
0.0937586114
 40
0.1250086056
 40
0.1562602379
 40
0.1875121543
 40
0.2187631937
 40
0.2500136699
 40
0.2812644036
 40
0.3125149675
 40
0.3281429587
 40
0.3437708426
 40
0.3750207752
 40
0.3906483796
 40
0.4062758482
 40
0.4219032039
 40
0.4375305859
 40
0.4687797469
 40
0.500028972
 40
0.5312782965
 40
0.5625275099
 40
0.5937763633
 40
0.6250247555
 40
0.640651642
 40
0.656278377
 40
0.6875259544
 40
0.7187732236
 40
0.7343998672
 40
0.7500264502
 40
0.7812731576
 40
0.8125195071
 40
0.8281456401
 40
0.8437719521
 40
0.8750179404
 40
0.9062617073
 40
0.9375079568
 40
0.968762097
 40
1.0
 40
1.0
 40
1.0
 40
1.0
 10
4.7370894559
 20
5.1204774845
 30
0.0
 10
4.7370517155
 20
5.121348127
 30
0.0
 10
4.7369133186
 20
5.1230877737
 30
0.0
 10
4.73651848
 20
5.1256750788
 30
0.0
 10
4.7359370731
 20
5.1282272663
 30
0.0
 10
4.7351720841
 20
5.1307302848
 30
0.0
 10
4.7342266948
 20
5.1331708497
 30
0.0
 10
4.7331057131
 20
5.1355359606
 30
0.0
 10
4.7318141932
 20
5.1378124103
 30
0.0
 10
4.7303588959
 20
5.1399878067
 30
0.0
 10
4.7287469924
 20
5.1420497617
 30
0.0
 10
4.7272801176
 20
5.1436642259
 30
0.0
 10
4.7260373066
 20
5.1448873973
 30
0.0
 10
4.7247499433
 20
5.1460635048
 30
0.0
 10
4.723397581
 20
5.1471668076
 30
0.0
 10
4.7219867374
 20
5.1481914741
 30
0.0
 10
4.720900428
 20
5.148919949
 30
0.0
 10
4.7197875553
 20
5.1496071408
 30
0.0
 10
4.7182704903
 20
5.1504667519
 30
0.0
 10
4.7163150144
 20
5.1514333245
 30
0.0
 10
4.7138878149
 20
5.1524123983
 30
0.0
 10
4.7113933457
 20
5.1532048464
 30
0.0
 10
4.7088457911
 20
5.1538051376
 30
0.0
 10
4.7062599567
 20
5.1542094072
 30
0.0
 10
4.7040852977
 20
5.1543801272
 30
0.0
 10
4.7023420119
 20
5.1544161914
 30
0.0
 10
4.7005986419
 20
5.1543851212
 30
0.0
 10
4.6984236536
 20
5.1542199415
 30
0.0
 10
4.6962679352
 20
5.1538870375
 30
0.0
 10
4.6945632005
 20
5.153520787
 30
0.0
 10
4.6928740202
 20
5.1530885093
 30
0.0
 10
4.6907961042
 20
5.1524250873
 30
0.0
 10
4.6887765393
 20
5.1516009256
 30
0.0
 10
4.6872037787
 20
5.1508482293
 30
0.0
 10
4.6856619496
 20
5.1500340904
 30
0.0
 10
4.6837966472
 20
5.1489033631
 30
0.0
 10
4.6816730275
 20
5.1473737815
 30
0.0
 10
4.6796772977
 20
5.1456801348
 30
0.0
 10
4.6778234449
 20
5.1438327581
 30
0.0
 10
4.6766895878
 20
5.1425060409
 30
0.0
 10
4.6761506725
 20
5.1418214259
 30
0.0
  0
SPLINE
  5
31B
100
AcDbEntity
  8
ALL_ASSEMBLY_MEMBERS
100
AcDbSpline
 62
7
  6
CONTINUOUS
 70
0
 71
3
 72
28
 73
24
 74
0
 42
0.0000001
 43
0.0000001
 44
0.0000000001
 40
0.0
 40
0.0
 40
0.0
 40
0.0
 40
0.0626154987
 40
0.0939393407
 40
0.1252584574
 40
0.1878593455
 40
0.2504402684
 40
0.2817334623
 40
0.3130227492
 40
0.3443079094
 40
0.3755889024
 40
0.4381221626
 40
0.5006376158
 40
0.5631329006
 40
0.6256079837
 40
0.6568447815
 40
0.6880765896
 40
0.7505064874
 40
0.8129137195
 40
0.8441146311
 40
0.8753077792
 40
0.9376593361
 40
1.0
 40
1.0
 40
1.0
 40
1.0
 10
4.6664687344
 20
5.1430142258
 30
0.0
 10
4.6660158912
 20
5.1420509334
 30
0.0
 10
4.6653931494
 20
5.1405780699
 30
0.0
 10
4.6646819832
 20
5.138570596
 30
0.0
 10
4.6640517508
 20
5.1365364002
 30
0.0
 10
4.663418585
 20
5.133949267
 30
0.0
 10
4.6629980714
 20
5.1313195106
 30
0.0
 10
4.6627925221
 20
5.1292012512
 30
0.0
 10
4.6627042384
 20
5.1276075308
 30
0.0
 10
4.6626825437
 20
5.1260117086
 30
0.0
 10
4.6627430167
 20
5.1238854452
 30
0.0
 10
4.6629867431
 20
5.1212356413
 30
0.0
 10
4.6635500478
 20
5.1180937248
 30
0.0
 10
4.6643828997
 20
5.1150132071
 30
0.0
 10
4.6652998076
 20
5.112517086
 30
0.0
 10
4.6661638679
 20
5.1105761469
 30
0.0
 10
4.6671139238
 20
5.1086766712
 30
0.0
 10
4.6684605442
 20
5.1063862451
 30
0.0
 10
4.6700114883
 20
5.1042293907
 30
0.0
 10
4.671367562
 20
5.1025969407
 30
0.0
 10
4.6727981762
 20
5.1010306644
 30
0.0
 10
4.67472249
 20
5.0992027467
 30
0.0
 10
4.6763956859
 20
5.0978951269
 30
0.0
 10
4.6772615302
 20
5.0972840715
 30
0.0
  0
SPLINE
  5
31C
100
AcDbEntity
  8
ALL_ASSEMBLY_MEMBERS
100
AcDbSpline
 62
7
  6
CONTINUOUS
 70
0
 71
3
 72
20
 73
16
 74
0
 42
0.0000001
 43
0.0000001
 44
0.0000000001
 40
0.0
 40
0.0
 40
0.0
 40
0.0
 40
0.0161728331
 40
0.0258036186
 40
0.0369209756
 40
0.0643334836
 40
0.0992315881
 40
0.1417947005
 40
0.1919721843
 40
0.2494665808
 40
0.313814204
 40
0.4610154349
 40
0.6286948361
 40
0.8109417894
 40
1.0
 40
1.0
 40
1.0
 40
1.0
 10
5.6415142184
 20
4.6421653128
 30
0.0
 10
5.6415142168
 20
4.6422038651
 30
0.0
 10
5.6414933312
 20
4.6422656404
 30
0.0
 10
5.6414399551
 20
4.6423357042
 30
0.0
 10
5.6413563819
 20
4.6424151569
 30
0.0
 10
5.6412078516
 20
4.6425099655
 30
0.0
 10
5.6409807084
 20
4.6426151333
 30
0.0
 10
5.6406937659
 20
4.6427173708
 30
0.0
 10
5.640349167
 20
4.6428154582
 30
0.0
 10
5.6399496344
 20
4.6429083464
 30
0.0
 10
5.6393196952
 20
4.6430293667
 30
0.0
 10
5.6384240562
 20
4.6431558378
 30
0.0
 10
5.6372438711
 20
4.643266467
 30
0.0
 10
5.6359605752
 20
4.6433348782
 30
0.0
 10
5.635075396
 20
4.6433505841
 30
0.0
 10
5.6346247249
 20
4.6433505841
 30
0.0
  0
SPLINE
  5
31D
100
AcDbEntity
  8
ALL_ASSEMBLY_MEMBERS
100
AcDbSpline
 62
7
  6
CONTINUOUS
 70
0
 71
3
 72
23
 73
19
 74
0
 42
0.0000001
 43
0.0000001
 44
0.0000000001
 40
0.0
 40
0.0
 40
0.0
 40
0.0
 40
0.0078034152
 40
0.0161641464
 40
0.0256081261
 40
0.0365034451
 40
0.0490751587
 40
0.0634558353
 40
0.0979038589
 40
0.1401458142
 40
0.1900907423
 40
0.247437934
 40
0.3118120388
 40
0.3826710245
 40
0.459367591
 40
0.6275128975
 40
0.8101911166
 40
1.0
 40
1.0
 40
1.0
 40
1.0
 10
5.6513567852
 20
4.6421653363
 30
0.0
 10
5.651356787
 20
4.6421203793
 30
0.0
 10
5.6513424496
 20
4.6420267425
 30
0.0
 10
5.6512793131
 20
4.6418916795
 30
0.0
 10
5.6511764985
 20
4.6417607851
 30
0.0
 10
5.6510349972
 20
4.6416335678
 30
0.0
 10
5.65085527
 20
4.6415093321
 30
0.0
 10
5.6505458283
 20
4.6413370877
 30
0.0
 10
5.6500597033
 20
4.6411358044
 30
0.0
 10
5.6493624271
 20
4.6409194231
 30
0.0
 10
5.6485244621
 20
4.6407174009
 30
0.0
 10
5.6475529501
 20
4.6405308743
 30
0.0
 10
5.646456238
 20
4.640361639
 30
0.0
 10
5.6452445295
 20
4.6402104433
 30
0.0
 10
5.6434347187
 20
4.640028322
 30
0.0
 10
5.6409770296
 20
4.6398575079
 30
0.0
 10
5.6378643382
 20
4.6397366666
 30
0.0
 10
5.6357182511
 20
4.6397097796
 30
0.0
 10
5.6346247249
 20
4.6397097796
 30
0.0
  0
SPLINE
  5
31E
100
AcDbEntity
  8
ALL_ASSEMBLY_MEMBERS
100
AcDbSpline
 62
7
  6
CONTINUOUS
 70
0
 71
3
 72
20
 73
16
 74
0
 42
0.0000001
 43
0.0000001
 44
0.0000000001
 40
0.0
 40
0.0
 40
0.0
 40
0.0
 40
0.189057575
 40
0.3713042276
 40
0.5389848736
 40
0.6861864316
 40
0.7505333508
 40
0.8080268943
 40
0.8582038084
 40
0.9007670648
 40
0.9356657355
 40
0.9630788201
 40
0.9741963456
 40
0.9838271894
 40
1.0
 40
1.0
 40
1.0
 40
1.0
 10
5.6346247249
 20
4.6433505841
 30
0.0
 10
5.6341740553
 20
4.6433505841
 30
0.0
 10
5.6332888783
 20
4.6433348791
 30
0.0
 10
5.6320055817
 20
4.6432664671
 30
0.0
 10
5.6308253937
 20
4.6431558364
 30
0.0
 10
5.6299297524
 20
4.6430293672
 30
0.0
 10
5.6292998159
 20
4.642908348
 30
0.0
 10
5.6289002883
 20
4.6428154607
 30
0.0
 10
5.6285556927
 20
4.642717373
 30
0.0
 10
5.6282687501
 20
4.6426151351
 30
0.0
 10
5.6280416037
 20
4.6425099667
 30
0.0
 10
5.6278930699
 20
4.6424151578
 30
0.0
 10
5.6278094945
 20
4.6423357047
 30
0.0
 10
5.6277561178
 20
4.6422656407
 30
0.0
 10
5.6277352325
 20
4.6422038651
 30
0.0
 10
5.6277352313
 20
4.6421653128
 30
0.0
  0
SPLINE
  5
31F
100
AcDbEntity
  8
ALL_ASSEMBLY_MEMBERS
100
AcDbSpline
 62
7
  6
CONTINUOUS
 70
0
 71
3
 72
23
 73
19
 74
0
 42
0.0000001
 43
0.0000001
 44
0.0000000001
 40
0.0
 40
0.0
 40
0.0
 40
0.0
 40
0.1898090382
 40
0.3724871401
 40
0.5406320978
 40
0.6173287805
 40
0.6881879839
 40
0.752562232
 40
0.8099093563
 40
0.859854115
 40
0.9020959549
 40
0.9365440101
 40
0.9509247321
 40
0.9634964936
 40
0.9743918508
 40
0.9838358491
 40
0.9921965845
 40
1.0
 40
1.0
 40
1.0
 40
1.0
 10
5.6346247249
 20
4.6397097796
 30
0.0
 10
5.6335311978
 20
4.6397097796
 30
0.0
 10
5.6313851105
 20
4.639736667
 30
0.0
 10
5.6282724209
 20
4.6398575074
 30
0.0
 10
5.6258147338
 20
4.6400283218
 30
0.0
 10
5.6240049231
 20
4.6402104435
 30
0.0
 10
5.622793212
 20
4.6403616394
 30
0.0
 10
5.6216964981
 20
4.6405308744
 30
0.0
 10
5.6207249865
 20
4.6407174005
 30
0.0
 10
5.6198870235
 20
4.6409194223
 30
0.0
 10
5.6191897489
 20
4.6411358039
 30
0.0
 10
5.6187036242
 20
4.6413370872
 30
0.0
 10
5.6183941817
 20
4.6415093316
 30
0.0
 10
5.6182144537
 20
4.6416335675
 30
0.0
 10
5.6180729516
 20
4.6417607848
 30
0.0
 10
5.6179701365
 20
4.6418916793
 30
0.0
 10
5.617907
 20
4.6420267424
 30
0.0
 10
5.6178926627
 20
4.6421203793
 30
0.0
 10
5.6178926646
 20
4.6421653363
 30
0.0
  0
LINE
  5
320
100
AcDbEntity
  8
ALL_ASSEMBLY_MEMBERS
100
AcDbLine
 62
7
  6
CONTINUOUS
 10
5.6346247249
 20
4.6452222104
 11
5.6422349963
 21
4.6448580613
  0
SPLINE
  5
321
100
AcDbEntity
  8
ALL_ASSEMBLY_MEMBERS
100
AcDbSpline
 62
7
  6
CONTINUOUS
 70
0
 71
3
 72
19
 73
15
 74
0
 42
0.0000001
 43
0.0000001
 44
0.0000000001
 40
0.0
 40
0.0
 40
0.0
 40
0.0
 40
0.20355588
 40
0.388916636
 40
0.5529760947
 40
0.6930837406
 40
0.7535900277
 40
0.8074763989
 40
0.8546516999
 40
0.8951680966
 40
0.9292150896
 40
0.95723513
 40
0.9801956094
 40
1.0
 40
1.0
 40
1.0
 40
1.0
 10
5.6422349963
 20
4.6448580613
 30
0.0
 10
5.6428958464
 20
4.6447916239
 30
0.0
 10
5.6441566206
 20
4.6446449191
 30
0.0
 10
5.6459404417
 20
4.6443706527
 30
0.0
 10
5.6475077065
 20
4.6440597451
 30
0.0
 10
5.6486614219
 20
4.6437645531
 30
0.0
 10
5.6494524283
 20
4.6435110053
 30
0.0
 10
5.64994644
 20
4.6433262564
 30
0.0
 10
5.6503689315
 20
4.6431385576
 30
0.0
 10
5.6507186039
 20
4.6429489779
 30
0.0
 10
5.6509947766
 20
4.6427582928
 30
0.0
 10
5.6511971317
 20
4.6425661863
 30
0.0
 10
5.6513251125
 20
4.642370268
 30
0.0
 10
5.6513567826
 20
4.6422299559
 30
0.0
 10
5.6513567852
 20
4.6421653363
 30
0.0
  0
SPLINE
  5
322
100
AcDbEntity
  8
ALL_ASSEMBLY_MEMBERS
100
AcDbSpline
 62
7
  6
CONTINUOUS
 70
0
 71
3
 72
18
 73
14
 74
0
 42
0.0000001
 43
0.0000001
 44
0.0000000001
 40
0.0
 40
0.0
 40
0.0
 40
0.0
 40
0.0196331412
 40
0.0421488034
 40
0.0696179638
 40
0.1031481057
 40
0.143227933
 40
0.1900563012
 40
0.3040558468
 40
0.4444578624
 40
0.6090795544
 40
0.7953332078
 40
1.0
 40
1.0
 40
1.0
 40
1.0
 10
5.6277352313
 20
4.6421653128
 30
0.0
 10
5.6277352304
 20
4.6421387908
 30
0.0
 10
5.6277481793
 20
4.6420814491
 30
0.0
 10
5.6278017123
 20
4.6420024227
 30
0.0
 10
5.6278863954
 20
4.6419268001
 30
0.0
 10
5.6280019976
 20
4.6418533932
 30
0.0
 10
5.6281483486
 20
4.6417817911
 30
0.0
 10
5.6284011378
 20
4.6416824343
 30
0.0
 10
5.6287928284
 20
4.6415694408
 30
0.0
 10
5.6293468075
 20
4.6414520442
 30
0.0
 10
5.6300024365
 20
4.6413475687
 30
0.0
 10
5.6307477181
 20
4.6412583416
 30
0.0
 10
5.6312738437
 20
4.6412118968
 30
0.0
 10
5.6315495382
 20
4.6411910673
 30
0.0
  0
LINE
  5
323
100
AcDbEntity
  8
ALL_ASSEMBLY_MEMBERS
100
AcDbLine
 62
7
  6
CONTINUOUS
 10
5.6315495382
 20
4.6411910673
 11
5.6346247249
 21
4.6410819448
  0
SPLINE
  5
324
100
AcDbEntity
  8
ALL_ASSEMBLY_MEMBERS
100
AcDbSpline
 62
7
  6
CONTINUOUS
 70
0
 71
3
 72
23
 73
19
 74
0
 42
0.0000001
 43
0.0000001
 44
0.0000000001
 40
0.0
 40
0.0
 40
0.0
 40
0.0
 40
0.0078812127
 40
0.0164536615
 40
0.0261985843
 40
0.0374419714
 40
0.0503770288
 40
0.0651150352
 40
0.1002079959
 40
0.1429471231
 40
0.1932146859
 40
0.2507048315
 40
0.3150490248
 40
0.385731092
 40
0.4621336633
 40
0.6294611839
 40
0.8111746924
 40
1.0
 40
1.0
 40
1.0
 40
1.0
 10
5.6513567829
 20
4.6446652438
 30
0.0
 10
5.6513567806
 20
4.6447110006
 30
0.0
 10
5.6513420104
 20
4.6448069631
 30
0.0
 10
5.6512787111
 20
4.6449468169
 30
0.0
 10
5.6511759083
 20
4.6450854731
 30
0.0
 10
5.6510344019
 20
4.645223336
 30
0.0
 10
5.6508546308
 20
4.6453608649
 30
0.0
 10
5.6505458364
 20
4.6455550747
 30
0.0
 10
5.6500608778
 20
4.6457899679
 30
0.0
 10
5.6493645806
 20
4.6460528272
 30
0.0
 10
5.6485282654
 20
4.6463076198
 30
0.0
 10
5.6475589133
 20
4.6465512343
 30
0.0
 10
5.6464645905
 20
4.6467799422
 30
0.0
 10
5.6452551204
 20
4.6469907977
 30
0.0
 10
5.6434482885
 20
4.6472520795
 30
0.0
 10
5.6409904757
 20
4.6475081391
 30
0.0
 10
5.6378725564
 20
4.6476956721
 30
0.0
 10
5.6357210092
 20
4.6477382824
 30
0.0
 10
5.6346247249
 20
4.6477382824
 30
0.0
  0
SPLINE
  5
325
100
AcDbEntity
  8
ALL_ASSEMBLY_MEMBERS
100
AcDbSpline
 62
7
  6
CONTINUOUS
 70
0
 71
3
 72
19
 73
15
 74
0
 42
0.0000001
 43
0.0000001
 44
0.0000000001
 40
0.0
 40
0.0
 40
0.0
 40
0.0
 40
0.0198049523
 40
0.0427658196
 40
0.0707860016
 40
0.1048329554
 40
0.1453492186
 40
0.1925243779
 40
0.2464106673
 40
0.3069168988
 40
0.4470242174
 40
0.6110828505
 40
0.7964431978
 40
1.0
 40
1.0
 40
1.0
 40
1.0
 10
5.6178926646
 20
4.6421653363
 30
0.0
 10
5.6178926673
 20
4.6422299531
 30
0.0
 10
5.6179243344
 20
4.6423702579
 30
0.0
 10
5.6180523034
 20
4.6425661677
 30
0.0
 10
5.6182546403
 20
4.6427582663
 30
0.0
 10
5.6185307889
 20
4.6429489433
 30
0.0
 10
5.6188804315
 20
4.6431385152
 30
0.0
 10
5.6193028881
 20
4.6433262067
 30
0.0
 10
5.6197968604
 20
4.6435109488
 30
0.0
 10
5.6205878043
 20
4.6437644883
 30
0.0
 10
5.6217414281
 20
4.6440596727
 30
0.0
 10
5.62330857
 20
4.6443705758
 30
0.0
 10
5.6250922572
 20
4.6446448414
 30
0.0
 10
5.6263529396
 20
4.6447915494
 30
0.0
 10
5.6270137438
 20
4.6448579896
 30
0.0
  0
LINE
  5
326
100
AcDbEntity
  8
ALL_ASSEMBLY_MEMBERS
100
AcDbLine
 62
7
  6
CONTINUOUS
 10
5.6270137438
 20
4.6448579896
 11
5.6346247249
 21
4.6452222104
  0
LINE
  5
327
100
AcDbEntity
  8
ALL_ASSEMBLY_MEMBERS
100
AcDbLine
 62
7
  6
CONTINUOUS
 10
5.6354152095
 20
4.6410888254
 11
5.6376998373
 21
4.6411910624
  0
SPLINE
  5
328
100
AcDbEntity
  8
ALL_ASSEMBLY_MEMBERS
100
AcDbSpline
 62
7
  6
CONTINUOUS
 70
0
 71
3
 72
18
 73
14
 74
0
 42
0.0000001
 43
0.0000001
 44
0.0000000001
 40
0.0
 40
0.0
 40
0.0
 40
0.0
 40
0.2046682898
 40
0.3909226323
 40
0.5555427642
 40
0.6959425846
 40
0.8099416072
 40
0.856770528
 40
0.8968510988
 40
0.9303819048
 40
0.9578513979
 40
0.9803670226
 40
1.0
 40
1.0
 40
1.0
 40
1.0
 10
5.6376998373
 20
4.6411910624
 30
0.0
 10
5.6379755389
 20
4.6412118919
 30
0.0
 10
5.6385016772
 20
4.6412583369
 30
0.0
 10
5.6392469737
 20
4.6413475625
 30
0.0
 10
5.639902611
 20
4.6414520366
 30
0.0
 10
5.6404565948
 20
4.6415694334
 30
0.0
 10
5.6408482897
 20
4.6416824284
 30
0.0
 10
5.6411010851
 20
4.6417817858
 30
0.0
 10
5.6412474418
 20
4.641853389
 30
0.0
 10
5.6413630492
 20
4.6419267967
 30
0.0
 10
5.6414477361
 20
4.6420024202
 30
0.0
 10
5.6415012709
 20
4.6420814479
 30
0.0
 10
5.6415142195
 20
4.6421387906
 30
0.0
 10
5.6415142184
 20
4.6421653128
 30
0.0
  0
SPLINE
  5
329
100
AcDbEntity
  8
ALL_ASSEMBLY_MEMBERS
100
AcDbSpline
 62
7
  6
CONTINUOUS
 70
0
 71
3
 72
23
 73
19
 74
0
 42
0.0000001
 43
0.0000001
 44
0.0000000001
 40
0.0
 40
0.0
 40
0.0
 40
0.0
 40
0.1888229036
 40
0.3705327349
 40
0.5378605567
 40
0.6142646738
 40
0.6849485675
 40
0.7492938873
 40
0.8067841067
 40
0.8570512933
 40
0.899790283
 40
0.9348837029
 40
0.9496220702
 40
0.9625575115
 40
0.9738012536
 40
0.9835463683
 40
0.9921188286
 40
1.0
 40
1.0
 40
1.0
 40
1.0
 10
5.6346247249
 20
4.6477382824
 30
0.0
 10
5.6335284546
 20
4.6477382824
 30
0.0
 10
5.6313769426
 20
4.6476956769
 30
0.0
 10
5.628259057
 20
4.6475081443
 30
0.0
 10
5.6258012542
 20
4.6472520912
 30
0.0
 10
5.6239944013
 20
4.6469908058
 30
0.0
 10
5.6227849051
 20
4.646779949
 30
0.0
 10
5.6216905642
 20
4.6465512418
 30
0.0
 10
5.6207212066
 20
4.6463076291
 30
0.0
 10
5.6198848936
 20
4.6460528378
 30
0.0
 10
5.6191885973
 20
4.6457899771
 30
0.0
 10
5.6187036353
 20
4.645555082
 30
0.0
 10
5.618394834
 20
4.6453608702
 30
0.0
 10
5.6182150565
 20
4.6452233392
 30
0.0
 10
5.6180735438
 20
4.6450854752
 30
0.0
 10
5.6179707364
 20
4.6449468182
 30
0.0
 10
5.6179074371
 20
4.644806963
 30
0.0
 10
5.6178926685
 20
4.6447110004
 30
0.0
 10
5.617892667
 20
4.6446652438
 30
0.0
  0
SPLINE
  5
32A
100
AcDbEntity
  8
ALL_ASSEMBLY_MEMBERS
100
AcDbSpline
 62
7
  6
CONTINUOUS
 70
0
 71
3
 72
15
 73
11
 74
0
 42
0.0000001
 43
0.0000001
 44
0.0000000001
 40
0.0
 40
0.0
 40
0.0
 40
0.0
 40
0.0383023088
 40
0.1469422305
 40
0.3089839169
 40
0.4999851369
 40
0.6909880625
 40
0.853042422
 40
0.9616934259
 40
1.0
 40
1.0
 40
1.0
 40
1.0
 10
4.6579692131
 20
4.7923524845
 30
0.0
 10
4.6590546717
 20
4.7924939139
 30
0.0
 10
4.6632215504
 20
4.7930164956
 30
0.0
 10
4.6720033393
 20
4.7939528125
 30
0.0
 10
4.6851680254
 20
4.7948947557
 30
0.0
 10
4.7007179867
 20
4.7952867413
 30
0.0
 10
4.7162683116
 20
4.7948948348
 30
0.0
 10
4.7294337312
 20
4.7939529416
 30
0.0
 10
4.7382163207
 20
4.7930165743
 30
0.0
 10
4.742383634
 20
4.7924939328
 30
0.0
 10
4.7434692131
 20
4.7923524845
 30
0.0
  0
SPLINE
  5
32B
100
AcDbEntity
  8
ALL_ASSEMBLY_MEMBERS
100
AcDbSpline
 62
7
  6
CONTINUOUS
 70
0
 71
3
 72
22
 73
18
 74
0
 42
0.0000001
 43
0.0000001
 44
0.0000000001
 40
0.0
 40
0.0
 40
0.0
 40
0.0
 40
0.0470169065
 40
0.0939668494
 40
0.1406975986
 40
0.1870636559
 40
0.2783272011
 40
0.3670674104
 40
0.4526923789
 40
0.5346252977
 40
0.6123170905
 40
0.6851724454
 40
0.7525171542
 40
0.8136034493
 40
0.8675768674
 40
0.9135372253
 40
1.0
 40
1.0
 40
1.0
 40
1.0
 10
4.1507192131
 20
4.9743610925
 30
0.0
 10
4.1526977012
 20
4.9743610925
 30
0.0
 10
4.156652317
 20
4.9742792162
 30
0.0
 10
4.162563416
 20
4.9739192321
 30
0.0
 10
4.1684287288
 20
4.9733302365
 30
0.0
 10
4.1761133065
 20
4.972254104
 30
0.0
 10
4.1854684596
 20
4.9704141655
 30
0.0
 10
4.1962761692
 20
4.9675348291
 30
0.0
 10
4.2065246469
 20
4.9641586274
 30
0.0
 10
4.2161600919
 20
4.9604523182
 30
0.0
 10
4.2251382816
 20
4.9565610471
 30
0.0
 10
4.2334222499
 20
4.952627412
 30
0.0
 10
4.2409660324
 20
4.9487735916
 30
0.0
 10
4.2477184225
 20
4.9451226317
 30
0.0
 10
4.2536154749
 20
4.9417848702
 30
0.0
 10
4.2603824489
 20
4.9378182839
 30
0.0
 10
4.2651363083
 20
4.9349098791
 30
0.0
 10
4.2682192131
 20
4.9329774845
 30
0.0
  0
SPLINE
  5
32C
100
AcDbEntity
  8
ALL_ASSEMBLY_MEMBERS
100
AcDbSpline
 62
7
  6
CONTINUOUS
 70
0
 71
3
 72
22
 73
18
 74
0
 42
0.0000001
 43
0.0000001
 44
0.0000000001
 40
0.0
 40
0.0
 40
0.0
 40
0.0
 40
0.0470169959
 40
0.0939672355
 40
0.1406985116
 40
0.1870650763
 40
0.2783291469
 40
0.3670697843
 40
0.4526945474
 40
0.5346274792
 40
0.6123190281
 40
0.6851743167
 40
0.7525188554
 40
0.8136049704
 40
0.8675781337
 40
0.9135380797
 40
1.0
 40
1.0
 40
1.0
 40
1.0
 10
4.1507192131
 20
5.2665938764
 30
0.0
 10
4.1487407212
 20
5.2665938764
 30
0.0
 10
4.1447860892
 20
5.2666757613
 30
0.0
 10
4.1388749532
 20
5.2670357655
 30
0.0
 10
4.1330095841
 20
5.267624756
 30
0.0
 10
4.1253249368
 20
5.2687008698
 30
0.0
 10
4.1159697376
 20
5.2705408916
 30
0.0
 10
4.1051619877
 20
5.2734201953
 30
0.0
 10
4.094913514
 20
5.2767964437
 30
0.0
 10
4.0852780898
 20
5.2805027533
 30
0.0
 10
4.0762999135
 20
5.2843940241
 30
0.0
 10
4.0680159681
 20
5.2883276602
 30
0.0
 10
4.0604722046
 20
5.292181479
 30
0.0
 10
4.053719837
 20
5.2958324269
 30
0.0
 10
4.0478228205
 20
5.2991701791
 30
0.0
 10
4.0410558999
 20
5.3031367298
 30
0.0
 10
4.0363020839
 20
5.306045103
 30
0.0
 10
4.0332192131
 20
5.3079774845
 30
0.0
  0
SPLINE
  5
32D
100
AcDbEntity
  8
ALL_ASSEMBLY_MEMBERS
100
AcDbSpline
 62
7
  6
CONTINUOUS
 70
0
 71
3
 72
22
 73
18
 74
0
 42
0.0000001
 43
0.0000001
 44
0.0000000001
 40
0.0
 40
0.0
 40
0.0
 40
0.0
 40
0.0864620487
 40
0.1324220865
 40
0.1863953286
 40
0.2474815153
 40
0.3148261001
 40
0.3876813749
 40
0.4653729098
 40
0.5473057554
 40
0.6329304255
 40
0.7216708783
 40
0.8129347367
 40
0.8593013171
 40
0.9060326705
 40
0.9529829765
 40
1.0
 40
1.0
 40
1.0
 40
1.0
 10
4.0332192131
 20
4.9329774845
 30
0.0
 10
4.0363020888
 20
4.9349098683
 30
0.0
 10
4.0410559125
 20
4.9378182467
 30
0.0
 10
4.0478228438
 20
4.9417848039
 30
0.0
 10
4.0537198697
 20
4.9451225603
 30
0.0
 10
4.0604722449
 20
4.9487735115
 30
0.0
 10
4.068016013
 20
4.9526273309
 30
0.0
 10
4.0762999599
 20
4.9565609656
 30
0.0
 10
4.0852781327
 20
4.9604522322
 30
0.0
 10
4.0949135493
 20
4.9641585392
 30
0.0
 10
4.105162011
 20
4.967534775
 30
0.0
 10
4.1159697389
 20
4.9704140798
 30
0.0
 10
4.1253249215
 20
4.9722541049
 30
0.0
 10
4.1330095653
 20
4.973330208
 30
0.0
 10
4.1388749412
 20
4.9739191966
 30
0.0
 10
4.1447860841
 20
4.9742792054
 30
0.0
 10
4.14874072
 20
4.9743610925
 30
0.0
 10
4.1507192131
 20
4.9743610925
 30
0.0
  0
SPLINE
  5
32E
100
AcDbEntity
  8
ALL_ASSEMBLY_MEMBERS
100
AcDbSpline
 62
7
  6
CONTINUOUS
 70
0
 71
3
 72
22
 73
18
 74
0
 42
0.0000001
 43
0.0000001
 44
0.0000000001
 40
0.0
 40
0.0
 40
0.0
 40
0.0
 40
0.0864626485
 40
0.1324229167
 40
0.1863962579
 40
0.2474824846
 40
0.3148271507
 40
0.387682524
 40
0.4653743366
 40
0.5473073416
 40
0.632932404
 40
0.7216727932
 40
0.8129365499
 40
0.8593025867
 40
0.9060332512
 40
0.9529831228
 40
1.0
 40
1.0
 40
1.0
 40
1.0
 10
4.2682192131
 20
5.3079774845
 30
0.0
 10
4.2651363132
 20
5.3060450921
 30
0.0
 10
4.2603824612
 20
5.3031366924
 30
0.0
 10
4.2536154978
 20
5.2991701126
 30
0.0
 10
4.2477184545
 20
5.2958323551
 30
0.0
 10
4.2409660716
 20
5.2921813984
 30
0.0
 10
4.2334222933
 20
5.2883275782
 30
0.0
 10
4.2251383259
 20
5.2843939418
 30
0.0
 10
4.2161601324
 20
5.2805026662
 30
0.0
 10
4.2065246794
 20
5.2767963546
 30
0.0
 10
4.1962761898
 20
5.2734201406
 30
0.0
 10
4.1854684584
 20
5.2705408049
 30
0.0
 10
4.1761132889
 20
5.2687008708
 30
0.0
 10
4.1684287083
 20
5.2676247273
 30
0.0
 10
4.1625634031
 20
5.2670357295
 30
0.0
 10
4.1566523116
 20
5.2666757503
 30
0.0
 10
4.1526977
 20
5.2665938764
 30
0.0
 10
4.1507192131
 20
5.2665938764
 30
0.0
  0
SPLINE
  5
32F
100
AcDbEntity
  8
ALL_ASSEMBLY_MEMBERS
100
AcDbSpline
 62
7
  6
CONTINUOUS
 70
0
 71
3
 72
15
 73
11
 74
0
 42
0.0000001
 43
0.0000001
 44
0.0000000001
 40
0.0
 40
0.0
 40
0.0
 40
0.0
 40
0.0414435246
 40
0.1545446594
 40
0.3155773785
 40
0.499997749
 40
0.6844188229
 40
0.8454517666
 40
0.9585542087
 40
1.0
 40
1.0
 40
1.0
 40
1.0
 10
5.2632192131
 20
5.6054774845
 30
0.0
 10
5.2608202276
 20
5.6051108107
 30
0.0
 10
5.2518661294
 20
5.6037959258
 30
0.0
 10
5.2335240424
 20
5.6015170345
 30
0.0
 10
5.2067526254
 20
5.5992990015
 30
0.0
 10
5.1757195675
 20
5.5983968377
 30
0.0
 10
5.144686495
 20
5.5992989586
 30
0.0
 10
5.1179149448
 20
5.6015169711
 30
0.0
 10
5.0995726353
 20
5.6037958771
 30
0.0
 10
5.0906183298
 20
5.6051107904
 30
0.0
 10
5.0882192131
 20
5.6054774845
 30
0.0
  0
ELLIPSE
  5
330
100
AcDbEntity
  8
ALL_ASSEMBLY_MEMBERS
100
AcDbEllipse
 62
7
  6
CONTINUOUS
 10
5.5664524886
 20
5.1204774845
 30
0.0
 11
0.0
 21
0.48475
 31
0.0
 40
0.2210555332
 41
6.3004893413
 42
6.3175170955
  0
ELLIPSE
  5
331
100
AcDbEntity
  8
ALL_ASSEMBLY_MEMBERS
100
AcDbEllipse
 62
7
  6
CONTINUOUS
 10
5.5712732777
 20
5.1204774845
 30
0.0
 11
-0.0
 21
0.48475
 31
0.0
 40
0.7957997678
 41
6.2863035852
 42
6.3004893413
  0
ELLIPSE
  5
332
100
AcDbEntity
  8
ALL_ASSEMBLY_MEMBERS
100
AcDbEllipse
 62
7
  6
CONTINUOUS
 10
5.6400037319
 20
5.1204774845
 30
0.0
 11
0.0
 21
0.48475
 31
0.0
 40
0.7957996981
 41
-0.0173040341
 42
-0.0031182781
  0
ELLIPSE
  5
333
100
AcDbEntity
  8
ALL_ASSEMBLY_MEMBERS
100
AcDbEllipse
 62
7
  6
CONTINUOUS
 10
5.6448245205
 20
5.1204774845
 30
0.0
 11
-0.0
 21
0.48475
 31
0.0
 40
0.2210555139
 41
-0.0343317884
 42
-0.0173040341
  0
ELLIPSE
  5
334
100
AcDbEntity
  8
ALL_ASSEMBLY_MEMBERS
100
AcDbEllipse
 62
7
  6
CONTINUOUS
 10
5.7242072163
 20
5.1204774845
 30
0.0
 11
3.2147129739
 21
-0.0
 31
0.0
 40
0.1507910672
 41
1.6102429677
 42
1.6130823074
  0
ELLIPSE
  5
335
100
AcDbEntity
  8
ALL_ASSEMBLY_MEMBERS
100
AcDbEllipse
 62
7
  6
CONTINUOUS
 10
5.6698480139
 20
5.1204774845
 30
0.0
 11
1.9288162072
 21
0.0
 31
0.0
 40
0.2513199538
 41
1.6130823074
 42
1.6159220045
  0
ELLIPSE
  5
336
100
AcDbEntity
  8
ALL_ASSEMBLY_MEMBERS
100
AcDbEllipse
 62
7
  6
CONTINUOUS
 10
5.6408449895
 20
5.1204774845
 30
0.0
 11
1.2858813755
 21
0.0
 31
0.0
 40
0.3769787861
 41
1.6159220045
 42
1.621602498
  0
ELLIPSE
  5
337
100
AcDbEntity
  8
ALL_ASSEMBLY_MEMBERS
100
AcDbEllipse
 62
7
  6
CONTINUOUS
 10
5.608193653
 20
5.1204774845
 30
0.0
 11
0.6429400371
 21
0.0
 31
0.0
 40
0.7539583352
 41
1.621602498
 42
1.6301263818
  0
ELLIPSE
  5
338
100
AcDbEntity
  8
ALL_ASSEMBLY_MEMBERS
100
AcDbEllipse
 62
7
  6
CONTINUOUS
 10
5.5929443179
 20
5.1204774845
 30
0.0
 11
0.0
 21
0.48475
 31
0.0
 40
0.7957993124
 41
0.059330055
 42
0.0735464445
  0
ELLIPSE
  5
339
100
AcDbEntity
  8
ALL_ASSEMBLY_MEMBERS
100
AcDbEllipse
 62
7
  6
CONTINUOUS
 10
5.5724722277
 20
5.1204774845
 30
0.0
 11
0.0
 21
0.48475
 31
0.0
 40
0.2210555332
 41
0.0735464445
 42
0.0906260353
  0
ELLIPSE
  5
33A
100
AcDbEntity
  8
ALL_ASSEMBLY_MEMBERS
100
AcDbEllipse
 62
7
  6
CONTINUOUS
 10
5.638804782
 20
5.1204774845
 30
0.0
 11
-0.0
 21
0.48475
 31
0.0
 40
0.2210555139
 41
-0.0906260353
 42
-0.0735464445
  0
ELLIPSE
  5
33B
100
AcDbEntity
  8
ALL_ASSEMBLY_MEMBERS
100
AcDbEllipse
 62
7
  6
CONTINUOUS
 10
5.6183326936
 20
5.1204774845
 30
0.0
 11
-0.0
 21
0.48475
 31
0.0
 40
0.7957992427
 41
-0.0735464445
 42
-0.059330055
  0
ELLIPSE
  5
33C
100
AcDbEntity
  8
ALL_ASSEMBLY_MEMBERS
100
AcDbEllipse
 62
7
  6
CONTINUOUS
 10
5.6030833609
 20
5.1204774845
 30
0.0
 11
0.642939962
 21
0.0
 31
0.0
 40
0.7539584232
 41
7.794651579
 42
7.8031754627
  0
ELLIPSE
  5
33D
100
AcDbEntity
  8
ALL_ASSEMBLY_MEMBERS
100
AcDbEllipse
 62
7
  6
CONTINUOUS
 10
5.570432032
 20
5.1204774845
 30
0.0
 11
1.2858811504
 21
-0.0
 31
0.0
 40
0.3769788521
 41
1.5199901556
 42
1.5256706491
  0
ELLIPSE
  5
33E
100
AcDbEntity
  8
ALL_ASSEMBLY_MEMBERS
100
AcDbEllipse
 62
7
  6
CONTINUOUS
 10
5.5414289162
 20
5.1204774845
 30
0.0
 11
1.9288180083
 21
0.0
 31
0.0
 40
0.2513197191
 41
1.5256706491
 42
1.5285103462
  0
ELLIPSE
  5
33F
100
AcDbEntity
  8
ALL_ASSEMBLY_MEMBERS
100
AcDbEllipse
 62
7
  6
CONTINUOUS
 10
5.4870698281
 20
5.1204774845
 30
0.0
 11
3.2147120734
 21
0.0
 31
0.0
 40
0.1507911094
 41
1.5285103462
 42
1.5313496859
  0
ELLIPSE
  5
340
100
AcDbEntity
  8
ALL_ASSEMBLY_MEMBERS
100
AcDbEllipse
 62
7
  6
CONTINUOUS
 10
5.6510201211
 20
5.1204774845
 30
0.0
 11
0.0
 21
0.48475
 31
0.0
 40
0.2652667178
 41
0.0906260353
 42
0.1048790886
  0
ELLIPSE
  5
341
100
AcDbEntity
  8
ALL_ASSEMBLY_MEMBERS
100
AcDbEllipse
 62
7
  6
CONTINUOUS
 10
5.6824302388
 20
5.1204774845
 30
0.0
 11
0.0
 21
0.48475
 31
0.0
 40
0.8842220554
 41
0.1048790886
 42
0.1134410125
  0
ELLIPSE
  5
342
100
AcDbEntity
  8
ALL_ASSEMBLY_MEMBERS
100
AcDbEllipse
 62
7
  6
CONTINUOUS
 10
5.7430797606
 20
5.1204774845
 30
0.0
 11
0.9644099335
 21
0.0
 31
0.0
 40
0.5026389538
 41
1.6842373393
 42
1.6956663613
  0
ELLIPSE
  5
343
100
AcDbEntity
  8
ALL_ASSEMBLY_MEMBERS
100
AcDbEllipse
 62
7
  6
CONTINUOUS
 10
6.1034211628
 20
5.1204774845
 30
0.0
 11
3.857654488
 21
0.0
 31
0.0
 40
0.1256592578
 41
1.6956663613
 42
1.6985261089
  0
ELLIPSE
  5
344
100
AcDbEntity
  8
ALL_ASSEMBLY_MEMBERS
100
AcDbEllipse
 62
7
  6
CONTINUOUS
 10
5.1078557314
 20
5.1204774845
 30
0.0
 11
3.8576553886
 21
-0.0
 31
0.0
 40
0.1256592285
 41
1.4430665446
 42
1.4459262923
  0
ELLIPSE
  5
345
100
AcDbEntity
  8
ALL_ASSEMBLY_MEMBERS
100
AcDbEllipse
 62
7
  6
CONTINUOUS
 10
5.4681972878
 20
5.1204774845
 30
0.0
 11
0.9644095958
 21
0.0
 31
0.0
 40
0.5026391298
 41
1.4459262923
 42
1.4573553143
  0
ELLIPSE
  5
346
100
AcDbEntity
  8
ALL_ASSEMBLY_MEMBERS
100
AcDbEllipse
 62
7
  6
CONTINUOUS
 10
5.5288467714
 20
5.1204774845
 30
0.0
 11
-0.0
 21
0.48475
 31
0.0
 40
0.8842220554
 41
-0.1134410125
 42
-0.1048790886
  0
ELLIPSE
  5
347
100
AcDbEntity
  8
ALL_ASSEMBLY_MEMBERS
100
AcDbEllipse
 62
7
  6
CONTINUOUS
 10
5.5602568891
 20
5.1204774845
 30
0.0
 11
-0.0
 21
0.48475
 31
0.0
 40
0.2652667178
 41
-0.1048790886
 42
-0.0906260353
  0
ELLIPSE
  5
348
100
AcDbEntity
  8
ALL_ASSEMBLY_MEMBERS
100
AcDbEllipse
 62
7
  6
CONTINUOUS
 10
5.7178254203
 20
5.1204774845
 30
0.0
 11
0.5716780154
 21
-0.4744956074
 31
0.0
 40
0.1734875795
 41
1.8341228243
 42
1.8564220296
  0
ELLIPSE
  5
349
100
AcDbEntity
  8
ALL_ASSEMBLY_MEMBERS
100
AcDbEllipse
 62
7
  6
CONTINUOUS
 10
5.6752652449
 20
5.1204774845
 30
0.0
 11
0.5716778757
 21
-0.4744956116
 31
0.0
 40
0.1734875871
 41
1.7601616376
 42
1.7823049235
  0
ELLIPSE
  5
34A
100
AcDbEntity
  8
ALL_ASSEMBLY_MEMBERS
100
AcDbEllipse
 62
7
  6
CONTINUOUS
 10
5.6185997507
 20
5.1204774845
 30
0.0
 11
0.117123106
 21
0.4846535957
 31
0.0
 40
0.0825387411
 41
1.3243861563
 42
1.3391838673
  0
ELLIPSE
  5
34B
100
AcDbEntity
  8
ALL_ASSEMBLY_MEMBERS
100
AcDbEllipse
 62
7
  6
CONTINUOUS
 10
5.6386817913
 20
5.1204774845
 30
0.0
 11
0.3205164298
 21
0.4819141273
 31
0.0
 40
0.1633544133
 41
1.4274608739
 42
1.438573063
  0
ELLIPSE
  5
34C
100
AcDbEntity
  8
ALL_ASSEMBLY_MEMBERS
100
AcDbEllipse
 62
7
  6
CONTINUOUS
 10
5.6834057597
 20
5.1204774845
 30
0.0
 11
0.7387483593
 21
0.4700085841
 31
0.0
 40
0.1605905019
 41
1.5775999118
 42
1.5850154544
  0
ELLIPSE
  5
34D
100
AcDbEntity
  8
ALL_ASSEMBLY_MEMBERS
100
AcDbEllipse
 62
7
  6
CONTINUOUS
 10
5.7693821115
 20
5.1204774845
 30
0.0
 11
1.4844556253
 21
0.4605286781
 31
0.0
 40
0.1019322549
 41
1.6552211679
 42
1.6589312972
  0
ELLIPSE
  5
34E
100
AcDbEntity
  8
ALL_ASSEMBLY_MEMBERS
100
AcDbEllipse
 62
7
  6
CONTINUOUS
 10
5.4108868535
 20
5.1204774845
 30
0.0
 11
1.4844549309
 21
-0.4605286823
 31
0.0
 40
0.1019322941
 41
1.4826613836
 42
1.4863715129
  0
ELLIPSE
  5
34F
100
AcDbEntity
  8
ALL_ASSEMBLY_MEMBERS
100
AcDbEllipse
 62
7
  6
CONTINUOUS
 10
5.4968631049
 20
5.1204774845
 30
0.0
 11
0.7387485344
 21
-0.47000858
 31
0.0
 40
0.1605904861
 41
1.5565771643
 42
1.5639927069
  0
ELLIPSE
  5
350
100
AcDbEntity
  8
ALL_ASSEMBLY_MEMBERS
100
AcDbEllipse
 62
7
  6
CONTINUOUS
 10
5.5415870921
 20
5.1204774845
 30
0.0
 11
-0.3205164298
 21
0.4819141273
 31
0.0
 40
0.1633544133
 41
-1.438573063
 42
-1.4274608739
  0
ELLIPSE
  5
351
100
AcDbEntity
  8
ALL_ASSEMBLY_MEMBERS
100
AcDbEllipse
 62
7
  6
CONTINUOUS
 10
5.8061057967
 20
5.1204774845
 30
0.0
 11
3.8575848219
 21
0.456341581
 31
0.0
 40
0.0423861521
 41
-1.6322987713
 42
-1.629457479
  0
ELLIPSE
  5
352
100
AcDbEntity
  8
ALL_ASSEMBLY_MEMBERS
100
AcDbEllipse
 62
7
  6
CONTINUOUS
 10
5.5616691327
 20
5.1204774845
 30
0.0
 11
-0.117123106
 21
0.4846535957
 31
0.0
 40
0.0825387411
 41
-1.3391838673
 42
-1.3243861563
  0
ELLIPSE
  5
353
100
AcDbEntity
  8
ALL_ASSEMBLY_MEMBERS
100
AcDbEllipse
 62
7
  6
CONTINUOUS
 10
5.642759424
 20
5.1204774845
 30
0.0
 11
0.9622071635
 21
0.4656770005
 31
0.0
 40
0.1399266045
 41
-1.7062712763
 42
-1.6949013418
  0
ELLIPSE
  5
354
100
AcDbEntity
  8
ALL_ASSEMBLY_MEMBERS
100
AcDbEllipse
 62
7
  6
CONTINUOUS
 10
5.6064299294
 20
5.1204774845
 30
0.0
 11
0.4203531079
 21
0.479141308
 31
0.0
 40
0.1749164141
 41
-1.8439863269
 42
-1.8354531791
  0
ELLIPSE
  5
355
100
AcDbEntity
  8
ALL_ASSEMBLY_MEMBERS
100
AcDbEllipse
 62
7
  6
CONTINUOUS
 10
5.5835318341
 20
5.1204774845
 30
0.0
 11
0.1217484006
 21
0.4846385345
 31
0.0
 40
0.0853799597
 41
-1.9890427863
 42
-1.9748081556
  0
ELLIPSE
  5
356
100
AcDbEntity
  8
ALL_ASSEMBLY_MEMBERS
100
AcDbEllipse
 62
7
  6
CONTINUOUS
 10
5.5898559137
 20
5.1204774845
 30
0.0
 11
0.9880542361
 21
0.465285186
 31
0.0
 40
0.1376303424
 41
1.5113205669
 42
1.5186896574
  0
ELLIPSE
  5
357
100
AcDbEntity
  8
ALL_ASSEMBLY_MEMBERS
100
AcDbEllipse
 62
7
  6
CONTINUOUS
 10
5.5856927423
 20
5.1204774845
 30
0.0
 11
0.6553159276
 21
0.4721187462
 31
0.0
 40
0.1677639688
 41
1.4631295299
 42
1.4741845703
  0
ELLIPSE
  5
358
100
AcDbEntity
  8
ALL_ASSEMBLY_MEMBERS
100
AcDbEllipse
 62
7
  6
CONTINUOUS
 10
5.577100435
 20
5.1204774845
 30
0.0
 11
0.2873264341
 21
0.4826711449
 31
0.0
 40
0.1560789432
 41
1.3380452399
 42
1.356477401
  0
ELLIPSE
  5
359
100
AcDbEntity
  8
ALL_ASSEMBLY_MEMBERS
100
AcDbEllipse
 62
7
  6
CONTINUOUS
 10
5.5687656992
 20
5.1204774845
 30
0.0
 11
0.0934735408
 21
0.4847090996
 31
0.0
 40
0.0673658948
 41
1.2768224913
 42
1.2952689988
  0
ELLIPSE
  5
35A
100
AcDbEntity
  8
ALL_ASSEMBLY_MEMBERS
100
AcDbEllipse
 62
7
  6
CONTINUOUS
 10
5.6115031834
 20
5.1204774845
 30
0.0
 11
-0.0934735326
 21
0.4847090996
 31
0.0
 40
0.0673658893
 41
-1.2952689966
 42
-1.2768224891
  0
ELLIPSE
  5
35B
100
AcDbEntity
  8
ALL_ASSEMBLY_MEMBERS
100
AcDbEllipse
 62
7
  6
CONTINUOUS
 10
5.6031684484
 20
5.1204774845
 30
0.0
 11
-0.287326408
 21
0.4826711454
 31
0.0
 40
0.1560789367
 41
-1.3564773887
 42
-1.3380452276
  0
ELLIPSE
  5
35C
100
AcDbEntity
  8
ALL_ASSEMBLY_MEMBERS
100
AcDbEllipse
 62
7
  6
CONTINUOUS
 10
5.627745176
 20
5.1204774845
 30
0.0
 11
-0.1217484006
 21
0.4846385345
 31
0.0
 40
0.0853799597
 41
-4.3083771516
 42
-4.2941425209
  0
ELLIPSE
  5
35D
100
AcDbEntity
  8
ALL_ASSEMBLY_MEMBERS
100
AcDbEllipse
 62
7
  6
CONTINUOUS
 10
5.6048470807
 20
5.1204774845
 30
0.0
 11
-0.4203531079
 21
0.479141308
 31
0.0
 40
0.1749164141
 41
-4.4477321281
 42
-4.4391989803
  0
ELLIPSE
  5
35E
100
AcDbEntity
  8
ALL_ASSEMBLY_MEMBERS
100
AcDbEllipse
 62
7
  6
CONTINUOUS
 10
5.5685175632
 20
5.1204774845
 30
0.0
 11
0.962207503
 21
-0.4656769952
 31
0.0
 40
0.1399265741
 41
-1.4466913509
 42
-1.4353214165
  0
ELLIPSE
  5
35F
100
AcDbEntity
  8
ALL_ASSEMBLY_MEMBERS
100
AcDbEllipse
 62
7
  6
CONTINUOUS
 10
5.4051712604
 20
5.1204774845
 30
0.0
 11
3.8575839213
 21
-0.4563415814
 31
0.0
 40
0.0423861617
 41
-1.5121351722
 42
-1.5092938799
  0
ELLIPSE
  5
360
100
AcDbEntity
  8
ALL_ASSEMBLY_MEMBERS
100
AcDbEllipse
 62
7
  6
CONTINUOUS
 10
5.727754027
 20
5.1204774845
 30
0.0
 11
0.7463252756
 21
-0.4698307894
 31
0.0
 40
0.1599009769
 41
-1.6130857077
 42
-1.5959095904
  0
ELLIPSE
  5
361
100
AcDbEntity
  8
ALL_ASSEMBLY_MEMBERS
100
AcDbEllipse
 62
7
  6
CONTINUOUS
 10
5.6073663086
 20
5.1204774845
 30
0.0
 11
0.5597140252
 21
-0.4748533936
 31
0.0
 40
0.1741096516
 41
-1.4868806225
 42
-1.4159149133
  0
ELLIPSE
  5
362
100
AcDbEntity
  8
ALL_ASSEMBLY_MEMBERS
100
AcDbEllipse
 62
7
  6
CONTINUOUS
 10
5.6040858056
 20
5.1204774845
 30
0.0
 11
0.9622042765
 21
-0.4656770454
 31
0.0
 40
0.139926863
 41
-1.4949495759
 42
-1.489275252
  0
ELLIPSE
  5
363
100
AcDbEntity
  8
ALL_ASSEMBLY_MEMBERS
100
AcDbEllipse
 62
7
  6
CONTINUOUS
 10
5.5817376922
 20
5.1204774845
 30
0.0
 11
2.5716108227
 21
-0.4573304865
 31
0.0
 40
0.0624983615
 41
-1.5457781432
 42
-1.5429408411
  0
ELLIPSE
  5
364
100
AcDbEntity
  8
ALL_ASSEMBLY_MEMBERS
100
AcDbEllipse
 62
7
  6
CONTINUOUS
 10
5.6714914863
 20
5.1204774845
 30
0.0
 11
2.5716108227
 21
0.4573304865
 31
0.0
 40
0.0624983615
 41
-1.5986518125
 42
-1.5958145104
  0
ELLIPSE
  5
365
100
AcDbEntity
  8
ALL_ASSEMBLY_MEMBERS
100
AcDbEllipse
 62
7
  6
CONTINUOUS
 10
5.6446738039
 20
5.1204774845
 30
0.0
 11
0.6379530235
 21
0.4725921354
 31
0.0
 40
0.1691116546
 41
-1.7093280947
 42
-1.6979797282
  0
ELLIPSE
  5
366
100
AcDbEntity
  8
ALL_ASSEMBLY_MEMBERS
100
AcDbEllipse
 62
7
  6
CONTINUOUS
 10
5.6582005733
 20
5.1204774845
 30
0.0
 11
0.10123742
 21
0.4846944896
 31
0.0
 40
0.0724615456
 41
-2.012460577
 42
-1.9953544323
  0
ELLIPSE
  5
367
100
AcDbEntity
  8
ALL_ASSEMBLY_MEMBERS
100
AcDbEllipse
 62
7
  6
CONTINUOUS
 10
5.6881575363
 20
5.1204774845
 30
0.0
 11
0.3768576551
 21
0.4804196369
 31
0.0
 40
0.1715483869
 41
-1.9081086021
 42
-1.8938294856
  0
ELLIPSE
  5
368
100
AcDbEntity
  8
ALL_ASSEMBLY_MEMBERS
100
AcDbEllipse
 62
7
  6
CONTINUOUS
 10
5.6438522306
 20
5.1204774845
 30
0.0
 11
0.3118799231
 21
0.4821211713
 31
0.0
 40
0.1616508637
 41
-1.8182260229
 42
-1.8068779936
  0
ELLIPSE
  5
369
100
AcDbEntity
  8
ALL_ASSEMBLY_MEMBERS
100
AcDbEllipse
 62
7
  6
CONTINUOUS
 10
5.719458098
 20
5.1204774845
 30
0.0
 11
0.6379533341
 21
0.4725921268
 31
0.0
 40
0.1691116311
 41
-1.8260145634
 42
-1.8174352631
  0
ELLIPSE
  5
36A
100
AcDbEntity
  8
ALL_ASSEMBLY_MEMBERS
100
AcDbEllipse
 62
7
  6
CONTINUOUS
 10
5.803181249
 20
5.1204774845
 30
0.0
 11
1.2847916974
 21
0.4619431809
 31
0.0
 40
0.1143679302
 41
-1.7482093125
 42
-1.7424844324
  0
ELLIPSE
  5
36B
100
AcDbEntity
  8
ALL_ASSEMBLY_MEMBERS
100
AcDbEllipse
 62
7
  6
CONTINUOUS
 10
5.6457365241
 20
5.1204774845
 30
0.0
 11
0.10123742
 21
0.4846944896
 31
0.0
 40
0.0724615456
 41
-1.89593605
 42
-1.8789114217
  0
ELLIPSE
  5
36C
100
AcDbEntity
  8
ALL_ASSEMBLY_MEMBERS
100
AcDbEllipse
 62
7
  6
CONTINUOUS
 10
5.8905543187
 20
5.1204774845
 30
0.0
 11
1.9284678459
 21
0.4586391126
 31
0.0
 40
0.0813849018
 41
-1.7293289027
 42
-1.7264648042
  0
ELLIPSE
  5
36D
100
AcDbEntity
  8
ALL_ASSEMBLY_MEMBERS
100
AcDbEllipse
 62
7
  6
CONTINUOUS
 10
6.0689457331
 20
5.1204774845
 30
0.0
 11
3.2146291591
 21
0.4566950122
 31
0.0
 40
0.0505558762
 41
-1.7200233845
 42
-1.7171581365
  0
ELLIPSE
  5
36E
100
AcDbEntity
  8
ALL_ASSEMBLY_MEMBERS
100
AcDbEllipse
 62
7
  6
CONTINUOUS
 10
5.1423311483
 20
5.1204774845
 30
0.0
 11
3.2146300597
 21
-0.4566950116
 31
0.0
 40
0.0505558626
 41
-1.4244345211
 42
-1.421569273
  0
ELLIPSE
  5
36F
100
AcDbEntity
  8
ALL_ASSEMBLY_MEMBERS
100
AcDbEllipse
 62
7
  6
CONTINUOUS
 10
5.3207229375
 20
5.1204774845
 30
0.0
 11
1.9284660439
 21
-0.458639118
 31
0.0
 40
0.0813849697
 41
-1.4151278149
 42
-1.4122637165
  0
ELLIPSE
  5
370
100
AcDbEntity
  8
ALL_ASSEMBLY_MEMBERS
100
AcDbEllipse
 62
7
  6
CONTINUOUS
 10
5.6943742048
 20
5.1204774845
 30
0.0
 11
0.9622070503
 21
-0.4656770023
 31
0.0
 40
0.1399266146
 41
-1.5716017881
 42
-1.5659156053
  0
ELLIPSE
  5
371
100
AcDbEntity
  8
ALL_ASSEMBLY_MEMBERS
100
AcDbEllipse
 62
7
  6
CONTINUOUS
 10
5.4080957318
 20
5.1204774845
 30
0.0
 11
1.2847919231
 21
-0.461943179
 31
0.0
 40
0.1143679148
 41
-1.3991082341
 42
-1.393383354
  0
ELLIPSE
  5
372
100
AcDbEntity
  8
ALL_ASSEMBLY_MEMBERS
100
AcDbEllipse
 62
7
  6
CONTINUOUS
 10
5.4918189024
 20
5.1204774845
 30
0.0
 11
0.6379534101
 21
-0.4725921247
 31
0.0
 40
0.1691116253
 41
-1.3241574099
 42
-1.3155781096
  0
ELLIPSE
  5
373
100
AcDbEntity
  8
ALL_ASSEMBLY_MEMBERS
100
AcDbEllipse
 62
7
  6
CONTINUOUS
 10
5.6607832989
 20
5.1204774845
 30
0.0
 11
-0.4203531079
 21
0.479141308
 31
0.0
 40
0.1749164141
 41
-4.5783263692
 42
-4.5698008357
  0
ELLIPSE
  5
374
100
AcDbEntity
  8
ALL_ASSEMBLY_MEMBERS
100
AcDbEllipse
 62
7
  6
CONTINUOUS
 10
5.5231194691
 20
5.1204774845
 30
0.0
 11
-0.3768576893
 21
0.480419636
 31
0.0
 40
0.1715483905
 41
-4.3893558366
 42
-4.3750767201
  0
ELLIPSE
  5
375
100
AcDbEntity
  8
ALL_ASSEMBLY_MEMBERS
100
AcDbEllipse
 62
7
  6
CONTINUOUS
 10
5.6445260327
 20
5.1204774845
 30
0.0
 11
-0.1217484712
 21
0.4846385342
 31
0.0
 40
0.0853800028
 41
-4.4389790303
 42
-4.4247782581
  0
ELLIPSE
  5
376
100
AcDbEntity
  8
ALL_ASSEMBLY_MEMBERS
100
AcDbEllipse
 62
7
  6
CONTINUOUS
 10
5.5530764347
 20
5.1204774845
 30
0.0
 11
-0.101237429
 21
0.4846944896
 31
0.0
 40
0.0724615514
 41
-4.2878308774
 42
-4.2707247327
  0
ELLIPSE
  5
377
100
AcDbEntity
  8
ALL_ASSEMBLY_MEMBERS
100
AcDbEllipse
 62
7
  6
CONTINUOUS
 10
5.5614929433
 20
5.1204774845
 30
0.0
 11
1.9288162072
 21
0.0
 31
0.0
 40
0.2513199538
 41
7.8400775852
 42
7.8429147916
  0
ELLIPSE
  5
378
100
AcDbEntity
  8
ALL_ASSEMBLY_MEMBERS
100
AcDbEllipse
 62
7
  6
CONTINUOUS
 10
5.5436143479
 20
5.1204774845
 30
0.0
 11
3.2147129739
 21
0.0
 31
0.0
 40
0.1507910672
 41
7.837240283
 42
7.8400775852
  0
ELLIPSE
  5
379
100
AcDbEntity
  8
ALL_ASSEMBLY_MEMBERS
100
AcDbEllipse
 62
7
  6
CONTINUOUS
 10
5.6676626458
 20
5.1204774845
 30
0.0
 11
3.2147120734
 21
-0.0
 31
0.0
 40
0.1507911094
 41
1.5847003756
 42
1.5875376778
  0
ELLIPSE
  5
37A
100
AcDbEntity
  8
ALL_ASSEMBLY_MEMBERS
100
AcDbEllipse
 62
7
  6
CONTINUOUS
 10
5.5835318341
 20
5.1204774845
 30
0.0
 11
0.0
 21
0.48475
 31
0.0
 40
0.2652664142
 41
0.0763914046
 42
0.0906260353
  0
ELLIPSE
  5
37B
100
AcDbEntity
  8
ALL_ASSEMBLY_MEMBERS
100
AcDbEllipse
 62
7
  6
CONTINUOUS
 10
5.6064299294
 20
5.1204774845
 30
0.0
 11
0.0
 21
0.48475
 31
0.0
 40
0.8842220554
 41
0.0678582568
 42
0.0763914046
  0
ELLIPSE
  5
37C
100
AcDbEntity
  8
ALL_ASSEMBLY_MEMBERS
100
AcDbEllipse
 62
7
  6
CONTINUOUS
 10
5.642759424
 20
5.1204774845
 30
0.0
 11
0.9644109754
 21
-0.0
 31
0.0
 40
0.5026384108
 41
1.6272846492
 42
1.6386545836
  0
ELLIPSE
  5
37D
100
AcDbEntity
  8
ALL_ASSEMBLY_MEMBERS
100
AcDbEllipse
 62
7
  6
CONTINUOUS
 10
5.642759424
 20
5.1204774845
 30
0.0
 11
0.9595037988
 21
-0.0
 31
0.0
 40
0.5026384108
 41
1.6275738566
 42
1.6336193552
  0
ELLIPSE
  5
37E
100
AcDbEntity
  8
ALL_ASSEMBLY_MEMBERS
100
AcDbEllipse
 62
7
  6
CONTINUOUS
 10
5.8061057967
 20
5.1204774845
 30
0.0
 11
3.857633315
 21
-0.0
 31
0.0
 40
0.1256599475
 41
1.6244433569
 42
1.6272846492
  0
ELLIPSE
  5
37F
100
AcDbEntity
  8
ALL_ASSEMBLY_MEMBERS
100
AcDbEllipse
 62
7
  6
CONTINUOUS
 10
5.8061057967
 20
5.1204774845
 30
0.0
 11
3.8380046625
 21
-0.0
 31
0.0
 40
0.1256599475
 41
1.6247179887
 42
1.6275738566
  0
ELLIPSE
  5
380
100
AcDbEntity
  8
ALL_ASSEMBLY_MEMBERS
100
AcDbEllipse
 62
7
  6
CONTINUOUS
 10
5.6497840881
 20
5.1204774845
 30
0.0
 11
1.9288180083
 21
0.0
 31
0.0
 40
0.2513197191
 41
1.5818631691
 42
1.5847003756
  0
ELLIPSE
  5
381
100
AcDbEntity
  8
ALL_ASSEMBLY_MEMBERS
100
AcDbEllipse
 62
7
  6
CONTINUOUS
 10
5.6426689524
 20
5.1204774845
 30
0.0
 11
1.2858811504
 21
-0.0
 31
0.0
 40
0.3769788521
 41
1.5761890168
 42
1.5818631691
  0
ELLIPSE
  5
382
100
AcDbEntity
  8
ALL_ASSEMBLY_MEMBERS
100
AcDbEllipse
 62
7
  6
CONTINUOUS
 10
5.7032333908
 20
5.1204774845
 30
0.0
 11
0.57167825
 21
-0.4744956005
 31
0.0
 40
0.1734875667
 41
1.8341227539
 42
1.8564219592
  0
ELLIPSE
  5
383
100
AcDbEntity
  8
ALL_ASSEMBLY_MEMBERS
100
AcDbEllipse
 62
7
  6
CONTINUOUS
 10
5.7032333908
 20
5.1204774845
 30
0.0
 11
0.5687694008
 21
-0.4720812421
 31
0.0
 40
0.1734875667
 41
8.1199044316
 42
8.140341655
  0
ELLIPSE
  5
384
100
AcDbEntity
  8
ALL_ASSEMBLY_MEMBERS
100
AcDbEllipse
 62
7
  6
CONTINUOUS
 10
5.6392017867
 20
5.1204774845
 30
0.0
 11
0.642939962
 21
0.0
 31
0.0
 40
0.7539584232
 41
7.8508633559
 42
7.859374324
  0
ELLIPSE
  5
385
100
AcDbEntity
  8
ALL_ASSEMBLY_MEMBERS
100
AcDbEllipse
 62
7
  6
CONTINUOUS
 10
5.6606731984
 20
5.1204774845
 30
0.0
 11
0.5716781103
 21
-0.4744956046
 31
0.0
 40
0.1734875743
 41
1.7601615672
 42
1.7823048532
  0
ELLIPSE
  5
386
100
AcDbEntity
  8
ALL_ASSEMBLY_MEMBERS
100
AcDbEllipse
 62
7
  6
CONTINUOUS
 10
5.6606731984
 20
5.1204774845
 30
0.0
 11
0.5687692618
 21
-0.4720812463
 31
0.0
 40
0.1734875743
 41
8.0454832217
 42
8.0658410218
  0
ELLIPSE
  5
387
100
AcDbEntity
  8
ALL_ASSEMBLY_MEMBERS
100
AcDbEllipse
 62
7
  6
CONTINUOUS
 10
5.5895548828
 20
5.1204774845
 30
0.0
 11
-0.3622025764
 21
0.4808294012
 31
0.0
 40
0.1698707729
 41
-1.3947898515
 42
-1.3800412872
  0
ELLIPSE
  5
388
100
AcDbEntity
  8
ALL_ASSEMBLY_MEMBERS
100
AcDbEllipse
 62
7
  6
CONTINUOUS
 10
5.5895548828
 20
5.1204774845
 30
0.0
 11
-0.3603595945
 21
0.4783828148
 31
0.0
 40
0.1698707729
 41
-1.3950241974
 42
-1.3802000911
  0
ELLIPSE
  5
389
100
AcDbEntity
  8
ALL_ASSEMBLY_MEMBERS
100
AcDbEllipse
 62
7
  6
CONTINUOUS
 10
5.6008853036
 20
5.1204774845
 30
0.0
 11
-0.1171229363
 21
0.4846535963
 31
0.0
 40
0.082538636
 41
-1.3022224851
 42
-1.2874639355
  0
ELLIPSE
  5
38A
100
AcDbEntity
  8
ALL_ASSEMBLY_MEMBERS
100
AcDbEllipse
 62
7
  6
CONTINUOUS
 10
5.6008853036
 20
5.1204774845
 30
0.0
 11
-0.116526984
 21
0.4821875514
 31
0.0
 40
0.082538636
 41
4.9806527798
 42
4.9954870257
  0
ELLIPSE
  5
38B
100
AcDbEntity
  8
ALL_ASSEMBLY_MEMBERS
100
AcDbEllipse
 62
7
  6
CONTINUOUS
 10
5.5530764347
 20
5.1204774845
 30
0.0
 11
0.0
 21
0.48475
 31
0.0
 40
0.2210555332
 41
-0.10773218
 42
-0.0906260353
  0
ELLIPSE
  5
38C
100
AcDbEntity
  8
ALL_ASSEMBLY_MEMBERS
100
AcDbEllipse
 62
7
  6
CONTINUOUS
 10
5.5530764347
 20
5.1204774845
 30
0.0
 11
0.0
 21
0.4822834646
 31
0.0
 40
0.2210555332
 41
-0.1082853113
 42
-0.0910908057
  0
ELLIPSE
  5
38D
100
AcDbEntity
  8
ALL_ASSEMBLY_MEMBERS
100
AcDbEllipse
 62
7
  6
CONTINUOUS
 10
5.5231194691
 20
5.1204774845
 30
0.0
 11
0.0
 21
0.48475
 31
0.0
 40
0.7958002231
 41
-0.1220112966
 42
-0.10773218
  0
ELLIPSE
  5
38E
100
AcDbEntity
  8
ALL_ASSEMBLY_MEMBERS
100
AcDbEllipse
 62
7
  6
CONTINUOUS
 10
5.5231194691
 20
5.1204774845
 30
0.0
 11
0.0
 21
0.4822834646
 31
0.0
 40
0.7958002231
 41
-0.1226384364
 42
-0.1082853113
  0
ELLIPSE
  5
38F
100
AcDbEntity
  8
ALL_ASSEMBLY_MEMBERS
100
AcDbEllipse
 62
7
  6
CONTINUOUS
 10
5.4918189024
 20
5.1204774845
 30
0.0
 11
0.6429400371
 21
-0.0
 31
0.0
 40
0.7539583352
 41
1.4402057299
 42
1.4487850302
  0
ELLIPSE
  5
390
100
AcDbEntity
  8
ALL_ASSEMBLY_MEMBERS
100
AcDbEllipse
 62
7
  6
CONTINUOUS
 10
5.4918189024
 20
5.1204774845
 30
0.0
 11
0.6396685892
 21
-0.0
 31
0.0
 40
0.7539583352
 41
1.4395339999
 42
1.4481578904
  0
ELLIPSE
  5
391
100
AcDbEntity
  8
ALL_ASSEMBLY_MEMBERS
100
AcDbEllipse
 62
7
  6
CONTINUOUS
 10
5.5793835798
 20
5.1204774845
 30
0.0
 11
0.1171229363
 21
0.4846535963
 31
0.0
 40
0.082538636
 41
1.2874639355
 42
1.3022224851
  0
ELLIPSE
  5
392
100
AcDbEntity
  8
ALL_ASSEMBLY_MEMBERS
100
AcDbEllipse
 62
7
  6
CONTINUOUS
 10
5.5793835798
 20
5.1204774845
 30
0.0
 11
0.116526984
 21
0.4821875514
 31
0.0
 40
0.082538636
 41
1.2876982814
 42
1.3025325273
  0
ELLIPSE
  5
393
100
AcDbEntity
  8
ALL_ASSEMBLY_MEMBERS
100
AcDbEllipse
 62
7
  6
CONTINUOUS
 10
5.5602568891
 20
5.1204774845
 30
0.0
 11
-0.1211290532
 21
0.4821725657
 31
0.0
 40
0.0853800458
 41
-4.2918879649
 42
-4.2793511418
  0
ELLIPSE
  5
394
100
AcDbEntity
  8
ALL_ASSEMBLY_MEMBERS
100
AcDbEllipse
 62
7
  6
CONTINUOUS
 10
5.5888255942
 20
5.1204774845
 30
0.0
 11
0.3205164298
 21
0.4819141273
 31
0.0
 40
0.1633544133
 41
1.364678812
 42
1.3757409965
  0
ELLIPSE
  5
395
100
AcDbEntity
  8
ALL_ASSEMBLY_MEMBERS
100
AcDbEllipse
 62
7
  6
CONTINUOUS
 10
5.5888255942
 20
5.1204774845
 30
0.0
 11
0.318885558
 21
0.4794620215
 31
0.0
 40
0.1633544133
 41
1.3648564897
 42
1.3759753424
  0
ELLIPSE
  5
396
100
AcDbEntity
  8
ALL_ASSEMBLY_MEMBERS
100
AcDbEllipse
 62
7
  6
CONTINUOUS
 10
5.6117439929
 20
5.1204774845
 30
0.0
 11
0.9880542361
 21
0.465285186
 31
0.0
 40
0.1376303424
 41
1.533430284
 42
1.5408026323
  0
ELLIPSE
  5
397
100
AcDbEntity
  8
ALL_ASSEMBLY_MEMBERS
100
AcDbEllipse
 62
7
  6
CONTINUOUS
 10
5.6117439929
 20
5.1204774845
 30
0.0
 11
0.9830267564
 21
0.4629176926
 31
0.0
 40
0.1376303424
 41
1.5335702205
 42
1.5409803099
  0
ELLIPSE
  5
398
100
AcDbEntity
  8
ALL_ASSEMBLY_MEMBERS
100
AcDbEllipse
 62
7
  6
CONTINUOUS
 10
5.5602568891
 20
5.1204774845
 30
0.0
 11
-0.1217485418
 21
0.484638534
 31
0.0
 40
0.0853800458
 41
-4.2941425674
 42
-4.2798895141
  0
ELLIPSE
  5
399
100
AcDbEntity
  8
ALL_ASSEMBLY_MEMBERS
100
AcDbEllipse
 62
7
  6
CONTINUOUS
 10
5.4080957318
 20
5.1204774845
 30
0.0
 11
1.2858776966
 21
0.0
 31
0.0
 40
0.3769798646
 41
7.7176661569
 42
7.7233910371
  0
ELLIPSE
  5
39A
100
AcDbEntity
  8
ALL_ASSEMBLY_MEMBERS
100
AcDbEllipse
 62
7
  6
CONTINUOUS
 10
5.4080957318
 20
5.1204774845
 30
0.0
 11
1.2793348128
 21
-0.0
 31
0.0
 40
0.3769798646
 41
1.4337793091
 42
1.4395339999
  0
ELLIPSE
  5
39B
100
AcDbEntity
  8
ALL_ASSEMBLY_MEMBERS
100
AcDbEllipse
 62
7
  6
CONTINUOUS
 10
5.5288467714
 20
5.1204774845
 30
0.0
 11
-0.4182142408
 21
0.4767033111
 31
0.0
 40
0.1749164141
 41
-4.4101729241
 42
-4.4015666817
  0
ELLIPSE
  5
39C
100
AcDbEntity
  8
ALL_ASSEMBLY_MEMBERS
100
AcDbEllipse
 62
7
  6
CONTINUOUS
 10
5.5288467714
 20
5.1204774845
 30
0.0
 11
-0.4203531079
 21
0.479141308
 31
0.0
 40
0.1749164141
 41
-4.4107112963
 42
-4.4021493725
  0
ELLIPSE
  5
39D
100
AcDbEntity
  8
ALL_ASSEMBLY_MEMBERS
100
AcDbEllipse
 62
7
  6
CONTINUOUS
 10
5.3207229375
 20
5.1204774845
 30
0.0
 11
1.928827244
 21
0.0
 31
0.0
 40
0.2513185157
 41
1.4316167513
 42
1.4344808497
  0
ELLIPSE
  5
39E
100
AcDbEntity
  8
ALL_ASSEMBLY_MEMBERS
100
AcDbEllipse
 62
7
  6
CONTINUOUS
 10
5.4681972878
 20
5.1204774845
 30
0.0
 11
0.9573098206
 21
-0.463307535
 31
0.0
 40
0.1399267287
 41
-1.3891557708
 42
-1.3776674525
  0
ELLIPSE
  5
39F
100
AcDbEntity
  8
ALL_ASSEMBLY_MEMBERS
100
AcDbEllipse
 62
7
  6
CONTINUOUS
 10
5.4681972878
 20
5.1204774845
 30
0.0
 11
0.9622057766
 21
-0.4656770221
 31
0.0
 40
0.1399267287
 41
-1.3897384615
 42
-1.3783094395
  0
ELLIPSE
  5
3A0
100
AcDbEntity
  8
ALL_ASSEMBLY_MEMBERS
100
AcDbEllipse
 62
7
  6
CONTINUOUS
 10
5.3207229375
 20
5.1204774845
 30
0.0
 11
1.9190128639
 21
-0.0
 31
0.0
 40
0.2513185157
 41
1.4309002792
 42
1.4337793091
  0
ELLIPSE
  5
3A1
100
AcDbEntity
  8
ALL_ASSEMBLY_MEMBERS
100
AcDbEllipse
 62
7
  6
CONTINUOUS
 10
5.1078557314
 20
5.1204774845
 30
0.0
 11
3.8379783783
 21
-0.4540195858
 31
0.0
 40
0.0423859163
 41
-1.4402702398
 42
-1.4373956289
  0
ELLIPSE
  5
3A2
100
AcDbEntity
  8
ALL_ASSEMBLY_MEMBERS
100
AcDbEllipse
 62
7
  6
CONTINUOUS
 10
5.1078557314
 20
5.1204774845
 30
0.0
 11
3.8576068963
 21
-0.4563415717
 31
0.0
 40
0.0423859163
 41
-1.4409122269
 42
-1.4380524792
  0
ELLIPSE
  5
3A3
100
AcDbEntity
  8
ALL_ASSEMBLY_MEMBERS
100
AcDbEllipse
 62
7
  6
CONTINUOUS
 10
5.5545941467
 20
5.1204774845
 30
0.0
 11
-0.0934736487
 21
0.4847090994
 31
0.0
 40
0.0673659664
 41
-1.3359330152
 42
-1.3174326445
  0
ELLIPSE
  5
3A4
100
AcDbEntity
  8
ALL_ASSEMBLY_MEMBERS
100
AcDbEllipse
 62
7
  6
CONTINUOUS
 10
5.5545941467
 20
5.1204774845
 30
0.0
 11
-0.0929980302
 21
0.4822427721
 31
0.0
 40
0.0673659664
 41
-1.3364524313
 42
-1.3178566306
  0
ELLIPSE
  5
3A5
100
AcDbEntity
  8
ALL_ASSEMBLY_MEMBERS
100
AcDbEllipse
 62
7
  6
CONTINUOUS
 10
5.1423311483
 20
5.1204774845
 30
0.0
 11
3.2147129739
 21
0.0
 31
0.0
 40
0.1507910672
 41
1.4287515033
 42
1.4316167513
  0
ELLIPSE
  5
3A6
100
AcDbEntity
  8
ALL_ASSEMBLY_MEMBERS
100
AcDbEllipse
 62
7
  6
CONTINUOUS
 10
5.5345857631
 20
5.1204774845
 30
0.0
 11
-0.2873264341
 21
0.4826711449
 31
0.0
 40
0.1560789432
 41
-1.4341230973
 42
-1.4155878961
  0
ELLIPSE
  5
3A7
100
AcDbEntity
  8
ALL_ASSEMBLY_MEMBERS
100
AcDbEllipse
 62
7
  6
CONTINUOUS
 10
5.5345857631
 20
5.1204774845
 30
0.0
 11
-0.2858644416
 21
0.4802151872
 31
0.0
 40
0.1560789432
 41
-1.4347384861
 42
-1.4161073122
  0
ELLIPSE
  5
3A8
100
AcDbEntity
  8
ALL_ASSEMBLY_MEMBERS
100
AcDbEllipse
 62
7
  6
CONTINUOUS
 10
5.4912157297
 20
5.1204774845
 30
0.0
 11
0.6553159276
 21
-0.4721187462
 31
0.0
 40
0.1677639688
 41
1.5601896397
 42
1.5713302259
  0
ELLIPSE
  5
3A9
100
AcDbEntity
  8
ALL_ASSEMBLY_MEMBERS
100
AcDbEllipse
 62
7
  6
CONTINUOUS
 10
5.4912157297
 20
5.1204774845
 30
0.0
 11
0.6519815079
 21
-0.4697164819
 31
0.0
 40
0.1677639688
 41
1.5595163628
 42
1.5707148371
  0
ELLIPSE
  5
3AA
100
AcDbEntity
  8
ALL_ASSEMBLY_MEMBERS
100
AcDbEllipse
 62
7
  6
CONTINUOUS
 10
5.4158342019
 20
5.1204774845
 30
0.0
 11
1.2364591409
 21
-0.462368365
 31
0.0
 40
0.1177519922
 41
1.4764767822
 42
1.4839128544
  0
ELLIPSE
  5
3AB
100
AcDbEntity
  8
ALL_ASSEMBLY_MEMBERS
100
AcDbEllipse
 62
7
  6
CONTINUOUS
 10
5.4158342019
 20
5.1204774845
 30
0.0
 11
1.2301677117
 21
-0.4600157132
 31
0.0
 40
0.1177519922
 41
1.475764772
 42
1.4832395775
  0
ELLIPSE
  5
3AC
100
AcDbEntity
  8
ALL_ASSEMBLY_MEMBERS
100
AcDbEllipse
 62
7
  6
CONTINUOUS
 10
5.7644347042
 20
5.1204774845
 30
0.0
 11
1.2364593147
 21
0.4623683634
 31
0.0
 40
0.1177519797
 41
1.6576798102
 42
1.6651158823
  0
ELLIPSE
  5
3AD
100
AcDbEntity
  8
ALL_ASSEMBLY_MEMBERS
100
AcDbEllipse
 62
7
  6
CONTINUOUS
 10
5.7644347042
 20
5.1204774845
 30
0.0
 11
1.2301678846
 21
0.4600157117
 31
0.0
 40
0.1177519797
 41
1.6583530871
 42
1.6658278925
  0
ELLIPSE
  5
3AE
100
AcDbEntity
  8
ALL_ASSEMBLY_MEMBERS
100
AcDbEllipse
 62
7
  6
CONTINUOUS
 10
5.6890531461
 20
5.1204774845
 30
0.0
 11
0.6553158691
 21
0.4721187478
 31
0.0
 40
0.1677639734
 41
1.5702624133
 42
1.5814029995
  0
ELLIPSE
  5
3AF
100
AcDbEntity
  8
ALL_ASSEMBLY_MEMBERS
100
AcDbEllipse
 62
7
  6
CONTINUOUS
 10
5.6890531461
 20
5.1204774845
 30
0.0
 11
0.6519814497
 21
0.4697164835
 31
0.0
 40
0.1677639734
 41
1.5708778021
 42
1.5820762764
  0
ELLIPSE
  5
3B0
100
AcDbEntity
  8
ALL_ASSEMBLY_MEMBERS
100
AcDbEllipse
 62
7
  6
CONTINUOUS
 10
5.6456831166
 20
5.1204774845
 30
0.0
 11
0.287326408
 21
0.4826711454
 31
0.0
 40
0.1560789367
 41
1.4155878838
 42
1.434123085
  0
ELLIPSE
  5
3B1
100
AcDbEntity
  8
ALL_ASSEMBLY_MEMBERS
100
AcDbEllipse
 62
7
  6
CONTINUOUS
 10
5.6456831166
 20
5.1204774845
 30
0.0
 11
0.2858644157
 21
0.4802151878
 31
0.0
 40
0.1560789367
 41
1.4161072999
 42
1.4347384738
  0
ELLIPSE
  5
3B2
100
AcDbEntity
  8
ALL_ASSEMBLY_MEMBERS
100
AcDbEllipse
 62
7
  6
CONTINUOUS
 10
5.6256747347
 20
5.1204774845
 30
0.0
 11
0.0934736405
 21
0.4847090994
 31
0.0
 40
0.0673659609
 41
1.3174326423
 42
1.335933013
  0
ELLIPSE
  5
3B3
100
AcDbEntity
  8
ALL_ASSEMBLY_MEMBERS
100
AcDbEllipse
 62
7
  6
CONTINUOUS
 10
5.6256747347
 20
5.1204774845
 30
0.0
 11
0.092998022
 21
0.4822427721
 31
0.0
 40
0.0673659609
 41
1.3178566284
 42
1.3364524291
  0
ELLIPSE
  5
3B4
100
AcDbEntity
  8
ALL_ASSEMBLY_MEMBERS
100
AcDbEllipse
 62
7
  6
CONTINUOUS
 10
5.1423311483
 20
5.1204774845
 30
0.0
 11
3.1983556692
 21
0.0
 31
0.0
 40
0.1507910672
 41
1.4280200816
 42
1.4309002792
  0
ELLIPSE
  5
3B5
100
AcDbEntity
  8
ALL_ASSEMBLY_MEMBERS
100
AcDbEllipse
 62
7
  6
CONTINUOUS
 10
6.1034211628
 20
5.1204774845
 30
0.0
 11
3.8379774823
 21
0.4540195862
 31
0.0
 40
0.0423859259
 41
-1.704197027
 42
-1.7013224161
  0
ELLIPSE
  5
3B6
100
AcDbEntity
  8
ALL_ASSEMBLY_MEMBERS
100
AcDbEllipse
 62
7
  6
CONTINUOUS
 10
6.1034211628
 20
5.1204774845
 30
0.0
 11
3.8576059957
 21
0.4563415721
 31
0.0
 40
0.0423859259
 41
-1.7035401767
 42
-1.700680429
  0
ELLIPSE
  5
3B7
100
AcDbEntity
  8
ALL_ASSEMBLY_MEMBERS
100
AcDbEllipse
 62
7
  6
CONTINUOUS
 10
5.7430797606
 20
5.1204774845
 30
0.0
 11
0.9573101584
 21
0.4633075297
 31
0.0
 40
0.1399266983
 41
-1.7639251619
 42
-1.7524368436
  0
ELLIPSE
  5
3B8
100
AcDbEntity
  8
ALL_ASSEMBLY_MEMBERS
100
AcDbEllipse
 62
7
  6
CONTINUOUS
 10
5.7430797606
 20
5.1204774845
 30
0.0
 11
0.9622061161
 21
0.4656770168
 31
0.0
 40
0.1399266983
 41
-1.7632831748
 42
-1.7518541529
  0
ELLIPSE
  5
3B9
100
AcDbEntity
  8
ALL_ASSEMBLY_MEMBERS
100
AcDbEllipse
 62
7
  6
CONTINUOUS
 10
6.0689457331
 20
5.1204774845
 30
0.0
 11
3.2147120734
 21
0.0
 31
0.0
 40
0.1507911094
 41
1.7099759023
 42
1.7128411503
  0
ELLIPSE
  5
3BA
100
AcDbEntity
  8
ALL_ASSEMBLY_MEMBERS
100
AcDbEllipse
 62
7
  6
CONTINUOUS
 10
6.0689457331
 20
5.1204774845
 30
0.0
 11
3.1983547732
 21
-0.0
 31
0.0
 40
0.1507911094
 41
1.7106923744
 42
1.713572572
  0
ELLIPSE
  5
3BB
100
AcDbEntity
  8
ALL_ASSEMBLY_MEMBERS
100
AcDbEllipse
 62
7
  6
CONTINUOUS
 10
5.8905543187
 20
5.1204774845
 30
0.0
 11
1.9288290452
 21
0.0
 31
0.0
 40
0.251318281
 41
1.7071118038
 42
1.7099759023
  0
ELLIPSE
  5
3BC
100
AcDbEntity
  8
ALL_ASSEMBLY_MEMBERS
100
AcDbEllipse
 62
7
  6
CONTINUOUS
 10
5.6824302388
 20
5.1204774845
 30
0.0
 11
0.4182142408
 21
0.4767033111
 31
0.0
 40
0.1749164141
 41
-1.8816186254
 42
-1.8730123831
  0
ELLIPSE
  5
3BD
100
AcDbEntity
  8
ALL_ASSEMBLY_MEMBERS
100
AcDbEllipse
 62
7
  6
CONTINUOUS
 10
5.6824302388
 20
5.1204774845
 30
0.0
 11
0.4203531079
 21
0.479141308
 31
0.0
 40
0.1749164141
 41
-1.8810359347
 42
-1.8724740109
  0
ELLIPSE
  5
3BE
100
AcDbEntity
  8
ALL_ASSEMBLY_MEMBERS
100
AcDbEllipse
 62
7
  6
CONTINUOUS
 10
5.8905543187
 20
5.1204774845
 30
0.0
 11
1.9190146559
 21
0.0
 31
0.0
 40
0.251318281
 41
1.7078133445
 42
1.7106923744
  0
ELLIPSE
  5
3BF
100
AcDbEntity
  8
ALL_ASSEMBLY_MEMBERS
100
AcDbEllipse
 62
7
  6
CONTINUOUS
 10
5.6510201211
 20
5.1204774845
 30
0.0
 11
0.1211290532
 21
0.4821725657
 31
0.0
 40
0.0853800458
 41
-2.0038341653
 42
-1.9912973423
  0
ELLIPSE
  5
3C0
100
AcDbEntity
  8
ALL_ASSEMBLY_MEMBERS
100
AcDbEllipse
 62
7
  6
CONTINUOUS
 10
5.6510201211
 20
5.1204774845
 30
0.0
 11
0.1217485418
 21
0.484638534
 31
0.0
 40
0.0853800458
 41
-2.0032957931
 42
-1.9890427398
  0
ELLIPSE
  5
3C1
100
AcDbEntity
  8
ALL_ASSEMBLY_MEMBERS
100
AcDbEllipse
 62
7
  6
CONTINUOUS
 10
5.803181249
 20
5.1204774845
 30
0.0
 11
1.2858774715
 21
0.0
 31
0.0
 40
0.3769799306
 41
1.7013869237
 42
1.7071118038
  0
ELLIPSE
  5
3C2
100
AcDbEntity
  8
ALL_ASSEMBLY_MEMBERS
100
AcDbEllipse
 62
7
  6
CONTINUOUS
 10
5.803181249
 20
5.1204774845
 30
0.0
 11
1.2793345889
 21
0.0
 31
0.0
 40
0.3769799306
 41
1.7020586537
 42
1.7078133445
  0
ELLIPSE
  5
3C3
100
AcDbEntity
  8
ALL_ASSEMBLY_MEMBERS
100
AcDbEllipse
 62
7
  6
CONTINUOUS
 10
5.719458098
 20
5.1204774845
 30
0.0
 11
0.642939962
 21
-0.0
 31
0.0
 40
0.7539584232
 41
1.6928076234
 42
1.7013869237
  0
ELLIPSE
  5
3C4
100
AcDbEntity
  8
ALL_ASSEMBLY_MEMBERS
100
AcDbEllipse
 62
7
  6
CONTINUOUS
 10
5.719458098
 20
5.1204774845
 30
0.0
 11
0.6396685145
 21
0.0
 31
0.0
 40
0.7539584232
 41
1.6934347632
 42
1.7020586537
  0
ELLIPSE
  5
3C5
100
AcDbEntity
  8
ALL_ASSEMBLY_MEMBERS
100
AcDbEllipse
 62
7
  6
CONTINUOUS
 10
5.7423460467
 20
5.1204774845
 30
0.0
 11
0.7463249724
 21
-0.4698307965
 31
0.0
 40
0.1599010046
 41
-1.6130856485
 42
-1.5959095311
  0
ELLIPSE
  5
3C6
100
AcDbEntity
  8
ALL_ASSEMBLY_MEMBERS
100
AcDbEllipse
 62
7
  6
CONTINUOUS
 10
5.7423460467
 20
5.1204774845
 30
0.0
 11
0.7425274748
 21
-0.4674401739
 31
0.0
 40
0.1599010046
 41
-1.6138200371
 42
-1.5965544644
  0
ELLIPSE
  5
3C7
100
AcDbEntity
  8
ALL_ASSEMBLY_MEMBERS
100
AcDbEllipse
 62
7
  6
CONTINUOUS
 10
5.6881575363
 20
5.1204774845
 30
0.0
 11
0.0
 21
0.48475
 31
0.0
 40
0.7958001534
 41
0.10773218
 42
0.1220112966
  0
ELLIPSE
  5
3C8
100
AcDbEntity
  8
ALL_ASSEMBLY_MEMBERS
100
AcDbEllipse
 62
7
  6
CONTINUOUS
 10
5.6881575363
 20
5.1204774845
 30
0.0
 11
0.0
 21
0.4822834646
 31
0.0
 40
0.7958001534
 41
0.1082853113
 42
0.1226384364
  0
ELLIPSE
  5
3C9
100
AcDbEntity
  8
ALL_ASSEMBLY_MEMBERS
100
AcDbEllipse
 62
7
  6
CONTINUOUS
 10
5.4870698281
 20
5.1204774845
 30
0.0
 11
3.1982722808
 21
-0.4543712279
 31
0.0
 40
0.0505558762
 41
-1.5239656048
 42
-1.5211117194
  0
ELLIPSE
  5
3CA
100
AcDbEntity
  8
ALL_ASSEMBLY_MEMBERS
100
AcDbEllipse
 62
7
  6
CONTINUOUS
 10
5.4870698281
 20
5.1204774845
 30
0.0
 11
3.2146291591
 21
-0.4566950122
 31
0.0
 40
0.0505558762
 41
-1.5241674517
 42
-1.521328112
  0
ELLIPSE
  5
3CB
100
AcDbEntity
  8
ALL_ASSEMBLY_MEMBERS
100
AcDbEllipse
 62
7
  6
CONTINUOUS
 10
5.6582005733
 20
5.1204774845
 30
0.0
 11
0.0
 21
0.48475
 31
0.0
 40
0.2210555139
 41
0.0906260353
 42
0.10773218
  0
ELLIPSE
  5
3CC
100
AcDbEntity
  8
ALL_ASSEMBLY_MEMBERS
100
AcDbEllipse
 62
7
  6
CONTINUOUS
 10
5.6582005733
 20
5.1204774845
 30
0.0
 11
0.0
 21
0.4822834646
 31
0.0
 40
0.2210555139
 41
0.0910908057
 42
0.1082853113
  0
ELLIPSE
  5
3CD
100
AcDbEntity
  8
ALL_ASSEMBLY_MEMBERS
100
AcDbEllipse
 62
7
  6
CONTINUOUS
 10
5.5414289162
 20
5.1204774845
 30
0.0
 11
1.9186443081
 21
-0.4563054692
 31
0.0
 40
0.0813853176
 41
-1.5089407422
 42
-1.5060864941
  0
ELLIPSE
  5
3CE
100
AcDbEntity
  8
ALL_ASSEMBLY_MEMBERS
100
AcDbEllipse
 62
7
  6
CONTINUOUS
 10
5.5414289162
 20
5.1204774845
 30
0.0
 11
1.9284568033
 21
-0.4586391457
 31
0.0
 40
0.0813853176
 41
-1.5091571348
 42
-1.5063174377
  0
ELLIPSE
  5
3CF
100
AcDbEntity
  8
ALL_ASSEMBLY_MEMBERS
100
AcDbEllipse
 62
7
  6
CONTINUOUS
 10
5.570432032
 20
5.1204774845
 30
0.0
 11
1.2782580077
 21
-0.4595926617
 31
0.0
 40
0.114367678
 41
-1.484342408
 42
-1.4786327952
  0
ELLIPSE
  5
3D0
100
AcDbEntity
  8
ALL_ASSEMBLY_MEMBERS
100
AcDbEllipse
 62
7
  6
CONTINUOUS
 10
5.570432032
 20
5.1204774845
 30
0.0
 11
1.2847953844
 21
-0.4619431499
 31
0.0
 40
0.114367678
 41
-1.4845733516
 42
-1.478892858
  0
ELLIPSE
  5
3D1
100
AcDbEntity
  8
ALL_ASSEMBLY_MEMBERS
100
AcDbEllipse
 62
7
  6
CONTINUOUS
 10
5.6030833609
 20
5.1204774845
 30
0.0
 11
0.6347072598
 21
-0.4701874538
 31
0.0
 40
0.1691116311
 41
-1.3951024531
 42
-1.386534842
  0
ELLIPSE
  5
3D2
100
AcDbEntity
  8
ALL_ASSEMBLY_MEMBERS
100
AcDbEllipse
 62
7
  6
CONTINUOUS
 10
5.6030833609
 20
5.1204774845
 30
0.0
 11
0.6379533341
 21
-0.4725921268
 31
0.0
 40
0.1691116311
 41
-1.3953625159
 42
-1.3868386321
  0
ELLIPSE
  5
3D3
100
AcDbEntity
  8
ALL_ASSEMBLY_MEMBERS
100
AcDbEllipse
 62
7
  6
CONTINUOUS
 10
5.6183326936
 20
5.1204774845
 30
0.0
 11
-0.3749396591
 21
0.4779751482
 31
0.0
 40
0.1715483401
 41
-4.4374539601
 42
-4.4231645383
  0
ELLIPSE
  5
3D4
100
AcDbEntity
  8
ALL_ASSEMBLY_MEMBERS
100
AcDbEllipse
 62
7
  6
CONTINUOUS
 10
5.6183326936
 20
5.1204774845
 30
0.0
 11
-0.3768572076
 21
0.4804196496
 31
0.0
 40
0.1715483401
 41
-4.4377577502
 42
-4.4235413607
  0
ELLIPSE
  5
3D5
100
AcDbEntity
  8
ALL_ASSEMBLY_MEMBERS
100
AcDbEllipse
 62
7
  6
CONTINUOUS
 10
5.638804782
 20
5.1204774845
 30
0.0
 11
-0.1007222974
 21
0.4822282366
 31
0.0
 40
0.0724615456
 41
-4.3045336433
 42
-4.2873661045
  0
ELLIPSE
  5
3D6
100
AcDbEntity
  8
ALL_ASSEMBLY_MEMBERS
100
AcDbEllipse
 62
7
  6
CONTINUOUS
 10
5.638804782
 20
5.1204774845
 30
0.0
 11
-0.10123742
 21
0.4846944896
 31
0.0
 40
0.0724615456
 41
-4.3049104657
 42
-4.2878308749
  0
ELLIPSE
  5
3D7
100
AcDbEntity
  8
ALL_ASSEMBLY_MEMBERS
100
AcDbEllipse
 62
7
  6
CONTINUOUS
 10
5.572075223
 20
5.1204774845
 30
0.0
 11
0.6429400371
 21
-0.0
 31
0.0
 40
0.7539583352
 41
7.8485889439
 42
7.857099912
  0
ELLIPSE
  5
3D8
100
AcDbEntity
  8
ALL_ASSEMBLY_MEMBERS
100
AcDbEllipse
 62
7
  6
CONTINUOUS
 10
5.4051712604
 20
5.1204774845
 30
0.0
 11
3.8576324144
 21
0.0
 31
0.0
 40
0.1256599769
 41
1.5143080044
 42
1.5171492967
  0
ELLIPSE
  5
3D9
100
AcDbEntity
  8
ALL_ASSEMBLY_MEMBERS
100
AcDbEllipse
 62
7
  6
CONTINUOUS
 10
5.4051712604
 20
5.1204774845
 30
0.0
 11
3.8380037666
 21
0.0
 31
0.0
 40
0.1256599769
 41
7.7972041041
 42
7.8000599721
  0
ELLIPSE
  5
3DA
100
AcDbEntity
  8
ALL_ASSEMBLY_MEMBERS
100
AcDbEllipse
 62
7
  6
CONTINUOUS
 10
5.6519159572
 20
5.1204774845
 30
0.0
 11
-0.0866566919
 21
0.4847194462
 31
0.0
 40
0.0628055002
 41
-4.4316026612
 42
-4.4117214252
  0
ELLIPSE
  5
3DB
100
AcDbEntity
  8
ALL_ASSEMBLY_MEMBERS
100
AcDbEllipse
 62
7
  6
CONTINUOUS
 10
5.6519159572
 20
5.1204774845
 30
0.0
 11
-0.0862157599
 21
0.4822530662
 31
0.0
 40
0.0628055002
 41
-4.4318947599
 42
-4.4119116145
  0
ELLIPSE
  5
3DC
100
AcDbEntity
  8
ALL_ASSEMBLY_MEMBERS
100
AcDbEllipse
 62
7
  6
CONTINUOUS
 10
5.6650091757
 20
5.1204774845
 30
0.0
 11
-0.3118799231
 21
0.4821211713
 31
0.0
 40
0.1616508637
 41
-4.5359371337
 42
-4.5245667903
  0
ELLIPSE
  5
3DD
100
AcDbEntity
  8
ALL_ASSEMBLY_MEMBERS
100
AcDbEllipse
 62
7
  6
CONTINUOUS
 10
5.6650091757
 20
5.1204774845
 30
0.0
 11
-0.310292996
 21
0.4796680121
 31
0.0
 40
0.1616508637
 41
-4.5362876155
 42
-4.524858889
  0
ELLIPSE
  5
3DE
100
AcDbEntity
  8
ALL_ASSEMBLY_MEMBERS
100
AcDbEllipse
 62
7
  6
CONTINUOUS
 10
5.6869876796
 20
5.1204774845
 30
0.0
 11
0.6379532564
 21
-0.4725921289
 31
0.0
 40
0.169111637
 41
-1.525970049
 42
-1.5145908343
  0
ELLIPSE
  5
3DF
100
AcDbEntity
  8
ALL_ASSEMBLY_MEMBERS
100
AcDbEllipse
 62
7
  6
CONTINUOUS
 10
5.6869876796
 20
5.1204774845
 30
0.0
 11
0.6347071826
 21
-0.470187456
 31
0.0
 40
0.169111637
 41
-1.5263790513
 42
-1.5149413162
  0
ELLIPSE
  5
3E0
100
AcDbEntity
  8
ALL_ASSEMBLY_MEMBERS
100
AcDbEllipse
 62
7
  6
CONTINUOUS
 10
5.8407467622
 20
5.1204774845
 30
0.0
 11
2.5715997839
 21
-0.4573305014
 31
0.0
 40
0.0624986133
 41
-1.6423298464
 42
-1.639483481
  0
ELLIPSE
  5
3E1
100
AcDbEntity
  8
ALL_ASSEMBLY_MEMBERS
100
AcDbEllipse
 62
7
  6
CONTINUOUS
 10
5.8407467622
 20
5.1204774845
 30
0.0
 11
2.5585148082
 21
-0.4550034836
 31
0.0
 40
0.0624986133
 41
-1.6427535031
 42
-1.6398924833
  0
ELLIPSE
  5
3E2
100
AcDbEntity
  8
ALL_ASSEMBLY_MEMBERS
100
AcDbEllipse
 62
7
  6
CONTINUOUS
 10
5.5685175632
 20
5.1204774845
 30
0.0
 11
0.9644113131
 21
0.0
 31
0.0
 40
0.5026382348
 41
7.7861233771
 42
7.7974933116
  0
ELLIPSE
  5
3E3
100
AcDbEntity
  8
ALL_ASSEMBLY_MEMBERS
100
AcDbEllipse
 62
7
  6
CONTINUOUS
 10
5.5685175632
 20
5.1204774845
 30
0.0
 11
0.9595041348
 21
0.0
 31
0.0
 40
0.5026382348
 41
7.7911586055
 42
7.7972041041
  0
ELLIPSE
  5
3E4
100
AcDbEntity
  8
ALL_ASSEMBLY_MEMBERS
100
AcDbEllipse
 62
7
  6
CONTINUOUS
 10
5.6048470807
 20
5.1204774845
 30
0.0
 11
0.0
 21
0.48475
 31
0.0
 40
0.8842220554
 41
6.2067939025
 42
6.2153270503
  0
ELLIPSE
  5
3E5
100
AcDbEntity
  8
ALL_ASSEMBLY_MEMBERS
100
AcDbEllipse
 62
7
  6
CONTINUOUS
 10
5.627745176
 20
5.1204774845
 30
0.0
 11
-0.0
 21
0.48475
 31
0.0
 40
0.2652664142
 41
6.1925592719
 42
6.2067939025
  0
ELLIPSE
  5
3E6
100
AcDbEntity
  8
ALL_ASSEMBLY_MEMBERS
100
AcDbEllipse
 62
7
  6
CONTINUOUS
 10
5.5686080565
 20
5.1204774845
 30
0.0
 11
1.2858813755
 21
0.0
 31
0.0
 40
0.3769787861
 41
7.8429147916
 42
7.8485889439
  0
ELLIPSE
  5
3E7
100
AcDbEntity
  8
ALL_ASSEMBLY_MEMBERS
100
AcDbEllipse
 62
7
  6
CONTINUOUS
 10
5.5724722277
 20
5.1204774845
 30
0.0
 11
0.1007223063
 21
0.4822282366
 31
0.0
 40
0.0724615514
 41
-1.9958192001
 42
-1.9786516613
  0
ELLIPSE
  5
3E8
100
AcDbEntity
  8
ALL_ASSEMBLY_MEMBERS
100
AcDbEllipse
 62
7
  6
CONTINUOUS
 10
5.5724722277
 20
5.1204774845
 30
0.0
 11
0.101237429
 21
0.4846944896
 31
0.0
 40
0.0724615514
 41
-1.9953544298
 42
-1.9782748389
  0
ELLIPSE
  5
3E9
100
AcDbEntity
  8
ALL_ASSEMBLY_MEMBERS
100
AcDbEllipse
 62
7
  6
CONTINUOUS
 10
5.6356984562
 20
5.1204774845
 30
0.0
 11
0.1217484712
 21
0.4846385342
 31
0.0
 40
0.0853800028
 41
-1.8839500288
 42
-1.8697617145
  0
ELLIPSE
  5
3EA
100
AcDbEntity
  8
ALL_ASSEMBLY_MEMBERS
100
AcDbEllipse
 62
7
  6
CONTINUOUS
 10
5.6356984562
 20
5.1204774845
 30
0.0
 11
0.121128983
 21
0.482172566
 31
0.0
 40
0.0853800028
 41
-1.8838760368
 42
-1.8713258838
  0
ELLIPSE
  5
3EB
100
AcDbEntity
  8
ALL_ASSEMBLY_MEMBERS
100
AcDbEllipse
 62
7
  6
CONTINUOUS
 10
5.6313580384
 20
5.1204774845
 30
0.0
 11
0.4203531079
 21
0.479141308
 31
0.0
 40
0.1749164141
 41
-1.7616396296
 42
-1.7531282233
  0
ELLIPSE
  5
3EC
100
AcDbEntity
  8
ALL_ASSEMBLY_MEMBERS
100
AcDbEllipse
 62
7
  6
CONTINUOUS
 10
5.6313580384
 20
5.1204774845
 30
0.0
 11
0.4182142408
 21
0.4767033111
 31
0.0
 40
0.1749164141
 41
-1.7616091722
 42
-1.7530542313
  0
ELLIPSE
  5
3ED
100
AcDbEntity
  8
ALL_ASSEMBLY_MEMBERS
100
AcDbEllipse
 62
7
  6
CONTINUOUS
 10
5.6281673055
 20
5.1204774845
 30
0.0
 11
0.9622070503
 21
0.4656770023
 31
0.0
 40
0.1399266146
 41
-1.6381317277
 42
-1.6324577399
  0
ELLIPSE
  5
3EE
100
AcDbEntity
  8
ALL_ASSEMBLY_MEMBERS
100
AcDbEllipse
 62
7
  6
CONTINUOUS
 10
5.6281673055
 20
5.1204774845
 30
0.0
 11
0.9573110879
 21
0.4633075153
 31
0.0
 40
0.1399266146
 41
-1.638130289
 42
-1.6324272825
  0
ELLIPSE
  5
3EF
100
AcDbEntity
  8
ALL_ASSEMBLY_MEMBERS
100
AcDbEllipse
 62
7
  6
CONTINUOUS
 10
5.6251523042
 20
5.1204774845
 30
0.0
 11
1.2847953844
 21
-0.4619431499
 31
0.0
 40
0.114367678
 41
-1.5356543218
 42
-1.5299803341
  0
ELLIPSE
  5
3F0
100
AcDbEntity
  8
ALL_ASSEMBLY_MEMBERS
100
AcDbEllipse
 62
7
  6
CONTINUOUS
 10
5.6251523042
 20
5.1204774845
 30
0.0
 11
1.2782580077
 21
-0.4595926617
 31
0.0
 40
0.114367678
 41
-1.5356847793
 42
-1.5299817728
  0
ELLIPSE
  5
3F1
100
AcDbEntity
  8
ALL_ASSEMBLY_MEMBERS
100
AcDbEllipse
 62
7
  6
CONTINUOUS
 10
5.6209131877
 20
5.1204774845
 30
0.0
 11
0.5681047491
 21
-0.4746020763
 31
0.0
 40
0.1736797508
 41
-1.5122023158
 42
-1.4326628245
  0
ELLIPSE
  5
3F2
100
AcDbEntity
  8
ALL_ASSEMBLY_MEMBERS
100
AcDbEllipse
 62
7
  6
CONTINUOUS
 10
5.6209131877
 20
5.1204774845
 30
0.0
 11
0.5652140828
 21
-0.4721871761
 31
0.0
 40
0.1736797508
 41
-1.5126406373
 42
-1.4326932819
  0
ELLIPSE
  5
3F3
100
AcDbEntity
  8
ALL_ASSEMBLY_MEMBERS
100
AcDbEllipse
 62
7
  6
CONTINUOUS
 10
5.7242072163
 20
5.1204774845
 30
0.0
 11
3.2146300597
 21
0.4566950116
 31
0.0
 40
0.0505558626
 41
-1.6202645376
 42
-1.6174251979
  0
ELLIPSE
  5
3F4
100
AcDbEntity
  8
ALL_ASSEMBLY_MEMBERS
100
AcDbEllipse
 62
7
  6
CONTINUOUS
 10
5.7242072163
 20
5.1204774845
 30
0.0
 11
3.1982731769
 21
0.4543712273
 31
0.0
 40
0.0505558626
 41
-1.6204809302
 42
-1.6176270448
  0
ELLIPSE
  5
3F5
100
AcDbEntity
  8
ALL_ASSEMBLY_MEMBERS
100
AcDbEllipse
 62
7
  6
CONTINUOUS
 10
5.6698480139
 20
5.1204774845
 30
0.0
 11
1.9284550012
 21
0.4586391511
 31
0.0
 40
0.0813853855
 41
-1.6352752504
 42
-1.6324355533
  0
ELLIPSE
  5
3F6
100
AcDbEntity
  8
ALL_ASSEMBLY_MEMBERS
100
AcDbEllipse
 62
7
  6
CONTINUOUS
 10
5.6698480139
 20
5.1204774845
 30
0.0
 11
1.9186425152
 21
0.4563054746
 31
0.0
 40
0.0813853855
 41
-1.635506194
 42
-1.6326519458
  0
ELLIPSE
  5
3F7
100
AcDbEntity
  8
ALL_ASSEMBLY_MEMBERS
100
AcDbEllipse
 62
7
  6
CONTINUOUS
 10
5.6408449895
 20
5.1204774845
 30
0.0
 11
1.28479561
 21
0.461943148
 31
0.0
 40
0.1143676625
 41
-1.6626997827
 42
-1.6570192891
  0
ELLIPSE
  5
3F8
100
AcDbEntity
  8
ALL_ASSEMBLY_MEMBERS
100
AcDbEllipse
 62
7
  6
CONTINUOUS
 10
5.6408449895
 20
5.1204774845
 30
0.0
 11
1.2782582322
 21
0.4595926598
 31
0.0
 40
0.1143676625
 41
-1.6629598455
 42
-1.6572502327
  0
ELLIPSE
  5
3F9
100
AcDbEntity
  8
ALL_ASSEMBLY_MEMBERS
100
AcDbEllipse
 62
7
  6
CONTINUOUS
 10
5.608193653
 20
5.1204774845
 30
0.0
 11
0.6379534101
 21
0.4725921247
 31
0.0
 40
0.1691116253
 41
-1.754754002
 42
-1.7462301183
  0
ELLIPSE
  5
3FA
100
AcDbEntity
  8
ALL_ASSEMBLY_MEMBERS
100
AcDbEllipse
 62
7
  6
CONTINUOUS
 10
5.608193653
 20
5.1204774845
 30
0.0
 11
0.6347073354
 21
0.4701874517
 31
0.0
 40
0.1691116253
 41
-1.7550577922
 42
-1.7464901811
  0
ELLIPSE
  5
3FB
100
AcDbEntity
  8
ALL_ASSEMBLY_MEMBERS
100
AcDbEllipse
 62
7
  6
CONTINUOUS
 10
5.5929443179
 20
5.1204774845
 30
0.0
 11
0.3768572419
 21
0.4804196487
 31
0.0
 40
0.1715483437
 41
-1.8596439314
 42
-1.8454275419
  0
ELLIPSE
  5
3FC
100
AcDbEntity
  8
ALL_ASSEMBLY_MEMBERS
100
AcDbEllipse
 62
7
  6
CONTINUOUS
 10
5.5929443179
 20
5.1204774845
 30
0.0
 11
0.3749396931
 21
0.4779751472
 31
0.0
 40
0.1715483437
 41
-1.8600207538
 42
-1.8457313321
  0
ENDSEC
  0
SECTION
  2
OBJECTS
  0
DICTIONARY
  5
C
100
AcDbDictionary
280
0
281
1
  3
ACAD_GROUP
350
D
  3
ACAD_MLINESTYLE
350
17
  3
ACAD_LAYOUT
350
1A
  3
ACAD_PLOTSETTINGS
350
19
  3
ACAD_PLOTSTYLENAME
350
E
  0
DICTIONARY
  5
D
102
{ACAD_REACTORS
330
C
102
}
100
AcDbDictionary
280
0
281
1
  0
ACDBDICTIONARYWDFLT
  5
E
102
{ACAD_REACTORS
330
C
102
}
100
AcDbDictionary
281
1
  3
Normal
350
F
100
AcDbDictionaryWithDefault
340
F
  0
DICTIONARY
  5
17
102
{ACAD_REACTORS
330
C
102
}
100
AcDbDictionary
280
0
281
1
  3
Standard
350
18
  0
DICTIONARY
  5
19
102
{ACAD_REACTORS
330
C
102
}
100
AcDbDictionary
281
1
  0
DICTIONARY
  5
1A
102
{ACAD_REACTORS
330
C
102
}
100
AcDbDictionary
281
1
  3
Model
350
3FD
  3
Layout1
350
3FE
  0
ACDBPLACEHOLDER
  5
F
102
{ACAD_REACTORS
330
E
102
}
  0
MLINESTYLE
  5
18
102
{ACAD_REACTORS
330
17
102
}
100
AcDbMlineStyle
  2
STANDARD
 70
0
  3

 62
256
 51
90.0
 52
90.0
 71
2
 49
0.5
 62
256
  6
BYLAYER
 49
-0.5
 62
256
  6
BYLAYER
  0
LAYOUT
  5
3FD
102
{ACAD_REACTORS
330
1A
102
}
100
AcDbPlotSettings
  1

  2
none_device
  4
ANSI_A_(11.00_x_8.50_Inches)
  6

 40
0.0
 41
0.0
 42
0.0
 43
0.0
 44
279.4
 45
215.9
 46
0.0
 47
0.0
 48
0.0
 49
0.0
140
0.0
141
0.0
142
1.0
143
1.0
 70
1024
 72
0
 73
0
 74
0
  7

 75
0
147
1.0
148
0.0
149
0.0
100
AcDbLayout
  1
Model
 70
0
 71
0
 10
0.0
 20
0.0
 11
11.0
 21
8.5
 12
0.0
 22
0.0
 32
0.0
 14
0.0
 24
0.0
 34
0.0
 15
0.0
 25
0.0
 35
0.0
146
0.0
 13
0.0
 23
0.0
 33
0.0
 16
1.0
 26
0.0
 36
0.0
 17
0.0
 27
1.0
 37
0.0
 76
0
330
21E
345
0
346
0
  0
LAYOUT
  5
3FE
102
{ACAD_REACTORS
330
1A
102
}
100
AcDbPlotSettings
  1

  2
none_device
  4
ANSI_A_(11.00_x_8.50_Inches)
  6

 40
0.0
 41
0.0
 42
0.0
 43
0.0
 44
279.4
 45
215.9
 46
0.0
 47
0.0
 48
0.0
 49
0.0
140
0.0
141
0.0
142
1.0
143
1.0
 70
0
 72
0
 73
0
 74
0
  7

 75
0
147
1.0
148
0.0
149
0.0
100
AcDbLayout
  1
Layout1
 70
0
 71
1
 10
0.0
 20
0.0
 11
11.0
 21
8.5
 12
0.0
 22
0.0
 32
0.0
 14
0.0
 24
0.0
 34
0.0
 15
0.0
 25
0.0
 35
0.0
146
0.0
 13
0.0
 23
0.0
 33
0.0
 16
1.0
 26
0.0
 36
0.0
 17
0.0
 27
1.0
 37
0.0
 76
0
330
21F
345
0
346
0
  0
ENDSEC
  0
EOF
