999
DXF file: 3-994ts_TOP.dxf
999
Pro/ENGINEER 2018400 by Parametric Technology Corporation
  0
SECTION
  2
HEADER
  9
$ACADVER
  1
AC1027
  9
$DWGCODEPAGE
  3
ANSI_1252
  9
$EXTMAX
 10
11.0
 20
8.5
 30
0.0
  9
$EXTMIN
 10
0.0
 20
0.0
 30
0.0
  9
$LIMMIN
 10
0.0
 20
0.0
  9
$LIMMAX
 10
11.0
 20
8.5
  9
$VIEWCTR
 10
5.5
 20
4.25
  9
$VIEWSIZE
 40
8.5
  9
$CLAYER
  8
0
  9
$LTSCALE
 40
0.605
  9
$CELTYPE
  6
BYLAYER
  9
$DIMSCALE
 40
1.0
  9
$DIMASZ
 40
0.1
  9
$DIMEXO
 40
0.0625
  9
$DIMDLI
 40
0.418
  9
$DIMEXE
 40
0.125
  9
$DIMCEN
 40
0.099
  9
$DIMLFAC
 40
1.0
  9
$DIMBLK
  1
_FILLED
  9
$DIMALT
 70
1
  9
$DIMALTD
 70
2
  9
$DIMALTTD
 70
2
  9
$DIMALTF
 40
25.4
  9
$DIMTXT
 40
0.08
  9
$DIMTOL
 70
1
  9
$DIMLIM
 70
0
  9
$DIMTFAC
 40
1.0
  9
$DIMTP
 40
0.001
  9
$DIMTM
 40
0.001
  9
$DIMGAP
 40
0.09
  9
$DIMDSEP
 70
46
  9
$AUNITS
 70
0
  9
$PDMODE
 70
3
  9
$PDSIZE
 40
0.3125
  9
$HANDSEED
  5
404
  9
$TILEMODE
 70
1
  9
$MEASUREMENT
 70
0
  9
$INSUNITS
 70
1
  0
ENDSEC
  0
SECTION
  2
CLASSES
  0
CLASS
  1
ACDBDICTIONARYWDFLT
  2
AcDbDictionaryWithDefault
  3
AutoCAD 2000
 90
0
 91
1
280
0
281
0
  0
CLASS
  1
ACDBPLACEHOLDER
  2
AcDbPlaceHolder
  3
AutoCAD 2000
 90
0
 91
1
280
0
281
0
  0
CLASS
  1
LAYOUT
  2
AcDbLayout
  3
AutoCAD 2000
 90
0
 91
0
280
0
281
0
  0
ENDSEC
  0
SECTION
  2
TABLES
  0
TABLE
  2
VPORT
  5
8
100
AcDbSymbolTable
 70
2
  0
VPORT
  5
1F4
100
AcDbSymbolTableRecord
100
AcDbViewportTableRecord
  2
*ACTIVE
 70
0
 10
0.0
 20
0.0
 11
1.0
 21
1.0
 12
5.5
 22
4.25
 13
0.0
 23
0.0
 14
1.0
 24
1.0
 15
0.0
 25
0.0
 16
0.0
 26
0.0
 36
1.0
 17
0.0
 27
0.0
 37
0.0
 40
8.5
 41
1.2941176471
 42
50.0
 43
0.0
 44
0.0
 50
0.0
 51
0.0
 71
0
 72
100
 73
1
 74
1
 75
0
 76
0
 77
0
 78
0
  0
ENDTAB
  0
TABLE
  2
LTYPE
  5
5
100
AcDbSymbolTable
 70
6
  0
LTYPE
  5
14
100
AcDbSymbolTableRecord
100
AcDbLinetypeTableRecord
  2
BYBLOCK
 70
0
  3

 72
65
 73
0
 40
0.0
  0
LTYPE
  5
15
100
AcDbSymbolTableRecord
100
AcDbLinetypeTableRecord
  2
BYLAYER
 70
0
  3

 72
65
 73
0
 40
0.0
  0
LTYPE
  5
16
100
AcDbSymbolTableRecord
100
AcDbLinetypeTableRecord
  2
CONTINUOUS
 70
64
  3
Solid line
 72
65
 73
0
 40
0.0
  0
LTYPE
  5
1F5
100
AcDbSymbolTableRecord
100
AcDbLinetypeTableRecord
  2
CENTER
 70
64
  3
____ _ ____ _ ____ _ ____ _ ____ _ ____ _ ____
 72
65
 73
4
 40
0.6
 49
0.375
 74
0
 49
-0.075
 74
0
 49
0.075
 74
0
 49
-0.075
 74
0
  0
LTYPE
  5
1F6
100
AcDbSymbolTableRecord
100
AcDbLinetypeTableRecord
  2
HIDDEN
 70
64
  3
- - - - - - - - - - - - - - - - - - - -
 72
65
 73
2
 40
0.2
 49
0.1
 74
0
 49
-0.1
 74
0
  0
LTYPE
  5
1F7
100
AcDbSymbolTableRecord
100
AcDbLinetypeTableRecord
  2
PHANTOM
 70
64
  3
_____ _ _ _____ _ _ _____ _ _ _____
 72
65
 73
6
 40
0.8
 49
0.45
 74
0
 49
-0.05
 74
0
 49
0.1
 74
0
 49
-0.05
 74
0
 49
0.1
 74
0
 49
-0.05
 74
0
  0
LTYPE
  5
1F8
100
AcDbSymbolTableRecord
100
AcDbLinetypeTableRecord
  2
DOT
 70
64
  3
. . . . . . . . . . . . . . . . . . . .
 72
65
 73
2
 40
0.2
 49
0.1
 74
0
 49
-0.1
 74
0
  0
LTYPE
  5
1F9
100
AcDbSymbolTableRecord
100
AcDbLinetypeTableRecord
  2
DASHED
 70
64
  3
- - - - - - - - - - - - - - - - - - - -
 72
65
 73
2
 40
0.2
 49
0.1
 74
0
 49
-0.1
 74
0
  0
ENDTAB
  0
TABLE
  2
LAYER
  5
2
100
AcDbSymbolTable
 70
36
  0
LAYER
  5
10
100
AcDbSymbolTableRecord
100
AcDbLayerTableRecord
  2
0
 70
0
 62
7
  6
CONTINUOUS
370
-3
390
F
  0
LAYER
  5
1FA
100
AcDbSymbolTableRecord
100
AcDbLayerTableRecord
  2
DEFAULT_1
 70
0
 62
7
  6
CENTER
370
-3
390
F
  0
LAYER
  5
1FB
100
AcDbSymbolTableRecord
100
AcDbLayerTableRecord
  2
DEFAULT_2
 70
0
 62
8
  6
HIDDEN
370
-3
390
F
  0
LAYER
  5
1FC
100
AcDbSymbolTableRecord
100
AcDbLayerTableRecord
  2
DEFAULT_3
 70
0
 62
7
  6
PHANTOM
370
-3
390
F
  0
LAYER
  5
1FD
100
AcDbSymbolTableRecord
100
AcDbLayerTableRecord
  2
2-110_ASSY_DATUMS
 70
0
 62
7
  6
CONTINUOUS
370
-3
390
F
  0
LAYER
  5
1FE
100
AcDbSymbolTableRecord
100
AcDbLayerTableRecord
  2
2-266_ASSY_PLANES
 70
0
 62
7
  6
CONTINUOUS
370
-3
390
F
  0
LAYER
  5
1FF
100
AcDbSymbolTableRecord
100
AcDbLayerTableRecord
  2
AA
 70
0
 62
7
  6
CONTINUOUS
370
-3
390
F
  0
LAYER
  5
200
100
AcDbSymbolTableRecord
100
AcDbLayerTableRecord
  2
ALL_ASSEMBLY_MEMBERS
 70
0
 62
7
  6
CONTINUOUS
370
-3
390
F
  0
LAYER
  5
201
100
AcDbSymbolTableRecord
100
AcDbLayerTableRecord
  2
ALL_FEATURES
 70
0
 62
7
  6
CONTINUOUS
370
-3
390
F
  0
LAYER
  5
202
100
AcDbSymbolTableRecord
100
AcDbLayerTableRecord
  2
AXES_FEATURES
 70
0
 62
7
  6
CONTINUOUS
370
-3
390
F
  0
LAYER
  5
203
100
AcDbSymbolTableRecord
100
AcDbLayerTableRecord
  2
CHAMFER_FEATURES
 70
0
 62
7
  6
CONTINUOUS
370
-3
390
F
  0
LAYER
  5
204
100
AcDbSymbolTableRecord
100
AcDbLayerTableRecord
  2
CURVE
 70
0
 62
7
  6
CONTINUOUS
370
-3
390
F
  0
LAYER
  5
205
100
AcDbSymbolTableRecord
100
AcDbLayerTableRecord
  2
CUT_FEATURES
 70
0
 62
7
  6
CONTINUOUS
370
-3
390
F
  0
LAYER
  5
206
100
AcDbSymbolTableRecord
100
AcDbLayerTableRecord
  2
DATUM_CURVES
 70
0
 62
7
  6
CONTINUOUS
370
-3
390
F
  0
LAYER
  5
207
100
AcDbSymbolTableRecord
100
AcDbLayerTableRecord
  2
DATUM_PLANES
 70
0
 62
7
  6
CONTINUOUS
370
-3
390
F
  0
LAYER
  5
208
100
AcDbSymbolTableRecord
100
AcDbLayerTableRecord
  2
DEFAULT_COORDINATE_SYSTEM
 70
0
 62
7
  6
CONTINUOUS
370
-3
390
F
  0
LAYER
  5
209
100
AcDbSymbolTableRecord
100
AcDbLayerTableRecord
  2
DEFAULT_DATUM_AXES
 70
0
 62
7
  6
CONTINUOUS
370
-3
390
F
  0
LAYER
  5
20A
100
AcDbSymbolTableRecord
100
AcDbLayerTableRecord
  2
DEFAULT_DATUM_CURVES
 70
0
 62
7
  6
CONTINUOUS
370
-3
390
F
  0
LAYER
  5
20B
100
AcDbSymbolTableRecord
100
AcDbLayerTableRecord
  2
DEFAULT_DATUM_PLANES
 70
0
 62
7
  6
CONTINUOUS
370
-3
390
F
  0
LAYER
  5
20C
100
AcDbSymbolTableRecord
100
AcDbLayerTableRecord
  2
DEFAULT_SURFACES
 70
0
 62
7
  6
CONTINUOUS
370
-3
390
F
  0
LAYER
  5
20D
100
AcDbSymbolTableRecord
100
AcDbLayerTableRecord
  2
DIMENSIONS
 70
0
 62
7
  6
CONTINUOUS
370
-3
390
F
  0
LAYER
  5
20E
100
AcDbSymbolTableRecord
100
AcDbLayerTableRecord
  2
HOLE_FEATURES
 70
0
 62
7
  6
CONTINUOUS
370
-3
390
F
  0
LAYER
  5
20F
100
AcDbSymbolTableRecord
100
AcDbLayerTableRecord
  2
LAY0001
 70
0
 62
7
  6
CONTINUOUS
370
-3
390
F
  0
LAYER
  5
210
100
AcDbSymbolTableRecord
100
AcDbLayerTableRecord
  2
NOTES
 70
0
 62
7
  6
CONTINUOUS
370
-3
390
F
  0
LAYER
  5
211
100
AcDbSymbolTableRecord
100
AcDbLayerTableRecord
  2
PART_REFERENCE_DIMENSIONS
 70
0
 62
7
  6
CONTINUOUS
370
-3
390
F
  0
LAYER
  5
212
100
AcDbSymbolTableRecord
100
AcDbLayerTableRecord
  2
PLATED_SURFACE
 70
0
 62
7
  6
CONTINUOUS
370
-3
390
F
  0
LAYER
  5
213
100
AcDbSymbolTableRecord
100
AcDbLayerTableRecord
  2
PLATED_SURFACE_AREA
 70
0
 62
7
  6
CONTINUOUS
370
-3
390
F
  0
LAYER
  5
214
100
AcDbSymbolTableRecord
100
AcDbLayerTableRecord
  2
PROTRUSION
 70
0
 62
7
  6
CONTINUOUS
370
-3
390
F
  0
LAYER
  5
215
100
AcDbSymbolTableRecord
100
AcDbLayerTableRecord
  2
PROTRUSION_FEATURES
 70
0
 62
7
  6
CONTINUOUS
370
-3
390
F
  0
LAYER
  5
216
100
AcDbSymbolTableRecord
100
AcDbLayerTableRecord
  2
QUILT
 70
0
 62
7
  6
CONTINUOUS
370
-3
390
F
  0
LAYER
  5
217
100
AcDbSymbolTableRecord
100
AcDbLayerTableRecord
  2
QUILTS
 70
0
 62
7
  6
CONTINUOUS
370
-3
390
F
  0
LAYER
  5
218
100
AcDbSymbolTableRecord
100
AcDbLayerTableRecord
  2
REFERENCE_DIMENSIONS
 70
0
 62
7
  6
CONTINUOUS
370
-3
390
F
  0
LAYER
  5
219
100
AcDbSymbolTableRecord
100
AcDbLayerTableRecord
  2
ROUND_FEATURES
 70
0
 62
7
  6
CONTINUOUS
370
-3
390
F
  0
LAYER
  5
21A
100
AcDbSymbolTableRecord
100
AcDbLayerTableRecord
  2
SHELL_FEATURES
 70
0
 62
7
  6
CONTINUOUS
370
-3
390
F
  0
LAYER
  5
21B
100
AcDbSymbolTableRecord
100
AcDbLayerTableRecord
  2
XSEC_DATUMS
 70
0
 62
7
  6
CONTINUOUS
370
-3
390
F
  0
ENDTAB
  0
TABLE
  2
STYLE
  5
3
100
AcDbSymbolTable
 70
1
  0
STYLE
  5
11
100
AcDbSymbolTableRecord
100
AcDbTextStyleTableRecord
  2
STANDARD
 70
0
 40
0.0
 41
0.8
 50
0.0
 71
0
 42
0.2
  3
txt
  4

  0
STYLE
  5
21C
100
AcDbSymbolTableRecord
100
AcDbTextStyleTableRecord
  2
TEXTSTYLE_1
 70
0
 40
0.0
 41
0.8
 50
0.0
 71
0
 42
0.2
  3
gdt
  4

  0
ENDTAB
  0
TABLE
  2
VIEW
  5
6
100
AcDbSymbolTable
 70
0
  0
ENDTAB
  0
TABLE
  2
UCS
  5
7
100
AcDbSymbolTable
 70
0
  0
ENDTAB
  0
TABLE
  2
APPID
  5
9
100
AcDbSymbolTable
 70
1
  0
APPID
  5
21D
100
AcDbSymbolTableRecord
100
AcDbRegAppTableRecord
  2
ACAD
 70
0
  0
ENDTAB
  0
TABLE
  2
BLOCK_RECORD
  5
1
100
AcDbSymbolTable
 70
0
  0
BLOCK_RECORD
  5
21E
100
AcDbSymbolTableRecord
100
AcDbBlockTableRecord
  2
*Model_Space
  0
BLOCK_RECORD
  5
21F
100
AcDbSymbolTableRecord
100
AcDbBlockTableRecord
  2
*Paper_Space
  0
BLOCK_RECORD
  5
220
100
AcDbSymbolTableRecord
100
AcDbBlockTableRecord
  2
_FILLED
  0
ENDTAB
  0
TABLE
  2
DIMSTYLE
  5
A
100
AcDbSymbolTable
 70
1
100
AcDbDimStyleTable
 71
0
  0
DIMSTYLE
105
221
100
AcDbSymbolTableRecord
100
AcDbDimStyleTableRecord
  2
STANDARD
 70
0
  3

  4

 40
1.0
 41
0.1
 42
0.0625
 43
0.38
 44
0.125
 45
0.0
 46
0.0
 47
0.001
 48
0.001
140
0.08
141
0.09
142
0.0
143
25.4
144
1.0
145
0.0
146
1.0
147
0.09
 71
1.0
 72
0.0
 73
1
 74
1
 75
0
 76
0
 77
0
 78
4
 79
1
170
1
171
2
172
0
173
0
174
0
175
0
176
0
177
0
178
0
270
2
179
3
271
3
272
3
273
2
274
2
275
0
280
0
281
0
282
0
283
1
284
4
285
0
286
0
287
3
288
0
340
11
278
46
341
220
342
220
343
220
344
220
  0
ENDTAB
  0
ENDSEC
  0
SECTION
  2
BLOCKS
  0
BLOCK
  5
20
100
AcDbEntity
  8
0
100
AcDbBlockBegin
  2
*Model_Space
 70
0
 10
0.0
 20
0.0
 30
0.0
  3
*Model_Space
  1

  0
ENDBLK
  5
21
100
AcDbEntity
  8
0
100
AcDbBlockEnd
  0
BLOCK
  5
1C
100
AcDbEntity
  8
0
100
AcDbBlockBegin
  2
*Paper_Space
 70
0
 10
0.0
 20
0.0
 30
0.0
  3
*Paper_Space
  1

  0
ENDBLK
  5
1D
100
AcDbEntity
  8
0
100
AcDbBlockEnd
  0
BLOCK
  5
222
100
AcDbEntity
  8
0
100
AcDbBlockBegin
  2
_FILLED
 70
64
 10
0.0
 20
0.0
  3
_FILLED
  1

  0
SOLID
  5
223
100
AcDbEntity
  8
0
  6
BYBLOCK
 62
0
100
AcDbTrace
 10
0.0
 20
0.0
 11
-1.0
 21
0.2
 12
-1.0
 22
-0.2
 13
-1.0
 23
-0.2
  0
ENDBLK
  5
224
100
AcDbEntity
  8
0
  6
BYBLOCK
 62
0
100
AcDbBlockEnd
  0
ENDSEC
  0
SECTION
  2
ENTITIES
  0
MTEXT
  5
225
100
AcDbEntity
  8
0
100
AcDbMText
 62
2
  6
CONTINUOUS
  7
STANDARD
 71
3
 72
1
 10
5.1656444099
 20
3.8605522876
 30
0.0
 11
1.0
 21
0.0
 31
0.0
 73
2
 44
0.9
  1
SCALE  .500
 40
0.08
 41
0.704
  0
LINE
  5
226
100
AcDbEntity
  8
0
100
AcDbLine
 62
7
  6
CONTINUOUS
 10
0.0
 20
0.0
 11
0.0
 21
8.5
  0
LINE
  5
227
100
AcDbEntity
  8
0
100
AcDbLine
 62
7
  6
CONTINUOUS
 10
0.0
 20
0.0
 11
11.0
 21
0.0
  0
LINE
  5
228
100
AcDbEntity
  8
0
100
AcDbLine
 62
7
  6
CONTINUOUS
 10
0.0
 20
8.5
 11
11.0
 21
8.5
  0
LINE
  5
229
100
AcDbEntity
  8
0
100
AcDbLine
 62
7
  6
CONTINUOUS
 10
11.0
 20
0.0
 11
11.0
 21
8.5
  0
LINE
  5
22A
100
AcDbEntity
  8
ALL_ASSEMBLY_MEMBERS
100
AcDbLine
 62
7
  6
CONTINUOUS
 10
3.5406444099
 20
5.9885276813
 11
3.5406444099
 21
6.0825276813
  0
LINE
  5
22B
100
AcDbEntity
  8
ALL_ASSEMBLY_MEMBERS
100
AcDbLine
 62
7
  6
CONTINUOUS
 10
4.9781476872
 20
3.9555522876
 11
5.3531411327
 21
3.9555522876
  0
LINE
  5
22C
100
AcDbEntity
  8
ALL_ASSEMBLY_MEMBERS
100
AcDbLine
 62
7
  6
CONTINUOUS
 10
5.8531444099
 20
3.9943022876
 11
5.3492926055
 21
3.9943022876
  0
LINE
  5
22D
100
AcDbEntity
  8
ALL_ASSEMBLY_MEMBERS
100
AcDbLine
 62
7
  6
CONTINUOUS
 10
4.4781444099
 20
3.9943022876
 11
4.9819962144
 21
3.9943022876
  0
LINE
  5
22E
100
AcDbEntity
  8
ALL_ASSEMBLY_MEMBERS
100
AcDbLine
 62
7
  6
CONTINUOUS
 10
5.8531444099
 20
4.2168022876
 11
5.3492926061
 21
4.2168022876
  0
LINE
  5
22F
100
AcDbEntity
  8
ALL_ASSEMBLY_MEMBERS
100
AcDbLine
 62
7
  6
CONTINUOUS
 10
4.4781444099
 20
4.2168022876
 11
4.9819962138
 21
4.2168022876
  0
LINE
  5
230
100
AcDbEntity
  8
ALL_ASSEMBLY_MEMBERS
100
AcDbLine
 62
7
  6
CONTINUOUS
 10
4.9781476872
 20
4.2555522876
 11
5.3531411327
 21
4.2555522876
  0
LINE
  5
231
100
AcDbEntity
  8
ALL_ASSEMBLY_MEMBERS
100
AcDbLine
 62
7
  6
CONTINUOUS
 10
4.4781444099
 20
3.9943042321
 11
4.4781444099
 21
4.2168003431
  0
LINE
  5
232
100
AcDbEntity
  8
ALL_ASSEMBLY_MEMBERS
100
AcDbLine
 62
7
  6
CONTINUOUS
 10
4.8375194099
 20
4.5355522876
 11
5.4937694099
 21
4.5355522876
  0
LINE
  5
233
100
AcDbEntity
  8
ALL_ASSEMBLY_MEMBERS
100
AcDbLine
 62
7
  6
CONTINUOUS
 10
4.6731444099
 20
5.6554026813
 11
4.6731444099
 21
5.8465276813
  0
LINE
  5
234
100
AcDbEntity
  8
ALL_ASSEMBLY_MEMBERS
100
AcDbLine
 62
7
  6
CONTINUOUS
 10
4.6806444099
 20
4.9270522876
 11
4.6806444099
 21
5.4585522876
  0
LINE
  5
235
100
AcDbEntity
  8
ALL_ASSEMBLY_MEMBERS
100
AcDbLine
 62
7
  6
CONTINUOUS
 10
4.6808944099
 20
5.6061900829
 11
4.6808944099
 21
5.5176074057
  0
LINE
  5
236
100
AcDbEntity
  8
ALL_ASSEMBLY_MEMBERS
100
AcDbLine
 62
7
  6
CONTINUOUS
 10
4.681063309
 20
5.6061900829
 11
4.681063309
 21
5.5176074057
  0
LINE
  5
237
100
AcDbEntity
  8
ALL_ASSEMBLY_MEMBERS
100
AcDbLine
 62
7
  6
CONTINUOUS
 10
4.6833609454
 20
5.6554026813
 11
4.6833609454
 21
5.6061900829
  0
LINE
  5
238
100
AcDbEntity
  8
ALL_ASSEMBLY_MEMBERS
100
AcDbLine
 62
7
  6
CONTINUOUS
 10
4.6833609454
 20
5.5176074057
 11
4.6833609454
 21
5.4585522876
  0
LINE
  5
239
100
AcDbEntity
  8
ALL_ASSEMBLY_MEMBERS
100
AcDbLine
 62
7
  6
CONTINUOUS
 10
4.6835307085
 20
5.6061900829
 11
4.6835307085
 21
5.5176074057
  0
LINE
  5
23A
100
AcDbEntity
  8
ALL_ASSEMBLY_MEMBERS
100
AcDbLine
 62
7
  6
CONTINUOUS
 10
4.6956502108
 20
5.5449675156
 11
4.6956502108
 21
5.5394954941
  0
LINE
  5
23B
100
AcDbEntity
  8
ALL_ASSEMBLY_MEMBERS
100
AcDbLine
 62
7
  6
CONTINUOUS
 10
4.6959550171
 20
5.5814476612
 11
4.6959550171
 21
5.5759756398
  0
LINE
  5
23C
100
AcDbEntity
  8
ALL_ASSEMBLY_MEMBERS
100
AcDbLine
 62
7
  6
CONTINUOUS
 10
4.6972040977
 20
5.5449675156
 11
4.6972040977
 21
5.5394954941
  0
LINE
  5
23D
100
AcDbEntity
  8
ALL_ASSEMBLY_MEMBERS
100
AcDbLine
 62
7
  6
CONTINUOUS
 10
4.697523821
 20
5.5814476612
 11
4.697523821
 21
5.5777996469
  0
LINE
  5
23E
100
AcDbEntity
  8
ALL_ASSEMBLY_MEMBERS
100
AcDbLine
 62
7
  6
CONTINUOUS
 10
4.6995311251
 20
5.5449675156
 11
4.6995311251
 21
5.5394954941
  0
LINE
  5
23F
100
AcDbEntity
  8
ALL_ASSEMBLY_MEMBERS
100
AcDbLine
 62
7
  6
CONTINUOUS
 10
4.6998503239
 20
5.5814476612
 11
4.6998503239
 21
5.5777996469
  0
LINE
  5
240
100
AcDbEntity
  8
ALL_ASSEMBLY_MEMBERS
100
AcDbLine
 62
7
  6
CONTINUOUS
 10
4.7060866042
 20
5.5814476612
 11
4.7060866042
 21
5.5777996469
  0
LINE
  5
241
100
AcDbEntity
  8
ALL_ASSEMBLY_MEMBERS
100
AcDbLine
 62
7
  6
CONTINUOUS
 10
4.706480309
 20
5.5449675156
 11
4.706480309
 21
5.5394954941
  0
LINE
  5
242
100
AcDbEntity
  8
ALL_ASSEMBLY_MEMBERS
100
AcDbLine
 62
7
  6
CONTINUOUS
 10
4.7080845881
 20
5.5814476612
 11
4.7080845881
 21
5.5759756398
  0
LINE
  5
243
100
AcDbEntity
  8
ALL_ASSEMBLY_MEMBERS
100
AcDbLine
 62
7
  6
CONTINUOUS
 10
4.7084930198
 20
5.5449675156
 11
4.7084930198
 21
5.5394954941
  0
LINE
  5
244
100
AcDbEntity
  8
ALL_ASSEMBLY_MEMBERS
100
AcDbLine
 62
7
  6
CONTINUOUS
 10
4.7104025566
 20
5.5814476612
 11
4.7104025566
 21
5.5759756398
  0
LINE
  5
245
100
AcDbEntity
  8
ALL_ASSEMBLY_MEMBERS
100
AcDbLine
 62
7
  6
CONTINUOUS
 10
4.7108109215
 20
5.5449675156
 11
4.7108109215
 21
5.5394954941
  0
LINE
  5
246
100
AcDbEntity
  8
ALL_ASSEMBLY_MEMBERS
100
AcDbLine
 62
7
  6
CONTINUOUS
 10
4.7118664666
 20
5.6033357522
 11
4.7118664666
 21
5.5559115611
  0
LINE
  5
247
100
AcDbEntity
  8
ALL_ASSEMBLY_MEMBERS
100
AcDbLine
 62
7
  6
CONTINUOUS
 10
4.7140705653
 20
5.5942157164
 11
4.7140705653
 21
5.5650315968
  0
LINE
  5
248
100
AcDbEntity
  8
ALL_ASSEMBLY_MEMBERS
100
AcDbLine
 62
7
  6
CONTINUOUS
 10
4.7163889694
 20
5.5942157164
 11
4.7163889694
 21
5.5705036183
  0
LINE
  5
249
100
AcDbEntity
  8
ALL_ASSEMBLY_MEMBERS
100
AcDbLine
 62
7
  6
CONTINUOUS
 10
4.726721807
 20
5.5467915228
 11
4.726721807
 21
5.5431435084
  0
LINE
  5
24A
100
AcDbEntity
  8
ALL_ASSEMBLY_MEMBERS
100
AcDbLine
 62
7
  6
CONTINUOUS
 10
4.7283106203
 20
5.6033357522
 11
4.7283106203
 21
5.5942157164
  0
LINE
  5
24B
100
AcDbEntity
  8
ALL_ASSEMBLY_MEMBERS
100
AcDbLine
 62
7
  6
CONTINUOUS
 10
4.7293847537
 20
5.5486155299
 11
4.7293847537
 21
5.5413195013
  0
LINE
  5
24C
100
AcDbEntity
  8
ALL_ASSEMBLY_MEMBERS
100
AcDbLine
 62
7
  6
CONTINUOUS
 10
4.7306393915
 20
5.6033357522
 11
4.7306393915
 21
5.5942157164
  0
LINE
  5
24D
100
AcDbEntity
  8
ALL_ASSEMBLY_MEMBERS
100
AcDbLine
 62
7
  6
CONTINUOUS
 10
4.7317147189
 20
5.5486155299
 11
4.7317147189
 21
5.5413195013
  0
LINE
  5
24E
100
AcDbEntity
  8
ALL_ASSEMBLY_MEMBERS
100
AcDbLine
 62
7
  6
CONTINUOUS
 10
4.7618944099
 20
4.7710522876
 11
4.7618944099
 21
4.9270522876
  0
LINE
  5
24F
100
AcDbEntity
  8
ALL_ASSEMBLY_MEMBERS
100
AcDbLine
 62
7
  6
CONTINUOUS
 10
5.1407539913
 20
5.601511745
 11
5.1338778622
 21
5.5960397236
  0
LINE
  5
250
100
AcDbEntity
  8
ALL_ASSEMBLY_MEMBERS
100
AcDbLine
 62
7
  6
CONTINUOUS
 10
4.8375194099
 20
4.5355522876
 11
4.8375194099
 21
4.7555522876
  0
LINE
  5
251
100
AcDbEntity
  8
ALL_ASSEMBLY_MEMBERS
100
AcDbLine
 62
7
  6
CONTINUOUS
 10
4.8772188328
 20
5.6061900829
 11
4.8772188328
 21
5.5176074057
  0
LINE
  5
252
100
AcDbEntity
  8
ALL_ASSEMBLY_MEMBERS
100
AcDbLine
 62
7
  6
CONTINUOUS
 10
4.8981813851
 20
5.6061900829
 11
4.8981813851
 21
5.5176074057
  0
LINE
  5
253
100
AcDbEntity
  8
ALL_ASSEMBLY_MEMBERS
100
AcDbLine
 62
7
  6
CONTINUOUS
 10
4.8995966273
 20
5.6061900829
 11
4.8995966273
 21
5.5176074057
  0
LINE
  5
254
100
AcDbEntity
  8
ALL_ASSEMBLY_MEMBERS
100
AcDbLine
 62
7
  6
CONTINUOUS
 10
5.1049981255
 20
5.6033357522
 11
5.0967467721
 21
5.5905677021
  0
LINE
  5
255
100
AcDbEntity
  8
ALL_ASSEMBLY_MEMBERS
100
AcDbLine
 62
7
  6
CONTINUOUS
 10
5.1049981255
 20
5.588743695
 11
5.0967467721
 21
5.5759756398
  0
LINE
  5
256
100
AcDbEntity
  8
ALL_ASSEMBLY_MEMBERS
100
AcDbLine
 62
7
  6
CONTINUOUS
 10
5.1338778622
 20
5.5960397236
 11
5.1297521855
 21
5.5905677021
  0
LINE
  5
257
100
AcDbEntity
  8
ALL_ASSEMBLY_MEMBERS
100
AcDbLine
 62
7
  6
CONTINUOUS
 10
5.1943877841
 20
5.5960397236
 11
5.1902621074
 21
5.5905677021
  0
LINE
  5
258
100
AcDbEntity
  8
ALL_ASSEMBLY_MEMBERS
100
AcDbLine
 62
7
  6
CONTINUOUS
 10
5.1421292155
 20
5.5923917093
 11
5.1380035389
 21
5.588743695
  0
LINE
  5
259
100
AcDbEntity
  8
ALL_ASSEMBLY_MEMBERS
100
AcDbLine
 62
7
  6
CONTINUOUS
 10
5.2026391375
 20
5.5923917093
 11
5.1985134608
 21
5.588743695
  0
LINE
  5
25A
100
AcDbEntity
  8
ALL_ASSEMBLY_MEMBERS
100
AcDbLine
 62
7
  6
CONTINUOUS
 10
5.1600071465
 20
5.5321994642
 11
5.1558814698
 21
5.5285514499
  0
LINE
  5
25B
100
AcDbEntity
  8
ALL_ASSEMBLY_MEMBERS
100
AcDbLine
 62
7
  6
CONTINUOUS
 10
5.2205170723
 20
5.5321994642
 11
5.2163913957
 21
5.5285514499
  0
LINE
  5
25C
100
AcDbEntity
  8
ALL_ASSEMBLY_MEMBERS
100
AcDbLine
 62
7
  6
CONTINUOUS
 10
5.2012639172
 20
5.601511745
 11
5.1943877841
 21
5.5960397236
  0
LINE
  5
25D
100
AcDbEntity
  8
ALL_ASSEMBLY_MEMBERS
100
AcDbLine
 62
7
  6
CONTINUOUS
 10
5.1641328271
 20
5.524903435
 11
5.157256698
 21
5.519431413
  0
LINE
  5
25E
100
AcDbEntity
  8
ALL_ASSEMBLY_MEMBERS
100
AcDbLine
 62
7
  6
CONTINUOUS
 10
5.224642749
 20
5.524903435
 11
5.2177666238
 21
5.519431413
  0
LINE
  5
25F
100
AcDbEntity
  8
ALL_ASSEMBLY_MEMBERS
100
AcDbLine
 62
7
  6
CONTINUOUS
 10
4.8375194099
 20
4.7555522876
 11
5.4937694099
 21
4.7555522876
  0
LINE
  5
260
100
AcDbEntity
  8
ALL_ASSEMBLY_MEMBERS
100
AcDbLine
 62
7
  6
CONTINUOUS
 10
5.5693944099
 20
4.7710522876
 11
4.7618944099
 21
4.7710522876
  0
LINE
  5
261
100
AcDbEntity
  8
ALL_ASSEMBLY_MEMBERS
100
AcDbLine
 62
7
  6
CONTINUOUS
 10
4.9781444099
 20
3.9555522876
 11
4.9781444099
 21
3.9880522876
  0
LINE
  5
262
100
AcDbEntity
  8
ALL_ASSEMBLY_MEMBERS
100
AcDbLine
 62
7
  6
CONTINUOUS
 10
4.9781444099
 20
4.2230522876
 11
4.9781444099
 21
4.2555522876
  0
LINE
  5
263
100
AcDbEntity
  8
ALL_ASSEMBLY_MEMBERS
100
AcDbLine
 62
7
  6
CONTINUOUS
 10
5.0406444099
 20
4.2555522876
 11
5.0406444099
 21
4.5355522876
  0
LINE
  5
264
100
AcDbEntity
  8
ALL_ASSEMBLY_MEMBERS
100
AcDbLine
 62
7
  6
CONTINUOUS
 10
5.1270017351
 20
5.5832716735
 11
5.1256265089
 21
5.5777996469
  0
LINE
  5
265
100
AcDbEntity
  8
ALL_ASSEMBLY_MEMBERS
100
AcDbLine
 62
7
  6
CONTINUOUS
 10
5.1297521855
 20
5.5905677021
 11
5.1270017351
 21
5.5832716735
  0
LINE
  5
266
100
AcDbEntity
  8
ALL_ASSEMBLY_MEMBERS
100
AcDbLine
 62
7
  6
CONTINUOUS
 10
5.1902621074
 20
5.5905677021
 11
5.187511659
 21
5.5832716735
  0
LINE
  5
267
100
AcDbEntity
  8
ALL_ASSEMBLY_MEMBERS
100
AcDbLine
 62
7
  6
CONTINUOUS
 10
5.1710089523
 20
5.537671487
 11
5.1682585038
 21
5.5303754571
  0
LINE
  5
268
100
AcDbEntity
  8
ALL_ASSEMBLY_MEMBERS
100
AcDbLine
 62
7
  6
CONTINUOUS
 10
5.1380035389
 20
5.588743695
 11
5.132502638
 21
5.5777996469
  0
LINE
  5
269
100
AcDbEntity
  8
ALL_ASSEMBLY_MEMBERS
100
AcDbLine
 62
7
  6
CONTINUOUS
 10
5.1655080474
 20
5.5431435084
 11
5.1600071465
 21
5.5321994642
  0
LINE
  5
26A
100
AcDbEntity
  8
ALL_ASSEMBLY_MEMBERS
100
AcDbLine
 62
7
  6
CONTINUOUS
 10
5.1985134608
 20
5.588743695
 11
5.1930125638
 21
5.5777996469
  0
LINE
  5
26B
100
AcDbEntity
  8
ALL_ASSEMBLY_MEMBERS
100
AcDbLine
 62
7
  6
CONTINUOUS
 10
5.2260179772
 20
5.5431435084
 11
5.2205170723
 21
5.5321994642
  0
LINE
  5
26C
100
AcDbEntity
  8
ALL_ASSEMBLY_MEMBERS
100
AcDbLine
 62
7
  6
CONTINUOUS
 10
5.1682585038
 20
5.5303754571
 11
5.1641328271
 21
5.524903435
  0
LINE
  5
26D
100
AcDbEntity
  8
ALL_ASSEMBLY_MEMBERS
100
AcDbLine
 62
7
  6
CONTINUOUS
 10
5.2287684257
 20
5.5303754571
 11
5.224642749
 21
5.524903435
  0
LINE
  5
26E
100
AcDbEntity
  8
ALL_ASSEMBLY_MEMBERS
100
AcDbLine
 62
7
  6
CONTINUOUS
 10
5.6506404585
 20
4.9270522876
 11
4.6806483614
 21
4.9270522876
  0
LINE
  5
26F
100
AcDbEntity
  8
ALL_ASSEMBLY_MEMBERS
100
AcDbLine
 62
7
  6
CONTINUOUS
 10
4.6056444099
 20
5.9260276813
 11
4.6356444099
 21
5.8465276813
  0
LINE
  5
270
100
AcDbEntity
  8
ALL_ASSEMBLY_MEMBERS
100
AcDbLine
 62
7
  6
CONTINUOUS
 10
5.0866444099
 20
4.7710522876
 11
5.0866444099
 21
4.7555522876
  0
LINE
  5
271
100
AcDbEntity
  8
ALL_ASSEMBLY_MEMBERS
100
AcDbLine
 62
7
  6
CONTINUOUS
 10
5.0967467721
 20
5.5905677021
 11
5.0967467721
 21
5.5759756398
  0
LINE
  5
272
100
AcDbEntity
  8
ALL_ASSEMBLY_MEMBERS
100
AcDbLine
 62
7
  6
CONTINUOUS
 10
5.1049981255
 20
5.588743695
 11
5.1049981255
 21
5.5176074057
  0
LINE
  5
273
100
AcDbEntity
  8
ALL_ASSEMBLY_MEMBERS
100
AcDbLine
 62
7
  6
CONTINUOUS
 10
5.1132494788
 20
5.6033357522
 11
5.1132494788
 21
5.5176074057
  0
LINE
  5
274
100
AcDbEntity
  8
ALL_ASSEMBLY_MEMBERS
100
AcDbLine
 62
7
  6
CONTINUOUS
 10
5.1242512826
 20
5.5686796112
 11
5.1242512826
 21
5.5522635468
  0
LINE
  5
275
100
AcDbEntity
  8
ALL_ASSEMBLY_MEMBERS
100
AcDbLine
 62
7
  6
CONTINUOUS
 10
5.1311274098
 20
5.566855604
 11
5.1311274098
 21
5.5540875539
  0
LINE
  5
276
100
AcDbEntity
  8
ALL_ASSEMBLY_MEMBERS
100
AcDbLine
 62
7
  6
CONTINUOUS
 10
5.1361444099
 20
5.1884724914
 11
5.1361444099
 21
5.1940004978
  0
LINE
  5
277
100
AcDbEntity
  8
ALL_ASSEMBLY_MEMBERS
100
AcDbLine
 62
7
  6
CONTINUOUS
 10
5.1556449253
 20
5.7904026813
 11
5.1556449253
 21
5.7104026813
  0
LINE
  5
278
100
AcDbEntity
  8
ALL_ASSEMBLY_MEMBERS
100
AcDbLine
 62
7
  6
CONTINUOUS
 10
5.1668832756
 20
5.566855604
 11
5.1668832756
 21
5.5540875539
  0
LINE
  5
279
100
AcDbEntity
  8
ALL_ASSEMBLY_MEMBERS
100
AcDbLine
 62
7
  6
CONTINUOUS
 10
5.1737594008
 20
5.5686796112
 11
5.1737594008
 21
5.5522635468
  0
LINE
  5
27A
100
AcDbEntity
  8
ALL_ASSEMBLY_MEMBERS
100
AcDbLine
 62
7
  6
CONTINUOUS
 10
5.1756438946
 20
5.7904026813
 11
5.1756438946
 21
5.7104026813
  0
LINE
  5
27B
100
AcDbEntity
  8
ALL_ASSEMBLY_MEMBERS
100
AcDbLine
 62
7
  6
CONTINUOUS
 10
5.132502638
 20
5.5777996469
 11
5.1311274098
 21
5.566855604
  0
LINE
  5
27C
100
AcDbEntity
  8
ALL_ASSEMBLY_MEMBERS
100
AcDbLine
 62
7
  6
CONTINUOUS
 10
5.1668832756
 20
5.5540875539
 11
5.1655080474
 21
5.5431435084
  0
LINE
  5
27D
100
AcDbEntity
  8
ALL_ASSEMBLY_MEMBERS
100
AcDbLine
 62
7
  6
CONTINUOUS
 10
5.1930125638
 20
5.5777996469
 11
5.1916373356
 21
5.566855604
  0
LINE
  5
27E
100
AcDbEntity
  8
ALL_ASSEMBLY_MEMBERS
100
AcDbLine
 62
7
  6
CONTINUOUS
 10
5.2273931975
 20
5.5540875539
 11
5.2260179772
 21
5.5431435084
  0
LINE
  5
27F
100
AcDbEntity
  8
ALL_ASSEMBLY_MEMBERS
100
AcDbLine
 62
7
  6
CONTINUOUS
 10
5.1256265089
 20
5.5777996469
 11
5.1242512826
 21
5.5686796112
  0
LINE
  5
280
100
AcDbEntity
  8
ALL_ASSEMBLY_MEMBERS
100
AcDbLine
 62
7
  6
CONTINUOUS
 10
5.1737594008
 20
5.5522635468
 11
5.1723841804
 21
5.5431435084
  0
LINE
  5
281
100
AcDbEntity
  8
ALL_ASSEMBLY_MEMBERS
100
AcDbLine
 62
7
  6
CONTINUOUS
 10
5.1861364308
 20
5.5777996469
 11
5.1847612105
 21
5.5686796112
  0
LINE
  5
282
100
AcDbEntity
  8
ALL_ASSEMBLY_MEMBERS
100
AcDbLine
 62
7
  6
CONTINUOUS
 10
5.2342693227
 20
5.5522635468
 11
5.2328941024
 21
5.5431435084
  0
LINE
  5
283
100
AcDbEntity
  8
ALL_ASSEMBLY_MEMBERS
100
AcDbLine
 62
7
  6
CONTINUOUS
 10
5.1723841804
 20
5.5431435084
 11
5.1710089523
 21
5.537671487
  0
LINE
  5
284
100
AcDbEntity
  8
ALL_ASSEMBLY_MEMBERS
100
AcDbLine
 62
7
  6
CONTINUOUS
 10
5.187511659
 20
5.5832716735
 11
5.1861364308
 21
5.5777996469
  0
LINE
  5
285
100
AcDbEntity
  8
ALL_ASSEMBLY_MEMBERS
100
AcDbLine
 62
7
  6
CONTINUOUS
 10
5.2328941024
 20
5.5431435084
 11
5.231518882
 21
5.537671487
  0
LINE
  5
286
100
AcDbEntity
  8
ALL_ASSEMBLY_MEMBERS
100
AcDbLine
 62
7
  6
CONTINUOUS
 10
5.231518882
 20
5.537671487
 11
5.2287684257
 21
5.5303754571
  0
LINE
  5
287
100
AcDbEntity
  8
ALL_ASSEMBLY_MEMBERS
100
AcDbLine
 62
7
  6
CONTINUOUS
 10
5.1847612105
 20
5.5686796112
 11
5.1847612105
 21
5.5522635468
  0
LINE
  5
288
100
AcDbEntity
  8
ALL_ASSEMBLY_MEMBERS
100
AcDbLine
 62
7
  6
CONTINUOUS
 10
5.1916373356
 20
5.566855604
 11
5.1916373356
 21
5.5540875539
  0
LINE
  5
289
100
AcDbEntity
  8
ALL_ASSEMBLY_MEMBERS
100
AcDbLine
 62
7
  6
CONTINUOUS
 10
5.1951444099
 20
5.1884724914
 11
5.1951444099
 21
5.1940004978
  0
LINE
  5
28A
100
AcDbEntity
  8
ALL_ASSEMBLY_MEMBERS
100
AcDbLine
 62
7
  6
CONTINUOUS
 10
5.2273931975
 20
5.566855604
 11
5.2273931975
 21
5.5540875539
  0
LINE
  5
28B
100
AcDbEntity
  8
ALL_ASSEMBLY_MEMBERS
100
AcDbLine
 62
7
  6
CONTINUOUS
 10
5.2342693227
 20
5.5686796112
 11
5.2342693227
 21
5.5522635468
  0
LINE
  5
28C
100
AcDbEntity
  8
ALL_ASSEMBLY_MEMBERS
100
AcDbLine
 62
7
  6
CONTINUOUS
 10
5.2446444099
 20
4.7710522876
 11
5.2446444099
 21
4.7555522876
  0
LINE
  5
28D
100
AcDbEntity
  8
ALL_ASSEMBLY_MEMBERS
100
AcDbLine
 62
7
  6
CONTINUOUS
 10
5.2906444099
 20
4.2555522876
 11
5.2906444099
 21
4.5355522876
  0
LINE
  5
28E
100
AcDbEntity
  8
ALL_ASSEMBLY_MEMBERS
100
AcDbLine
 62
7
  6
CONTINUOUS
 10
5.1921606759
 20
5.1953022876
 11
5.1710510165
 21
5.1953022876
  0
LINE
  5
28F
100
AcDbEntity
  8
ALL_ASSEMBLY_MEMBERS
100
AcDbLine
 62
7
  6
CONTINUOUS
 10
5.1602378033
 20
5.1953022876
 11
5.139128144
 21
5.1953022876
  0
LINE
  5
290
100
AcDbEntity
  8
ALL_ASSEMBLY_MEMBERS
100
AcDbLine
 62
7
  6
CONTINUOUS
 10
5.1297521855
 20
5.5303754571
 11
5.1270017351
 21
5.537671487
  0
LINE
  5
291
100
AcDbEntity
  8
ALL_ASSEMBLY_MEMBERS
100
AcDbLine
 62
7
  6
CONTINUOUS
 10
5.1270017351
 20
5.537671487
 11
5.1256265089
 21
5.5431435084
  0
LINE
  5
292
100
AcDbEntity
  8
ALL_ASSEMBLY_MEMBERS
100
AcDbLine
 62
7
  6
CONTINUOUS
 10
5.1723841804
 20
5.5777996469
 11
5.1710089523
 21
5.5832716735
  0
LINE
  5
293
100
AcDbEntity
  8
ALL_ASSEMBLY_MEMBERS
100
AcDbLine
 62
7
  6
CONTINUOUS
 10
5.187511659
 20
5.537671487
 11
5.1861364308
 21
5.5431435084
  0
LINE
  5
294
100
AcDbEntity
  8
ALL_ASSEMBLY_MEMBERS
100
AcDbLine
 62
7
  6
CONTINUOUS
 10
5.1256265089
 20
5.5431435084
 11
5.1242512826
 21
5.5522635468
  0
LINE
  5
295
100
AcDbEntity
  8
ALL_ASSEMBLY_MEMBERS
100
AcDbLine
 62
7
  6
CONTINUOUS
 10
5.1737594008
 20
5.5686796112
 11
5.1723841804
 21
5.5777996469
  0
LINE
  5
296
100
AcDbEntity
  8
ALL_ASSEMBLY_MEMBERS
100
AcDbLine
 62
7
  6
CONTINUOUS
 10
5.1861364308
 20
5.5431435084
 11
5.1847612105
 21
5.5522635468
  0
LINE
  5
297
100
AcDbEntity
  8
ALL_ASSEMBLY_MEMBERS
100
AcDbLine
 62
7
  6
CONTINUOUS
 10
5.2342693227
 20
5.5686796112
 11
5.2328941024
 21
5.5777996469
  0
LINE
  5
298
100
AcDbEntity
  8
ALL_ASSEMBLY_MEMBERS
100
AcDbLine
 62
7
  6
CONTINUOUS
 10
5.132502638
 20
5.5431435084
 11
5.1311274098
 21
5.5540875539
  0
LINE
  5
299
100
AcDbEntity
  8
ALL_ASSEMBLY_MEMBERS
100
AcDbLine
 62
7
  6
CONTINUOUS
 10
5.1668832756
 20
5.566855604
 11
5.1655080474
 21
5.5777996469
  0
LINE
  5
29A
100
AcDbEntity
  8
ALL_ASSEMBLY_MEMBERS
100
AcDbLine
 62
7
  6
CONTINUOUS
 10
5.1930125638
 20
5.5431435084
 11
5.1916373356
 21
5.5540875539
  0
LINE
  5
29B
100
AcDbEntity
  8
ALL_ASSEMBLY_MEMBERS
100
AcDbLine
 62
7
  6
CONTINUOUS
 10
5.2273931975
 20
5.566855604
 11
5.2260179772
 21
5.5777996469
  0
LINE
  5
29C
100
AcDbEntity
  8
ALL_ASSEMBLY_MEMBERS
100
AcDbLine
 62
7
  6
CONTINUOUS
 10
5.3531444099
 20
3.9555522876
 11
5.3531444099
 21
3.9880522876
  0
LINE
  5
29D
100
AcDbEntity
  8
ALL_ASSEMBLY_MEMBERS
100
AcDbLine
 62
7
  6
CONTINUOUS
 10
5.3531444099
 20
4.2230522876
 11
5.3531444099
 21
4.2555522876
  0
LINE
  5
29E
100
AcDbEntity
  8
ALL_ASSEMBLY_MEMBERS
100
AcDbLine
 62
7
  6
CONTINUOUS
 10
5.4316921926
 20
5.6061900829
 11
5.4316921926
 21
5.5176074057
  0
LINE
  5
29F
100
AcDbEntity
  8
ALL_ASSEMBLY_MEMBERS
100
AcDbLine
 62
7
  6
CONTINUOUS
 10
5.4331074348
 20
5.6061900829
 11
5.4331074348
 21
5.5176074057
  0
LINE
  5
2A0
100
AcDbEntity
  8
ALL_ASSEMBLY_MEMBERS
100
AcDbLine
 62
7
  6
CONTINUOUS
 10
5.7256444099
 20
5.9260276813
 11
5.6956444099
 21
5.8465276813
  0
LINE
  5
2A1
100
AcDbEntity
  8
ALL_ASSEMBLY_MEMBERS
100
AcDbLine
 62
7
  6
CONTINUOUS
 10
5.1338778622
 20
5.524903435
 11
5.1297521855
 21
5.5303754571
  0
LINE
  5
2A2
100
AcDbEntity
  8
ALL_ASSEMBLY_MEMBERS
100
AcDbLine
 62
7
  6
CONTINUOUS
 10
5.1943877841
 20
5.524903435
 11
5.1902621074
 21
5.5303754571
  0
LINE
  5
2A3
100
AcDbEntity
  8
ALL_ASSEMBLY_MEMBERS
100
AcDbLine
 62
7
  6
CONTINUOUS
 10
5.1380035389
 20
5.5321994642
 11
5.132502638
 21
5.5431435084
  0
LINE
  5
2A4
100
AcDbEntity
  8
ALL_ASSEMBLY_MEMBERS
100
AcDbLine
 62
7
  6
CONTINUOUS
 10
5.1655080474
 20
5.5777996469
 11
5.1600071465
 21
5.588743695
  0
LINE
  5
2A5
100
AcDbEntity
  8
ALL_ASSEMBLY_MEMBERS
100
AcDbLine
 62
7
  6
CONTINUOUS
 10
5.1985134608
 20
5.5321994642
 11
5.1930125638
 21
5.5431435084
  0
LINE
  5
2A6
100
AcDbEntity
  8
ALL_ASSEMBLY_MEMBERS
100
AcDbLine
 62
7
  6
CONTINUOUS
 10
5.2260179772
 20
5.5777996469
 11
5.2205170723
 21
5.588743695
  0
LINE
  5
2A7
100
AcDbEntity
  8
ALL_ASSEMBLY_MEMBERS
100
AcDbLine
 62
7
  6
CONTINUOUS
 10
5.1902621074
 20
5.5303754571
 11
5.187511659
 21
5.537671487
  0
LINE
  5
2A8
100
AcDbEntity
  8
ALL_ASSEMBLY_MEMBERS
100
AcDbLine
 62
7
  6
CONTINUOUS
 10
5.1710089523
 20
5.5832716735
 11
5.1682585038
 21
5.5905677021
  0
LINE
  5
2A9
100
AcDbEntity
  8
ALL_ASSEMBLY_MEMBERS
100
AcDbLine
 62
7
  6
CONTINUOUS
 10
5.231518882
 20
5.5832716735
 11
5.2287684257
 21
5.5905677021
  0
LINE
  5
2AA
100
AcDbEntity
  8
ALL_ASSEMBLY_MEMBERS
100
AcDbLine
 62
7
  6
CONTINUOUS
 10
5.2328941024
 20
5.5777996469
 11
5.231518882
 21
5.5832716735
  0
LINE
  5
2AB
100
AcDbEntity
  8
ALL_ASSEMBLY_MEMBERS
100
AcDbLine
 62
7
  6
CONTINUOUS
 10
5.4540699871
 20
5.6061900829
 11
5.4540699871
 21
5.5176074057
  0
LINE
  5
2AC
100
AcDbEntity
  8
ALL_ASSEMBLY_MEMBERS
100
AcDbLine
 62
7
  6
CONTINUOUS
 10
5.4937694099
 20
4.5355522876
 11
5.4937694099
 21
4.6128022876
  0
LINE
  5
2AD
100
AcDbEntity
  8
ALL_ASSEMBLY_MEMBERS
100
AcDbLine
 62
7
  6
CONTINUOUS
 10
5.4937694099
 20
4.6983022876
 11
5.4937694099
 21
4.7555522876
  0
LINE
  5
2AE
100
AcDbEntity
  8
ALL_ASSEMBLY_MEMBERS
100
AcDbLine
 62
7
  6
CONTINUOUS
 10
5.5693944099
 20
4.7710522876
 11
5.5693944099
 21
4.9270522876
  0
LINE
  5
2AF
100
AcDbEntity
  8
ALL_ASSEMBLY_MEMBERS
100
AcDbLine
 62
7
  6
CONTINUOUS
 10
5.2163913957
 20
5.5285514499
 11
5.2095152705
 21
5.5267274428
  0
LINE
  5
2B0
100
AcDbEntity
  8
ALL_ASSEMBLY_MEMBERS
100
AcDbLine
 62
7
  6
CONTINUOUS
 10
5.1558814698
 20
5.5285514499
 11
5.1490053446
 21
5.5267274428
  0
LINE
  5
2B1
100
AcDbEntity
  8
ALL_ASSEMBLY_MEMBERS
100
AcDbLine
 62
7
  6
CONTINUOUS
 10
5.2177666238
 20
5.519431413
 11
5.2095152705
 21
5.5176074057
  0
LINE
  5
2B2
100
AcDbEntity
  8
ALL_ASSEMBLY_MEMBERS
100
AcDbLine
 62
7
  6
CONTINUOUS
 10
5.157256698
 20
5.519431413
 11
5.1490053446
 21
5.5176074057
  0
LINE
  5
2B3
100
AcDbEntity
  8
ALL_ASSEMBLY_MEMBERS
100
AcDbLine
 62
7
  6
CONTINUOUS
 10
4.6806444099
 20
5.4585522876
 11
5.6506444099
 21
5.4585522876
  0
LINE
  5
2B4
100
AcDbEntity
  8
ALL_ASSEMBLY_MEMBERS
100
AcDbLine
 62
7
  6
CONTINUOUS
 10
5.6503944099
 20
5.5176074057
 11
5.6477581114
 21
5.5176074057
  0
LINE
  5
2B5
100
AcDbEntity
  8
ALL_ASSEMBLY_MEMBERS
100
AcDbLine
 62
7
  6
CONTINUOUS
 10
5.6333006498
 20
5.5176074057
 11
5.6280360191
 21
5.5176074057
  0
LINE
  5
2B6
100
AcDbEntity
  8
ALL_ASSEMBLY_MEMBERS
100
AcDbLine
 62
7
  6
CONTINUOUS
 10
5.61700951
 20
5.5176074057
 11
5.6106685819
 21
5.5176074057
  0
LINE
  5
2B7
100
AcDbEntity
  8
ALL_ASSEMBLY_MEMBERS
100
AcDbLine
 62
7
  6
CONTINUOUS
 10
5.6027372632
 20
5.5176074057
 11
5.5956334559
 21
5.5176074057
  0
LINE
  5
2B8
100
AcDbEntity
  8
ALL_ASSEMBLY_MEMBERS
100
AcDbLine
 62
7
  6
CONTINUOUS
 10
5.4540699871
 20
5.5176074057
 11
5.4316921926
 21
5.5176074057
  0
LINE
  5
2B9
100
AcDbEntity
  8
ALL_ASSEMBLY_MEMBERS
100
AcDbLine
 62
7
  6
CONTINUOUS
 10
5.1132494788
 20
5.5176074057
 11
5.1049981255
 21
5.5176074057
  0
LINE
  5
2BA
100
AcDbEntity
  8
ALL_ASSEMBLY_MEMBERS
100
AcDbLine
 62
7
  6
CONTINUOUS
 10
4.681063309
 20
5.5176074057
 11
4.6835307085
 21
5.5176074057
  0
LINE
  5
2BB
100
AcDbEntity
  8
ALL_ASSEMBLY_MEMBERS
100
AcDbLine
 62
7
  6
CONTINUOUS
 10
4.7005350811
 20
5.5176074057
 11
4.7049964361
 21
5.5176074057
  0
LINE
  5
2BC
100
AcDbEntity
  8
ALL_ASSEMBLY_MEMBERS
100
AcDbLine
 62
7
  6
CONTINUOUS
 10
4.718699825
 20
5.5176074057
 11
4.7239416688
 21
5.5176074057
  0
LINE
  5
2BD
100
AcDbEntity
  8
ALL_ASSEMBLY_MEMBERS
100
AcDbLine
 62
7
  6
CONTINUOUS
 10
4.8772188328
 20
5.5176074057
 11
4.8995966273
 21
5.5176074057
  0
LINE
  5
2BE
100
AcDbEntity
  8
ALL_ASSEMBLY_MEMBERS
100
AcDbLine
 62
7
  6
CONTINUOUS
 10
5.6277348975
 20
5.519431413
 11
5.6254150461
 21
5.519431413
  0
LINE
  5
2BF
100
AcDbEntity
  8
ALL_ASSEMBLY_MEMBERS
100
AcDbLine
 62
7
  6
CONTINUOUS
 10
4.7045412583
 20
5.519431413
 11
4.7068605065
 21
5.519431413
  0
LINE
  5
2C0
100
AcDbEntity
  8
ALL_ASSEMBLY_MEMBERS
100
AcDbLine
 62
7
  6
CONTINUOUS
 10
4.7241333486
 20
5.519431413
 11
4.726457969
 21
5.519431413
  0
LINE
  5
2C1
100
AcDbEntity
  8
ALL_ASSEMBLY_MEMBERS
100
AcDbLine
 62
7
  6
CONTINUOUS
 10
5.6249567043
 20
5.524903435
 11
5.6226382664
 21
5.524903435
  0
LINE
  5
2C2
100
AcDbEntity
  8
ALL_ASSEMBLY_MEMBERS
100
AcDbLine
 62
7
  6
CONTINUOUS
 10
4.706480309
 20
5.524903435
 11
4.7087986952
 21
5.524903435
  0
LINE
  5
2C3
100
AcDbEntity
  8
ALL_ASSEMBLY_MEMBERS
100
AcDbLine
 62
7
  6
CONTINUOUS
 10
4.726721807
 20
5.524903435
 11
4.7290489047
 21
5.524903435
  0
LINE
  5
2C4
100
AcDbEntity
  8
ALL_ASSEMBLY_MEMBERS
100
AcDbLine
 62
7
  6
CONTINUOUS
 10
5.6333006498
 20
5.5267274428
 11
5.6303580812
 21
5.5267274428
  0
LINE
  5
2C5
100
AcDbEntity
  8
ALL_ASSEMBLY_MEMBERS
100
AcDbLine
 62
7
  6
CONTINUOUS
 10
4.7216191392
 20
5.5267274428
 11
4.718699825
 21
5.5267274428
  0
LINE
  5
2C6
100
AcDbEntity
  8
ALL_ASSEMBLY_MEMBERS
100
AcDbLine
 62
7
  6
CONTINUOUS
 10
4.7023117437
 20
5.5267274428
 11
4.7008844957
 21
5.5267274428
  0
LINE
  5
2C7
100
AcDbEntity
  8
ALL_ASSEMBLY_MEMBERS
100
AcDbLine
 62
7
  6
CONTINUOUS
 10
5.6351374776
 20
5.5285514499
 11
5.6328085728
 21
5.5285514499
  0
LINE
  5
2C8
100
AcDbEntity
  8
ALL_ASSEMBLY_MEMBERS
100
AcDbLine
 62
7
  6
CONTINUOUS
 10
4.6995046146
 20
5.5285514499
 11
4.7018282965
 21
5.5285514499
  0
LINE
  5
2C9
100
AcDbEntity
  8
ALL_ASSEMBLY_MEMBERS
100
AcDbLine
 62
7
  6
CONTINUOUS
 10
4.7168127221
 20
5.5285514499
 11
4.7191322179
 21
5.5285514499
  0
LINE
  5
2CA
100
AcDbEntity
  8
ALL_ASSEMBLY_MEMBERS
100
AcDbLine
 62
7
  6
CONTINUOUS
 10
4.7076790999
 20
5.5303754571
 11
4.7099971502
 21
5.5303754571
  0
LINE
  5
2CB
100
AcDbEntity
  8
ALL_ASSEMBLY_MEMBERS
100
AcDbLine
 62
7
  6
CONTINUOUS
 10
5.6364492597
 20
5.5321994642
 11
5.6341176628
 21
5.5321994642
  0
LINE
  5
2CC
100
AcDbEntity
  8
ALL_ASSEMBLY_MEMBERS
100
AcDbLine
 62
7
  6
CONTINUOUS
 10
5.6232155055
 20
5.5321994642
 11
5.620897535
 21
5.5321994642
  0
LINE
  5
2CD
100
AcDbEntity
  8
ALL_ASSEMBLY_MEMBERS
100
AcDbLine
 62
7
  6
CONTINUOUS
 10
4.6981721971
 20
5.5321994642
 11
4.7004976977
 21
5.5321994642
  0
LINE
  5
2CE
100
AcDbEntity
  8
ALL_ASSEMBLY_MEMBERS
100
AcDbLine
 62
7
  6
CONTINUOUS
 10
4.7154283769
 20
5.5321994642
 11
4.7177472588
 21
5.5321994642
  0
LINE
  5
2CF
100
AcDbEntity
  8
ALL_ASSEMBLY_MEMBERS
100
AcDbLine
 62
7
  6
CONTINUOUS
 10
4.7283106203
 20
5.5321994642
 11
4.7306393915
 21
5.5321994642
  0
LINE
  5
2D0
100
AcDbEntity
  8
ALL_ASSEMBLY_MEMBERS
100
AcDbLine
 62
7
  6
CONTINUOUS
 10
5.637292324
 20
5.537671487
 11
5.6349587657
 21
5.537671487
  0
LINE
  5
2D1
100
AcDbEntity
  8
ALL_ASSEMBLY_MEMBERS
100
AcDbLine
 62
7
  6
CONTINUOUS
 10
5.1490053446
 20
5.5176074057
 11
5.1407539913
 21
5.519431413
  0
LINE
  5
2D2
100
AcDbEntity
  8
ALL_ASSEMBLY_MEMBERS
100
AcDbLine
 62
7
  6
CONTINUOUS
 10
5.2095152705
 20
5.5176074057
 11
5.2012639172
 21
5.519431413
  0
LINE
  5
2D3
100
AcDbEntity
  8
ALL_ASSEMBLY_MEMBERS
100
AcDbLine
 62
7
  6
CONTINUOUS
 10
5.1490053446
 20
5.5267274428
 11
5.1421292155
 21
5.5285514499
  0
LINE
  5
2D4
100
AcDbEntity
  8
ALL_ASSEMBLY_MEMBERS
100
AcDbLine
 62
7
  6
CONTINUOUS
 10
5.2095152705
 20
5.5267274428
 11
5.2026391375
 21
5.5285514499
  0
LINE
  5
2D5
100
AcDbEntity
  8
ALL_ASSEMBLY_MEMBERS
100
AcDbLine
 62
7
  6
CONTINUOUS
 10
5.1407539913
 20
5.519431413
 11
5.1338778622
 21
5.524903435
  0
LINE
  5
2D6
100
AcDbEntity
  8
ALL_ASSEMBLY_MEMBERS
100
AcDbLine
 62
7
  6
CONTINUOUS
 10
5.2012639172
 20
5.519431413
 11
5.1943877841
 21
5.524903435
  0
LINE
  5
2D7
100
AcDbEntity
  8
ALL_ASSEMBLY_MEMBERS
100
AcDbLine
 62
7
  6
CONTINUOUS
 10
5.1641328271
 20
5.5960397236
 11
5.157256698
 21
5.601511745
  0
LINE
  5
2D8
100
AcDbEntity
  8
ALL_ASSEMBLY_MEMBERS
100
AcDbLine
 62
7
  6
CONTINUOUS
 10
5.224642749
 20
5.5960397236
 11
5.2177666238
 21
5.601511745
  0
LINE
  5
2D9
100
AcDbEntity
  8
ALL_ASSEMBLY_MEMBERS
100
AcDbLine
 62
7
  6
CONTINUOUS
 10
5.1421292155
 20
5.5285514499
 11
5.1380035389
 21
5.5321994642
  0
LINE
  5
2DA
100
AcDbEntity
  8
ALL_ASSEMBLY_MEMBERS
100
AcDbLine
 62
7
  6
CONTINUOUS
 10
5.2026391375
 20
5.5285514499
 11
5.1985134608
 21
5.5321994642
  0
LINE
  5
2DB
100
AcDbEntity
  8
ALL_ASSEMBLY_MEMBERS
100
AcDbLine
 62
7
  6
CONTINUOUS
 10
5.1600071465
 20
5.588743695
 11
5.1558814698
 21
5.5923917093
  0
LINE
  5
2DC
100
AcDbEntity
  8
ALL_ASSEMBLY_MEMBERS
100
AcDbLine
 62
7
  6
CONTINUOUS
 10
5.2205170723
 20
5.588743695
 11
5.2163913957
 21
5.5923917093
  0
LINE
  5
2DD
100
AcDbEntity
  8
ALL_ASSEMBLY_MEMBERS
100
AcDbLine
 62
7
  6
CONTINUOUS
 10
5.1682585038
 20
5.5905677021
 11
5.1641328271
 21
5.5960397236
  0
LINE
  5
2DE
100
AcDbEntity
  8
ALL_ASSEMBLY_MEMBERS
100
AcDbLine
 62
7
  6
CONTINUOUS
 10
5.2287684257
 20
5.5905677021
 11
5.224642749
 21
5.5960397236
  0
LINE
  5
2DF
100
AcDbEntity
  8
ALL_ASSEMBLY_MEMBERS
100
AcDbLine
 62
7
  6
CONTINUOUS
 10
5.5906299331
 20
5.5905677021
 11
5.5906299331
 21
5.5759756398
  0
LINE
  5
2E0
100
AcDbEntity
  8
ALL_ASSEMBLY_MEMBERS
100
AcDbLine
 62
7
  6
CONTINUOUS
 10
5.5929716133
 20
5.5905677021
 11
5.5929716133
 21
5.5759756398
  0
LINE
  5
2E1
100
AcDbEntity
  8
ALL_ASSEMBLY_MEMBERS
100
AcDbLine
 62
7
  6
CONTINUOUS
 10
5.5956334559
 20
5.5827059487
 11
5.5956334559
 21
5.5176074057
  0
LINE
  5
2E2
100
AcDbEntity
  8
ALL_ASSEMBLY_MEMBERS
100
AcDbLine
 62
7
  6
CONTINUOUS
 10
5.5979682056
 20
5.588743695
 11
5.5979682056
 21
5.5176074057
  0
LINE
  5
2E3
100
AcDbEntity
  8
ALL_ASSEMBLY_MEMBERS
100
AcDbLine
 62
7
  6
CONTINUOUS
 10
5.6027372632
 20
5.6033357522
 11
5.6027372632
 21
5.5176074057
  0
LINE
  5
2E4
100
AcDbEntity
  8
ALL_ASSEMBLY_MEMBERS
100
AcDbLine
 62
7
  6
CONTINUOUS
 10
5.6064216196
 20
5.5905677021
 11
5.6064216196
 21
5.5759756398
  0
LINE
  5
2E5
100
AcDbEntity
  8
ALL_ASSEMBLY_MEMBERS
100
AcDbLine
 62
7
  6
CONTINUOUS
 10
5.6087448806
 20
5.5905677021
 11
5.6087448806
 21
5.5759756398
  0
LINE
  5
2E6
100
AcDbEntity
  8
ALL_ASSEMBLY_MEMBERS
100
AcDbLine
 62
7
  6
CONTINUOUS
 10
5.6106685819
 20
5.5816819327
 11
5.6106685819
 21
5.5176074057
  0
LINE
  5
2E7
100
AcDbEntity
  8
ALL_ASSEMBLY_MEMBERS
100
AcDbLine
 62
7
  6
CONTINUOUS
 10
5.612988872
 20
5.588743695
 11
5.612988872
 21
5.5176074057
  0
LINE
  5
2E8
100
AcDbEntity
  8
ALL_ASSEMBLY_MEMBERS
100
AcDbLine
 62
7
  6
CONTINUOUS
 10
5.61700951
 20
5.6033357522
 11
5.61700951
 21
5.5176074057
  0
LINE
  5
2E9
100
AcDbEntity
  8
ALL_ASSEMBLY_MEMBERS
100
AcDbLine
 62
7
  6
CONTINUOUS
 10
5.6197059616
 20
5.6033357522
 11
5.6197059616
 21
5.5559115611
  0
LINE
  5
2EA
100
AcDbEntity
  8
ALL_ASSEMBLY_MEMBERS
100
AcDbLine
 62
7
  6
CONTINUOUS
 10
5.6220237788
 20
5.6033357522
 11
5.6220237788
 21
5.5559115611
  0
LINE
  5
2EB
100
AcDbEntity
  8
ALL_ASSEMBLY_MEMBERS
100
AcDbLine
 62
7
  6
CONTINUOUS
 10
5.6249567043
 20
5.5942157164
 11
5.6249567043
 21
5.5650315968
  0
LINE
  5
2EC
100
AcDbEntity
  8
ALL_ASSEMBLY_MEMBERS
100
AcDbLine
 62
7
  6
CONTINUOUS
 10
5.6353698036
 20
5.5467915228
 11
5.6353698036
 21
5.5431435084
  0
LINE
  5
2ED
100
AcDbEntity
  8
ALL_ASSEMBLY_MEMBERS
100
AcDbLine
 62
7
  6
CONTINUOUS
 10
5.6377043928
 20
5.5467915228
 11
5.6377043928
 21
5.5431435084
  0
LINE
  5
2EE
100
AcDbEntity
  8
ALL_ASSEMBLY_MEMBERS
100
AcDbLine
 62
7
  6
CONTINUOUS
 10
5.6389026596
 20
5.6033357522
 11
5.6389026596
 21
5.5942157164
  0
LINE
  5
2EF
100
AcDbEntity
  8
ALL_ASSEMBLY_MEMBERS
100
AcDbLine
 62
7
  6
CONTINUOUS
 10
5.6396697957
 20
5.5486155299
 11
5.6396697957
 21
5.5413195013
  0
LINE
  5
2F0
100
AcDbEntity
  8
ALL_ASSEMBLY_MEMBERS
100
AcDbLine
 62
7
  6
CONTINUOUS
 10
5.6477581114
 20
5.6061900829
 11
5.6477581114
 21
5.5176074057
  0
LINE
  5
2F1
100
AcDbEntity
  8
ALL_ASSEMBLY_MEMBERS
100
AcDbLine
 62
7
  6
CONTINUOUS
 10
5.6479278745
 20
5.6554026813
 11
5.6479278745
 21
5.6061900829
  0
LINE
  5
2F2
100
AcDbEntity
  8
ALL_ASSEMBLY_MEMBERS
100
AcDbLine
 62
7
  6
CONTINUOUS
 10
5.6479278745
 20
5.5176074057
 11
5.6479278745
 21
5.4585522876
  0
LINE
  5
2F3
100
AcDbEntity
  8
ALL_ASSEMBLY_MEMBERS
100
AcDbLine
 62
7
  6
CONTINUOUS
 10
5.6502255109
 20
5.6061900829
 11
5.6502255109
 21
5.5176074057
  0
LINE
  5
2F4
100
AcDbEntity
  8
ALL_ASSEMBLY_MEMBERS
100
AcDbLine
 62
7
  6
CONTINUOUS
 10
5.6503944099
 20
5.6061900829
 11
5.6503944099
 21
5.5176074057
  0
LINE
  5
2F5
100
AcDbEntity
  8
ALL_ASSEMBLY_MEMBERS
100
AcDbLine
 62
7
  6
CONTINUOUS
 10
5.6506444099
 20
4.9270522876
 11
5.6506444099
 21
5.4585522876
  0
LINE
  5
2F6
100
AcDbEntity
  8
ALL_ASSEMBLY_MEMBERS
100
AcDbLine
 62
7
  6
CONTINUOUS
 10
5.6581444099
 20
5.6554026813
 11
5.6581444099
 21
5.8465276813
  0
LINE
  5
2F7
100
AcDbEntity
  8
ALL_ASSEMBLY_MEMBERS
100
AcDbLine
 62
7
  6
CONTINUOUS
 10
5.2095152705
 20
5.5942157164
 11
5.2026391375
 21
5.5923917093
  0
LINE
  5
2F8
100
AcDbEntity
  8
ALL_ASSEMBLY_MEMBERS
100
AcDbLine
 62
7
  6
CONTINUOUS
 10
5.1490053446
 20
5.5942157164
 11
5.1421292155
 21
5.5923917093
  0
LINE
  5
2F9
100
AcDbEntity
  8
ALL_ASSEMBLY_MEMBERS
100
AcDbLine
 62
7
  6
CONTINUOUS
 10
5.2095152705
 20
5.6033357522
 11
5.2012639172
 21
5.601511745
  0
LINE
  5
2FA
100
AcDbEntity
  8
ALL_ASSEMBLY_MEMBERS
100
AcDbLine
 62
7
  6
CONTINUOUS
 10
5.1490053446
 20
5.6033357522
 11
5.1407539913
 21
5.601511745
  0
LINE
  5
2FB
100
AcDbEntity
  8
ALL_ASSEMBLY_MEMBERS
100
AcDbLine
 62
7
  6
CONTINUOUS
 10
5.6255247277
 20
5.5394954941
 11
5.6197059616
 21
5.5394954941
  0
LINE
  5
2FC
100
AcDbEntity
  8
ALL_ASSEMBLY_MEMBERS
100
AcDbLine
 62
7
  6
CONTINUOUS
 10
4.6972040977
 20
5.5394954941
 11
4.6995311251
 21
5.5394954941
  0
LINE
  5
2FD
100
AcDbEntity
  8
ALL_ASSEMBLY_MEMBERS
100
AcDbLine
 62
7
  6
CONTINUOUS
 10
4.7118664666
 20
5.5394954941
 11
4.7168387687
 21
5.5394954941
  0
LINE
  5
2FE
100
AcDbEntity
  8
ALL_ASSEMBLY_MEMBERS
100
AcDbLine
 62
7
  6
CONTINUOUS
 10
4.7084930198
 20
5.5394954941
 11
4.7108109215
 21
5.5394954941
  0
LINE
  5
2FF
100
AcDbEntity
  8
ALL_ASSEMBLY_MEMBERS
100
AcDbLine
 62
7
  6
CONTINUOUS
 10
4.7293847537
 20
5.5413195013
 11
4.7317147189
 21
5.5413195013
  0
LINE
  5
300
100
AcDbEntity
  8
ALL_ASSEMBLY_MEMBERS
100
AcDbLine
 62
7
  6
CONTINUOUS
 10
5.6377043928
 20
5.5431435084
 11
5.6353698036
 21
5.5431435084
  0
LINE
  5
301
100
AcDbEntity
  8
ALL_ASSEMBLY_MEMBERS
100
AcDbLine
 62
7
  6
CONTINUOUS
 10
4.6972040977
 20
5.5449675156
 11
4.6995311251
 21
5.5449675156
  0
LINE
  5
302
100
AcDbEntity
  8
ALL_ASSEMBLY_MEMBERS
100
AcDbLine
 62
7
  6
CONTINUOUS
 10
4.7084930198
 20
5.5449675156
 11
4.7108109215
 21
5.5449675156
  0
LINE
  5
303
100
AcDbEntity
  8
ALL_ASSEMBLY_MEMBERS
100
AcDbLine
 62
7
  6
CONTINUOUS
 10
5.6377043928
 20
5.5467915228
 11
5.6353698036
 21
5.5467915228
  0
LINE
  5
304
100
AcDbEntity
  8
ALL_ASSEMBLY_MEMBERS
100
AcDbLine
 62
7
  6
CONTINUOUS
 10
4.7293847537
 20
5.5486155299
 11
4.7317147189
 21
5.5486155299
  0
LINE
  5
305
100
AcDbEntity
  8
ALL_ASSEMBLY_MEMBERS
100
AcDbLine
 62
7
  6
CONTINUOUS
 10
5.637292324
 20
5.5522635468
 11
5.6349587657
 21
5.5522635468
  0
LINE
  5
306
100
AcDbEntity
  8
ALL_ASSEMBLY_MEMBERS
100
AcDbLine
 62
7
  6
CONTINUOUS
 10
4.6981721971
 20
5.5522635468
 11
4.7004976977
 21
5.5522635468
  0
LINE
  5
307
100
AcDbEntity
  8
ALL_ASSEMBLY_MEMBERS
100
AcDbLine
 62
7
  6
CONTINUOUS
 10
4.7076790999
 20
5.5540875539
 11
4.7099971502
 21
5.5540875539
  0
LINE
  5
308
100
AcDbEntity
  8
ALL_ASSEMBLY_MEMBERS
100
AcDbLine
 62
7
  6
CONTINUOUS
 10
5.6260865624
 20
5.5559115611
 11
5.6197059616
 21
5.5559115611
  0
LINE
  5
309
100
AcDbEntity
  8
ALL_ASSEMBLY_MEMBERS
100
AcDbLine
 62
7
  6
CONTINUOUS
 10
4.6995046146
 20
5.5559115611
 11
4.7018282965
 21
5.5559115611
  0
LINE
  5
30A
100
AcDbEntity
  8
ALL_ASSEMBLY_MEMBERS
100
AcDbLine
 62
7
  6
CONTINUOUS
 10
4.7118664666
 20
5.5559115611
 11
4.7172915325
 21
5.5559115611
  0
LINE
  5
30B
100
AcDbEntity
  8
ALL_ASSEMBLY_MEMBERS
100
AcDbLine
 62
7
  6
CONTINUOUS
 10
5.6364492597
 20
5.5577355682
 11
5.6341176628
 21
5.5577355682
  0
LINE
  5
30C
100
AcDbEntity
  8
ALL_ASSEMBLY_MEMBERS
100
AcDbLine
 62
7
  6
CONTINUOUS
 10
4.7023117437
 20
5.5577355682
 11
4.7008844957
 21
5.5577355682
  0
LINE
  5
30D
100
AcDbEntity
  8
ALL_ASSEMBLY_MEMBERS
100
AcDbLine
 62
7
  6
CONTINUOUS
 10
4.7283106203
 20
5.5577355682
 11
4.7306393915
 21
5.5577355682
  0
LINE
  5
30E
100
AcDbEntity
  8
ALL_ASSEMBLY_MEMBERS
100
AcDbLine
 62
7
  6
CONTINUOUS
 10
4.7060866042
 20
5.5595595754
 11
4.7084051327
 21
5.5595595754
  0
LINE
  5
30F
100
AcDbEntity
  8
ALL_ASSEMBLY_MEMBERS
100
AcDbLine
 62
7
  6
CONTINUOUS
 10
5.6351374776
 20
5.5613835825
 11
5.6328085728
 21
5.5613835825
  0
LINE
  5
310
100
AcDbEntity
  8
ALL_ASSEMBLY_MEMBERS
100
AcDbLine
 62
7
  6
CONTINUOUS
 10
4.7053080346
 20
5.5613835825
 11
4.7076268927
 21
5.5613835825
  0
LINE
  5
311
100
AcDbEntity
  8
ALL_ASSEMBLY_MEMBERS
100
AcDbLine
 62
7
  6
CONTINUOUS
 10
4.7168127221
 20
5.5613835825
 11
4.7191322179
 21
5.5613835825
  0
LINE
  5
312
100
AcDbEntity
  8
ALL_ASSEMBLY_MEMBERS
100
AcDbLine
 62
7
  6
CONTINUOUS
 10
5.6333006498
 20
5.5632075897
 11
5.6303580812
 21
5.5632075897
  0
LINE
  5
313
100
AcDbEntity
  8
ALL_ASSEMBLY_MEMBERS
100
AcDbLine
 62
7
  6
CONTINUOUS
 10
4.7216191392
 20
5.5632075897
 11
4.718699825
 21
5.5632075897
  0
LINE
  5
314
100
AcDbEntity
  8
ALL_ASSEMBLY_MEMBERS
100
AcDbLine
 62
7
  6
CONTINUOUS
 10
4.7060866042
 20
5.5632075897
 11
4.7084051327
 21
5.5632075897
  0
LINE
  5
315
100
AcDbEntity
  8
ALL_ASSEMBLY_MEMBERS
100
AcDbLine
 62
7
  6
CONTINUOUS
 10
4.7023117437
 20
5.5650315968
 11
4.7008844957
 21
5.5650315968
  0
LINE
  5
316
100
AcDbEntity
  8
ALL_ASSEMBLY_MEMBERS
100
AcDbLine
 62
7
  6
CONTINUOUS
 10
4.726721807
 20
5.5650315968
 11
4.7290489047
 21
5.5650315968
  0
LINE
  5
317
100
AcDbEntity
  8
ALL_ASSEMBLY_MEMBERS
100
AcDbLine
 62
7
  6
CONTINUOUS
 10
4.6995046146
 20
5.566855604
 11
4.7018282965
 21
5.566855604
  0
LINE
  5
318
100
AcDbEntity
  8
ALL_ASSEMBLY_MEMBERS
100
AcDbLine
 62
7
  6
CONTINUOUS
 10
4.7072765578
 20
5.5686796112
 11
4.709594705
 21
5.5686796112
  0
LINE
  5
319
100
AcDbEntity
  8
ALL_ASSEMBLY_MEMBERS
100
AcDbLine
 62
7
  6
CONTINUOUS
 10
5.6277348975
 20
5.5705036183
 11
5.6254150461
 21
5.5705036183
  0
LINE
  5
31A
100
AcDbEntity
  8
ALL_ASSEMBLY_MEMBERS
100
AcDbLine
 62
7
  6
CONTINUOUS
 10
4.7241333486
 20
5.5705036183
 11
4.726457969
 21
5.5705036183
  0
LINE
  5
31B
100
AcDbEntity
  8
ALL_ASSEMBLY_MEMBERS
100
AcDbLine
 62
7
  6
CONTINUOUS
 10
5.6333006498
 20
5.5723276255
 11
5.6280360191
 21
5.5723276255
  0
LINE
  5
31C
100
AcDbEntity
  8
ALL_ASSEMBLY_MEMBERS
100
AcDbLine
 62
7
  6
CONTINUOUS
 10
4.6981721971
 20
5.5723276255
 11
4.7004976977
 21
5.5723276255
  0
LINE
  5
31D
100
AcDbEntity
  8
ALL_ASSEMBLY_MEMBERS
100
AcDbLine
 62
7
  6
CONTINUOUS
 10
4.718699825
 20
5.5723276255
 11
4.7239416688
 21
5.5723276255
  0
LINE
  5
31E
100
AcDbEntity
  8
ALL_ASSEMBLY_MEMBERS
100
AcDbLine
 62
7
  6
CONTINUOUS
 10
5.6087448806
 20
5.5759756398
 11
5.6064216196
 21
5.5759756398
  0
LINE
  5
31F
100
AcDbEntity
  8
ALL_ASSEMBLY_MEMBERS
100
AcDbLine
 62
7
  6
CONTINUOUS
 10
5.5929716133
 20
5.5759756398
 11
5.5906299331
 21
5.5759756398
  0
LINE
  5
320
100
AcDbEntity
  8
ALL_ASSEMBLY_MEMBERS
100
AcDbLine
 62
7
  6
CONTINUOUS
 10
4.7080845881
 20
5.5759756398
 11
4.7104025566
 21
5.5759756398
  0
LINE
  5
321
100
AcDbEntity
  8
ALL_ASSEMBLY_MEMBERS
100
AcDbLine
 62
7
  6
CONTINUOUS
 10
4.697523821
 20
5.5777996469
 11
4.6998503239
 21
5.5777996469
  0
LINE
  5
322
100
AcDbEntity
  8
ALL_ASSEMBLY_MEMBERS
100
AcDbLine
 62
7
  6
CONTINUOUS
 10
4.697523821
 20
5.5814476612
 11
4.6998503239
 21
5.5814476612
  0
LINE
  5
323
100
AcDbEntity
  8
ALL_ASSEMBLY_MEMBERS
100
AcDbLine
 62
7
  6
CONTINUOUS
 10
4.7080845881
 20
5.5814476612
 11
4.7104025566
 21
5.5814476612
  0
LINE
  5
324
100
AcDbEntity
  8
ALL_ASSEMBLY_MEMBERS
100
AcDbLine
 62
7
  6
CONTINUOUS
 10
4.6981721971
 20
5.5869196878
 11
4.7004976977
 21
5.5869196878
  0
LINE
  5
325
100
AcDbEntity
  8
ALL_ASSEMBLY_MEMBERS
100
AcDbLine
 62
7
  6
CONTINUOUS
 10
5.6087448806
 20
5.5905677021
 11
5.6064216196
 21
5.5905677021
  0
LINE
  5
326
100
AcDbEntity
  8
ALL_ASSEMBLY_MEMBERS
100
AcDbLine
 62
7
  6
CONTINUOUS
 10
5.5929716133
 20
5.5905677021
 11
5.5906299331
 21
5.5905677021
  0
LINE
  5
327
100
AcDbEntity
  8
ALL_ASSEMBLY_MEMBERS
100
AcDbLine
 62
7
  6
CONTINUOUS
 10
4.7072765578
 20
5.5905677021
 11
4.709594705
 21
5.5905677021
  0
LINE
  5
328
100
AcDbEntity
  8
ALL_ASSEMBLY_MEMBERS
100
AcDbLine
 62
7
  6
CONTINUOUS
 10
4.6995046146
 20
5.5923917093
 11
4.7018282965
 21
5.5923917093
  0
LINE
  5
329
100
AcDbEntity
  8
ALL_ASSEMBLY_MEMBERS
100
AcDbLine
 62
7
  6
CONTINUOUS
 10
5.6389026596
 20
5.5942157164
 11
5.6249567043
 21
5.5942157164
  0
LINE
  5
32A
100
AcDbEntity
  8
ALL_ASSEMBLY_MEMBERS
100
AcDbLine
 62
7
  6
CONTINUOUS
 10
4.7023117437
 20
5.5942157164
 11
4.7008844957
 21
5.5942157164
  0
LINE
  5
32B
100
AcDbEntity
  8
ALL_ASSEMBLY_MEMBERS
100
AcDbLine
 62
7
  6
CONTINUOUS
 10
4.7140705653
 20
5.5942157164
 11
4.7306393915
 21
5.5942157164
  0
LINE
  5
32C
100
AcDbEntity
  8
ALL_ASSEMBLY_MEMBERS
100
AcDbLine
 62
7
  6
CONTINUOUS
 10
4.7060866042
 20
5.5960397236
 11
4.7084051327
 21
5.5960397236
  0
LINE
  5
32D
100
AcDbEntity
  8
ALL_ASSEMBLY_MEMBERS
100
AcDbLine
 62
7
  6
CONTINUOUS
 10
4.7041622929
 20
5.601511745
 11
4.7064817589
 21
5.601511745
  0
LINE
  5
32E
100
AcDbEntity
  8
ALL_ASSEMBLY_MEMBERS
100
AcDbLine
 62
7
  6
CONTINUOUS
 10
5.61700951
 20
5.6033357522
 11
5.6106685819
 21
5.6033357522
  0
LINE
  5
32F
100
AcDbEntity
  8
ALL_ASSEMBLY_MEMBERS
100
AcDbLine
 62
7
  6
CONTINUOUS
 10
5.6389026596
 20
5.6033357522
 11
5.6197059616
 21
5.6033357522
  0
LINE
  5
330
100
AcDbEntity
  8
ALL_ASSEMBLY_MEMBERS
100
AcDbLine
 62
7
  6
CONTINUOUS
 10
5.6027372632
 20
5.6033357522
 11
5.5956334559
 21
5.6033357522
  0
LINE
  5
331
100
AcDbEntity
  8
ALL_ASSEMBLY_MEMBERS
100
AcDbLine
 62
7
  6
CONTINUOUS
 10
5.1132494788
 20
5.6033357522
 11
5.1049981255
 21
5.6033357522
  0
LINE
  5
332
100
AcDbEntity
  8
ALL_ASSEMBLY_MEMBERS
100
AcDbLine
 62
7
  6
CONTINUOUS
 10
4.7008844957
 20
5.6033357522
 11
4.7046325261
 21
5.6033357522
  0
LINE
  5
333
100
AcDbEntity
  8
ALL_ASSEMBLY_MEMBERS
100
AcDbLine
 62
7
  6
CONTINUOUS
 10
4.7118664666
 20
5.6033357522
 11
4.7306393915
 21
5.6033357522
  0
LINE
  5
334
100
AcDbEntity
  8
ALL_ASSEMBLY_MEMBERS
100
AcDbLine
 62
7
  6
CONTINUOUS
 10
5.6503944099
 20
5.6061900829
 11
5.6477581114
 21
5.6061900829
  0
LINE
  5
335
100
AcDbEntity
  8
ALL_ASSEMBLY_MEMBERS
100
AcDbLine
 62
7
  6
CONTINUOUS
 10
5.4540699871
 20
5.6061900829
 11
5.4316921926
 21
5.6061900829
  0
LINE
  5
336
100
AcDbEntity
  8
ALL_ASSEMBLY_MEMBERS
100
AcDbLine
 62
7
  6
CONTINUOUS
 10
4.681063309
 20
5.6061900829
 11
4.6835307085
 21
5.6061900829
  0
LINE
  5
337
100
AcDbEntity
  8
ALL_ASSEMBLY_MEMBERS
100
AcDbLine
 62
7
  6
CONTINUOUS
 10
4.8772188328
 20
5.6061900829
 11
4.8995966273
 21
5.6061900829
  0
LINE
  5
338
100
AcDbEntity
  8
ALL_ASSEMBLY_MEMBERS
100
AcDbLine
 62
7
  6
CONTINUOUS
 10
4.6731444099
 20
5.6554026813
 11
5.6581444099
 21
5.6554026813
  0
LINE
  5
339
100
AcDbEntity
  8
ALL_ASSEMBLY_MEMBERS
100
AcDbLine
 62
7
  6
CONTINUOUS
 10
5.157256698
 20
5.601511745
 11
5.1490053446
 21
5.6033357522
  0
LINE
  5
33A
100
AcDbEntity
  8
ALL_ASSEMBLY_MEMBERS
100
AcDbLine
 62
7
  6
CONTINUOUS
 10
5.2177666238
 20
5.601511745
 11
5.2095152705
 21
5.6033357522
  0
LINE
  5
33B
100
AcDbEntity
  8
ALL_ASSEMBLY_MEMBERS
100
AcDbLine
 62
7
  6
CONTINUOUS
 10
5.1558814698
 20
5.5923917093
 11
5.1490053446
 21
5.5942157164
  0
LINE
  5
33C
100
AcDbEntity
  8
ALL_ASSEMBLY_MEMBERS
100
AcDbLine
 62
7
  6
CONTINUOUS
 10
5.2163913957
 20
5.5923917093
 11
5.2095152705
 21
5.5942157164
  0
LINE
  5
33D
100
AcDbEntity
  8
ALL_ASSEMBLY_MEMBERS
100
AcDbLine
 62
7
  6
CONTINUOUS
 10
5.1756438946
 20
5.7104026813
 11
5.1556449253
 21
5.7104026813
  0
LINE
  5
33E
100
AcDbEntity
  8
ALL_ASSEMBLY_MEMBERS
100
AcDbLine
 62
7
  6
CONTINUOUS
 10
5.1556449253
 20
5.7904026813
 11
5.1756438946
 21
5.7904026813
  0
LINE
  5
33F
100
AcDbEntity
  8
ALL_ASSEMBLY_MEMBERS
100
AcDbLine
 62
7
  6
CONTINUOUS
 10
5.8531444099
 20
3.9943042321
 11
5.8531444099
 21
4.2168003431
  0
LINE
  5
340
100
AcDbEntity
  8
ALL_ASSEMBLY_MEMBERS
100
AcDbLine
 62
7
  6
CONTINUOUS
 10
4.6356444099
 20
5.8465276813
 11
5.6956444099
 21
5.8465276813
  0
LINE
  5
341
100
AcDbEntity
  8
ALL_ASSEMBLY_MEMBERS
100
AcDbLine
 62
7
  6
CONTINUOUS
 10
6.7331444099
 20
5.9260276813
 11
3.5981444099
 21
5.9260276813
  0
LINE
  5
342
100
AcDbEntity
  8
ALL_ASSEMBLY_MEMBERS
100
AcDbLine
 62
7
  6
CONTINUOUS
 10
6.7906444099
 20
5.9885276813
 11
3.5406444099
 21
5.9885276813
  0
LINE
  5
343
100
AcDbEntity
  8
ALL_ASSEMBLY_MEMBERS
100
AcDbLine
 62
7
  6
CONTINUOUS
 10
6.7906444099
 20
6.0825276813
 11
3.5406444099
 21
6.0825276813
  0
LINE
  5
344
100
AcDbEntity
  8
ALL_ASSEMBLY_MEMBERS
100
AcDbLine
 62
7
  6
CONTINUOUS
 10
6.7906444099
 20
5.9885276813
 11
6.7906444099
 21
6.0825276813
  0
ARC
  5
345
100
AcDbEntity
  8
ALL_ASSEMBLY_MEMBERS
100
AcDbCircle
 62
7
  6
CONTINUOUS
 10
5.5419170484
 20
4.1285172874
 40
0.2335503529
100
AcDbArc
 50
201.4210777776
 51
201.6998185651
  0
ARC
  5
346
100
AcDbEntity
  8
ALL_ASSEMBLY_MEMBERS
100
AcDbCircle
 62
7
  6
CONTINUOUS
 10
4.7893731662
 20
4.082587834
 40
0.2335488551
100
AcDbArc
 50
21.4207708908
 51
21.6998203835
  0
ARC
  5
347
100
AcDbEntity
  8
ALL_ASSEMBLY_MEMBERS
100
AcDbCircle
 62
7
  6
CONTINUOUS
 10
5.5396450288
 20
4.1276242755
 40
0.2311091358
100
AcDbArc
 50
201.2859719504
 51
201.4206963143
  0
ARC
  5
348
100
AcDbEntity
  8
ALL_ASSEMBLY_MEMBERS
100
AcDbCircle
 62
7
  6
CONTINUOUS
 10
4.7916454769
 20
4.0834809518
 40
0.2311073284
100
AcDbArc
 50
21.2859701839
 51
21.4203881202
  0
CIRCLE
  5
349
100
AcDbEntity
  8
ALL_ASSEMBLY_MEMBERS
100
AcDbCircle
 62
7
  6
CONTINUOUS
 10
5.1656444099
 20
4.1055522876
 40
0.1175
  0
CIRCLE
  5
34A
100
AcDbEntity
  8
ALL_ASSEMBLY_MEMBERS
100
AcDbCircle
 62
7
  6
CONTINUOUS
 10
5.1656444099
 20
4.1055522876
 40
0.11125
  0
CIRCLE
  5
34B
100
AcDbEntity
  8
ALL_ASSEMBLY_MEMBERS
100
AcDbCircle
 62
7
  6
CONTINUOUS
 10
5.1656444099
 20
5.1305522876
 40
0.07
  0
CIRCLE
  5
34C
100
AcDbEntity
  8
ALL_ASSEMBLY_MEMBERS
100
AcDbCircle
 62
7
  6
CONTINUOUS
 10
5.1656444099
 20
5.1305522876
 40
0.065
  0
ARC
  5
34D
100
AcDbEntity
  8
ALL_ASSEMBLY_MEMBERS
100
AcDbCircle
 62
7
  6
CONTINUOUS
 10
6.7958618012
 20
5.9260276813
 40
0.0627173913
100
AcDbArc
 50
94.7718880608
 51
180.0
  0
ARC
  5
34E
100
AcDbEntity
  8
ALL_ASSEMBLY_MEMBERS
100
AcDbCircle
 62
7
  6
CONTINUOUS
 10
3.5354270186
 20
5.9260276813
 40
0.0627173913
100
AcDbArc
 50
0.0
 51
85.2281119392
  0
CIRCLE
  5
34F
100
AcDbEntity
  8
ALL_ASSEMBLY_MEMBERS
100
AcDbCircle
 62
7
  6
CONTINUOUS
 10
5.1656444099
 20
5.1305522876
 40
0.0445454545
  0
SPLINE
  5
350
100
AcDbEntity
  8
ALL_ASSEMBLY_MEMBERS
100
AcDbSpline
 62
7
  6
CONTINUOUS
 70
0
 71
3
 72
19
 73
15
 74
0
 42
0.0000001
 43
0.0000001
 44
0.0000000001
 40
0.0
 40
0.0
 40
0.0
 40
0.0
 40
0.1249158798
 40
0.1874766357
 40
0.2500078059
 40
0.3749226349
 40
0.4998388355
 40
0.5623760549
 40
0.624922107
 40
0.6874570601
 40
0.7499641082
 40
0.8124888753
 40
0.8750775682
 40
1.0
 40
1.0
 40
1.0
 40
1.0
 10
5.1756438946
 20
5.7904026813
 30
0.0
 10
5.1756438946
 20
5.7910563702
 30
0.0
 10
5.1755467802
 20
5.7920409627
 30
0.0
 10
5.17522836
 20
5.7933114719
 30
0.0
 10
5.1747869026
 20
5.7945450795
 30
0.0
 10
5.1740110404
 20
5.7959964856
 30
0.0
 10
5.1729662646
 20
5.7972682381
 30
0.0
 10
5.1719953511
 20
5.7981477001
 30
0.0
 10
5.1712052943
 20
5.7987333485
 30
0.0
 10
5.1703618382
 20
5.7992386765
 30
0.0
 10
5.1694724806
 20
5.7996576982
 30
0.0
 10
5.1685459402
 20
5.7999875531
 30
0.0
 10
5.1672762329
 20
5.8003081779
 30
0.0
 10
5.1662918998
 20
5.8004124021
 30
0.0
 10
5.1656381766
 20
5.8004124021
 30
0.0
  0
SPLINE
  5
351
100
AcDbEntity
  8
ALL_ASSEMBLY_MEMBERS
100
AcDbSpline
 62
7
  6
CONTINUOUS
 70
0
 71
3
 72
19
 73
15
 74
0
 42
0.0000001
 43
0.0000001
 44
0.0000000001
 40
0.0
 40
0.0
 40
0.0
 40
0.0
 40
0.1249852322
 40
0.1876498082
 40
0.2502234468
 40
0.3127340834
 40
0.3752485557
 40
0.4377807889
 40
0.5003042382
 40
0.6251763742
 40
0.750059398
 40
0.8125725634
 40
0.8751106733
 40
1.0
 40
1.0
 40
1.0
 40
1.0
 10
5.1656381766
 20
5.8004124021
 30
0.0
 10
5.1649846325
 20
5.8004124021
 30
0.0
 10
5.1640001859
 20
5.8003082302
 30
0.0
 10
5.1627312088
 20
5.7999846525
 30
0.0
 10
5.1618055851
 20
5.799652605
 30
0.0
 10
5.1609171849
 20
5.7992330345
 30
0.0
 10
5.1600748496
 20
5.7987276137
 30
0.0
 10
5.1592862097
 20
5.7981417531
 30
0.0
 10
5.1583171005
 20
5.7972623836
 30
0.0
 10
5.1572743932
 20
5.7959912248
 30
0.0
 10
5.1565001403
 20
5.7945409929
 30
0.0
 10
5.1560596252
 20
5.7933085379
 30
0.0
 10
5.1557417891
 20
5.7920392961
 30
0.0
 10
5.1556449253
 20
5.791055724
 30
0.0
 10
5.1556449253
 20
5.7904026813
 30
0.0
  0
SPLINE
  5
352
100
AcDbEntity
  8
ALL_ASSEMBLY_MEMBERS
100
AcDbSpline
 62
7
  6
CONTINUOUS
 70
0
 71
3
 72
19
 73
15
 74
0
 42
0.0000001
 43
0.0000001
 44
0.0000000001
 40
0.0
 40
0.0
 40
0.0
 40
0.0
 40
0.1248897374
 40
0.1874284864
 40
0.2499423405
 40
0.3748263175
 40
0.4996987803
 40
0.5622219563
 40
0.6247539668
 40
0.6872683074
 40
0.7497784126
 40
0.8123512284
 40
0.8750150897
 40
1.0
 40
1.0
 40
1.0
 40
1.0
 10
5.1556449253
 20
5.7104026813
 30
0.0
 10
5.1556449253
 20
5.7097496342
 30
0.0
 10
5.1557417907
 20
5.7087660531
 30
0.0
 10
5.1560596332
 20
5.7074967988
 30
0.0
 10
5.1565001574
 20
5.7062643295
 30
0.0
 10
5.1572744271
 20
5.7048140879
 30
0.0
 10
5.1583171497
 20
5.7035429276
 30
0.0
 10
5.1592862677
 20
5.7026635621
 30
0.0
 10
5.1600749131
 20
5.7020777089
 30
0.0
 10
5.1609172464
 20
5.7015722873
 30
0.0
 10
5.1618056466
 20
5.7011527259
 30
0.0
 10
5.1627312696
 20
5.7008206982
 30
0.0
 10
5.1640002454
 20
5.7004971384
 30
0.0
 10
5.1649846889
 20
5.7003929634
 30
0.0
 10
5.1656382337
 20
5.7003929634
 30
0.0
  0
SPLINE
  5
353
100
AcDbEntity
  8
ALL_ASSEMBLY_MEMBERS
100
AcDbSpline
 62
7
  6
CONTINUOUS
 70
0
 71
3
 72
19
 73
15
 74
0
 42
0.0000001
 43
0.0000001
 44
0.0000000001
 40
0.0
 40
0.0
 40
0.0
 40
0.0
 40
0.1249225465
 40
0.1875115499
 40
0.2500366903
 40
0.3125439719
 40
0.3750791332
 40
0.4376254688
 40
0.5001629066
 40
0.625079081
 40
0.7499938268
 40
0.8125248195
 40
0.8750850005
 40
1.0
 40
1.0
 40
1.0
 40
1.0
 10
5.1656382337
 20
5.7003929634
 30
0.0
 10
5.1662919551
 20
5.7003929634
 30
0.0
 10
5.1672762875
 20
5.7004971872
 30
0.0
 10
5.1685459911
 20
5.7008178254
 30
0.0
 10
5.169472529
 20
5.7011476903
 30
0.0
 10
5.1703618872
 20
5.7015667123
 30
0.0
 10
5.171205341
 20
5.7020720447
 30
0.0
 10
5.1719953954
 20
5.7026576969
 30
0.0
 10
5.1729663001
 20
5.7035371651
 30
0.0
 10
5.1740110684
 20
5.7048089165
 30
0.0
 10
5.1747869195
 20
5.7062603205
 30
0.0
 10
5.1752283673
 20
5.7074939216
 30
0.0
 10
5.1755467858
 20
5.7087644176
 30
0.0
 10
5.1756438946
 20
5.7097489994
 30
0.0
 10
5.1756438946
 20
5.7104026813
 30
0.0
  0
SPLINE
  5
354
100
AcDbEntity
  8
ALL_ASSEMBLY_MEMBERS
100
AcDbSpline
 62
7
  6
CONTINUOUS
 70
0
 71
3
 72
15
 73
11
 74
0
 42
0.0000001
 43
0.0000001
 44
0.0000000001
 40
0.0
 40
0.0
 40
0.0
 40
0.0
 40
0.0383049204
 40
0.146951847
 40
0.3090012156
 40
0.4999997186
 40
0.6909982258
 40
0.8530477286
 40
0.9616949248
 40
1.0
 40
1.0
 40
1.0
 40
1.0
 10
5.4937694099
 20
4.6128022876
 30
0.0
 10
5.493627969
 20
4.61388782
 30
0.0
 10
5.49310535
 20
4.618054971
 30
0.0
 10
5.4921690011
 20
4.6268372541
 30
0.0
 10
5.4912270996
 20
4.6400022863
 30
0.0
 10
5.4908351519
 20
4.6555522636
 30
0.0
 10
5.4912270976
 20
4.6711022448
 30
0.0
 10
5.4921689982
 20
4.6842672887
 30
0.0
 10
5.4931053477
 20
4.6930495878
 30
0.0
 10
5.4936279683
 20
4.6972167509
 30
0.0
 10
5.4937694099
 20
4.6983022876
 30
0.0
  0
SPLINE
  5
355
100
AcDbEntity
  8
ALL_ASSEMBLY_MEMBERS
100
AcDbSpline
 62
7
  6
CONTINUOUS
 70
0
 71
3
 72
47
 73
43
 74
0
 42
0.0000001
 43
0.0000001
 44
0.0000000001
 40
0.0
 40
0.0
 40
0.0
 40
0.0
 40
0.0470163117
 40
0.0939659227
 40
0.1406949402
 40
0.1870562189
 40
0.2329578074
 40
0.27831716
 40
0.3230422427
 40
0.3670578691
 40
0.4526851131
 40
0.5346202262
 40
0.6123181256
 40
0.6851798058
 40
0.7525276112
 40
0.7839056041
 40
0.8136145944
 40
0.8415450362
 40
0.8675859977
 40
0.8916241454
 40
0.913542975
 40
0.9332250625
 40
0.9505536625
 40
0.958302744
 40
0.965426036
 40
0.9719118284
 40
0.977748398
 40
0.9829240092
 40
0.9874271314
 40
0.9912499706
 40
0.9943879021
 40
0.995698613
 40
0.9968363995
 40
0.9978006955
 40
0.9985909348
 40
0.9992065513
 40
0.999448699
 40
0.9996469787
 40
0.9998013194
 40
0.9999116504
 40
0.9999779009
 40
1.0
 40
1.0
 40
1.0
 40
1.0
 10
5.3117608019
 20
4.1055522876
 30
0.0
 10
5.3117608019
 20
4.1075308067
 30
0.0
 10
5.3118427229
 20
4.1114854916
 30
0.0
 10
5.3122027685
 20
4.1173966574
 30
0.0
 10
5.312791723
 20
4.1232617936
 30
0.0
 10
5.3136027998
 20
4.1290557108
 30
0.0
 10
5.314617595
 20
4.13475873
 30
0.0
 10
5.3158164241
 20
4.1403553715
 30
0.0
 10
5.3171809115
 20
4.145832095
 30
0.0
 10
5.3191757321
 20
4.1528944099
 30
0.0
 10
5.321962335
 20
4.1613555827
 30
0.0
 10
5.3256687825
 20
4.1709916323
 30
0.0
 10
5.329560575
 20
4.1799706066
 30
0.0
 10
5.3334943938
 20
4.1882554677
 30
0.0
 10
5.3367798838
 20
4.1946863525
 30
0.0
 10
5.3393247415
 20
4.199454551
 30
0.0
 10
5.3411238567
 20
4.202740303
 30
0.0
 10
5.3428450325
 20
4.2058124605
 30
0.0
 10
5.3444741533
 20
4.2086625004
 30
0.0
 10
5.3459974486
 20
4.211281531
 30
0.0
 10
5.3474025144
 20
4.2136596837
 30
0.0
 10
5.3486768432
 20
4.2157870715
 30
0.0
 10
5.349652748
 20
4.217398107
 30
0.0
 10
5.35035865
 20
4.2185547877
 30
0.0
 10
5.350828419
 20
4.2193210331
 30
0.0
 10
5.3512574296
 20
4.2200178622
 30
0.0
 10
5.3516445259
 20
4.2206442455
 30
0.0
 10
5.351988568
 20
4.2211991546
 30
0.0
 10
5.3522884678
 20
4.2216817245
 30
0.0
 10
5.3525434498
 20
4.2220912516
 30
0.0
 10
5.3527276811
 20
4.2223865734
 30
0.0
 10
5.3528522464
 20
4.2225859477
 30
0.0
 10
5.3529283911
 20
4.2227077074
 30
0.0
 10
5.3529929842
 20
4.2228108911
 30
0.0
 10
5.3530459045
 20
4.2228953665
 30
0.0
 10
5.3530828346
 20
4.2229542204
 30
0.0
 10
5.3531063307
 20
4.2229917059
 30
0.0
 10
5.3531199087
 20
4.2230132282
 30
0.0
 10
5.3531295784
 20
4.2230288831
 30
0.0
 10
5.3531385593
 20
4.2230425796
 30
0.0
 10
5.3531402528
 20
4.2230463117
 30
0.0
 10
5.3531450878
 20
4.2230529243
 30
0.0
 10
5.3531444099
 20
4.2230522876
 30
0.0
  0
SPLINE
  5
356
100
AcDbEntity
  8
ALL_ASSEMBLY_MEMBERS
100
AcDbSpline
 62
7
  6
CONTINUOUS
 70
0
 71
3
 72
46
 73
42
 74
0
 42
0.0000001
 43
0.0000001
 44
0.0000000001
 40
0.0
 40
0.0
 40
0.0
 40
0.0
 40
0.0470168174
 40
0.0939669383
 40
0.1406964673
 40
0.1870582506
 40
0.2329603308
 40
0.2783201675
 40
0.3670511084
 40
0.4526792673
 40
0.5346152599
 40
0.6123139896
 40
0.6851764496
 40
0.7525249737
 40
0.7839033011
 40
0.813612609
 40
0.8415433496
 40
0.8675845887
 40
0.8916229922
 40
0.9135420551
 40
0.9332243528
 40
0.950553138
 40
0.9583023014
 40
0.9654256685
 40
0.9719115292
 40
0.9777481605
 40
0.9829238272
 40
0.9874269984
 40
0.9912498786
 40
0.9943878431
 40
0.9956985676
 40
0.9968363658
 40
0.9978006717
 40
0.9985909192
 40
0.9992065421
 40
0.9994486924
 40
0.9996469742
 40
0.9998013166
 40
0.999911649
 40
0.9999779004
 40
1.0
 40
1.0
 40
1.0
 40
1.0
 10
5.019528018
 20
4.1055522876
 30
0.0
 10
5.019528018
 20
4.1035737685
 30
0.0
 10
5.0194460967
 20
4.0996190831
 30
0.0
 10
5.0190860511
 20
4.0937079171
 30
0.0
 10
5.0184970946
 20
4.0878427775
 30
0.0
 10
5.0176860264
 20
4.0820488682
 30
0.0
 10
5.016671201
 20
4.0763458168
 30
0.0
 10
5.0150845763
 20
4.0689382642
 30
0.0
 10
5.0127019762
 20
4.0599976329
 30
0.0
 10
5.00932649
 20
4.0497491645
 30
0.0
 10
5.005620035
 20
4.0401128972
 30
0.0
 10
5.0017282442
 20
4.031133977
 30
0.0
 10
4.9977944249
 20
4.0228491031
 30
0.0
 10
4.9945089353
 20
4.0164182213
 30
0.0
 10
4.9919640775
 20
4.0116500227
 30
0.0
 10
4.9901649625
 20
4.008364271
 30
0.0
 10
4.9884437868
 20
4.0052921134
 30
0.0
 10
4.9868146659
 20
4.0024420738
 30
0.0
 10
4.9852913707
 20
3.9998230433
 30
0.0
 10
4.9838863051
 20
3.9974448907
 30
0.0
 10
4.9826119763
 20
3.995317503
 30
0.0
 10
4.9816360715
 20
3.9937064677
 30
0.0
 10
4.9809301695
 20
3.9925497871
 30
0.0
 10
4.9804604007
 20
3.9917835418
 30
0.0
 10
4.9800313902
 20
3.9910867128
 30
0.0
 10
4.9796442939
 20
3.9904603296
 30
0.0
 10
4.9793002519
 20
3.9899054205
 30
0.0
 10
4.9790003518
 20
3.9894228504
 30
0.0
 10
4.9787453704
 20
3.9890133239
 30
0.0
 10
4.9785611377
 20
3.9887180009
 30
0.0
 10
4.9784365747
 20
3.9885186287
 30
0.0
 10
4.9783604249
 20
3.9883968641
 30
0.0
 10
4.978295847
 20
3.9882936947
 30
0.0
 10
4.9782428845
 20
3.9882091798
 30
0.0
 10
4.9782060512
 20
3.9881504167
 30
0.0
 10
4.9781824073
 20
3.9881127925
 30
0.0
 10
4.9781691395
 20
3.9880915615
 30
0.0
 10
4.9781586682
 20
3.9880751538
 30
0.0
 10
4.9781515025
 20
3.9880631619
 30
0.0
 10
4.9781466229
 20
3.9880564376
 30
0.0
 10
4.9781450878
 20
3.9880529243
 30
0.0
 10
4.9781444099
 20
3.9880522876
 30
0.0
  0
SPLINE
  5
357
100
AcDbEntity
  8
ALL_ASSEMBLY_MEMBERS
100
AcDbSpline
 62
7
  6
CONTINUOUS
 70
0
 71
3
 72
36
 73
32
 74
0
 42
0.0000001
 43
0.0000001
 44
0.0000000001
 40
0.0
 40
0.0
 40
0.0
 40
0.0
 40
0.000074677
 40
0.0002985048
 40
0.0006711771
 40
0.001192388
 40
0.0018618313
 40
0.002679201
 40
0.0047564953
 40
0.0074218233
 40
0.0106727377
 40
0.0145067919
 40
0.0189215397
 40
0.0239145356
 40
0.0294833346
 40
0.0423351513
 40
0.0574337083
 40
0.0747282781
 40
0.0941681878
 40
0.1157028388
 40
0.1392812921
 40
0.164845639
 40
0.2216773915
 40
0.2856902636
 40
0.3563824338
 40
0.4332682334
 40
0.5158720059
 40
0.6037362184
 40
0.696454139
 40
0.7936441249
 40
1.0
 40
1.0
 40
1.0
 40
1.0
 10
4.9781444099
 20
4.2230522876
 30
0.0
 10
4.9781432999
 20
4.2230533278
 30
0.0
 10
4.9781512105
 20
4.2230425153
 30
0.0
 10
4.9781539761
 20
4.2230364087
 30
0.0
 10
4.978168658
 20
4.223014015
 30
0.0
 10
4.9781844585
 20
4.22298842
 30
0.0
 10
4.97820664
 20
4.2229532405
 30
0.0
 10
4.9782450062
 20
4.2228919863
 30
0.0
 10
4.978305278
 20
4.222795843
 30
0.0
 10
4.9783915997
 20
4.2226578826
 30
0.0
 10
4.9784968948
 20
4.2224894308
 30
0.0
 10
4.9786209404
 20
4.2222907264
 30
0.0
 10
4.978763662
 20
4.2220618284
 30
0.0
 10
4.9789249337
 20
4.2218028583
 30
0.0
 10
4.9791768326
 20
4.2213978536
 30
0.0
 10
4.9795369514
 20
4.2208177336
 30
0.0
 10
4.9800216976
 20
4.2200338367
 30
0.0
 10
4.9805750944
 20
4.2191346043
 30
0.0
 10
4.9811947311
 20
4.2181221951
 30
0.0
 10
4.9818781763
 20
4.2169987655
 30
0.0
 10
4.9826229709
 20
4.2157666327
 30
0.0
 10
4.9837338004
 20
4.2139155916
 30
0.0
 10
4.9852538724
 20
4.2113495528
 30
0.0
 10
4.9872131809
 20
4.207975387
 30
0.0
 10
4.9893407562
 20
4.204226747
 30
0.0
 10
4.9916071107
 20
4.200121746
 30
0.0
 10
4.9939830791
 20
4.195678152
 30
0.0
 10
4.9964398391
 20
4.1909126712
 30
0.0
 10
4.9989448902
 20
4.1858385726
 30
0.0
 10
5.002375636
 20
4.1785314821
 30
0.0
 10
5.0048170405
 20
4.1728467956
 30
0.0
 10
5.0063712852
 20
4.1689410856
 30
0.0
  0
SPLINE
  5
358
100
AcDbEntity
  8
ALL_ASSEMBLY_MEMBERS
100
AcDbSpline
 62
7
  6
CONTINUOUS
 70
0
 71
3
 72
14
 73
10
 74
0
 42
0.0000001
 43
0.0000001
 44
0.0000000001
 40
0.0
 40
0.0
 40
0.0
 40
0.0
 40
0.2346306655
 40
0.3568803269
 40
0.4818971907
 40
0.6092462517
 40
0.7384537132
 40
0.8689768463
 40
1.0
 40
1.0
 40
1.0
 40
1.0
 10
5.0069866974
 20
4.1673782459
 30
0.0
 10
5.0087881501
 20
4.1627543974
 30
0.0
 10
5.0113033337
 20
4.1556291547
 30
0.0
 10
5.0141357761
 20
4.145836232
 30
0.0
 10
5.0160038044
 20
4.1381336144
 30
0.0
 10
5.0175329853
 20
4.1302063668
 30
0.0
 10
5.0186699217
 20
4.1220950525
 30
0.0
 10
5.0193674955
 20
4.1138562084
 30
0.0
 10
5.019528018
 20
4.1083233941
 30
0.0
 10
5.019528018
 20
4.1055522876
 30
0.0
  0
SPLINE
  5
359
100
AcDbEntity
  8
ALL_ASSEMBLY_MEMBERS
100
AcDbSpline
 62
7
  6
CONTINUOUS
 70
0
 71
3
 72
35
 73
31
 74
0
 42
0.0000001
 43
0.0000001
 44
0.0000000001
 40
0.0
 40
0.0
 40
0.0
 40
0.0
 40
0.0000746784
 40
0.0002985088
 40
0.0006711848
 40
0.0011924005
 40
0.0018618499
 40
0.0026792268
 40
0.0047565393
 40
0.0074218906
 40
0.0106728336
 40
0.0145069219
 40
0.0189217096
 40
0.0239147512
 40
0.0294836021
 40
0.0423355382
 40
0.0574342324
 40
0.0747289579
 40
0.0941690429
 40
0.1157038897
 40
0.1392825596
 40
0.1648471404
 40
0.2216794111
 40
0.2856928662
 40
0.3563856827
 40
0.4332721865
 40
0.5158767126
 40
0.6037417266
 40
0.7936422367
 40
1.0
 40
1.0
 40
1.0
 40
1.0
 10
5.3531444099
 20
3.9880522876
 30
0.0
 10
5.3531432999
 20
3.9880533278
 30
0.0
 10
5.3531407923
 20
3.9880590772
 30
0.0
 10
5.3531328113
 20
3.9880700712
 30
0.0
 10
5.3531210998
 20
3.9880896813
 30
0.0
 10
5.3531039879
 20
3.9881165052
 30
0.0
 10
5.3530823138
 20
3.9881512093
 30
0.0
 10
5.3530437061
 20
3.9882126898
 30
0.0
 10
5.3529835923
 20
3.9883086851
 30
0.0
 10
5.3528972017
 20
3.9884467099
 30
0.0
 10
5.3527919315
 20
3.9886151384
 30
0.0
 10
5.3526678774
 20
3.9888138507
 30
0.0
 10
5.3525251587
 20
3.9890427461
 30
0.0
 10
5.3523638861
 20
3.989301717
 30
0.0
 10
5.3521119875
 20
3.9897067214
 30
0.0
 10
5.3517518684
 20
3.9902868417
 30
0.0
 10
5.3512671223
 20
3.9910707385
 30
0.0
 10
5.3507137256
 20
3.9919699708
 30
0.0
 10
5.350094089
 20
3.9929823799
 30
0.0
 10
5.3494106438
 20
3.9941058094
 30
0.0
 10
5.3486658492
 20
3.9953379422
 30
0.0
 10
5.3475550197
 20
3.9971889832
 30
0.0
 10
5.3460349478
 20
3.999755022
 30
0.0
 10
5.3440756392
 20
4.0031291876
 30
0.0
 10
5.3419480643
 20
4.0068778281
 30
0.0
 10
5.3396817083
 20
4.0109828267
 30
0.0
 10
5.3373057463
 20
4.0154264307
 30
0.0
 10
5.3339417968
 20
4.0219514987
 30
0.0
 10
5.3296585581
 20
4.0308371929
 30
0.0
 10
5.3264717796
 20
4.0382577789
 30
0.0
 10
5.324917535
 20
4.0421634889
 30
0.0
  0
SPLINE
  5
35A
100
AcDbEntity
  8
ALL_ASSEMBLY_MEMBERS
100
AcDbSpline
 62
7
  6
CONTINUOUS
 70
0
 71
3
 72
14
 73
10
 74
0
 42
0.0000001
 43
0.0000001
 44
0.0000000001
 40
0.0
 40
0.0
 40
0.0
 40
0.0
 40
0.2346306526
 40
0.3568803015
 40
0.4818971575
 40
0.6092462089
 40
0.7384536866
 40
0.8689768417
 40
1.0
 40
1.0
 40
1.0
 40
1.0
 10
5.3243021267
 20
4.0437263186
 30
0.0
 10
5.3225006737
 20
4.0483501676
 30
0.0
 10
5.3199854891
 20
4.0554754109
 30
0.0
 10
5.3171530461
 20
4.0652683346
 30
0.0
 10
5.3152850173
 20
4.0729709529
 30
0.0
 10
5.313755835
 20
4.0808982017
 30
0.0
 10
5.3126188992
 20
4.0890095182
 30
0.0
 10
5.3119213249
 20
4.0972483647
 30
0.0
 10
5.3117608019
 20
4.1027811805
 30
0.0
 10
5.3117608019
 20
4.1055522876
 30
0.0
  0
SPLINE
  5
35B
100
AcDbEntity
  8
ALL_ASSEMBLY_MEMBERS
100
AcDbSpline
 62
7
  6
CONTINUOUS
 70
0
 71
3
 72
23
 73
19
 74
0
 42
0.0000001
 43
0.0000001
 44
0.0000000001
 40
0.0
 40
0.0
 40
0.0
 40
0.0
 40
0.0625894612
 40
0.1251103516
 40
0.1875527937
 40
0.2499535372
 40
0.3123715312
 40
0.3748506607
 40
0.4374005927
 40
0.4999981737
 40
0.5625959114
 40
0.6251459903
 40
0.6876251787
 40
0.7500426322
 40
0.8124429849
 40
0.8748853777
 40
0.9374080387
 40
1.0
 40
1.0
 40
1.0
 40
1.0
 10
5.1656444099
 20
5.0430522876
 30
0.0
 10
5.1601394902
 20
5.0430522876
 30
0.0
 10
5.1490968483
 20
5.0442909422
 30
0.0
 10
5.1333886486
 20
5.0497206142
 30
0.0
 10
5.1191991033
 20
5.0583358652
 30
0.0
 10
5.1070566324
 20
5.0696222802
 30
0.0
 10
5.0973124282
 20
5.0830265178
 30
0.0
 10
5.0902024696
 20
5.0980022062
 30
0.0
 10
5.0858783246
 20
5.1140178818
 30
0.0
 10
5.0844272999
 20
5.1305518142
 30
0.0
 10
5.0858781581
 20
5.1470857745
 30
0.0
 10
5.0902021531
 20
5.1631015246
 30
0.0
 10
5.0973119568
 20
5.1780772524
 30
0.0
 10
5.1070559596
 20
5.1914815408
 30
0.0
 10
5.1191982346
 20
5.2027680306
 30
0.0
 10
5.1333877347
 20
5.2113835903
 30
0.0
 10
5.1490962587
 20
5.2168134843
 30
0.0
 10
5.1601392703
 20
5.2180522876
 30
0.0
 10
5.1656444099
 20
5.2180522876
 30
0.0
  0
SPLINE
  5
35C
100
AcDbEntity
  8
ALL_ASSEMBLY_MEMBERS
100
AcDbSpline
 62
7
  6
CONTINUOUS
 70
0
 71
3
 72
23
 73
19
 74
0
 42
0.0000001
 43
0.0000001
 44
0.0000000001
 40
0.0
 40
0.0
 40
0.0
 40
0.0
 40
0.0625897451
 40
0.1251108001
 40
0.1875532231
 40
0.2499539339
 40
0.3123718958
 40
0.3748510232
 40
0.4374009447
 40
0.4999985106
 40
0.5625962383
 40
0.6251463022
 40
0.6876254857
 40
0.7500429124
 40
0.8124432601
 40
0.8748856248
 40
0.9374081845
 40
1.0
 40
1.0
 40
1.0
 40
1.0
 10
5.1656444099
 20
5.2180522876
 30
0.0
 10
5.1711493546
 20
5.2180522876
 30
0.0
 10
5.1821920354
 20
5.216813617
 30
0.0
 10
5.1979002678
 20
5.2113839216
 30
0.0
 10
5.2120898065
 20
5.2027686398
 30
0.0
 10
5.2242322582
 20
5.191482216
 30
0.0
 10
5.2339764425
 20
5.1780779712
 30
0.0
 10
5.2410863837
 20
5.1631022791
 30
0.0
 10
5.2454105116
 20
5.1470866014
 30
0.0
 10
5.2468615199
 20
5.1305526708
 30
0.0
 10
5.2454106462
 20
5.1140187154
 30
0.0
 10
5.2410866375
 20
5.0980029718
 30
0.0
 10
5.2339768216
 20
5.0830272543
 30
0.0
 10
5.2242328089
 20
5.0696229773
 30
0.0
 10
5.2120905282
 20
5.058336501
 30
0.0
 10
5.1979010297
 20
5.0497209624
 30
0.0
 10
5.1821925269
 20
5.0442910821
 30
0.0
 10
5.1711495367
 20
5.0430522876
 30
0.0
 10
5.1656444099
 20
5.0430522876
 30
0.0
  0
ELLIPSE
  5
35D
100
AcDbEntity
  8
ALL_ASSEMBLY_MEMBERS
100
AcDbEllipse
 62
7
  6
CONTINUOUS
 10
5.1656444099
 20
5.5551098406
 30
0.0
 11
0.4356620756
 21
0.3097087495
 31
0.0
 40
0.6863174071
 41
-3.9803437747
 42
-3.9676270558
  0
ELLIPSE
  5
35E
100
AcDbEntity
  8
ALL_ASSEMBLY_MEMBERS
100
AcDbEllipse
 62
7
  6
CONTINUOUS
 10
5.1656444099
 20
5.5653723591
 30
0.0
 11
0.4845296417
 21
0.0531218498
 31
0.0
 40
0.2751161207
 41
2.7138845034
 42
2.7266070117
  0
ELLIPSE
  5
35F
100
AcDbEntity
  8
ALL_ASSEMBLY_MEMBERS
100
AcDbEllipse
 62
7
  6
CONTINUOUS
 10
5.1656444099
 20
5.5245626727
 30
0.0
 11
0.4845296416
 21
-0.0531218552
 31
0.0
 40
0.2751161442
 41
-2.726607006
 42
-2.7138844977
  0
ELLIPSE
  5
360
100
AcDbEntity
  8
ALL_ASSEMBLY_MEMBERS
100
AcDbEllipse
 62
7
  6
CONTINUOUS
 10
5.1656444099
 20
5.5348251921
 30
0.0
 11
-0.4356620527
 21
0.3097088087
 31
0.0
 40
0.6863174268
 41
0.8260345095
 42
0.8387512283
  0
ELLIPSE
  5
361
100
AcDbEntity
  8
ALL_ASSEMBLY_MEMBERS
100
AcDbEllipse
 62
7
  6
CONTINUOUS
 10
5.1656444099
 20
5.5469517546
 30
0.0
 11
-0.2110172983
 21
0.9517381511
 31
0.0
 40
0.4585406789
 41
1.4848993014
 42
1.4925274221
  0
ELLIPSE
  5
362
100
AcDbEntity
  8
ALL_ASSEMBLY_MEMBERS
100
AcDbEllipse
 62
7
  6
CONTINUOUS
 10
5.1656444099
 20
5.5543279439
 30
0.0
 11
-0.1839239125
 21
1.4338152941
 31
0.0
 40
0.3128035903
 41
1.5410292945
 42
1.5461141727
  0
ELLIPSE
  5
363
100
AcDbEntity
  8
ALL_ASSEMBLY_MEMBERS
100
AcDbEllipse
 62
7
  6
CONTINUOUS
 10
5.1656444099
 20
5.5152973578
 30
0.0
 11
0.4841680723
 21
0.069531332
 31
0.0
 40
0.3415053426
 41
2.6695629887
 42
2.6797561081
  0
ELLIPSE
  5
364
100
AcDbEntity
  8
ALL_ASSEMBLY_MEMBERS
100
AcDbEllipse
 62
7
  6
CONTINUOUS
 10
5.1656444099
 20
5.4932071875
 30
0.0
 11
0.4021127937
 21
0.3867250719
 31
0.0
 40
0.7000252448
 41
-4.164805553
 42
-4.15715572
  0
ELLIPSE
  5
365
100
AcDbEntity
  8
ALL_ASSEMBLY_MEMBERS
100
AcDbEllipse
 62
7
  6
CONTINUOUS
 10
5.1656444099
 20
5.4444667375
 30
0.0
 11
0.2001645895
 21
1.0730713555
 31
0.0
 40
0.4114299686
 41
1.5606800957
 42
1.5657826121
  0
ELLIPSE
  5
366
100
AcDbEntity
  8
ALL_ASSEMBLY_MEMBERS
100
AcDbEllipse
 62
7
  6
CONTINUOUS
 10
5.1656444099
 20
5.3512625648
 30
0.0
 11
0.173492527
 21
2.1521377604
 31
0.0
 40
0.2103210759
 41
1.498485551
 42
1.5010376571
  0
ELLIPSE
  5
367
100
AcDbEntity
  8
ALL_ASSEMBLY_MEMBERS
100
AcDbEllipse
 62
7
  6
CONTINUOUS
 10
5.1656444099
 20
5.738672556
 30
0.0
 11
-0.1734925196
 21
2.1521387659
 31
0.0
 40
0.210320979
 41
-4.6426302942
 42
-4.6400781881
  0
ELLIPSE
  5
368
100
AcDbEntity
  8
ALL_ASSEMBLY_MEMBERS
100
AcDbEllipse
 62
7
  6
CONTINUOUS
 10
5.1656444099
 20
5.6454682745
 30
0.0
 11
-0.2001646079
 21
1.0730711015
 31
0.0
 40
0.4114300582
 41
-4.7073753074
 42
-4.7022727909
  0
ELLIPSE
  5
369
100
AcDbEntity
  8
ALL_ASSEMBLY_MEMBERS
100
AcDbEllipse
 62
7
  6
CONTINUOUS
 10
5.1656444099
 20
5.596727845
 30
0.0
 11
-0.4021127937
 21
0.3867250719
 31
0.0
 40
0.7000252448
 41
1.0155630664
 42
1.0232128994
  0
ELLIPSE
  5
36A
100
AcDbEntity
  8
ALL_ASSEMBLY_MEMBERS
100
AcDbEllipse
 62
7
  6
CONTINUOUS
 10
5.1656444099
 20
5.5746376746
 30
0.0
 11
0.4841680723
 21
-0.069531332
 31
0.0
 40
0.3415053426
 41
-2.6797561081
 42
-2.6695629887
  0
ELLIPSE
  5
36B
100
AcDbEntity
  8
ALL_ASSEMBLY_MEMBERS
100
AcDbEllipse
 62
7
  6
CONTINUOUS
 10
5.1656444099
 20
5.5741215852
 30
0.0
 11
0.4841680714
 21
0.0695313633
 31
0.0
 40
0.3415054598
 41
2.7840417005
 42
2.7942212431
  0
ELLIPSE
  5
36C
100
AcDbEntity
  8
ALL_ASSEMBLY_MEMBERS
100
AcDbEllipse
 62
7
  6
CONTINUOUS
 10
5.1656444099
 20
5.5886535554
 30
0.0
 11
0.3546536662
 21
0.4793660332
 31
0.0
 40
0.6893673371
 41
-4.2104130135
 42
-4.2002376741
  0
ELLIPSE
  5
36D
100
AcDbEntity
  8
ALL_ASSEMBLY_MEMBERS
100
AcDbEllipse
 62
7
  6
CONTINUOUS
 10
5.1656444099
 20
5.604979462
 30
0.0
 11
0.2001647206
 21
1.0730695455
 31
0.0
 40
0.4114306072
 41
-4.6105355829
 42
-4.6054491537
  0
ELLIPSE
  5
36E
100
AcDbEntity
  8
ALL_ASSEMBLY_MEMBERS
100
AcDbEllipse
 62
7
  6
CONTINUOUS
 10
5.1656444099
 20
5.5542678207
 30
0.0
 11
-0.200164647
 21
1.0730705612
 31
0.0
 40
0.4114302488
 41
1.4638566668
 42
1.468943096
  0
ELLIPSE
  5
36F
100
AcDbEntity
  8
ALL_ASSEMBLY_MEMBERS
100
AcDbEllipse
 62
7
  6
CONTINUOUS
 10
5.1656444099
 20
5.5705937578
 30
0.0
 11
-0.3546536662
 21
0.4793660332
 31
0.0
 40
0.6893673371
 41
1.0586450205
 42
1.06882036
  0
ELLIPSE
  5
370
100
AcDbEntity
  8
ALL_ASSEMBLY_MEMBERS
100
AcDbEllipse
 62
7
  6
CONTINUOUS
 10
5.1656444099
 20
5.5851257281
 30
0.0
 11
0.4841680714
 21
-0.0695313633
 31
0.0
 40
0.3415054598
 41
-2.7942212431
 42
-2.7840417005
  0
ELLIPSE
  5
371
100
AcDbEntity
  8
ALL_ASSEMBLY_MEMBERS
100
AcDbEllipse
 62
7
  6
CONTINUOUS
 10
5.1656444099
 20
5.5358174311
 30
0.0
 11
0.4841680714
 21
0.0695313633
 31
0.0
 40
0.3415054598
 41
2.7840417005
 42
2.7942212431
  0
ELLIPSE
  5
372
100
AcDbEntity
  8
ALL_ASSEMBLY_MEMBERS
100
AcDbEllipse
 62
7
  6
CONTINUOUS
 10
5.1656444099
 20
5.5430834175
 30
0.0
 11
0.4668511673
 21
0.2089255909
 31
0.0
 40
0.6246664746
 41
2.5502781873
 42
2.5604535267
  0
ELLIPSE
  5
373
100
AcDbEntity
  8
ALL_ASSEMBLY_MEMBERS
100
AcDbEllipse
 62
7
  6
CONTINUOUS
 10
5.1656444099
 20
5.5612233379
 30
0.0
 11
0.2110171867
 21
0.9517391668
 31
0.0
 40
0.4585402462
 41
-4.5883562274
 42
-4.5807268405
  0
ELLIPSE
  5
374
100
AcDbEntity
  8
ALL_ASSEMBLY_MEMBERS
100
AcDbEllipse
 62
7
  6
CONTINUOUS
 10
5.1656444099
 20
5.523239668
 30
0.0
 11
-0.211017168
 21
0.9517393376
 31
0.0
 40
0.4585401734
 41
1.4391342299
 42
1.4467636167
  0
ELLIPSE
  5
375
100
AcDbEntity
  8
ALL_ASSEMBLY_MEMBERS
100
AcDbEllipse
 62
7
  6
CONTINUOUS
 10
5.1656444099
 20
5.5413795935
 30
0.0
 11
0.4668511673
 21
-0.2089255909
 31
0.0
 40
0.6246664746
 41
-2.5604535267
 42
-2.5502781873
  0
ELLIPSE
  5
376
100
AcDbEntity
  8
ALL_ASSEMBLY_MEMBERS
100
AcDbEllipse
 62
7
  6
CONTINUOUS
 10
5.1656444099
 20
5.5486455799
 30
0.0
 11
0.4841680714
 21
-0.0695313633
 31
0.0
 40
0.3415054598
 41
-2.7942212431
 42
-2.7840417005
  0
ELLIPSE
  5
377
100
AcDbEntity
  8
ALL_ASSEMBLY_MEMBERS
100
AcDbEllipse
 62
7
  6
CONTINUOUS
 10
5.1656444099
 20
5.5322595648
 30
0.0
 11
0.4668512029
 21
-0.2089254365
 31
0.0
 40
0.6246663258
 41
-2.6063101801
 42
-2.6012078026
  0
ELLIPSE
  5
378
100
AcDbEntity
  8
ALL_ASSEMBLY_MEMBERS
100
AcDbEllipse
 62
7
  6
CONTINUOUS
 10
5.1656444099
 20
5.5013115326
 30
0.0
 11
-0.2578960711
 21
0.7014332479
 31
0.0
 40
0.5851642007
 41
1.2648458323
 42
1.272503669
  0
ELLIPSE
  5
379
100
AcDbEntity
  8
ALL_ASSEMBLY_MEMBERS
100
AcDbEllipse
 62
7
  6
CONTINUOUS
 10
5.1656444099
 20
5.4339434521
 30
0.0
 11
-0.1839239562
 21
1.4338136914
 31
0.0
 40
0.3128039274
 41
1.4315508783
 42
1.436659149
  0
ELLIPSE
  5
37A
100
AcDbEntity
  8
ALL_ASSEMBLY_MEMBERS
100
AcDbEllipse
 62
7
  6
CONTINUOUS
 10
5.1656444099
 20
5.6580664653
 30
0.0
 11
0.3259986888
 21
0.53452672
 31
0.0
 40
0.6711697407
 41
-1.3248817727
 42
-1.3025825674
  0
ELLIPSE
  5
37B
100
AcDbEntity
  8
ALL_ASSEMBLY_MEMBERS
100
AcDbEllipse
 62
7
  6
CONTINUOUS
 10
5.1656444099
 20
5.7589879953
 30
0.0
 11
0.1770586083
 21
1.7931568303
 31
0.0
 40
0.2516550235
 41
-4.5935119134
 42
-4.5884036427
  0
ELLIPSE
  5
37C
100
AcDbEntity
  8
ALL_ASSEMBLY_MEMBERS
100
AcDbEllipse
 62
7
  6
CONTINUOUS
 10
5.1656444099
 20
5.6579357806
 30
0.0
 11
0.2578960711
 21
0.7014332479
 31
0.0
 40
0.5851642007
 41
-4.4140963225
 42
-4.4064384859
  0
ELLIPSE
  5
37D
100
AcDbEntity
  8
ALL_ASSEMBLY_MEMBERS
100
AcDbEllipse
 62
7
  6
CONTINUOUS
 10
5.1656444099
 20
5.633177356
 30
0.0
 11
0.4356621873
 21
0.3097084593
 31
0.0
 40
0.6863173103
 41
-3.8709533301
 42
-3.8582013196
  0
ELLIPSE
  5
37E
100
AcDbEntity
  8
ALL_ASSEMBLY_MEMBERS
100
AcDbEllipse
 62
7
  6
CONTINUOUS
 10
5.1656444099
 20
5.6120669487
 30
0.0
 11
0.4845296421
 21
0.0531218233
 31
0.0
 40
0.2751160055
 41
2.8232569308
 42
2.835996958
  0
ELLIPSE
  5
37F
100
AcDbEntity
  8
ALL_ASSEMBLY_MEMBERS
100
AcDbEllipse
 62
7
  6
CONTINUOUS
 10
5.1656444099
 20
5.6155062729
 30
0.0
 11
0.3259987817
 21
0.5345265359
 31
0.0
 40
0.671169814
 41
-1.2507643659
 42
-1.2286210799
  0
ELLIPSE
  5
380
100
AcDbEntity
  8
ALL_ASSEMBLY_MEMBERS
100
AcDbEllipse
 62
7
  6
CONTINUOUS
 10
5.1656444099
 20
5.5443879573
 30
0.0
 11
0.4630591816
 21
0.2245111552
 31
0.0
 40
0.6386464466
 41
-0.6183052266
 42
-0.6035566623
  0
ELLIPSE
  5
381
100
AcDbEntity
  8
ALL_ASSEMBLY_MEMBERS
100
AcDbEllipse
 62
7
  6
CONTINUOUS
 10
5.1656444099
 20
5.5557183782
 30
0.0
 11
0.4846322909
 21
0.0448829864
 31
0.0
 40
0.2379966242
 41
-0.3253141803
 42
-0.3105556307
  0
ELLIPSE
  5
382
100
AcDbEntity
  8
ALL_ASSEMBLY_MEMBERS
100
AcDbEllipse
 62
7
  6
CONTINUOUS
 10
5.1656444099
 20
5.5342166543
 30
0.0
 11
0.4846322909
 21
-0.0448829864
 31
0.0
 40
0.2379966242
 41
0.3105556307
 42
0.3253141803
  0
ELLIPSE
  5
383
100
AcDbEntity
  8
ALL_ASSEMBLY_MEMBERS
100
AcDbEllipse
 62
7
  6
CONTINUOUS
 10
5.1656444099
 20
5.5436586688
 30
0.0
 11
0.4734427814
 21
-0.1768432279
 31
0.0
 40
0.588594106
 41
0.5196885314
 42
0.5307507159
  0
ELLIPSE
  5
384
100
AcDbEntity
  8
ALL_ASSEMBLY_MEMBERS
100
AcDbEllipse
 62
7
  6
CONTINUOUS
 10
5.1656444099
 20
5.5665770675
 30
0.0
 11
-0.207495773
 21
0.9858241387
 31
0.0
 40
0.4443956471
 41
-1.6987885097
 42
-1.6914161614
  0
ELLIPSE
  5
385
100
AcDbEntity
  8
ALL_ASSEMBLY_MEMBERS
100
AcDbEllipse
 62
7
  6
CONTINUOUS
 10
5.1656444099
 20
5.5094272212
 30
0.0
 11
0.4847035227
 21
0.0351495033
 31
0.0
 40
0.1909698234
 41
-0.2802019056
 42
-0.2617015349
  0
ELLIPSE
  5
386
100
AcDbEntity
  8
ALL_ASSEMBLY_MEMBERS
100
AcDbEllipse
 62
7
  6
CONTINUOUS
 10
5.1656444099
 20
5.4894188376
 30
0.0
 11
0.4782981758
 21
0.1456294577
 31
0.0
 40
0.5412725914
 41
-0.4111891223
 42
-0.3926539211
  0
ELLIPSE
  5
387
100
AcDbEntity
  8
ALL_ASSEMBLY_MEMBERS
100
AcDbEllipse
 62
7
  6
CONTINUOUS
 10
5.1656444099
 20
5.4460488043
 30
0.0
 11
0.2800134072
 21
0.636735321
 31
0.0
 40
0.6214444929
 41
-1.1842741772
 42
-1.1731335909
  0
ELLIPSE
  5
388
100
AcDbEntity
  8
ALL_ASSEMBLY_MEMBERS
100
AcDbEllipse
 62
7
  6
CONTINUOUS
 10
5.1656444099
 20
5.3706672764
 30
0.0
 11
0.190868369
 21
1.2357421379
 31
0.0
 40
0.3605861895
 41
-1.3842710587
 42
-1.3768349866
  0
ELLIPSE
  5
389
100
AcDbEntity
  8
ALL_ASSEMBLY_MEMBERS
100
AcDbEllipse
 62
7
  6
CONTINUOUS
 10
5.1656444099
 20
5.7192677787
 30
0.0
 11
-0.1908683611
 21
1.2357423122
 31
0.0
 40
0.3605861413
 41
-1.7647576494
 42
-1.7573215773
  0
ELLIPSE
  5
38A
100
AcDbEntity
  8
ALL_ASSEMBLY_MEMBERS
100
AcDbEllipse
 62
7
  6
CONTINUOUS
 10
5.1656444099
 20
5.6438862207
 30
0.0
 11
-0.2800134331
 21
0.6367352539
 31
0.0
 40
0.6214445296
 41
-1.968459128
 42
-1.9573185418
  0
ELLIPSE
  5
38B
100
AcDbEntity
  8
ALL_ASSEMBLY_MEMBERS
100
AcDbEllipse
 62
7
  6
CONTINUOUS
 10
5.1656444099
 20
5.6005161911
 30
0.0
 11
0.4782981788
 21
-0.1456294353
 31
0.0
 40
0.541272552
 41
0.3926538838
 42
0.411189085
  0
ELLIPSE
  5
38C
100
AcDbEntity
  8
ALL_ASSEMBLY_MEMBERS
100
AcDbEllipse
 62
7
  6
CONTINUOUS
 10
5.1656444099
 20
5.5805078092
 30
0.0
 11
0.4847035227
 21
-0.0351495
 31
0.0
 40
0.1909698069
 41
0.2617015324
 42
0.2802019031
  0
ELLIPSE
  5
38D
100
AcDbEntity
  8
ALL_ASSEMBLY_MEMBERS
100
AcDbEllipse
 62
7
  6
CONTINUOUS
 10
5.1656444099
 20
5.5085114068
 30
0.0
 11
0.484529642
 21
-0.0531218287
 31
0.0
 40
0.275116029
 41
-2.8385463295
 42
-2.8258040739
  0
ELLIPSE
  5
38E
100
AcDbEntity
  8
ALL_ASSEMBLY_MEMBERS
100
AcDbEllipse
 62
7
  6
CONTINUOUS
 10
5.1656444099
 20
5.4866713921
 30
0.0
 11
-0.4356621459
 21
0.3097085669
 31
0.0
 40
0.6863173461
 41
0.7140568349
 42
0.7268114943
  0
ELLIPSE
  5
38F
100
AcDbEntity
  8
ALL_ASSEMBLY_MEMBERS
100
AcDbEllipse
 62
7
  6
CONTINUOUS
 10
5.1656444099
 20
5.4611833593
 30
0.0
 11
-0.2578960294
 21
0.701433387
 31
0.0
 40
0.5851641221
 41
1.2622921148
 42
1.2699517446
  0
ELLIPSE
  5
390
100
AcDbEntity
  8
ALL_ASSEMBLY_MEMBERS
100
AcDbEllipse
 62
7
  6
CONTINUOUS
 10
5.1656444099
 20
5.3573952241
 30
0.0
 11
-0.1770586193
 21
1.7931559956
 31
0.0
 40
0.2516551382
 41
1.4442558639
 42
1.4493654161
  0
ELLIPSE
  5
391
100
AcDbEntity
  8
ALL_ASSEMBLY_MEMBERS
100
AcDbEllipse
 62
7
  6
CONTINUOUS
 10
5.1656444099
 20
5.7270678112
 30
0.0
 11
0.177058616
 21
1.7931562471
 31
0.0
 40
0.2516551037
 41
-4.5909580771
 42
-4.5858485249
  0
ELLIPSE
  5
392
100
AcDbEntity
  8
ALL_ASSEMBLY_MEMBERS
100
AcDbEllipse
 62
7
  6
CONTINUOUS
 10
5.1656444099
 20
5.6059816189
 30
0.0
 11
0.3546537589
 21
0.4793658574
 31
0.0
 40
0.6893673822
 41
-4.1543810131
 42
-4.1441693573
  0
ELLIPSE
  5
393
100
AcDbEntity
  8
ALL_ASSEMBLY_MEMBERS
100
AcDbEllipse
 62
7
  6
CONTINUOUS
 10
5.1656444099
 20
5.5905076002
 30
0.0
 11
0.4668512029
 21
0.2089254365
 31
0.0
 40
0.6246663258
 41
2.6012078026
 42
2.6063101801
  0
ELLIPSE
  5
394
100
AcDbEntity
  8
ALL_ASSEMBLY_MEMBERS
100
AcDbEllipse
 62
7
  6
CONTINUOUS
 10
5.1656444099
 20
5.5354215307
 30
0.0
 11
0.4817044942
 21
-0.0691776629
 31
0.0
 40
0.3415058114
 41
-2.7050160301
 42
-2.6947853447
  0
ELLIPSE
  5
395
100
AcDbEntity
  8
ALL_ASSEMBLY_MEMBERS
100
AcDbEllipse
 62
7
  6
CONTINUOUS
 10
5.1656444099
 20
5.5030754413
 30
0.0
 11
0.4644757236
 21
-0.2078624458
 31
0.0
 40
0.6246664002
 41
-2.6016242452
 42
-2.5913732513
  0
ELLIPSE
  5
396
100
AcDbEntity
  8
ALL_ASSEMBLY_MEMBERS
100
AcDbEllipse
 62
7
  6
CONTINUOUS
 10
5.1656444099
 20
5.5030754413
 30
0.0
 11
0.4668511851
 21
-0.2089255137
 31
0.0
 40
0.6246664002
 41
-2.601207666
 42
-2.5910091369
  0
ELLIPSE
  5
397
100
AcDbEntity
  8
ALL_ASSEMBLY_MEMBERS
100
AcDbEllipse
 62
7
  6
CONTINUOUS
 10
5.1656444099
 20
5.5158134479
 30
0.0
 11
0.4817044969
 21
-0.0691775694
 31
0.0
 40
0.3415054598
 41
-2.8149612884
 42
-2.8098396765
  0
ELLIPSE
  5
398
100
AcDbEntity
  8
ALL_ASSEMBLY_MEMBERS
100
AcDbEllipse
 62
7
  6
CONTINUOUS
 10
5.1656444099
 20
5.5158134479
 30
0.0
 11
0.4841680714
 21
-0.0695313633
 31
0.0
 40
0.3415054598
 41
-2.8145971741
 42
-2.804406043
  0
ELLIPSE
  5
399
100
AcDbEntity
  8
ALL_ASSEMBLY_MEMBERS
100
AcDbEllipse
 62
7
  6
CONTINUOUS
 10
5.1656444099
 20
5.5354215307
 30
0.0
 11
0.4841680686
 21
-0.0695314572
 31
0.0
 40
0.3415058114
 41
-2.7052120566
 42
-2.6950335265
  0
ELLIPSE
  5
39A
100
AcDbEntity
  8
ALL_ASSEMBLY_MEMBERS
100
AcDbEllipse
 62
7
  6
CONTINUOUS
 10
5.1656444099
 20
5.6726584948
 30
0.0
 11
0.3259988447
 21
0.534526411
 31
0.0
 40
0.6711698637
 41
-1.3248813381
 42
-1.3025821329
  0
ELLIPSE
  5
39B
100
AcDbEntity
  8
ALL_ASSEMBLY_MEMBERS
100
AcDbEllipse
 62
7
  6
CONTINUOUS
 10
5.1656444099
 20
5.6726584948
 30
0.0
 11
0.3243400769
 21
0.5318066001
 31
0.0
 40
0.6711698637
 41
-1.3256157268
 42
-1.3032004624
  0
ELLIPSE
  5
39C
100
AcDbEntity
  8
ALL_ASSEMBLY_MEMBERS
100
AcDbEllipse
 62
7
  6
CONTINUOUS
 10
5.1656444099
 20
5.5814716908
 30
0.0
 11
0.4820642286
 21
-0.0528514816
 31
0.0
 40
0.2751158134
 41
-2.6982804374
 42
-2.6854723786
  0
ELLIPSE
  5
39D
100
AcDbEntity
  8
ALL_ASSEMBLY_MEMBERS
100
AcDbEllipse
 62
7
  6
CONTINUOUS
 10
5.1656444099
 20
5.5814716908
 30
0.0
 11
0.4845296428
 21
-0.0531217792
 31
0.0
 40
0.2751158134
 41
-2.6986070031
 42
-2.6858644385
  0
ELLIPSE
  5
39E
100
AcDbEntity
  8
ALL_ASSEMBLY_MEMBERS
100
AcDbEllipse
 62
7
  6
CONTINUOUS
 10
5.1656444099
 20
5.6034078734
 30
0.0
 11
-0.4334453124
 21
0.30813287
 31
0.0
 40
0.6863174071
 41
0.879885828
 42
0.8927065257
  0
ELLIPSE
  5
39F
100
AcDbEntity
  8
ALL_ASSEMBLY_MEMBERS
100
AcDbEllipse
 62
7
  6
CONTINUOUS
 10
5.1656444099
 20
5.6034078734
 30
0.0
 11
-0.4356620756
 21
0.3097087495
 31
0.0
 40
0.6863174071
 41
0.879493768
 42
0.8922487784
  0
ELLIPSE
  5
3A0
100
AcDbEntity
  8
ALL_ASSEMBLY_MEMBERS
100
AcDbEllipse
 62
7
  6
CONTINUOUS
 10
5.1656444099
 20
5.6503121789
 30
0.0
 11
-0.2099434945
 21
0.9468962978
 31
0.0
 40
0.4585403189
 41
1.5591997581
 42
1.5668991476
  0
ELLIPSE
  5
3A1
100
AcDbEntity
  8
ALL_ASSEMBLY_MEMBERS
100
AcDbEllipse
 62
7
  6
CONTINUOUS
 10
5.1656444099
 20
5.6503121789
 30
0.0
 11
-0.2110172055
 21
0.951738996
 31
0.0
 40
0.4585403189
 41
1.5587420108
 42
1.5664018812
  0
ELLIPSE
  5
3A2
100
AcDbEntity
  8
ALL_ASSEMBLY_MEMBERS
100
AcDbEllipse
 62
7
  6
CONTINUOUS
 10
5.1656444099
 20
5.6300983195
 30
0.0
 11
0.3259989376
 21
0.5345262269
 31
0.0
 40
0.6711699369
 41
-1.2507639313
 42
-1.2286206453
  0
ELLIPSE
  5
3A3
100
AcDbEntity
  8
ALL_ASSEMBLY_MEMBERS
100
AcDbEllipse
 62
7
  6
CONTINUOUS
 10
5.1656444099
 20
5.6300983195
 30
0.0
 11
0.3243401693
 21
0.5318064169
 31
0.0
 40
0.6711699369
 41
-1.2511147927
 42
-1.2288578778
  0
ELLIPSE
  5
3A4
100
AcDbEntity
  8
ALL_ASSEMBLY_MEMBERS
100
AcDbEllipse
 62
7
  6
CONTINUOUS
 10
5.1656444099
 20
5.5545135017
 30
0.0
 11
0.4817044942
 21
0.0691776629
 31
0.0
 40
0.3415058114
 41
8.9779706519
 42
8.9882013373
  0
ELLIPSE
  5
3A5
100
AcDbEntity
  8
ALL_ASSEMBLY_MEMBERS
100
AcDbEllipse
 62
7
  6
CONTINUOUS
 10
5.1656444099
 20
5.5960637599
 30
0.0
 11
0.4820642278
 21
-0.0528515343
 31
0.0
 40
0.2751160439
 41
-2.8133316337
 42
-2.8005427031
  0
ELLIPSE
  5
3A6
100
AcDbEntity
  8
ALL_ASSEMBLY_MEMBERS
100
AcDbEllipse
 62
7
  6
CONTINUOUS
 10
5.1656444099
 20
5.5545135017
 30
0.0
 11
0.4841680686
 21
0.0695314572
 31
0.0
 40
0.3415058114
 41
2.6950335265
 42
2.7052120566
  0
ELLIPSE
  5
3A7
100
AcDbEntity
  8
ALL_ASSEMBLY_MEMBERS
100
AcDbEllipse
 62
7
  6
CONTINUOUS
 10
5.1656444099
 20
5.5960637599
 30
0.0
 11
0.484529642
 21
-0.0531218322
 31
0.0
 40
0.2751160439
 41
-2.8130721217
 42
-2.8003483937
  0
ELLIPSE
  5
3A8
100
AcDbEntity
  8
ALL_ASSEMBLY_MEMBERS
100
AcDbEllipse
 62
7
  6
CONTINUOUS
 10
5.1656444099
 20
5.5407733696
 30
0.0
 11
0.3528493905
 21
0.4769263331
 31
0.0
 40
0.6893674814
 41
-4.2792623293
 42
-4.2690356602
  0
ELLIPSE
  5
3A9
100
AcDbEntity
  8
ALL_ASSEMBLY_MEMBERS
100
AcDbEllipse
 62
7
  6
CONTINUOUS
 10
5.1656444099
 20
5.5851677944
 30
0.0
 11
-0.4334454607
 21
0.308132485
 31
0.0
 40
0.686317278
 41
0.7648147469
 42
0.777597438
  0
ELLIPSE
  5
3AA
100
AcDbEntity
  8
ALL_ASSEMBLY_MEMBERS
100
AcDbEllipse
 62
7
  6
CONTINUOUS
 10
5.1656444099
 20
5.5851677944
 30
0.0
 11
-0.4356622246
 21
0.3097083626
 31
0.0
 40
0.686317278
 41
0.7650090563
 42
0.7777266395
  0
ELLIPSE
  5
3AB
100
AcDbEntity
  8
ALL_ASSEMBLY_MEMBERS
100
AcDbEllipse
 62
7
  6
CONTINUOUS
 10
5.1656444099
 20
5.5407733696
 30
0.0
 11
0.3546539631
 21
0.4793654706
 31
0.0
 40
0.6893674814
 41
-4.2790663028
 42
-4.2688917277
  0
ELLIPSE
  5
3AC
100
AcDbEntity
  8
ALL_ASSEMBLY_MEMBERS
100
AcDbEllipse
 62
7
  6
CONTINUOUS
 10
5.1656444099
 20
5.5779198382
 30
0.0
 11
-0.2565838281
 21
0.6978641712
 31
0.0
 40
0.5851642007
 41
1.3334926163
 42
1.3411601046
  0
ELLIPSE
  5
3AD
100
AcDbEntity
  8
ALL_ASSEMBLY_MEMBERS
100
AcDbEllipse
 62
7
  6
CONTINUOUS
 10
5.1656444099
 20
5.7313169274
 30
0.0
 11
-0.176157672
 21
1.7840339535
 31
0.0
 40
0.251654861
 41
-4.6398114528
 42
-4.6346753393
  0
ELLIPSE
  5
3AE
100
AcDbEntity
  8
ALL_ASSEMBLY_MEMBERS
100
AcDbEllipse
 62
7
  6
CONTINUOUS
 10
5.1656444099
 20
5.5779198382
 30
0.0
 11
-0.2578960711
 21
0.7014332479
 31
0.0
 40
0.5851642007
 41
1.3336218178
 42
1.3412502738
  0
ELLIPSE
  5
3AF
100
AcDbEntity
  8
ALL_ASSEMBLY_MEMBERS
100
AcDbEllipse
 62
7
  6
CONTINUOUS
 10
5.1656444099
 20
5.5734328253
 30
0.0
 11
0.4846322902
 21
-0.0448830582
 31
0.0
 40
0.2379969588
 41
0.2735943692
 42
0.2883920801
  0
ELLIPSE
  5
3B0
100
AcDbEntity
  8
ALL_ASSEMBLY_MEMBERS
100
AcDbEllipse
 62
7
  6
CONTINUOUS
 10
5.1656444099
 20
5.5734328253
 30
0.0
 11
0.4821663537
 21
-0.0446546814
 31
0.0
 40
0.2379969588
 41
6.5562793864
 42
6.5711534012
  0
ELLIPSE
  5
3B1
100
AcDbEntity
  8
ALL_ASSEMBLY_MEMBERS
100
AcDbEllipse
 62
7
  6
CONTINUOUS
 10
5.1656444099
 20
5.5589480397
 30
0.0
 11
-0.1761576992
 21
1.7840318986
 31
0.0
 40
0.2516551449
 41
1.5282335062
 42
1.533344561
  0
ELLIPSE
  5
3B2
100
AcDbEntity
  8
ALL_ASSEMBLY_MEMBERS
100
AcDbEllipse
 62
7
  6
CONTINUOUS
 10
5.1656444099
 20
5.5935148658
 30
0.0
 11
0.4734427814
 21
-0.1768432279
 31
0.0
 40
0.588594106
 41
0.4568564648
 42
0.4679686539
  0
ELLIPSE
  5
3B3
100
AcDbEntity
  8
ALL_ASSEMBLY_MEMBERS
100
AcDbEllipse
 62
7
  6
CONTINUOUS
 10
5.1656444099
 20
5.5935148658
 30
0.0
 11
0.47103378
 21
-0.175943403
 31
0.0
 40
0.588594106
 41
0.4562987307
 42
0.467468364
  0
ELLIPSE
  5
3B4
100
AcDbEntity
  8
ALL_ASSEMBLY_MEMBERS
100
AcDbEllipse
 62
7
  6
CONTINUOUS
 10
5.1656444099
 20
5.6382388343
 30
0.0
 11
-0.2501318493
 21
0.728790877
 31
0.0
 40
0.569753021
 41
-1.8799443451
 42
-1.8725288025
  0
ELLIPSE
  5
3B5
100
AcDbEntity
  8
ALL_ASSEMBLY_MEMBERS
100
AcDbEllipse
 62
7
  6
CONTINUOUS
 10
5.1656444099
 20
5.6382388343
 30
0.0
 11
-0.2488591127
 21
0.7250825974
 31
0.0
 40
0.569753021
 41
-1.880540491
 42
-1.8730865367
  0
ELLIPSE
  5
3B6
100
AcDbEntity
  8
ALL_ASSEMBLY_MEMBERS
100
AcDbEllipse
 62
7
  6
CONTINUOUS
 10
5.1656444099
 20
5.724215186
 30
0.0
 11
-0.1826258381
 21
1.484169538
 31
0.0
 40
0.3025481177
 41
-1.7277547305
 42
-1.7240446013
  0
ELLIPSE
  5
3B7
100
AcDbEntity
  8
ALL_ASSEMBLY_MEMBERS
100
AcDbEllipse
 62
7
  6
CONTINUOUS
 10
5.1656444099
 20
5.724215186
 30
0.0
 11
-0.1816965899
 21
1.4766176932
 31
0.0
 40
0.3025481177
 41
-1.7283701194
 42
-1.7246407472
  0
ELLIPSE
  5
3B8
100
AcDbEntity
  8
ALL_ASSEMBLY_MEMBERS
100
AcDbEllipse
 62
7
  6
CONTINUOUS
 10
5.1656444099
 20
5.365719928
 30
0.0
 11
0.1826258551
 21
1.4841688429
 31
0.0
 40
0.3025482548
 41
-1.4175480146
 42
-1.4138378854
  0
ELLIPSE
  5
3B9
100
AcDbEntity
  8
ALL_ASSEMBLY_MEMBERS
100
AcDbEllipse
 62
7
  6
CONTINUOUS
 10
5.1656444099
 20
5.365719928
 30
0.0
 11
0.1816966067
 21
1.4766170017
 31
0.0
 40
0.3025482548
 41
-1.4169518687
 42
-1.4132224965
  0
ELLIPSE
  5
3BA
100
AcDbEntity
  8
ALL_ASSEMBLY_MEMBERS
100
AcDbEllipse
 62
7
  6
CONTINUOUS
 10
5.1656444099
 20
5.4516961794
 30
0.0
 11
0.250131799
 21
0.7287910644
 31
0.0
 40
0.5697529161
 41
-1.269063972
 42
-1.2616484294
  0
ELLIPSE
  5
3BB
100
AcDbEntity
  8
ALL_ASSEMBLY_MEMBERS
100
AcDbEllipse
 62
7
  6
CONTINUOUS
 10
5.1656444099
 20
5.4516961794
 30
0.0
 11
0.2488590627
 21
0.7250827838
 31
0.0
 40
0.5697529161
 41
-1.2685062378
 42
-1.2610522835
  0
ELLIPSE
  5
3BC
100
AcDbEntity
  8
ALL_ASSEMBLY_MEMBERS
100
AcDbEllipse
 62
7
  6
CONTINUOUS
 10
5.1656444099
 20
5.4964201666
 30
0.0
 11
0.4734427814
 21
0.1768432279
 31
0.0
 40
0.588594106
 41
-0.4679686539
 42
-0.4568564648
  0
ELLIPSE
  5
3BD
100
AcDbEntity
  8
ALL_ASSEMBLY_MEMBERS
100
AcDbEllipse
 62
7
  6
CONTINUOUS
 10
5.1656444099
 20
5.4964201666
 30
0.0
 11
0.47103378
 21
0.175943403
 31
0.0
 40
0.588594106
 41
-0.467468364
 42
-0.4562987307
  0
ELLIPSE
  5
3BE
100
AcDbEntity
  8
ALL_ASSEMBLY_MEMBERS
100
AcDbEllipse
 62
7
  6
CONTINUOUS
 10
5.1656444099
 20
5.5165022072
 30
0.0
 11
0.4846322902
 21
0.0448830582
 31
0.0
 40
0.2379969588
 41
-0.2883920801
 42
-0.2735943692
  0
ELLIPSE
  5
3BF
100
AcDbEntity
  8
ALL_ASSEMBLY_MEMBERS
100
AcDbEllipse
 62
7
  6
CONTINUOUS
 10
5.1656444099
 20
5.5165022072
 30
0.0
 11
0.4821663537
 21
0.0446546814
 31
0.0
 40
0.2379969588
 41
-0.287968094
 42
-0.2730940792
  0
ELLIPSE
  5
3C0
100
AcDbEntity
  8
ALL_ASSEMBLY_MEMBERS
100
AcDbEllipse
 62
7
  6
CONTINUOUS
 10
5.1656444099
 20
5.7313169274
 30
0.0
 11
-0.1770585927
 21
1.7931580129
 31
0.0
 40
0.251654861
 41
-4.6403087193
 42
-4.6351990007
  0
ELLIPSE
  5
3C1
100
AcDbEntity
  8
ALL_ASSEMBLY_MEMBERS
100
AcDbEllipse
 62
7
  6
CONTINUOUS
 10
5.1656444099
 20
5.5589480397
 30
0.0
 11
-0.17705862
 21
1.7931559474
 31
0.0
 40
0.2516551449
 41
1.5283236754
 42
1.5334087178
  0
ELLIPSE
  5
3C2
100
AcDbEntity
  8
ALL_ASSEMBLY_MEMBERS
100
AcDbEllipse
 62
7
  6
CONTINUOUS
 10
5.1656444099
 20
5.5939753269
 30
0.0
 11
0.182988122
 21
1.4265173665
 31
0.0
 40
0.3128040763
 41
-4.6596770866
 42
-4.6545660318
  0
ELLIPSE
  5
3C3
100
AcDbEntity
  8
ALL_ASSEMBLY_MEMBERS
100
AcDbEllipse
 62
7
  6
CONTINUOUS
 10
5.1656444099
 20
5.6051297113
 30
0.0
 11
0.4817044969
 21
0.0691775694
 31
0.0
 40
0.3415054598
 41
9.0930249837
 42
9.0981465956
  0
ELLIPSE
  5
3C4
100
AcDbEntity
  8
ALL_ASSEMBLY_MEMBERS
100
AcDbEllipse
 62
7
  6
CONTINUOUS
 10
5.1656444099
 20
5.5939753269
 30
0.0
 11
0.1839239755
 21
1.4338129838
 31
0.0
 40
0.3128040763
 41
-4.6597412434
 42
-4.654656201
  0
ELLIPSE
  5
3C5
100
AcDbEntity
  8
ALL_ASSEMBLY_MEMBERS
100
AcDbEllipse
 62
7
  6
CONTINUOUS
 10
5.1656444099
 20
5.6051297113
 30
0.0
 11
0.4841680714
 21
0.0695313633
 31
0.0
 40
0.3415054598
 41
2.804406043
 42
2.8145971741
  0
ELLIPSE
  5
3C6
100
AcDbEntity
  8
ALL_ASSEMBLY_MEMBERS
100
AcDbEllipse
 62
7
  6
CONTINUOUS
 10
5.1656444099
 20
5.5813274751
 30
0.0
 11
0.2565838281
 21
0.6978641712
 31
0.0
 40
0.5851642007
 41
-4.4827527582
 42
-4.4750852699
  0
ELLIPSE
  5
3C7
100
AcDbEntity
  8
ALL_ASSEMBLY_MEMBERS
100
AcDbEllipse
 62
7
  6
CONTINUOUS
 10
5.1656444099
 20
5.5813274751
 30
0.0
 11
0.2578960711
 21
0.7014332479
 31
0.0
 40
0.5851642007
 41
-4.4828429274
 42
-4.4752144714
  0
ELLIPSE
  5
3C8
100
AcDbEntity
  8
ALL_ASSEMBLY_MEMBERS
100
AcDbEllipse
 62
7
  6
CONTINUOUS
 10
5.1656444099
 20
5.5446889882
 30
0.0
 11
-0.207495773
 21
0.9858241387
 31
0.0
 40
0.4443956471
 41
-1.6766755349
 42
-1.6693064443
  0
ELLIPSE
  5
3C9
100
AcDbEntity
  8
ALL_ASSEMBLY_MEMBERS
100
AcDbEllipse
 62
7
  6
CONTINUOUS
 10
5.1656444099
 20
5.5446889882
 30
0.0
 11
-0.2064399799
 21
0.9808080064
 31
0.0
 40
0.4443956471
 41
-1.676740052
 42
-1.6693332706
  0
ELLIPSE
  5
3CA
100
AcDbEntity
  8
ALL_ASSEMBLY_MEMBERS
100
AcDbEllipse
 62
7
  6
CONTINUOUS
 10
5.1656444099
 20
5.5405258168
 30
0.0
 11
-0.2800134072
 21
0.636735321
 31
0.0
 40
0.6214444929
 41
-1.8612406191
 42
-1.8501855787
  0
ELLIPSE
  5
3CB
100
AcDbEntity
  8
ALL_ASSEMBLY_MEMBERS
100
AcDbEllipse
 62
7
  6
CONTINUOUS
 10
5.1656444099
 20
5.5405258168
 30
0.0
 11
-0.2785886254
 21
0.6334954443
 31
0.0
 40
0.6214444929
 41
-1.8613616941
 42
-1.8502500958
  0
ELLIPSE
  5
3CC
100
AcDbEntity
  8
ALL_ASSEMBLY_MEMBERS
100
AcDbEllipse
 62
7
  6
CONTINUOUS
 10
5.1656444099
 20
5.5319335095
 30
0.0
 11
0.4782981758
 21
-0.1456294577
 31
0.0
 40
0.5412725914
 41
0.4702996175
 42
0.4887317785
  0
ELLIPSE
  5
3CD
100
AcDbEntity
  8
ALL_ASSEMBLY_MEMBERS
100
AcDbEllipse
 62
7
  6
CONTINUOUS
 10
5.1656444099
 20
5.5319335095
 30
0.0
 11
0.475864469
 21
-0.1448884567
 31
0.0
 40
0.5412725914
 41
0.4700841696
 42
0.4886107035
  0
ELLIPSE
  5
3CE
100
AcDbEntity
  8
ALL_ASSEMBLY_MEMBERS
100
AcDbEllipse
 62
7
  6
CONTINUOUS
 10
5.1656444099
 20
5.5235987738
 30
0.0
 11
0.4847035229
 21
-0.0351494601
 31
0.0
 40
0.1909696071
 41
0.3023654898
 42
0.3208119973
  0
ELLIPSE
  5
3CF
100
AcDbEntity
  8
ALL_ASSEMBLY_MEMBERS
100
AcDbEllipse
 62
7
  6
CONTINUOUS
 10
5.1656444099
 20
5.5235987738
 30
0.0
 11
0.482237224
 21
-0.0349706104
 31
0.0
 40
0.1909696071
 41
0.3020554476
 42
0.3205965494
  0
ELLIPSE
  5
3D0
100
AcDbEntity
  8
ALL_ASSEMBLY_MEMBERS
100
AcDbEllipse
 62
7
  6
CONTINUOUS
 10
5.1656444099
 20
5.6306057222
 30
0.0
 11
0.3528491689
 21
0.4769267529
 31
0.0
 40
0.6893673732
 41
-4.1693178615
 42
-4.1590668675
  0
ELLIPSE
  5
3D1
100
AcDbEntity
  8
ALL_ASSEMBLY_MEMBERS
100
AcDbEllipse
 62
7
  6
CONTINUOUS
 10
5.1656444099
 20
5.5722675281
 30
0.0
 11
0.4644757768
 21
0.2078622154
 31
0.0
 40
0.6246661769
 41
2.545321506
 42
2.5504339689
  0
ELLIPSE
  5
3D2
100
AcDbEntity
  8
ALL_ASSEMBLY_MEMBERS
100
AcDbEllipse
 62
7
  6
CONTINUOUS
 10
5.1656444099
 20
5.5722675281
 30
0.0
 11
0.4668512386
 21
0.2089252821
 31
0.0
 40
0.6246661769
 41
2.5451923044
 42
2.5502787336
  0
ELLIPSE
  5
3D3
100
AcDbEntity
  8
ALL_ASSEMBLY_MEMBERS
100
AcDbEllipse
 62
7
  6
CONTINUOUS
 10
5.1656444099
 20
5.6306057222
 30
0.0
 11
0.3546537404
 21
0.4793658925
 31
0.0
 40
0.6893673732
 41
-4.1696819759
 42
-4.1594834467
  0
ELLIPSE
  5
3D4
100
AcDbEntity
  8
ALL_ASSEMBLY_MEMBERS
100
AcDbEllipse
 62
7
  6
CONTINUOUS
 10
5.1656444099
 20
5.550499637
 30
0.0
 11
0.4644757768
 21
-0.2078622154
 31
0.0
 40
0.6246661769
 41
-2.5504339689
 42
-2.545321506
  0
ELLIPSE
  5
3D5
100
AcDbEntity
  8
ALL_ASSEMBLY_MEMBERS
100
AcDbEllipse
 62
7
  6
CONTINUOUS
 10
5.1656444099
 20
5.550499637
 30
0.0
 11
0.4668512386
 21
-0.2089252821
 31
0.0
 40
0.6246661769
 41
-2.5502787336
 42
-2.5451923044
  0
ELLIPSE
  5
3D6
100
AcDbEntity
  8
ALL_ASSEMBLY_MEMBERS
100
AcDbEllipse
 62
7
  6
CONTINUOUS
 10
5.1656444099
 20
5.5459696581
 30
0.0
 11
-0.3528490951
 21
0.4769268928
 31
0.0
 40
0.6893673371
 41
1.0737775876
 42
1.0840006492
  0
ELLIPSE
  5
3D7
100
AcDbEntity
  8
ALL_ASSEMBLY_MEMBERS
100
AcDbEllipse
 62
7
  6
CONTINUOUS
 10
5.1656444099
 20
5.5459696581
 30
0.0
 11
-0.3546536662
 21
0.4793660332
 31
0.0
 40
0.6893673371
 41
1.0739067891
 42
1.0840778115
  0
ELLIPSE
  5
3D8
100
AcDbEntity
  8
ALL_ASSEMBLY_MEMBERS
100
AcDbEllipse
 62
7
  6
CONTINUOUS
 10
5.1656444099
 20
5.6742918225
 30
0.0
 11
0.1991461286
 21
1.0676108832
 31
0.0
 40
0.4114301116
 41
-4.5541034629
 42
-4.5489748047
  0
ELLIPSE
  5
3D9
100
AcDbEntity
  8
ALL_ASSEMBLY_MEMBERS
100
AcDbEllipse
 62
7
  6
CONTINUOUS
 10
5.1656444099
 20
5.527027913
 30
0.0
 11
-0.1761577058
 21
1.7840313981
 31
0.0
 40
0.251655214
 41
1.5307890648
 42
1.5358999382
  0
ELLIPSE
  5
3DA
100
AcDbEntity
  8
ALL_ASSEMBLY_MEMBERS
100
AcDbEllipse
 62
7
  6
CONTINUOUS
 10
5.1656444099
 20
5.6742918225
 30
0.0
 11
0.2001646188
 21
1.0730709503
 31
0.0
 40
0.4114301116
 41
-4.5545200421
 42
-4.5494176646
  0
ELLIPSE
  5
3DB
100
AcDbEntity
  8
ALL_ASSEMBLY_MEMBERS
100
AcDbEllipse
 62
7
  6
CONTINUOUS
 10
5.1656444099
 20
5.527027913
 30
0.0
 11
-0.1770586266
 21
1.7931554444
 31
0.0
 40
0.251655214
 41
1.530866227
 42
1.5359510908
  0
ELLIPSE
  5
3DC
100
AcDbEntity
  8
ALL_ASSEMBLY_MEMBERS
100
AcDbEllipse
 62
7
  6
CONTINUOUS
 10
5.1656444099
 20
5.5574350942
 30
0.0
 11
0.1761577091
 21
1.7840311479
 31
0.0
 40
0.2516552486
 41
1.6056927228
 42
1.6108035962
  0
ELLIPSE
  5
3DD
100
AcDbEntity
  8
ALL_ASSEMBLY_MEMBERS
100
AcDbEllipse
 62
7
  6
CONTINUOUS
 10
5.1656444099
 20
5.5574350942
 30
0.0
 11
0.1770586299
 21
1.7931551929
 31
0.0
 40
0.2516552486
 41
-4.677543737
 42
-4.6724588732
  0
ELLIPSE
  5
3DE
100
AcDbEntity
  8
ALL_ASSEMBLY_MEMBERS
100
AcDbEllipse
 62
7
  6
CONTINUOUS
 10
5.1656444099
 20
5.5411993168
 30
0.0
 11
0.2565838006
 21
0.6978642627
 31
0.0
 40
0.5851641487
 41
-4.4853083988
 42
-4.4776413078
  0
ELLIPSE
  5
3DF
100
AcDbEntity
  8
ALL_ASSEMBLY_MEMBERS
100
AcDbEllipse
 62
7
  6
CONTINUOUS
 10
5.1656444099
 20
5.5411993168
 30
0.0
 11
0.2578960435
 21
0.70143334
 31
0.0
 40
0.5851641487
 41
-4.485385561
 42
-4.4777574963
  0
ELLIPSE
  5
3E0
100
AcDbEntity
  8
ALL_ASSEMBLY_MEMBERS
100
AcDbEllipse
 62
7
  6
CONTINUOUS
 10
5.1656444099
 20
5.566336258
 30
0.0
 11
0.4847035229
 21
0.0351494568
 31
0.0
 40
0.1909695906
 41
-0.3208119948
 42
-0.3023654873
  0
ELLIPSE
  5
3E1
100
AcDbEntity
  8
ALL_ASSEMBLY_MEMBERS
100
AcDbEllipse
 62
7
  6
CONTINUOUS
 10
5.1656444099
 20
5.566336258
 30
0.0
 11
0.482237224
 21
0.0349706071
 31
0.0
 40
0.1909695906
 41
-0.3205965469
 42
-0.3020554451
  0
ELLIPSE
  5
3E2
100
AcDbEntity
  8
ALL_ASSEMBLY_MEMBERS
100
AcDbEllipse
 62
7
  6
CONTINUOUS
 10
5.1656444099
 20
5.558001523
 30
0.0
 11
0.4782981788
 21
0.1456294353
 31
0.0
 40
0.541272552
 41
-0.4887317412
 42
-0.4702995801
  0
ELLIPSE
  5
3E3
100
AcDbEntity
  8
ALL_ASSEMBLY_MEMBERS
100
AcDbEllipse
 62
7
  6
CONTINUOUS
 10
5.1656444099
 20
5.558001523
 30
0.0
 11
0.4758644719
 21
0.1448884344
 31
0.0
 40
0.541272552
 41
-0.4732157386
 42
-0.4700841322
  0
ELLIPSE
  5
3E4
100
AcDbEntity
  8
ALL_ASSEMBLY_MEMBERS
100
AcDbEllipse
 62
7
  6
CONTINUOUS
 10
5.1656444099
 20
5.5346809675
 30
0.0
 11
0.4334452897
 21
0.3081329288
 31
0.0
 40
0.6863174268
 41
-3.9217468707
 42
-3.9089651839
  0
ELLIPSE
  5
3E5
100
AcDbEntity
  8
ALL_ASSEMBLY_MEMBERS
100
AcDbEllipse
 62
7
  6
CONTINUOUS
 10
5.1656444099
 20
5.5346809675
 30
0.0
 11
0.4356620527
 21
0.3097088087
 31
0.0
 40
0.6863174268
 41
-3.9218630593
 42
-3.9091464651
  0
ELLIPSE
  5
3E6
100
AcDbEntity
  8
ALL_ASSEMBLY_MEMBERS
100
AcDbEllipse
 62
7
  6
CONTINUOUS
 10
5.1656444099
 20
5.4849555724
 30
0.0
 11
-0.1991462019
 21
1.0676098726
 31
0.0
 40
0.41143047
 41
1.4073819844
 42
1.4125106426
  0
ELLIPSE
  5
3E7
100
AcDbEntity
  8
ALL_ASSEMBLY_MEMBERS
100
AcDbEllipse
 62
7
  6
CONTINUOUS
 10
5.1656444099
 20
5.4849555724
 30
0.0
 11
-0.2001646924
 21
1.0730699345
 31
0.0
 40
0.41143047
 41
1.4078248443
 42
1.4129272218
  0
ELLIPSE
  5
3E8
100
AcDbEntity
  8
ALL_ASSEMBLY_MEMBERS
100
AcDbEllipse
 62
7
  6
CONTINUOUS
 10
5.1656444099
 20
5.524514595
 30
0.0
 11
0.482064228
 21
0.0528515221
 31
0.0
 40
0.2751159905
 41
2.797985741
 42
2.8107732586
  0
ELLIPSE
  5
3E9
100
AcDbEntity
  8
ALL_ASSEMBLY_MEMBERS
100
AcDbEllipse
 62
7
  6
CONTINUOUS
 10
5.1656444099
 20
5.524514595
 30
0.0
 11
0.4845296422
 21
0.0531218199
 31
0.0
 40
0.2751159905
 41
2.7978044598
 42
2.8105267963
  0
ELLIPSE
  5
3EA
100
AcDbEntity
  8
ALL_ASSEMBLY_MEMBERS
100
AcDbEllipse
 62
7
  6
CONTINUOUS
 10
5.1656444099
 20
5.3586181293
 30
0.0
 11
0.1761576753
 21
1.7840337033
 31
0.0
 40
0.2516548955
 41
1.4930826931
 42
1.4982188066
  0
ELLIPSE
  5
3EB
100
AcDbEntity
  8
ALL_ASSEMBLY_MEMBERS
100
AcDbEllipse
 62
7
  6
CONTINUOUS
 10
5.1656444099
 20
5.5286415911
 30
0.0
 11
-0.3528491689
 21
0.4769267529
 31
0.0
 40
0.6893673732
 41
1.017474214
 42
1.0277252079
  0
ELLIPSE
  5
3EC
100
AcDbEntity
  8
ALL_ASSEMBLY_MEMBERS
100
AcDbEllipse
 62
7
  6
CONTINUOUS
 10
5.1656444099
 20
5.5286415911
 30
0.0
 11
-0.3546537404
 21
0.4793658925
 31
0.0
 40
0.6893673732
 41
1.0178907931
 42
1.0280893223
  0
ELLIPSE
  5
3ED
100
AcDbEntity
  8
ALL_ASSEMBLY_MEMBERS
100
AcDbEllipse
 62
7
  6
CONTINUOUS
 10
5.1656444099
 20
5.554117602
 30
0.0
 11
0.4817044969
 21
-0.0691775694
 31
0.0
 40
0.3415054598
 41
-2.8149612884
 42
-2.8098396765
  0
ELLIPSE
  5
3EE
100
AcDbEntity
  8
ALL_ASSEMBLY_MEMBERS
100
AcDbEllipse
 62
7
  6
CONTINUOUS
 10
5.1656444099
 20
5.3586181293
 30
0.0
 11
0.177058596
 21
1.7931577614
 31
0.0
 40
0.2516548955
 41
1.4936063544
 42
1.498716073
  0
ELLIPSE
  5
3EF
100
AcDbEntity
  8
ALL_ASSEMBLY_MEMBERS
100
AcDbEllipse
 62
7
  6
CONTINUOUS
 10
5.1656444099
 20
5.554117602
 30
0.0
 11
0.4841680714
 21
-0.0695313633
 31
0.0
 40
0.3415054598
 41
-2.8145971741
 42
-2.804406043
  0
ELLIPSE
  5
3F0
100
AcDbEntity
  8
ALL_ASSEMBLY_MEMBERS
100
AcDbEllipse
 62
7
  6
CONTINUOUS
 10
5.1656444099
 20
5.4396228454
 30
0.0
 11
0.2099434851
 21
0.9468963828
 31
0.0
 40
0.4585402825
 41
-4.7084918227
 42
-4.7007924332
  0
ELLIPSE
  5
3F1
100
AcDbEntity
  8
ALL_ASSEMBLY_MEMBERS
100
AcDbEllipse
 62
7
  6
CONTINUOUS
 10
5.1656444099
 20
5.4396228454
 30
0.0
 11
0.2110171961
 21
0.9517390814
 31
0.0
 40
0.4585402825
 41
-4.7079945563
 42
-4.7003346858
  0
ELLIPSE
  5
3F2
100
AcDbEntity
  8
ALL_ASSEMBLY_MEMBERS
100
AcDbEllipse
 62
7
  6
CONTINUOUS
 10
5.1656444099
 20
5.4865271551
 30
0.0
 11
0.4334452897
 21
0.3081329288
 31
0.0
 40
0.6863174268
 41
-4.0342992866
 42
-4.0214785888
  0
ELLIPSE
  5
3F3
100
AcDbEntity
  8
ALL_ASSEMBLY_MEMBERS
100
AcDbEllipse
 62
7
  6
CONTINUOUS
 10
5.1656444099
 20
5.4865271551
 30
0.0
 11
0.4356620527
 21
0.3097088087
 31
0.0
 40
0.6863174268
 41
-4.0338415392
 42
-4.0210865289
  0
ELLIPSE
  5
3F4
100
AcDbEntity
  8
ALL_ASSEMBLY_MEMBERS
100
AcDbEllipse
 62
7
  6
CONTINUOUS
 10
5.1656444099
 20
5.5084633396
 30
0.0
 11
0.4820642285
 21
0.052851487
 31
0.0
 40
0.2751158369
 41
2.6854723729
 42
2.6982804317
  0
ELLIPSE
  5
3F5
100
AcDbEntity
  8
ALL_ASSEMBLY_MEMBERS
100
AcDbEllipse
 62
7
  6
CONTINUOUS
 10
5.1656444099
 20
5.5084633396
 30
0.0
 11
0.4845296427
 21
0.0531217846
 31
0.0
 40
0.2751158369
 41
2.6858644329
 42
2.6986069975
  0
ELLIPSE
  5
3F6
100
AcDbEntity
  8
ALL_ASSEMBLY_MEMBERS
100
AcDbEllipse
 62
7
  6
CONTINUOUS
 10
5.1656444099
 20
5.5686495631
 30
0.0
 11
0.4817044969
 21
0.0691775694
 31
0.0
 40
0.3415054598
 41
9.0930249837
 42
9.0981465956
  0
ELLIPSE
  5
3F7
100
AcDbEntity
  8
ALL_ASSEMBLY_MEMBERS
100
AcDbEllipse
 62
7
  6
CONTINUOUS
 10
5.1656444099
 20
5.576215939
 30
0.0
 11
-0.182988171
 21
1.4265155693
 31
0.0
 40
0.3128044563
 41
1.5564159305
 42
1.5615284492
  0
ELLIPSE
  5
3F8
100
AcDbEntity
  8
ALL_ASSEMBLY_MEMBERS
100
AcDbEllipse
 62
7
  6
CONTINUOUS
 10
5.1656444099
 20
5.5686495631
 30
0.0
 11
0.4841680714
 21
0.0695313633
 31
0.0
 40
0.3415054598
 41
2.804406043
 42
2.8145971741
  0
ELLIPSE
  5
3F9
100
AcDbEntity
  8
ALL_ASSEMBLY_MEMBERS
100
AcDbEllipse
 62
7
  6
CONTINUOUS
 10
5.1656444099
 20
5.576215939
 30
0.0
 11
-0.1839240248
 21
1.4338111775
 31
0.0
 40
0.3128044563
 41
1.556285014
 42
1.5613714981
  0
ELLIPSE
  5
3FA
100
AcDbEntity
  8
ALL_ASSEMBLY_MEMBERS
100
AcDbEllipse
 62
7
  6
CONTINUOUS
 10
5.1656444099
 20
5.5813875697
 30
0.0
 11
0.4644757236
 21
0.2078624458
 31
0.0
 40
0.6246664002
 41
2.5913732513
 42
2.6016242452
  0
ELLIPSE
  5
3FB
100
AcDbEntity
  8
ALL_ASSEMBLY_MEMBERS
100
AcDbEllipse
 62
7
  6
CONTINUOUS
 10
5.1656444099
 20
5.5813875697
 30
0.0
 11
0.4668511851
 21
0.2089255137
 31
0.0
 40
0.6246664002
 41
2.5910091369
 42
2.601207666
  0
ELLIPSE
  5
3FC
100
AcDbEntity
  8
ALL_ASSEMBLY_MEMBERS
100
AcDbEllipse
 62
7
  6
CONTINUOUS
 10
5.1656444099
 20
5.6299276211
 30
0.0
 11
0.2099434699
 21
0.946896522
 31
0.0
 40
0.4585402229
 41
-4.5293809328
 42
-4.5216870953
  0
ELLIPSE
  5
3FD
100
AcDbEntity
  8
ALL_ASSEMBLY_MEMBERS
100
AcDbEllipse
 62
7
  6
CONTINUOUS
 10
5.1656444099
 20
5.6299276211
 30
0.0
 11
0.2110171808
 21
0.9517392213
 31
0.0
 40
0.4585402229
 41
-4.529797512
 42
-4.5221431086
  0
ELLIPSE
  5
3FE
100
AcDbEntity
  8
ALL_ASSEMBLY_MEMBERS
100
AcDbEllipse
 62
7
  6
CONTINUOUS
 10
5.1656444099
 20
5.5468716479
 30
0.0
 11
-0.4000667381
 21
0.3847573131
 31
0.0
 40
0.7000252448
 41
0.972439552
 42
0.9801098693
  0
ELLIPSE
  5
3FF
100
AcDbEntity
  8
ALL_ASSEMBLY_MEMBERS
100
AcDbEllipse
 62
7
  6
CONTINUOUS
 10
5.1656444099
 20
5.4545354035
 30
0.0
 11
-0.2099434885
 21
0.9468963521
 31
0.0
 40
0.4585402957
 41
1.3800943987
 42
1.3877882363
  0
ELLIPSE
  5
400
100
AcDbEntity
  8
ALL_ASSEMBLY_MEMBERS
100
AcDbEllipse
 62
7
  6
CONTINUOUS
 10
5.1656444099
 20
5.5468716479
 30
0.0
 11
-0.4021127937
 21
0.3867250719
 31
0.0
 40
0.7000252448
 41
0.9722826009
 42
0.9799138428
  0
ELLIPSE
  5
401
100
AcDbEntity
  8
ALL_ASSEMBLY_MEMBERS
100
AcDbEllipse
 62
7
  6
CONTINUOUS
 10
5.1656444099
 20
5.4545354035
 30
0.0
 11
-0.2110171995
 21
0.9517390505
 31
0.0
 40
0.4585402957
 41
1.380550412
 42
1.3882048155
  0
ENDSEC
  0
SECTION
  2
OBJECTS
  0
DICTIONARY
  5
C
100
AcDbDictionary
280
0
281
1
  3
ACAD_GROUP
350
D
  3
ACAD_MLINESTYLE
350
17
  3
ACAD_LAYOUT
350
1A
  3
ACAD_PLOTSETTINGS
350
19
  3
ACAD_PLOTSTYLENAME
350
E
  0
DICTIONARY
  5
D
102
{ACAD_REACTORS
330
C
102
}
100
AcDbDictionary
280
0
281
1
  0
ACDBDICTIONARYWDFLT
  5
E
102
{ACAD_REACTORS
330
C
102
}
100
AcDbDictionary
281
1
  3
Normal
350
F
100
AcDbDictionaryWithDefault
340
F
  0
DICTIONARY
  5
17
102
{ACAD_REACTORS
330
C
102
}
100
AcDbDictionary
280
0
281
1
  3
Standard
350
18
  0
DICTIONARY
  5
19
102
{ACAD_REACTORS
330
C
102
}
100
AcDbDictionary
281
1
  0
DICTIONARY
  5
1A
102
{ACAD_REACTORS
330
C
102
}
100
AcDbDictionary
281
1
  3
Model
350
402
  3
Layout1
350
403
  0
ACDBPLACEHOLDER
  5
F
102
{ACAD_REACTORS
330
E
102
}
  0
MLINESTYLE
  5
18
102
{ACAD_REACTORS
330
17
102
}
100
AcDbMlineStyle
  2
STANDARD
 70
0
  3

 62
256
 51
90.0
 52
90.0
 71
2
 49
0.5
 62
256
  6
BYLAYER
 49
-0.5
 62
256
  6
BYLAYER
  0
LAYOUT
  5
402
102
{ACAD_REACTORS
330
1A
102
}
100
AcDbPlotSettings
  1

  2
none_device
  4
ANSI_A_(11.00_x_8.50_Inches)
  6

 40
0.0
 41
0.0
 42
0.0
 43
0.0
 44
279.4
 45
215.9
 46
0.0
 47
0.0
 48
0.0
 49
0.0
140
0.0
141
0.0
142
1.0
143
1.0
 70
1024
 72
0
 73
0
 74
0
  7

 75
0
147
1.0
148
0.0
149
0.0
100
AcDbLayout
  1
Model
 70
0
 71
0
 10
0.0
 20
0.0
 11
11.0
 21
8.5
 12
0.0
 22
0.0
 32
0.0
 14
0.0
 24
0.0
 34
0.0
 15
0.0
 25
0.0
 35
0.0
146
0.0
 13
0.0
 23
0.0
 33
0.0
 16
1.0
 26
0.0
 36
0.0
 17
0.0
 27
1.0
 37
0.0
 76
0
330
21E
345
0
346
0
  0
LAYOUT
  5
403
102
{ACAD_REACTORS
330
1A
102
}
100
AcDbPlotSettings
  1

  2
none_device
  4
ANSI_A_(11.00_x_8.50_Inches)
  6

 40
0.0
 41
0.0
 42
0.0
 43
0.0
 44
279.4
 45
215.9
 46
0.0
 47
0.0
 48
0.0
 49
0.0
140
0.0
141
0.0
142
1.0
143
1.0
 70
0
 72
0
 73
0
 74
0
  7

 75
0
147
1.0
148
0.0
149
0.0
100
AcDbLayout
  1
Layout1
 70
0
 71
1
 10
0.0
 20
0.0
 11
11.0
 21
8.5
 12
0.0
 22
0.0
 32
0.0
 14
0.0
 24
0.0
 34
0.0
 15
0.0
 25
0.0
 35
0.0
146
0.0
 13
0.0
 23
0.0
 33
0.0
 16
1.0
 26
0.0
 36
0.0
 17
0.0
 27
1.0
 37
0.0
 76
0
330
21F
345
0
346
0
  0
ENDSEC
  0
EOF
