  0
SECTION
  2
HEADER
  9
$ACADVER
  1
AC1015
  9
$DWGCODEPAGE
  3
ANSI_1252
  9
$EXTMAX
 10
11.6929133858
 20
8.2677165354
 30
0.0
  9
$EXTMIN
 10
0.0
 20
0.0
 30
0.0
  9
$LIMMIN
 10
0.0
 20
0.0
  9
$LIMMAX
 10
11.6929133858
 20
8.2677165354
  9
$VIEWCTR
 10
5.8464566929
 20
4.1338582677
  9
$VIEWSIZE
 40
8.2677165354
  9
$CLAYER
  8
0
  9
$LTSCALE
 40
0.6431102362
  9
$CELTYPE
  6
BYLAYER
  9
$DIMSCALE
 40
1.0
  9
$DIMASZ
 40
0.1875
  9
$DIMEXO
 40
0.0730807087
  9
$DIMDLI
 40
0.4443307087
  9
$DIMEXE
 40
0.2104724409
  9
$DIMCEN
 40
0.1052362205
  9
$DIMLFAC
 40
1.0
  9
$DIMBLK
  1
_CLOSED
  9
$DIMTXT
 40
0.15625
  9
$DIMTOL
 70
0
  9
$DIMLIM
 70
0
  9
$DIMTFAC
 40
1.0
  9
$PDMODE
 70
3
  9
$PDSIZE
 40
0.3125
  9
$HANDSEED
  5
26E
  9
$TILEMODE
 70
1
  9
$MEASUREMENT
 70
0
  9
$INSUNITS
 70
1
  0
ENDSEC
  0
SECTION
  2
CLASSES
  0
CLASS
  1
ACDBDICTIONARYWDFLT
  2
AcDbDictionaryWithDefault
  3
AutoCAD 2000
 90
0
280
0
281
0
  0
CLASS
  1
ACDBPLACEHOLDER
  2
AcDbPlaceHolder
  3
AutoCAD 2000
 90
0
280
0
281
0
  0
CLASS
  1
LAYOUT
  2
AcDbLayout
  3
AutoCAD 2000
 90
0
280
0
281
0
  0
ENDSEC
  0
SECTION
  2
TABLES
  0
TABLE
  2
VPORT
  5
8
100
AcDbSymbolTable
 70
2
  0
VPORT
  5
1F4
100
AcDbSymbolTableRecord
100
AcDbViewportTableRecord
  2
*ACTIVE
 70
0
 10
0.0
 20
0.0
 11
1.0
 21
1.0
 12
5.8464566929
 22
4.1338582677
 13
0.0
 23
0.0
 14
1.0
 24
1.0
 15
0.0
 25
0.0
 16
0.0
 26
0.0
 36
1.0
 17
0.0
 27
0.0
 37
0.0
 40
8.2677165354
 41
1.4142857143
 42
50.0
 43
0.0
 44
0.0
 50
0.0
 51
0.0
 71
0
 72
100
 73
1
 74
1
 75
0
 76
0
 77
0
 78
0
  0
ENDTAB
  0
TABLE
  2
LTYPE
  5
5
100
AcDbSymbolTable
 70
6
  0
LTYPE
  5
14
100
AcDbSymbolTableRecord
100
AcDbLinetypeTableRecord
  2
BYBLOCK
 70
0
  3

 72
65
 73
0
 40
0.0
  0
LTYPE
  5
15
100
AcDbSymbolTableRecord
100
AcDbLinetypeTableRecord
  2
BYLAYER
 70
0
  3

 72
65
 73
0
 40
0.0
  0
LTYPE
  5
16
100
AcDbSymbolTableRecord
100
AcDbLinetypeTableRecord
  2
CONTINUOUS
 70
64
  3
Solid line
 72
65
 73
0
 40
0.0
  0
LTYPE
  5
1F5
100
AcDbSymbolTableRecord
100
AcDbLinetypeTableRecord
  2
CENTER
 70
64
  3
____ _ ____ _ ____ _ ____ _ ____ _ ____ _ ____
 72
65
 73
4
 40
0.6
 49
0.375
 74
0
 49
-0.075
 74
0
 49
0.075
 74
0
 49
-0.075
 74
0
  0
LTYPE
  5
1F6
100
AcDbSymbolTableRecord
100
AcDbLinetypeTableRecord
  2
HIDDEN
 70
64
  3
- - - - - - - - - - - - - - - - - - - -
 72
65
 73
2
 40
0.2
 49
0.1
 74
0
 49
-0.1
 74
0
  0
LTYPE
  5
1F7
100
AcDbSymbolTableRecord
100
AcDbLinetypeTableRecord
  2
PHANTOM
 70
64
  3
_____ _ _ _____ _ _ _____ _ _ _____
 72
65
 73
6
 40
0.8
 49
0.45
 74
0
 49
-0.05
 74
0
 49
0.1
 74
0
 49
-0.05
 74
0
 49
0.1
 74
0
 49
-0.05
 74
0
  0
LTYPE
  5
1F8
100
AcDbSymbolTableRecord
100
AcDbLinetypeTableRecord
  2
DOT
 70
64
  3
. . . . . . . . . . . . . . . . . . . .
 72
65
 73
2
 40
0.2
 49
0.1
 74
0
 49
-0.1
 74
0
  0
LTYPE
  5
1F9
100
AcDbSymbolTableRecord
100
AcDbLinetypeTableRecord
  2
DASHED
 70
64
  3
- - - - - - - - - - - - - - - - - - - -
 72
65
 73
2
 40
0.2
 49
0.1
 74
0
 49
-0.1
 74
0
  0
ENDTAB
  0
TABLE
  2
LAYER
  5
2
100
AcDbSymbolTable
 70
36
  0
LAYER
  5
10
100
AcDbSymbolTableRecord
100
AcDbLayerTableRecord
  2
0
 70
0
 62
7
  6
CONTINUOUS
370
-3
390
F
  0
LAYER
  5
1FA
100
AcDbSymbolTableRecord
100
AcDbLayerTableRecord
  2
DEFAULT_1
 70
0
 62
7
  6
CENTER
370
-3
390
F
  0
LAYER
  5
1FB
100
AcDbSymbolTableRecord
100
AcDbLayerTableRecord
  2
DEFAULT_2
 70
0
 62
8
  6
HIDDEN
370
-3
390
F
  0
LAYER
  5
1FC
100
AcDbSymbolTableRecord
100
AcDbLayerTableRecord
  2
DEFAULT_3
 70
0
 62
7
  6
PHANTOM
370
-3
390
F
  0
LAYER
  5
1FD
100
AcDbSymbolTableRecord
100
AcDbLayerTableRecord
  2
DEFAULT_COORDINATE_SYSTEM
 70
0
 62
7
  6
CONTINUOUS
370
-3
390
F
  0
LAYER
  5
1FE
100
AcDbSymbolTableRecord
100
AcDbLayerTableRecord
  2
DEFAULT_DATUM_AXES
 70
0
 62
7
  6
CONTINUOUS
370
-3
390
F
  0
LAYER
  5
1FF
100
AcDbSymbolTableRecord
100
AcDbLayerTableRecord
  2
DEFAULT_DATUM_CURVES
 70
0
 62
7
  6
CONTINUOUS
370
-3
390
F
  0
LAYER
  5
200
100
AcDbSymbolTableRecord
100
AcDbLayerTableRecord
  2
DEFAULT_DATUM_PLANES
 70
0
 62
7
  6
CONTINUOUS
370
-3
390
F
  0
ENDTAB
  0
TABLE
  2
STYLE
  5
3
100
AcDbSymbolTable
 70
1
  0
STYLE
  5
11
100
AcDbSymbolTableRecord
100
AcDbTextStyleTableRecord
  2
STANDARD
 70
0
 40
0.0
 41
0.8
 50
0.0
 71
0
 42
0.2
  3
txt
  4

  0
STYLE
  5
201
100
AcDbSymbolTableRecord
100
AcDbTextStyleTableRecord
  2
TEXTSTYLE_1
 70
0
 40
0.0
 41
0.8
 50
0.0
 71
0
 42
0.2
  3
gdt
  4

  0
ENDTAB
  0
TABLE
  2
VIEW
  5
6
100
AcDbSymbolTable
 70
0
  0
ENDTAB
  0
TABLE
  2
UCS
  5
7
100
AcDbSymbolTable
 70
0
  0
ENDTAB
  0
TABLE
  2
APPID
  5
9
100
AcDbSymbolTable
 70
1
  0
APPID
  5
202
100
AcDbSymbolTableRecord
100
AcDbRegAppTableRecord
  2
ACAD
 70
0
  0
ENDTAB
  0
TABLE
  2
BLOCK_RECORD
  5
1
100
AcDbSymbolTable
 70
0
  0
BLOCK_RECORD
  5
203
100
AcDbSymbolTableRecord
100
AcDbBlockTableRecord
  2
*Model_Space
  0
BLOCK_RECORD
  5
204
100
AcDbSymbolTableRecord
100
AcDbBlockTableRecord
  2
*Paper_Space
  0
ENDTAB
  0
TABLE
  2
DIMSTYLE
  5
A
100
AcDbSymbolTable
 70
1
100
AcDbDimStyleTable
 71
0
  0
DIMSTYLE
105
205
100
AcDbSymbolTableRecord
100
AcDbDimStyleTableRecord
  2
STANDARD
 70
0
  3

  4

 40
1.0
 41
0.1875
 42
0.0625
 43
0.38
 44
0.18
 45
0.0
 46
0.0
 47
0.01
 48
0.01
140
0.15625
141
0.09
142
0.0
143
25.4
144
1.0
145
0.0
146
1.0
147
0.09
 71
0.0
 72
0.0
 73
1
 74
1
 75
0
 76
0
 77
0
 78
4
170
0
171
2
172
0
173
0
174
0
175
0
176
0
177
0
178
0
270
2
271
2
272
2
273
2
274
2
275
0
280
0
281
0
282
0
283
1
284
4
285
0
286
0
287
3
288
0
340
11
  0
ENDTAB
  0
ENDSEC
  0
SECTION
  2
BLOCKS
  0
BLOCK
  5
20
100
AcDbEntity
  8
0
100
AcDbBlockBegin
  2
*Model_Space
 70
0
 10
0.0
 20
0.0
 30
0.0
  3
*Model_Space
  1

  0
ENDBLK
  5
21
100
AcDbEntity
  8
0
100
AcDbBlockEnd
  0
BLOCK
  5
1C
100
AcDbEntity
  8
0
100
AcDbBlockBegin
  2
*Paper_Space
 70
0
 10
0.0
 20
0.0
 30
0.0
  3
*Paper_Space
  1

  0
ENDBLK
  5
1D
100
AcDbEntity
  8
0
100
AcDbBlockEnd
  0
ENDSEC
  0
SECTION
  2
ENTITIES
  0
LINE
  5
206
100
AcDbEntity
  8
0
100
AcDbLine
 62
6
  6
CONTINUOUS
 10
3.6431052654
 20
5.5813455422
 11
3.6200372267
 21
5.5529828804
  0
LINE
  5
207
100
AcDbEntity
  8
0
100
AcDbLine
 62
9
  6
CONTINUOUS
 10
3.6200372267
 20
5.3005918039
 11
3.6200372267
 21
5.5529828804
  0
LINE
  5
208
100
AcDbEntity
  8
0
100
AcDbLine
 62
9
  6
CONTINUOUS
 10
3.6431052654
 20
5.5813455422
 11
3.6431052654
 21
5.272229142
  0
LINE
  5
209
100
AcDbEntity
  8
0
100
AcDbLine
 62
9
  6
CONTINUOUS
 10
3.7785145782
 20
5.7020791944
 11
3.7785145782
 21
5.1514954898
  0
LINE
  5
20A
100
AcDbEntity
  8
0
100
AcDbLine
 62
7
  6
CONTINUOUS
 10
4.0382463721
 20
5.8171315419
 11
4.0382463721
 21
5.0364431424
  0
LINE
  5
20B
100
AcDbEntity
  8
0
100
AcDbLine
 62
7
  6
CONTINUOUS
 10
4.0391432496
 20
5.8173755453
 11
4.0391432496
 21
5.036199139
  0
LINE
  5
20C
100
AcDbEntity
  8
0
100
AcDbLine
 62
6
  6
CONTINUOUS
 10
4.1656974218
 20
5.4267873421
 11
4.1656974218
 21
1.5517873421
  0
LINE
  5
20D
100
AcDbEntity
  8
0
100
AcDbLine
 62
6
  6
CONTINUOUS
 10
4.8975338782
 20
5.1452766643
 11
4.6612633172
 21
5.0524560867
  0
LINE
  5
20E
100
AcDbEntity
  8
0
100
AcDbLine
 62
9
  6
CONTINUOUS
 10
4.5406974218
 20
2.6142873421
 11
4.1656974218
 21
2.6142873421
  0
LINE
  5
20F
100
AcDbEntity
  8
0
100
AcDbLine
 62
9
  6
CONTINUOUS
 10
4.3528510687
 20
5.6142417439
 11
4.3528510687
 21
5.8592873421
  0
LINE
  5
210
100
AcDbEntity
  8
0
100
AcDbLine
 62
9
  6
CONTINUOUS
 10
4.3541153266
 20
5.6141664977
 11
4.3541153266
 21
5.8592873416
  0
LINE
  5
211
100
AcDbEntity
  8
0
100
AcDbLine
 62
6
  6
CONTINUOUS
 10
4.5406974218
 20
5.4267873421
 11
4.5406974218
 21
1.5517873421
  0
LINE
  5
212
100
AcDbEntity
  8
0
100
AcDbLine
 62
9
  6
CONTINUOUS
 10
4.6612633168
 20
5.8011185976
 11
4.6612633168
 21
5.0524560866
  0
LINE
  5
213
100
AcDbEntity
  8
0
100
AcDbLine
 62
6
  6
CONTINUOUS
 10
5.5386700767
 20
5.109786763
 11
5.5355513229
 21
5.1079711579
  0
LINE
  5
214
100
AcDbEntity
  8
0
100
AcDbLine
 62
6
  6
CONTINUOUS
 10
5.5386700768
 20
5.1410367793
 11
5.5216462157
 21
5.1311399522
  0
LINE
  5
215
100
AcDbEntity
  8
0
100
AcDbLine
 62
6
  6
CONTINUOUS
 10
5.6677247682
 20
5.1319129139
 11
5.6847486282
 21
5.1418097404
  0
LINE
  5
216
100
AcDbEntity
  8
0
100
AcDbLine
 62
9
  6
CONTINUOUS
 10
4.8975338782
 20
5.1452766643
 11
4.8975338782
 21
5.70829802
  0
LINE
  5
217
100
AcDbEntity
  8
0
100
AcDbLine
 62
6
  6
CONTINUOUS
 10
5.6847486282
 20
5.1418097404
 11
5.6851974218
 21
5.1423303402
  0
LINE
  5
218
100
AcDbEntity
  8
0
100
AcDbLine
 62
6
  6
CONTINUOUS
 10
5.6651974218
 20
5.1017873421
 11
5.6808908367
 21
5.1174807571
  0
LINE
  5
219
100
AcDbEntity
  8
0
100
AcDbLine
 62
6
  6
CONTINUOUS
 10
3.6431052654
 20
5.272229142
 11
3.6200372267
 21
5.3005918039
  0
LINE
  5
21A
100
AcDbEntity
  8
0
100
AcDbLine
 62
6
  6
CONTINUOUS
 10
5.1031974218
 20
5.1502873421
 11
5.1031974218
 21
5.7032873421
  0
LINE
  5
21B
100
AcDbEntity
  8
0
100
AcDbLine
 62
6
  6
CONTINUOUS
 10
5.5355513229
 20
5.1079711579
 11
5.5354098789
 21
5.107574885
  0
LINE
  5
21C
100
AcDbEntity
  8
0
100
AcDbLine
 62
6
  6
CONTINUOUS
 10
5.5211974218
 20
5.1267053272
 11
5.5211974218
 21
5.1306193571
  0
LINE
  5
21D
100
AcDbEntity
  8
0
100
AcDbLine
 62
6
  6
CONTINUOUS
 10
5.5381074221
 20
5.1481923503
 11
5.5381074221
 21
5.1407092978
  0
LINE
  5
21E
100
AcDbEntity
  8
0
100
AcDbLine
 62
6
  6
CONTINUOUS
 10
5.5381074219
 20
5.1169423341
 11
5.5381074219
 21
5.1094592095
  0
LINE
  5
21F
100
AcDbEntity
  8
0
100
AcDbLine
 62
6
  6
CONTINUOUS
 10
5.6682874215
 20
5.1247573422
 11
5.6682874215
 21
5.1322403959
  0
LINE
  5
220
100
AcDbEntity
  8
0
100
AcDbLine
 62
6
  6
CONTINUOUS
 10
5.6851974218
 20
5.1423303355
 11
5.6851974218
 21
5.146244359
  0
LINE
  5
221
100
AcDbEntity
  8
0
100
AcDbLine
 62
9
  6
CONTINUOUS
 10
5.7531974218
 20
5.8267873421
 11
5.7531974218
 21
5.0267873421
  0
LINE
  5
222
100
AcDbEntity
  8
0
100
AcDbLine
 62
9
  6
CONTINUOUS
 10
5.9124565532
 20
6.0125774454
 11
5.9124565532
 21
4.8409972389
  0
LINE
  5
223
100
AcDbEntity
  8
0
100
AcDbLine
 62
9
  6
CONTINUOUS
 10
4.5406974218
 20
4.3642873421
 11
4.1656974218
 21
4.3642873421
  0
LINE
  5
224
100
AcDbEntity
  8
0
100
AcDbLine
 62
6
  6
CONTINUOUS
 10
5.6807663237
 20
5.1178274216
 11
5.6808908876
 21
5.117480808
  0
LINE
  5
225
100
AcDbEntity
  8
0
100
AcDbLine
 62
6
  6
CONTINUOUS
 10
6.9731974218
 20
4.6769055387
 11
5.9124565532
 21
4.8409972389
  0
LINE
  5
226
100
AcDbEntity
  8
0
100
AcDbLine
 62
6
  6
CONTINUOUS
 10
5.5411974218
 20
5.1017873421
 11
5.535409865
 21
5.1075748989
  0
LINE
  5
227
100
AcDbEntity
  8
0
100
AcDbLine
 62
6
  6
CONTINUOUS
 10
5.6847486285
 20
5.1467649535
 11
5.6851974218
 21
5.1462443605
  0
LINE
  5
228
100
AcDbEntity
  8
0
100
AcDbLine
 62
6
  6
CONTINUOUS
 10
5.5411974218
 20
5.1017873421
 11
5.6651974218
 21
5.1017873421
  0
LINE
  5
229
100
AcDbEntity
  8
0
100
AcDbLine
 62
6
  6
CONTINUOUS
 10
5.6847486285
 20
5.1467649535
 11
5.6751575285
 21
5.1523373136
  0
LINE
  5
22A
100
AcDbEntity
  8
0
100
AcDbLine
 62
6
  6
CONTINUOUS
 10
5.5216462152
 20
5.1261847323
 11
5.5381074219
 21
5.1166153878
  0
LINE
  5
22B
100
AcDbEntity
  8
0
100
AcDbLine
 62
6
  6
CONTINUOUS
 10
5.5339153866
 20
5.1503053002
 11
5.5381074221
 21
5.1478654041
  0
LINE
  5
22C
100
AcDbEntity
  8
0
100
AcDbLine
 62
6
  6
CONTINUOUS
 10
5.6807663237
 20
5.1178274216
 11
5.6682874215
 21
5.1250842899
  0
LINE
  5
22D
100
AcDbEntity
  8
0
100
AcDbLine
 62
6
  6
CONTINUOUS
 10
6.9731974218
 20
6.1867243446
 11
6.9731974218
 21
4.6668503397
  0
LINE
  5
22E
100
AcDbEntity
  8
0
100
AcDbLine
 62
6
  6
CONTINUOUS
 10
5.7531974218
 20
5.1502873421
 11
5.6881074218
 21
5.1502873421
  0
LINE
  5
22F
100
AcDbEntity
  8
0
100
AcDbLine
 62
6
  6
CONTINUOUS
 10
5.5337494514
 20
5.1502873421
 11
5.1031974218
 21
5.1502873421
  0
LINE
  5
230
100
AcDbEntity
  8
0
100
AcDbLine
 62
6
  6
CONTINUOUS
 10
4.8975338782
 20
5.70829802
 11
4.6612633172
 21
5.8011185975
  0
LINE
  5
231
100
AcDbEntity
  8
0
100
AcDbLine
 62
7
  6
CONTINUOUS
 10
7.1031974218
 20
6.1867243446
 11
7.1031974218
 21
4.6668503397
  0
LINE
  5
232
100
AcDbEntity
  8
0
100
AcDbLine
 62
6
  6
CONTINUOUS
 10
5.7531974218
 20
5.7032873421
 11
5.1031974218
 21
5.7032873421
  0
LINE
  5
233
100
AcDbEntity
  8
0
100
AcDbLine
 62
9
  6
CONTINUOUS
 10
7.4917011122
 20
4.3202756357
 11
7.4917011122
 21
6.5332990485
  0
LINE
  5
234
100
AcDbEntity
  8
0
100
AcDbLine
 62
6
  6
CONTINUOUS
 10
6.9731974218
 20
6.1766691456
 11
5.9124565532
 21
6.0125774454
  0
LINE
  5
235
100
AcDbEntity
  8
0
100
AcDbLine
 62
6
  6
CONTINUOUS
 10
4.3541153266
 20
5.8592873421
 11
4.3528510687
 21
5.8592873421
  0
LINE
  5
236
100
AcDbEntity
  8
0
100
AcDbLine
 62
9
  6
CONTINUOUS
 10
7.7281974218
 20
4.3767899356
 11
7.7281974218
 21
6.4767847487
  0
ARC
  5
237
100
AcDbEntity
  8
0
100
AcDbCircle
 62
6
  6
CONTINUOUS
 10
4.3531974131
 20
2.1714595086
 40
0.3125000087
100
AcDbArc
 50
306.8727817311
 51
53.1211668868
  0
ARC
  5
238
100
AcDbEntity
  8
0
100
AcDbCircle
 62
6
  6
CONTINUOUS
 10
4.3531974305
 20
2.1714594994
 40
0.3125000087
100
AcDbArc
 50
126.8727817311
 51
233.1211668868
  0
ARC
  5
239
100
AcDbEntity
  8
0
100
AcDbCircle
 62
9
  6
CONTINUOUS
 10
4.3531974218
 20
1.5517873421
 40
0.1875
100
AcDbArc
 50
180.0
 51
360.0
  0
ARC
  5
23A
100
AcDbEntity
  8
0
100
AcDbCircle
 62
7
  6
CONTINUOUS
 10
4.4472433847
 20
1.9952056122
 40
0.0944540376
100
AcDbArc
 50
0.0059100755
 51
5.755261587
  0
ARC
  5
23B
100
AcDbEntity
  8
0
100
AcDbCircle
 62
7
  6
CONTINUOUS
 10
4.2591514589
 20
1.9952056122
 40
0.0944540376
100
AcDbArc
 50
174.244738413
 51
179.9940899245
  0
ARC
  5
23C
100
AcDbEntity
  8
0
100
AcDbCircle
 62
7
  6
CONTINUOUS
 10
4.4472433847
 20
1.9952250982
 40
0.0944540376
100
AcDbArc
 50
354.244738413
 51
359.9940899245
  0
ARC
  5
23D
100
AcDbEntity
  8
0
100
AcDbCircle
 62
7
  6
CONTINUOUS
 10
4.2591514589
 20
1.9952250982
 40
0.0944540376
100
AcDbArc
 50
180.0059100755
 51
185.755261587
  0
ARC
  5
23E
100
AcDbEntity
  8
0
100
AcDbCircle
 62
6
  6
CONTINUOUS
 10
4.3528510687
 20
4.6642873421
 40
1.195
100
AcDbArc
 50
90.0
 51
105.2194647907
  0
ARC
  5
23F
100
AcDbEntity
  8
0
100
AcDbCircle
 62
6
  6
CONTINUOUS
 10
4.28553739
 20
4.9081699626
 40
0.942
100
AcDbArc
 50
105.2194648864
 51
122.5639610219
  0
ARC
  5
240
100
AcDbEntity
  8
0
100
AcDbCircle
 62
6
  6
CONTINUOUS
 10
4.3541153266
 20
5.0192873421
 40
0.84
100
AcDbArc
 50
68.5522638378
 51
90.0
  0
ARC
  5
241
100
AcDbEntity
  8
0
100
AcDbCircle
 62
6
  6
CONTINUOUS
 10
4.0853118212
 20
5.2216882581
 40
0.57
100
AcDbArc
 50
122.5639610429
 51
140.8777082756
  0
ARC
  5
242
100
AcDbEntity
  8
0
100
AcDbCircle
 62
7
  6
CONTINUOUS
 10
4.3531980956
 20
5.4267866717
 40
0.1930004981
100
AcDbArc
 50
89.7275016907
 51
179.9998009749
  0
ARC
  5
243
100
AcDbEntity
  8
0
100
AcDbCircle
 62
6
  6
CONTINUOUS
 10
3.7751974218
 20
5.4267873421
 40
0.2
100
AcDbArc
 50
140.87770829
 51
219.12229171
  0
ARC
  5
244
100
AcDbEntity
  8
0
100
AcDbCircle
 62
6
  6
CONTINUOUS
 10
4.0853118212
 20
5.6318864261
 40
0.57
100
AcDbArc
 50
219.1222917244
 51
237.4360389571
  0
ARC
  5
245
100
AcDbEntity
  8
0
100
AcDbCircle
 62
7
  6
CONTINUOUS
 10
4.3534806705
 20
5.4268168294
 40
0.1932831262
100
AcDbArc
 50
180.0087410322
 51
193.070233664
  0
ARC
  5
246
100
AcDbEntity
  8
0
100
AcDbCircle
 62
7
  6
CONTINUOUS
 10
4.3529369025
 20
5.4268144306
 40
0.1932604032
100
AcDbArc
 50
346.9329608211
 51
359.9919691109
  0
ARC
  5
247
100
AcDbEntity
  8
0
100
AcDbCircle
 62
7
  6
CONTINUOUS
 10
4.3531985852
 20
5.4267884764
 40
0.1929981188
100
AcDbArc
 50
359.9996632541
 51
89.7278449691
  0
ARC
  5
248
100
AcDbEntity
  8
0
100
AcDbCircle
 62
9
  6
CONTINUOUS
 10
4.3531974218
 20
5.4267873421
 40
0.1875
100
AcDbArc
 50
0.0
 51
180.0
  0
ARC
  5
249
100
AcDbEntity
  8
0
100
AcDbCircle
 62
6
  6
CONTINUOUS
 10
4.3528510687
 20
6.1892873421
 40
1.195
100
AcDbArc
 50
254.7805352093
 51
260.9886971218
  0
ARC
  5
24A
100
AcDbEntity
  8
0
100
AcDbCircle
 62
6
  6
CONTINUOUS
 10
4.28553739
 20
5.9454047216
 40
0.942
100
AcDbArc
 50
237.4360389781
 51
254.7805351136
  0
ARC
  5
24B
100
AcDbEntity
  8
0
100
AcDbCircle
 62
6
  6
CONTINUOUS
 10
4.3541153266
 20
5.8342873421
 40
0.84
100
AcDbArc
 50
282.8354944263
 51
291.4477361622
  0
ARC
  5
24C
100
AcDbEntity
  8
0
100
AcDbCircle
 62
6
  6
CONTINUOUS
 10
5.0072295899
 20
4.8660512163
 40
0.3
100
AcDbArc
 50
71.3435596323
 51
111.4477363271
  0
ARC
  5
24D
100
AcDbEntity
  8
0
100
AcDbCircle
 62
7
  6
CONTINUOUS
 10
5.5287529037
 20
5.1917147779
 40
0.041783683
100
AcDbArc
 50
279.2257940203
 51
282.7868268342
  0
ARC
  5
24E
100
AcDbEntity
  8
0
100
AcDbCircle
 62
7
  6
CONTINUOUS
 10
5.5304310099
 20
5.18143843
 40
0.0313712397
100
AcDbArc
 50
278.5778218785
 51
279.2096540854
  0
ARC
  5
24F
100
AcDbEntity
  8
0
100
AcDbCircle
 62
6
  6
CONTINUOUS
 10
5.0072295899
 20
5.987523468
 40
0.3
100
AcDbArc
 50
248.5522636729
 51
288.6564403677
  0
ARC
  5
250
100
AcDbEntity
  8
0
100
AcDbCircle
 62
6
  6
CONTINUOUS
 10
6.822723255
 20
3.9812053974
 40
0.75
100
AcDbArc
 50
26.8780899777
 51
68.0396077086
  0
ARC
  5
251
100
AcDbEntity
  8
0
100
AcDbCircle
 62
6
  6
CONTINUOUS
 10
5.9411974218
 20
5.0267873421
 40
0.188
100
AcDbArc
 50
180.0
 51
261.2063123688
  0
ARC
  5
252
100
AcDbEntity
  8
0
100
AcDbCircle
 62
6
  6
CONTINUOUS
 10
5.9411974218
 20
5.8267873421
 40
0.188
100
AcDbArc
 50
98.7936876312
 51
180.0
  0
ARC
  5
253
100
AcDbEntity
  8
0
100
AcDbCircle
 62
6
  6
CONTINUOUS
 10
7.6031974218
 20
4.3767873421
 40
0.125
100
AcDbArc
 50
206.8780899777
 51
360.0
  0
ARC
  5
254
100
AcDbEntity
  8
0
100
AcDbCircle
 62
6
  6
CONTINUOUS
 10
7.0381974218
 20
4.6668503397
 40
0.065
100
AcDbArc
 50
180.0
 51
360.0
  0
ARC
  5
255
100
AcDbEntity
  8
0
100
AcDbCircle
 62
6
  6
CONTINUOUS
 10
6.822723255
 20
6.8723692868
 40
0.75
100
AcDbArc
 50
291.9603922914
 51
333.1219100223
  0
ARC
  5
256
100
AcDbEntity
  8
0
100
AcDbCircle
 62
6
  6
CONTINUOUS
 10
7.6031974218
 20
6.4767873421
 40
0.125
100
AcDbArc
 50
0.0
 51
153.1219100223
  0
ARC
  5
257
100
AcDbEntity
  8
0
100
AcDbCircle
 62
6
  6
CONTINUOUS
 10
7.0381974218
 20
6.1867243446
 40
0.065
100
AcDbArc
 50
0.0
 51
180.0
  0
LINE
  5
258
100
AcDbEntity
  8
0
100
AcDbLine
 62
7
  6
CONTINUOUS
 10
5.6870449734
 20
5.150611757
 11
5.6881074218
 21
5.1502873421
  0
SPLINE
  5
259
100
AcDbEntity
  8
0
100
AcDbSpline
 62
7
  6
CONTINUOUS
 70
0
 71
3
 72
21
 73
17
 74
15
 42
0.0000001
 43
0.0000001
 44
0.0000000001
 12
0.0469551653
 22
-0.0034184732
 32
0.0
 13
0.0466388337
 23
-0.0064259397
 33
0.0
 40
0.0
 40
0.0
 40
0.0
 40
0.0
 40
0.1633498309
 40
0.2425984632
 40
0.3199100152
 40
0.3950434884
 40
0.4677534923
 40
0.604906141
 40
0.6688461954
 40
0.7293147469
 40
0.7859763533
 40
0.8384934003
 40
0.8865257071
 40
0.929708341
 40
0.9676600976
 40
1.0
 40
1.0
 40
1.0
 40
1.0
 10
5.6403137486
 20
5.1562215059
 30
0.0
 10
5.6428704547
 20
5.1560353703
 30
0.0
 10
5.6466650785
 20
5.1557237004
 30
0.0
 10
5.6516629942
 20
5.1552488011
 30
0.0
 10
5.655279859
 20
5.1548758328
 30
0.0
 10
5.6587917615
 20
5.1544864472
 30
0.0
 10
5.6632334066
 20
5.1539618705
 30
0.0
 10
5.6674956731
 20
5.1534170513
 30
0.0
 10
5.6715629086
 20
5.1528635216
 30
0.0
 10
5.6743767466
 20
5.1524674919
 30
0.0
 10
5.6770116811
 20
5.152086736
 30
0.0
 10
5.6794524885
 20
5.1517272613
 30
0.0
 10
5.6816835172
 20
5.1513951858
 30
0.0
 10
5.6836884175
 20
5.1510964627
 30
0.0
 10
5.685450183
 20
5.150837004
 30
0.0
 10
5.6865422083
 20
5.1506810284
 30
0.0
 10
5.6870449734
 20
5.150611757
 30
0.0
 11
5.6403137486
 21
5.1562215059
 31
0.0
 11
5.6479784972
 21
5.1555936826
 31
0.0
 11
5.6516927622
 21
5.1552409004
 31
0.0
 11
5.6553133566
 21
5.1548676349
 31
0.0
 11
5.6588290742
 21
5.1544780088
 31
0.0
 11
5.6622286188
 21
5.1540767285
 31
0.0
 11
5.6686337698
 21
5.1532595446
 31
0.0
 11
5.6716165678
 21
5.1528538448
 31
0.0
 11
5.674435651
 21
5.1524573787
 31
0.0
 11
5.6770758725
 21
5.1520761937
 31
0.0
 11
5.6795220201
 21
5.1517163536
 31
0.0
 11
5.6817587859
 21
5.1513839227
 31
0.0
 11
5.6837696992
 21
5.1510849674
 31
0.0
 11
5.6855375148
 21
5.1508255561
 31
0.0
 11
5.6870449734
 21
5.150611757
 31
0.0
  0
SPLINE
  5
25A
100
AcDbEntity
  8
0
100
AcDbSpline
 62
7
  6
CONTINUOUS
 70
0
 71
3
 72
47
 73
43
 74
41
 42
0.0000001
 43
0.0000001
 44
0.0000000001
 12
0.0311708122
 22
-0.0042760242
 32
0.0
 13
0.0242926595
 23
-0.0199942641
 33
0.0
 40
0.0
 40
0.0
 40
0.0
 40
0.0
 40
0.1107610052
 40
0.2168432534
 40
0.317785766
 40
0.4131231269
 40
0.5024014926
 40
0.5852718445
 40
0.6614280919
 40
0.7305613381
 40
0.7923634482
 40
0.8204300387
 40
0.8465669455
 40
0.8707441964
 40
0.8929317465
 40
0.9130994818
 40
0.9312172238
 40
0.9472547368
 40
0.961186196
 40
0.9673583651
 40
0.9730000422
 40
0.9781101384
 40
0.982687564
 40
0.9867312294
 40
0.9902400443
 40
0.9932129181
 40
0.9944980363
 40
0.99564876
 40
0.9966649529
 40
0.9975464786
 40
0.9982932007
 40
0.9989049827
 40
0.9991602285
 40
0.9993816882
 40
0.9995693447
 40
0.999723181
 40
0.9998431803
 40
0.9999293258
 40
0.9999596983
 40
0.9999816014
 40
0.9999950341
 40
1.0
 40
1.0
 40
1.0
 40
1.0
 10
5.6403137486
 20
5.1562215059
 30
0.0
 10
5.6414645854
 20
5.1560636337
 30
0.0
 10
5.6437157449
 20
5.1557405233
 30
0.0
 10
5.6470089438
 20
5.1552278024
 30
0.0
 10
5.6501366718
 20
5.1547050665
 30
0.0
 10
5.6530852495
 20
5.1541805586
 30
0.0
 10
5.6558422778
 20
5.1536622586
 30
0.0
 10
5.6583971073
 20
5.1531578286
 30
0.0
 10
5.660740698
 20
5.1526747029
 30
0.0
 10
5.6628645024
 20
5.1522201312
 30
0.0
 10
5.6644928373
 20
5.1518605898
 30
0.0
 10
5.6656796665
 20
5.1515930095
 30
0.0
 10
5.666481059
 20
5.1514099913
 30
0.0
 10
5.6672218971
 20
5.151238764
 30
0.0
 10
5.667901356
 20
5.1510799782
 30
0.0
 10
5.6685186111
 20
5.1509342863
 30
0.0
 10
5.669072838
 20
5.1508023392
 30
0.0
 10
5.669563257
 20
5.1506847756
 30
0.0
 10
5.6699317561
 20
5.150596037
 30
0.0
 10
5.6701942062
 20
5.1505326087
 30
0.0
 10
5.6703667083
 20
5.1504908216
 30
0.0
 10
5.6705229351
 20
5.1504528879
 30
0.0
 10
5.6706628571
 20
5.1504188319
 30
0.0
 10
5.670786445
 20
5.1503886776
 30
0.0
 10
5.6708936692
 20
5.1503624494
 30
0.0
 10
5.6709727795
 20
5.1503430464
 30
0.0
 10
5.6710278639
 20
5.150329505
 30
0.0
 10
5.6710630175
 20
5.1503208496
 30
0.0
 10
5.6710940581
 20
5.1503131939
 30
0.0
 10
5.6711209821
 20
5.1503065409
 30
0.0
 10
5.6711437857
 20
5.1503008936
 30
0.0
 10
5.6711602113
 20
5.1502968152
 30
0.0
 10
5.6711712886
 20
5.1502940568
 30
0.0
 10
5.6711780489
 20
5.1502923699
 30
0.0
 10
5.671183776
 20
5.1502909361
 30
0.0
 10
5.6711884709
 20
5.1502897584
 30
0.0
 10
5.6711921293
 20
5.1502888305
 30
0.0
 10
5.6711945373
 20
5.1502882255
 30
0.0
 10
5.6711959371
 20
5.1502878526
 30
0.0
 10
5.6711966132
 20
5.1502876936
 30
0.0
 10
5.6711970037
 20
5.1502875541
 30
0.0
 10
5.6711972083
 20
5.1502875324
 30
0.0
 10
5.6711972485
 20
5.1502874993
 30
0.0
 11
5.6403137486
 21
5.1562215059
 31
0.0
 11
5.6437632678
 21
5.1557265729
 31
0.0
 11
5.6470611933
 21
5.1552132357
 31
0.0
 11
5.650193685
 21
5.1546897726
 31
0.0
 11
5.653146903
 21
5.1541644624
 31
0.0
 11
5.6559074881
 21
5.1536454979
 31
0.0
 11
5.658465439
 21
5.1531404753
 31
0.0
 11
5.6608121848
 21
5.1526567365
 31
0.0
 11
5.6629391599
 21
5.1522016223
 31
0.0
 11
5.6648378891
 21
5.1517823772
 31
0.0
 11
5.6656993151
 21
5.1515881461
 31
0.0
 11
5.6665010119
 21
5.1514050528
 31
0.0
 11
5.6672421554
 21
5.1512337512
 31
0.0
 11
5.6679219214
 21
5.1510748949
 31
0.0
 11
5.668539486
 21
5.1509291378
 31
0.0
 11
5.6690940249
 21
5.1507971337
 31
0.0
 11
5.6695847142
 21
5.1506795365
 31
0.0
 11
5.6700108512
 21
5.1505769047
 31
0.0
 11
5.6701996099
 21
5.1505312842
 31
0.0
 11
5.6703721226
 21
5.1504894928
 31
0.0
 11
5.6705283601
 21
5.1504515547
 31
0.0
 11
5.6706682928
 21
5.1504174941
 31
0.0
 11
5.6707918912
 21
5.1503873351
 31
0.0
 11
5.6708991261
 21
5.150361102
 31
0.0
 11
5.6709899677
 21
5.1503388188
 31
0.0
 11
5.671029232
 21
5.1503291661
 31
0.0
 11
5.6710643868
 21
5.1503205099
 31
0.0
 11
5.6710954287
 21
5.1503128532
 31
0.0
 11
5.6711223539
 21
5.1503061992
 31
0.0
 11
5.6711451588
 21
5.1503005509
 31
0.0
 11
5.6711638395
 21
5.1502959112
 31
0.0
 11
5.6711716323
 21
5.1502939705
 31
0.0
 11
5.6711783926
 21
5.1502922831
 31
0.0
 11
5.6711841201
 21
5.1502908494
 31
0.0
 11
5.6711888142
 21
5.1502896698
 31
0.0
 11
5.6711924746
 21
5.1502887446
 31
0.0
 11
5.6711951008
 21
5.1502880742
 31
0.0
 11
5.6711960259
 21
5.1502878346
 31
0.0
 11
5.6711966922
 21
5.150287659
 31
0.0
 11
5.6711970998
 21
5.1502875472
 31
0.0
 11
5.6711972485
 21
5.1502874993
 31
0.0
  0
LINE
  5
25B
100
AcDbEntity
  8
0
100
AcDbLine
 62
7
  6
CONTINUOUS
 10
5.5351974218
 20
5.1502873421
 11
5.5380006518
 21
5.1509673009
  0
LINE
  5
25C
100
AcDbEntity
  8
0
100
AcDbLine
 62
7
  6
CONTINUOUS
 10
5.5351101119
 20
5.150418103
 11
5.5337494514
 21
5.1502873421
  0
SPLINE
  5
25D
100
AcDbEntity
  8
0
100
AcDbSpline
 62
6
  6
CONTINUOUS
 70
0
 71
3
 72
15
 73
11
 74
9
 42
0.0000001
 43
0.0000001
 44
0.0000000001
 12
-0.0007774083
 22
0.0004527428
 32
0.0
 13
0.0000001325
 23
0.0008996331
 33
0.0
 40
0.0
 40
0.0
 40
0.0
 40
0.0
 40
0.17237111
 40
0.3285725222
 40
0.4693970544
 40
0.5959471711
 40
0.709765818
 40
0.8130055027
 40
0.9085472498
 40
1.0
 40
1.0
 40
1.0
 40
1.0
 10
5.5386701579
 20
5.1475379222
 30
0.0
 10
5.5386254904
 20
5.1475639355
 30
0.0
 10
5.5385415801
 20
5.1476157088
 30
0.0
 10
5.5384267333
 20
5.1476972978
 30
0.0
 10
5.5383292278
 20
5.1477789601
 30
0.0
 10
5.5382490743
 20
5.1478607809
 30
0.0
 10
5.5381863189
 20
5.1479429031
 30
0.0
 10
5.5381410896
 20
5.1480255149
 30
0.0
 10
5.5381136746
 20
5.1481086799
 30
0.0
 10
5.5381074976
 20
5.1481649258
 30
0.0
 10
5.5381075017
 20
5.1481923505
 30
0.0
 11
5.5386701579
 21
5.1475379222
 31
0.0
 11
5.5385384191
 21
5.1476197258
 31
0.0
 11
5.5384241599
 21
5.1477015293
 31
0.0
 11
5.5383274198
 21
5.1477833328
 31
0.0
 11
5.5382482384
 21
5.1478651364
 31
0.0
 11
5.5381866517
 21
5.1479469399
 31
0.0
 11
5.538142669
 21
5.1480287434
 31
0.0
 11
5.5381162869
 21
5.148110547
 31
0.0
 11
5.5381075017
 21
5.1481923505
 31
0.0
  0
SPLINE
  5
25E
100
AcDbEntity
  8
0
100
AcDbSpline
 62
6
  6
CONTINUOUS
 70
0
 71
3
 72
15
 73
11
 74
9
 42
0.0000001
 43
0.0000001
 44
0.0000000001
 12
-0.0007773816
 22
0.0004527938
 32
0.0
 13
0.0000002956
 23
0.0008996357
 33
0.0
 40
0.0
 40
0.0
 40
0.0
 40
0.0
 40
0.1723510772
 40
0.3285370875
 40
0.4693559766
 40
0.5959137921
 40
0.7097520953
 40
0.8130052105
 40
0.9085486435
 40
1.0
 40
1.0
 40
1.0
 40
1.0
 10
5.5386701505
 20
5.1162879062
 30
0.0
 10
5.5386254896
 20
5.1163139194
 30
0.0
 10
5.5385415919
 20
5.1163656934
 30
0.0
 10
5.538426761
 20
5.1164472841
 30
0.0
 10
5.5383292617
 20
5.1165289479
 30
0.0
 10
5.5382491009
 20
5.1166107702
 30
0.0
 10
5.5381863168
 20
5.1166928852
 30
0.0
 10
5.5381410575
 20
5.1167754936
 30
0.0
 10
5.5381136358
 20
5.1168586624
 30
0.0
 10
5.5381074656
 20
5.1169149101
 30
0.0
 10
5.5381074746
 20
5.1169423344
 30
0.0
 11
5.5386701505
 21
5.1162879062
 31
0.0
 11
5.5385384323
 21
5.1163697097
 31
0.0
 11
5.5384241897
 21
5.1164515132
 31
0.0
 11
5.5383274557
 21
5.1165333168
 31
0.0
 11
5.5382482638
 21
5.1166151203
 31
0.0
 11
5.5381866472
 21
5.1166969238
 31
0.0
 11
5.5381426384
 21
5.1167787273
 31
0.0
 11
5.5381162505
 21
5.1168605308
 31
0.0
 11
5.5381074746
 21
5.1169423344
 31
0.0
  0
LINE
  5
25F
100
AcDbEntity
  8
0
100
AcDbLine
 62
6
  6
CONTINUOUS
 10
5.5216462833
 20
5.1261847323
 11
5.5211974772
 21
5.1267051544
  0
LINE
  5
260
100
AcDbEntity
  8
0
100
AcDbLine
 62
6
  6
CONTINUOUS
 10
5.5211974709
 20
5.1306193573
 11
5.5216462962
 21
5.1311399522
  0
SPLINE
  5
261
100
AcDbEntity
  8
0
100
AcDbSpline
 62
6
  6
CONTINUOUS
 70
0
 71
3
 72
35
 73
31
 74
29
 42
0.0000001
 43
0.0000001
 44
0.0000000001
 12
0.0818392305
 22
0.0049638434
 32
0.0
 13
0.070903628
 23
0.0411700731
 33
0.0
 40
0.0
 40
0.0
 40
0.0
 40
0.0
 40
0.1826064106
 40
0.2719944793
 40
0.3591112591
 40
0.4432301744
 40
0.5236434793
 40
0.5996830796
 40
0.6707180386
 40
0.7041710918
 40
0.7361558894
 40
0.7666051637
 40
0.7954553456
 40
0.8226493209
 40
0.8481308987
 40
0.8718472556
 40
0.8937534869
 40
0.9138065112
 40
0.9319666753
 40
0.9482038769
 40
0.9555932292
 40
0.9624923374
 40
0.9688987354
 40
0.9748114255
 40
0.9802303697
 40
0.985156307
 40
0.9895911016
 40
0.9935383063
 40
0.9970041599
 40
1.0
 40
1.0
 40
1.0
 40
1.0
 10
5.6031974218
 20
5.134517831
 30
0.0
 10
5.6081788778
 20
5.1348199742
 30
0.0
 10
5.6155988251
 20
5.1352699345
 30
0.0
 10
5.6253943639
 20
5.1358792174
 30
0.0
 10
5.6325027232
 20
5.1363328556
 30
0.0
 10
5.6393652999
 20
5.1367863397
 30
0.0
 10
5.6459244683
 20
5.1372396134
 30
0.0
 10
5.6521251757
 20
5.1376926293
 30
0.0
 10
5.6570440045
 20
5.1380770742
 30
0.0
 10
5.6607609358
 20
5.138386546
 30
0.0
 10
5.6633716426
 20
5.1386139334
 30
0.0
 10
5.6658560599
 20
5.1388412672
 30
0.0
 10
5.6682089737
 20
5.139068557
 30
0.0
 10
5.6704254624
 20
5.1392957597
 30
0.0
 10
5.6725008741
 20
5.1395228654
 30
0.0
 10
5.674430862
 20
5.1397498801
 30
0.0
 10
5.676211407
 20
5.1399767396
 30
0.0
 10
5.6778388027
 20
5.1402033942
 30
0.0
 10
5.6793096504
 20
5.1404298558
 30
0.0
 10
5.6804351676
 20
5.1406238828
 30
0.0
 10
5.6812546366
 20
5.1407804055
 30
0.0
 10
5.6818087126
 20
5.1408940376
 30
0.0
 10
5.6823215385
 20
5.1410076304
 30
0.0
 10
5.6827928655
 20
5.1411211737
 30
0.0
 10
5.6832224909
 20
5.1412346505
 30
0.0
 10
5.6836102334
 20
5.1413480464
 30
0.0
 10
5.6839559196
 20
5.1414613421
 30
0.0
 10
5.684259422
 20
5.1415745205
 30
0.0
 10
5.6845206153
 20
5.1416875706
 30
0.0
 10
5.6846777739
 20
5.1417686276
 30
0.0
 10
5.6847485792
 20
5.1418097406
 30
0.0
 11
5.6031974218
 21
5.134517831
 31
0.0
 11
5.6181414812
 21
5.1354293364
 31
0.0
 11
5.6254561932
 21
5.1358850604
 31
0.0
 11
5.6325843118
 21
5.1363407978
 31
0.0
 11
5.6394661159
 21
5.1367965483
 31
0.0
 11
5.6460434029
 21
5.1372522861
 31
0.0
 11
5.6522611819
 21
5.1377080277
 31
0.0
 11
5.658067453
 21
5.1381637755
 31
0.0
 11
5.660800774
 21
5.13839165
 31
0.0
 11
5.6634132764
 21
5.1386195244
 31
0.0
 11
5.6658993796
 21
5.1388473983
 31
0.0
 11
5.6682537937
 21
5.1390752714
 31
0.0
 11
5.6704717426
 21
5.1393031435
 31
0.0
 11
5.6725485036
 21
5.1395310142
 31
0.0
 11
5.6744796011
 21
5.1397588837
 31
0.0
 11
5.6762611714
 21
5.1399867531
 31
0.0
 11
5.6778894439
 21
5.1402146236
 31
0.0
 11
5.6793608486
 21
5.1404424961
 31
0.0
 11
5.6806724833
 21
5.1406703701
 31
0.0
 11
5.6812675235
 21
5.1407843074
 31
0.0
 11
5.6818215851
 21
5.1408982449
 31
0.0
 11
5.6823343369
 21
5.1410121824
 31
0.0
 11
5.6828055366
 21
5.14112612
 31
0.0
 11
5.6832349761
 21
5.1412400574
 31
0.0
 11
5.6836224473
 21
5.1413539946
 31
0.0
 11
5.6839677422
 21
5.1414679316
 31
0.0
 11
5.6842706526
 21
5.1415818683
 31
0.0
 11
5.6845309749
 21
5.1416958047
 31
0.0
 11
5.6847485792
 21
5.1418097406
 31
0.0
  0
SPLINE
  5
262
100
AcDbEntity
  8
0
100
AcDbSpline
 62
6
  6
CONTINUOUS
 70
0
 71
3
 72
34
 73
30
 74
28
 42
0.0000001
 43
0.0000001
 44
0.0000000001
 12
-0.0678059122
 22
-0.0029392302
 32
0.0
 13
-0.0586546889
 23
-0.034145399
 33
0.0
 40
0.0
 40
0.0
 40
0.0
 40
0.0
 40
0.1860667202
 40
0.276754087
 40
0.3649234827
 40
0.4498736664
 40
0.5309101945
 40
0.6073720332
 40
0.6786270684
 40
0.7440737936
 40
0.7744443534
 40
0.8031565675
 40
0.8301499635
 40
0.8553662573
 40
0.878748428
 40
0.9002467443
 40
0.9198149107
 40
0.9374081829
 40
0.9529903121
 40
0.9600177071
 40
0.9665311615
 40
0.9725274146
 40
0.9780040942
 40
0.9829603807
 40
0.9873963399
 40
0.9913132123
 40
0.9947141359
 40
0.9976055023
 40
1.0
 40
1.0
 40
1.0
 40
1.0
 10
5.6031974218
 20
5.1125278277
 30
0.0
 10
5.5989919472
 20
5.1123455301
 30
0.0
 10
5.5927368409
 20
5.1120724433
 30
0.0
 10
5.5844895333
 20
5.1116994593
 30
0.0
 10
5.5785278689
 20
5.1114211103
 30
0.0
 10
5.572784829
 20
5.1111417981
 30
0.0
 10
5.5673070257
 20
5.1108615358
 30
0.0
 10
5.5621395241
 20
5.1105803729
 30
0.0
 10
5.5573253192
 20
5.1102983641
 30
0.0
 10
5.5535532888
 20
5.110057109
 30
0.0
 10
5.5507427926
 20
5.1098619811
 30
0.0
 10
5.5488007207
 20
5.1097190491
 30
0.0
 10
5.5469756067
 20
5.109575886
 30
0.0
 10
5.5452714877
 20
5.1094325053
 30
0.0
 10
5.5436921754
 20
5.1092889032
 30
0.0
 10
5.5422412296
 20
5.1091451134
 30
0.0
 10
5.5409219577
 20
5.1090011922
 30
0.0
 10
5.5397374231
 20
5.1088571383
 30
0.0
 10
5.5388363339
 20
5.1087331906
 30
0.0
 10
5.5381851467
 20
5.1086328778
 30
0.0
 10
5.5377491551
 20
5.1085602172
 30
0.0
 10
5.5373487746
 20
5.1084875234
 30
0.0
 10
5.5369842548
 20
5.1084147974
 30
0.0
 10
5.5366557998
 20
5.1083420613
 30
0.0
 10
5.5363635755
 20
5.1082693349
 30
0.0
 10
5.5361077369
 20
5.108196647
 30
0.0
 10
5.5358883754
 20
5.1081240285
 30
0.0
 10
5.5357055963
 20
5.1080515256
 30
0.0
 10
5.5355981626
 20
5.1079984116
 30
0.0
 10
5.5355513464
 20
5.1079711579
 30
0.0
 11
5.6031974218
 21
5.1125278277
 31
0.0
 11
5.5905813047
 21
5.111973907
 31
0.0
 11
5.5844326965
 21
5.1116953667
 31
0.0
 11
5.5784552127
 21
5.1114157443
 31
0.0
 11
5.5726965172
 21
5.1111350195
 31
0.0
 11
5.5672038267
 21
5.1108531979
 31
0.0
 11
5.5620221123
 21
5.1105702584
 31
0.0
 11
5.5571944131
 21
5.1102861841
 31
0.0
 11
5.5527617376
 21
5.1100009643
 31
0.0
 11
5.5507054696
 21
5.1098579213
 31
0.0
 11
5.5487620621
 21
5.1097145875
 31
0.0
 11
5.5469356701
 21
5.1095709609
 31
0.0
 11
5.5452303129
 21
5.1094270396
 31
0.0
 11
5.5436499414
 21
5.1092828213
 31
0.0
 11
5.5421980342
 21
5.1091383039
 31
0.0
 11
5.5408778702
 21
5.1089934852
 31
0.0
 11
5.5396926738
 21
5.1088483627
 31
0.0
 11
5.5386451681
 21
5.1087029349
 31
0.0
 11
5.5381738149
 21
5.1086301059
 31
0.0
 11
5.5377378028
 21
5.1085572
 31
0.0
 11
5.5373374373
 21
5.1084842169
 31
0.0
 11
5.5369729883
 21
5.1084111564
 31
0.0
 11
5.5366446545
 21
5.1083380184
 31
0.0
 11
5.536352626
 21
5.1082648026
 31
0.0
 11
5.5360970931
 21
5.1081915089
 31
0.0
 11
5.5358782459
 21
5.108118137
 31
0.0
 11
5.5356962746
 21
5.1080446868
 31
0.0
 11
5.5355513464
 21
5.1079711579
 31
0.0
  0
SPLINE
  5
263
100
AcDbEntity
  8
0
100
AcDbSpline
 62
6
  6
CONTINUOUS
 70
0
 71
3
 72
43
 73
39
 74
37
 42
0.0000001
 43
0.0000001
 44
0.0000000001
 12
-0.0000287544
 22
0.0827063696
 32
0.0
 13
0.0825546605
 23
0.0050072368
 33
0.0
 40
0.0
 40
0.0
 40
0.0
 40
0.0
 40
0.0007417208
 40
0.0015128229
 40
0.0023395882
 40
0.0032434377
 40
0.0042408215
 40
0.0053439982
 40
0.0065620231
 40
0.0079015901
 40
0.0093675722
 40
0.0109635696
 40
0.0145553081
 40
0.0186924041
 40
0.0233836199
 40
0.0286341844
 40
0.0344468908
 40
0.0408218526
 40
0.0477578014
 40
0.0552527837
 40
0.0633043566
 40
0.0810647417
 40
0.1010045309
 40
0.123081049
 40
0.1472479519
 40
0.1734487596
 40
0.2016235386
 40
0.2317080487
 40
0.2636297509
 40
0.2973145839
 40
0.3326828294
 40
0.3696490031
 40
0.4480227161
 40
0.531686004
 40
0.6198407833
 40
0.7116437293
 40
0.8062072675
 40
1.0
 40
1.0
 40
1.0
 40
1.0
 10
5.5211974772
 20
5.1267051544
 30
0.0
 10
5.5211974701
 20
5.1267256027
 30
0.0
 10
5.5212017682
 20
5.1267674239
 30
0.0
 10
5.5212209101
 20
5.1268293903
 30
0.0
 10
5.5212525495
 20
5.1268910147
 30
0.0
 10
5.5212964982
 20
5.1269523185
 30
0.0
 10
5.5213526677
 20
5.1270134153
 30
0.0
 10
5.5214210377
 20
5.1270743905
 30
0.0
 10
5.5215016172
 20
5.1271353046
 30
0.0
 10
5.5215944206
 20
5.1271961884
 30
0.0
 10
5.5216994482
 20
5.1272570691
 30
0.0
 10
5.5218623006
 20
5.1273416093
 30
0.0
 10
5.5220974128
 20
5.1274461326
 30
0.0
 10
5.5224178011
 20
5.1275672776
 30
0.0
 10
5.5227866074
 20
5.1276885677
 30
0.0
 10
5.5232036918
 20
5.127809987
 30
0.0
 10
5.5236688863
 20
5.1279314953
 30
0.0
 10
5.5241819265
 20
5.1280530883
 30
0.0
 10
5.5247424984
 20
5.1281747498
 30
0.0
 10
5.5253502674
 20
5.1282964723
 30
0.0
 10
5.5262530428
 20
5.1284643716
 30
0.0
 10
5.527497208
 20
5.1286723268
 30
0.0
 10
5.5291273027
 20
5.1289148219
 30
0.0
 10
5.5309357206
 20
5.1291576063
 30
0.0
 10
5.5329181204
 20
5.1294005827
 30
0.0
 10
5.5350697725
 20
5.1296437408
 30
0.0
 10
5.5373855102
 20
5.1298870322
 30
0.0
 10
5.5398597657
 20
5.1301304085
 30
0.0
 10
5.5424866042
 20
5.1303738874
 30
0.0
 10
5.5452596927
 20
5.1306174255
 30
0.0
 10
5.5481723543
 20
5.1308610178
 30
0.0
 10
5.5523139689
 20
5.1311923697
 30
0.0
 10
5.5577848213
 20
5.1316038939
 30
0.0
 10
5.5646652398
 20
5.1320890494
 30
0.0
 10
5.5719167336
 20
5.1325744939
 30
0.0
 10
5.5794693603
 20
5.1330601552
 30
0.0
 10
5.5899295285
 20
5.1337132095
 30
0.0
 10
5.5978645907
 20
5.1341943756
 30
0.0
 10
5.6031974218
 20
5.134517831
 30
0.0
 11
5.5211974772
 21
5.1267051544
 31
0.0
 11
5.5212036269
 21
5.1267661904
 31
0.0
 11
5.5212221163
 21
5.1268272264
 31
0.0
 11
5.5212529425
 21
5.1268882625
 31
0.0
 11
5.5212961023
 21
5.1269492986
 31
0.0
 11
5.5213515927
 21
5.1270103348
 31
0.0
 11
5.5214194105
 21
5.1270713711
 31
0.0
 11
5.5214995529
 21
5.1271324075
 31
0.0
 11
5.5215920144
 21
5.1271934439
 31
0.0
 11
5.5216967767
 21
5.1272544805
 31
0.0
 11
5.5218138165
 21
5.1273155172
 31
0.0
 11
5.5220846347
 21
5.1274375908
 31
0.0
 11
5.5224042818
 21
5.1275596646
 31
0.0
 11
5.5227725709
 21
5.1276817387
 31
0.0
 11
5.5231893147
 21
5.127803813
 31
0.0
 11
5.5236543054
 21
5.1279258874
 31
0.0
 11
5.5241672288
 21
5.1280479618
 31
0.0
 11
5.5247277365
 21
5.1281700363
 31
0.0
 11
5.5253354803
 21
5.1282921106
 31
0.0
 11
5.5259901119
 21
5.1284141848
 31
0.0
 11
5.5274385768
 21
5.1286583326
 31
0.0
 11
5.5290695521
 21
5.1289024793
 31
0.0
 11
5.5308790244
 21
5.1291466246
 31
0.0
 11
5.5328628145
 21
5.1293907683
 31
0.0
 11
5.5350159911
 21
5.1296349111
 31
0.0
 11
5.5373334
 21
5.129879054
 31
0.0
 11
5.5398095739
 21
5.1301231978
 31
0.0
 11
5.5424383894
 21
5.1303673424
 31
0.0
 11
5.5452136214
 21
5.130611488
 31
0.0
 11
5.5481285942
 21
5.1308556345
 31
0.0
 11
5.5511761686
 21
5.1310997812
 31
0.0
 11
5.5576397565
 21
5.1315880732
 31
0.0
 11
5.5645419937
 21
5.1320763602
 31
0.0
 11
5.5718165865
 21
5.1325646526
 31
0.0
 11
5.5793935573
 21
5.1330529526
 31
0.0
 11
5.5871993083
 21
5.1335412237
 31
0.0
 11
5.6031974218
 21
5.134517831
 31
0.0
  0
SPLINE
  5
264
100
AcDbEntity
  8
0
100
AcDbSpline
 62
6
  6
CONTINUOUS
 70
0
 71
3
 72
42
 73
38
 74
36
 42
0.0000001
 43
0.0000001
 44
0.0000000001
 12
-0.0000008583
 22
-0.0827062009
 32
0.0
 13
-0.0825544873
 23
-0.0050072243
 33
0.0
 40
0.0
 40
0.0
 40
0.0
 40
0.0
 40
0.0007417454
 40
0.0015130174
 40
0.0023401183
 40
0.0032444283
 40
0.0042423194
 40
0.0053459547
 40
0.0065642871
 40
0.007903929
 40
0.0093698126
 40
0.0109656641
 40
0.0145575226
 40
0.0186957273
 40
0.0233884298
 40
0.0286400377
 40
0.0344527451
 40
0.0408273117
 40
0.0477635187
 40
0.0552597352
 40
0.0633126909
 40
0.081073366
 40
0.1010130456
 40
0.1230916076
 40
0.147258092
 40
0.1734592358
 40
0.2016356876
 40
0.231719553
 40
0.2636416949
 40
0.2973271139
 40
0.3696600538
 40
0.4480315933
 40
0.5316937129
 40
0.6198480386
 40
0.7116482927
 40
0.806209902
 40
1.0
 40
1.0
 40
1.0
 40
1.0
 10
5.6851974218
 20
5.1462443605
 30
0.0
 10
5.6851974216
 20
5.1462239115
 30
0.0
 10
5.6851930981
 20
5.1461820864
 30
0.0
 10
5.6851738996
 20
5.1461201217
 30
0.0
 10
5.6851421945
 20
5.1460585014
 30
0.0
 10
5.6850981788
 20
5.1459972022
 30
0.0
 10
5.6850419478
 20
5.1459361096
 30
0.0
 10
5.6849735286
 20
5.1458751377
 30
0.0
 10
5.6848929189
 20
5.1458142261
 30
0.0
 10
5.6848001077
 20
5.145753341
 30
0.0
 10
5.6846950868
 20
5.1456924586
 30
0.0
 10
5.6845322416
 20
5.1456079127
 30
0.0
 10
5.6842970994
 20
5.145503383
 30
0.0
 10
5.6839766254
 20
5.1453822542
 30
0.0
 10
5.6836077107
 20
5.1452609759
 30
0.0
 10
5.6831905526
 20
5.1451395645
 30
0.0
 10
5.6827253427
 20
5.1450180488
 30
0.0
 10
5.6822123093
 20
5.1448964481
 30
0.0
 10
5.6816517074
 20
5.1447747873
 30
0.0
 10
5.6810438567
 20
5.1446530753
 30
0.0
 10
5.6801409979
 20
5.144485197
 30
0.0
 10
5.6788967942
 20
5.1442772286
 30
0.0
 10
5.6772666423
 20
5.1440347232
 30
0.0
 10
5.6754581807
 20
5.1437919799
 30
0.0
 10
5.6734757332
 20
5.1435489832
 30
0.0
 10
5.671324041
 20
5.1433058293
 30
0.0
 10
5.669008268
 20
5.143062561
 30
0.0
 10
5.6665339787
 20
5.1428191689
 30
0.0
 10
5.6639071344
 20
5.1425756972
 30
0.0
 10
5.6601188547
 20
5.1422430445
 30
0.0
 10
5.6550521814
 20
5.1418304294
 30
0.0
 10
5.6486091706
 20
5.1413457154
 30
0.0
 10
5.6417288662
 20
5.1408605954
 30
0.0
 10
5.6344775073
 20
5.1403751566
 30
0.0
 10
5.6269250358
 20
5.139889505
 30
0.0
 10
5.6164650891
 20
5.1392364676
 30
0.0
 10
5.6085301692
 20
5.1387553093
 30
0.0
 10
5.6031974218
 20
5.1384318592
 30
0.0
 11
5.6851974218
 21
5.1462443605
 31
0.0
 11
5.6851912383
 21
5.146183326
 31
0.0
 11
5.6851726961
 21
5.1461222914
 31
0.0
 11
5.6851418061
 21
5.1460612567
 31
0.0
 11
5.6850985787
 21
5.1460002219
 31
0.0
 11
5.6850430248
 21
5.145939187
 31
0.0
 11
5.684975155
 21
5.145878152
 31
0.0
 11
5.68489498
 21
5.1458171169
 31
0.0
 11
5.6848025105
 21
5.1457560817
 31
0.0
 11
5.6846977571
 21
5.1456950465
 31
0.0
 11
5.6845807306
 21
5.1456340111
 31
0.0
 11
5.6843099011
 21
5.1455119401
 31
0.0
 11
5.6839901555
 21
5.1453898688
 31
0.0
 11
5.683621737
 21
5.1452677971
 31
0.0
 11
5.6832049035
 21
5.1451457253
 31
0.0
 11
5.6827399131
 21
5.1450236533
 31
0.0
 11
5.6822270239
 21
5.1449015812
 31
0.0
 11
5.6816664951
 21
5.1447795091
 31
0.0
 11
5.681058648
 21
5.1446574371
 31
0.0
 11
5.680403901
 21
5.1445353652
 31
0.0
 11
5.6789554141
 21
5.1442912223
 31
0.0
 11
5.6773244507
 21
5.1440470812
 31
0.0
 11
5.6755148109
 21
5.1438029422
 31
0.0
 11
5.6735310592
 21
5.143558804
 31
0.0
 11
5.6713778586
 21
5.1433146654
 31
0.0
 11
5.6690603152
 21
5.1430705259
 31
0.0
 11
5.6665841997
 21
5.1428263859
 31
0.0
 11
5.6639553529
 21
5.1425822459
 31
0.0
 11
5.6611800776
 21
5.1423381061
 31
0.0
 11
5.6552176547
 21
5.1418498283
 31
0.0
 11
5.6487542595
 21
5.1413615535
 31
0.0
 11
5.6418521326
 21
5.1408732804
 31
0.0
 11
5.6345775924
 21
5.1403849943
 31
0.0
 11
5.6270008597
 21
5.1398967093
 31
0.0
 11
5.6191952842
 21
5.1394084507
 31
0.0
 11
5.6031974218
 21
5.1384318592
 31
0.0
  0
SPLINE
  5
265
100
AcDbEntity
  8
0
100
AcDbSpline
 62
6
  6
CONTINUOUS
 70
0
 71
3
 72
35
 73
31
 74
29
 42
0.0000001
 43
0.0000001
 44
0.0000000001
 12
0.070907721
 22
0.0411629645
 32
0.0
 13
0.0818392011
 23
0.0049638396
 33
0.0
 40
0.0
 40
0.0
 40
0.0
 40
0.0
 40
0.0029961301
 40
0.0064616022
 40
0.0104080074
 40
0.0148425447
 40
0.019768782
 40
0.0251882135
 40
0.0311011978
 40
0.0375073118
 40
0.0444055781
 40
0.0517944894
 40
0.0680321769
 40
0.0861926116
 40
0.1062448113
 40
0.1281517707
 40
0.1518687207
 40
0.1773495904
 40
0.2045439253
 40
0.2333944028
 40
0.2638427735
 40
0.2958273848
 40
0.3292804129
 40
0.4003144392
 40
0.476354379
 40
0.5567686685
 40
0.6408874782
 40
0.7280045064
 40
0.8173919117
 40
1.0
 40
1.0
 40
1.0
 40
1.0
 10
5.5216462962
 20
5.1311399522
 30
0.0
 10
5.5217171125
 20
5.1311810621
 30
0.0
 10
5.5218742723
 20
5.1312621098
 30
0.0
 10
5.5221354354
 20
5.131375167
 30
0.0
 10
5.5224388905
 20
5.1314883599
 30
0.0
 10
5.5227845567
 20
5.131601651
 30
0.0
 10
5.5231723159
 20
5.1317150407
 30
0.0
 10
5.5236019731
 20
5.1318285124
 30
0.0
 10
5.5240733149
 20
5.1319420511
 30
0.0
 10
5.5245861175
 20
5.132055643
 30
0.0
 10
5.525140148
 20
5.1321692831
 30
0.0
 10
5.5259595942
 20
5.1323258077
 30
0.0
 10
5.527085122
 20
5.1325198217
 30
0.0
 10
5.5285559679
 20
5.1327462781
 30
0.0
 10
5.5301833649
 20
5.132972954
 30
0.0
 10
5.5319639244
 20
5.1331998027
 30
0.0
 10
5.5338939286
 20
5.1334268151
 30
0.0
 10
5.5359693447
 20
5.133653936
 30
0.0
 10
5.5381858319
 20
5.1338811312
 30
0.0
 10
5.5405387386
 20
5.1341084153
 30
0.0
 10
5.5430231324
 20
5.1343357567
 30
0.0
 10
5.5456338083
 20
5.1345631379
 30
0.0
 10
5.5493507074
 20
5.1348726034
 30
0.0
 10
5.554269517
 20
5.1352570531
 30
0.0
 10
5.560470233
 20
5.135710068
 30
0.0
 10
5.5670294324
 20
5.1361633427
 30
0.0
 10
5.5738920372
 20
5.1366168312
 30
0.0
 10
5.5810003798
 20
5.1370704665
 30
0.0
 10
5.5907959495
 20
5.1376797522
 30
0.0
 10
5.5982159218
 20
5.1381297134
 30
0.0
 10
5.6031974218
 20
5.1384318592
 30
0.0
 11
5.5216462962
 21
5.1311399522
 31
0.0
 11
5.5218639272
 21
5.1312538883
 31
0.0
 11
5.5221242154
 21
5.1313678244
 31
0.0
 11
5.5224270559
 21
5.1314817604
 31
0.0
 11
5.5227723287
 21
5.1315956965
 31
0.0
 11
5.5231598257
 21
5.1317096325
 31
0.0
 11
5.5235893068
 21
5.1318235686
 31
0.0
 11
5.5240605315
 21
5.1319375046
 31
0.0
 11
5.5245732596
 21
5.1320514407
 31
0.0
 11
5.5251272508
 21
5.1321653767
 31
0.0
 11
5.5257222541
 21
5.1322793128
 31
0.0
 11
5.5270339291
 21
5.1325071849
 31
0.0
 11
5.5285053558
 21
5.132735057
 31
0.0
 11
5.5301335592
 21
5.1329629291
 31
0.0
 11
5.5319151887
 21
5.1331908012
 31
0.0
 11
5.5338463341
 21
5.1334186733
 31
0.0
 11
5.5359230359
 21
5.1336465454
 31
0.0
 11
5.5381410136
 21
5.1338744175
 31
0.0
 11
5.5404954512
 21
5.1341022896
 31
0.0
 11
5.5429814793
 21
5.1343301617
 31
0.0
 11
5.5455939657
 21
5.1345580337
 31
0.0
 11
5.5483272839
 21
5.1347859058
 31
0.0
 11
5.5541334764
 21
5.1352416505
 31
0.0
 11
5.5603512808
 21
5.1356973941
 31
0.0
 11
5.5669286461
 21
5.1361531367
 31
0.0
 11
5.573810439
 21
5.1366088877
 31
0.0
 11
5.5809385753
 21
5.1370646255
 31
0.0
 11
5.5882532305
 21
5.137520346
 31
0.0
 11
5.6031974218
 21
5.1384318592
 31
0.0
  0
SPLINE
  5
266
100
AcDbEntity
  8
0
100
AcDbSpline
 62
6
  6
CONTINUOUS
 70
0
 71
3
 72
46
 73
42
 74
40
 42
0.0000001
 43
0.0000001
 44
0.0000000001
 12
0.103851449
 22
0.0604832741
 32
0.0
 13
0.118981896
 23
0.0169309871
 33
0.0
 40
0.0
 40
0.0
 40
0.0
 40
0.0
 40
0.0016546748
 40
0.0034830162
 40
0.0054884895
 40
0.0076735867
 40
0.0100399764
 40
0.0125884899
 40
0.018232978
 40
0.0213292388
 40
0.0246078091
 40
0.0280683045
 40
0.0317102353
 40
0.0395349127
 40
0.048072904
 40
0.0573139684
 40
0.067247321
 40
0.077860609
 40
0.0891387702
 40
0.1136270691
 40
0.1405787382
 40
0.1698399702
 40
0.2012460562
 40
0.2346156734
 40
0.2697585049
 40
0.3064708757
 40
0.3445419687
 40
0.4238715521
 40
0.5059140853
 40
0.5887719181
 40
0.6705280816
 40
0.7103998667
 40
0.7492917532
 40
0.786978683
 40
0.8232431497
 40
0.8578757015
 40
0.8906773135
 40
0.9214592758
 40
0.9500462418
 40
0.9762752864
 40
1.0
 40
1.0
 40
1.0
 40
1.0
 10
5.5386701619
 20
5.1410367793
 30
0.0
 10
5.5387274421
 20
5.1410701393
 30
0.0
 10
5.5388503188
 20
5.1411364329
 30
0.0
 10
5.5390488789
 20
5.1412310171
 30
0.0
 10
5.5392707212
 20
5.1413256364
 30
0.0
 10
5.5395157962
 20
5.1414202825
 30
0.0
 10
5.5397840418
 20
5.1415149565
 30
0.0
 10
5.5401863707
 20
5.1416457194
 30
0.0
 10
5.5406209873
 20
5.1417712453
 30
0.0
 10
5.5410866078
 20
5.1418938911
 30
0.0
 10
5.5414690594
 20
5.1419886677
 30
0.0
 10
5.5418739846
 20
5.1420834665
 30
0.0
 10
5.5424577817
 20
5.1422129944
 30
0.0
 10
5.5432428675
 20
5.1423740799
 30
0.0
 10
5.5442510114
 20
5.1425631898
 30
0.0
 10
5.5453449632
 20
5.1427524084
 30
0.0
 10
5.5465231773
 20
5.1429417069
 30
0.0
 10
5.5477839633
 20
5.1431310617
 30
0.0
 10
5.5496237178
 20
5.1433908048
 30
0.0
 10
5.5521155657
 20
5.1437129491
 30
0.0
 10
5.5553264405
 20
5.1440901441
 30
0.0
 10
5.558816144
 20
5.1444677271
 30
0.0
 10
5.5625643099
 20
5.1448455568
 30
0.0
 10
5.5665491867
 20
5.1452236247
 30
0.0
 10
5.5707475222
 20
5.145601827
 30
0.0
 10
5.5751349124
 20
5.1459801799
 30
0.0
 10
5.5812874805
 20
5.1464917724
 30
0.0
 10
5.5892520887
 20
5.147125098
 30
0.0
 10
5.5990071491
 20
5.1478756744
 30
0.0
 10
5.6088596883
 20
5.1486264089
 30
0.0
 10
5.6170271254
 20
5.149256946
 30
0.0
 10
5.6234374056
 20
5.1497659109
 30
0.0
 10
5.6280870603
 20
5.1501443996
 30
0.0
 10
5.632591721
 20
5.1505228089
 30
0.0
 10
5.6369251399
 20
5.1509011116
 30
0.0
 10
5.6410620888
 20
5.1512792859
 30
0.0
 10
5.6449784648
 20
5.1516572785
 30
0.0
 10
5.6486514842
 20
5.1520350549
 30
0.0
 10
5.652059761
 20
5.1524125154
 30
0.0
 10
5.6551834932
 20
5.1527895932
 30
0.0
 10
5.6571671486
 20
5.1530543177
 30
0.0
 10
5.6581080858
 20
5.153188212
 30
0.0
 11
5.5386701619
 21
5.1410367793
 31
0.0
 11
5.5388448985
 21
5.1411317124
 31
0.0
 11
5.5390430636
 21
5.1412266454
 31
0.0
 11
5.5392645986
 21
5.1413215785
 31
0.0
 11
5.5395094447
 21
5.1414165116
 31
0.0
 11
5.539777526
 21
5.1415114447
 31
0.0
 11
5.5400687238
 21
5.1416063778
 31
0.0
 11
5.5407199684
 21
5.141796244
 31
0.0
 11
5.5410797651
 21
5.141891177
 31
0.0
 11
5.541462178
 21
5.1419861101
 31
0.0
 11
5.5418670819
 21
5.1420810432
 31
0.0
 11
5.5422943516
 21
5.1421759763
 31
0.0
 11
5.5432153583
 21
5.1423658425
 31
0.0
 11
5.5442237392
 21
5.1425557086
 31
0.0
 11
5.5453179848
 21
5.1427455748
 31
0.0
 11
5.5464965847
 21
5.142935441
 31
0.0
 11
5.5477578844
 21
5.1431253071
 31
0.0
 11
5.5490999353
 21
5.1433151733
 31
0.0
 11
5.5520183501
 21
5.1436949056
 31
0.0
 11
5.5552350788
 21
5.1440746379
 31
0.0
 11
5.5587311458
 21
5.1444543702
 31
0.0
 11
5.562486394
 21
5.1448341025
 31
0.0
 11
5.5664787525
 21
5.1452138348
 31
0.0
 11
5.5706851297
 21
5.1455935671
 31
0.0
 11
5.575080869
 21
5.1459732994
 31
0.0
 11
5.5796404865
 21
5.1463530317
 31
0.0
 11
5.5891440572
 21
5.1471124963
 31
0.0
 11
5.5989746763
 21
5.1478719608
 31
0.0
 11
5.6089035677
 21
5.1486314253
 31
0.0
 11
5.6186996679
 21
5.1493908898
 31
0.0
 11
5.6234764087
 21
5.1497706221
 31
0.0
 11
5.6281350039
 21
5.1501503543
 31
0.0
 11
5.632648291
 21
5.1505300865
 31
0.0
 11
5.636989998
 21
5.1509098188
 31
0.0
 11
5.6411347965
 21
5.151289551
 31
0.0
 11
5.6450585784
 21
5.1516692832
 31
0.0
 11
5.6487384288
 21
5.1520490154
 31
0.0
 11
5.6521529742
 21
5.1524287476
 31
0.0
 11
5.6552822378
 21
5.1528084798
 31
0.0
 11
5.6581080858
 21
5.153188212
 31
0.0
  0
LINE
  5
267
100
AcDbEntity
  8
0
100
AcDbLine
 62
6
  6
CONTINUOUS
 10
5.6581080858
 20
5.153188212
 11
5.662871729
 21
5.1539641448
  0
SPLINE
  5
268
100
AcDbEntity
  8
0
100
AcDbSpline
 62
6
  6
CONTINUOUS
 70
0
 71
3
 72
39
 73
35
 74
33
 42
0.0000001
 43
0.0000001
 44
0.0000000001
 12
-0.0550892786
 22
-0.0551383174
 32
0.0
 13
-0.0778695633
 23
-0.0033754664
 33
0.0
 40
0.0
 40
0.0
 40
0.0
 40
0.0
 40
0.0007310985
 40
0.0015737464
 40
0.0025357402
 40
0.003622185
 40
0.0048365557
 40
0.0061812881
 40
0.0092680487
 40
0.0128920299
 40
0.0170582716
 40
0.0217696342
 40
0.0270270716
 40
0.0328295947
 40
0.0391755603
 40
0.046062962
 40
0.0534895391
 40
0.069949318
 40
0.0885242102
 40
0.1091767058
 40
0.1318672448
 40
0.1565467133
 40
0.1831613867
 40
0.2116555402
 40
0.2419640644
 40
0.307748447
 40
0.3799138788
 40
0.4577900111
 40
0.5406380997
 40
0.6276653889
 40
0.7180253785
 40
0.8108192318
 40
0.9051449706
 40
1.0
 40
1.0
 40
1.0
 40
1.0
 10
5.6808908686
 20
5.1174808082
 30
0.0
 10
5.6808774434
 20
5.117467371
 30
0.0
 10
5.6808462974
 20
5.1174406771
 30
0.0
 10
5.6807918956
 20
5.1174033765
 30
0.0
 10
5.6807266269
 20
5.1173660645
 30
0.0
 10
5.6806504732
 20
5.117328729
 30
0.0
 10
5.68056341
 20
5.1172913522
 30
0.0
 10
5.680426339
 20
5.117239033
 30
0.0
 10
5.6802270889
 20
5.1171745744
 30
0.0
 10
5.6799544309
 20
5.1171000655
 30
0.0
 10
5.6796382873
 20
5.1170253387
 30
0.0
 10
5.679278736
 20
5.1169504202
 30
0.0
 10
5.6788758933
 20
5.1168753486
 30
0.0
 10
5.6784299526
 20
5.1168001326
 30
0.0
 10
5.6779411418
 20
5.1167247902
 30
0.0
 10
5.677409698
 20
5.1166493283
 30
0.0
 10
5.6766169989
 20
5.1165449548
 30
0.0
 10
5.6755213816
 20
5.1164155764
 30
0.0
 10
5.6740824518
 20
5.1162645807
 30
0.0
 10
5.6724808946
 20
5.1161130847
 30
0.0
 10
5.6707201357
 20
5.1159611561
 30
0.0
 10
5.6688039822
 20
5.1158088081
 30
0.0
 10
5.6667366373
 20
5.1156560576
 30
0.0
 10
5.6645226993
 20
5.1155029433
 30
0.0
 10
5.6612926571
 20
5.1152925002
 30
0.0
 10
5.6569289552
 20
5.1150309805
 30
0.0
 10
5.6513300317
 20
5.1147233809
 30
0.0
 10
5.645287242
 20
5.1144142225
 30
0.0
 10
5.6388579318
 20
5.1141035398
 30
0.0
 10
5.6321039895
 20
5.1137913949
 30
0.0
 10
5.6250914469
 20
5.1134778284
 30
0.0
 10
5.6178891627
 20
5.1131628416
 30
0.0
 10
5.6105700433
 20
5.112846481
 30
0.0
 10
5.6056595284
 20
5.1126345544
 30
0.0
 10
5.6031974218
 20
5.1125278277
 30
0.0
 11
5.6808908686
 21
5.1174808082
 31
0.0
 11
5.6808479403
 21
5.1174433341
 31
0.0
 11
5.6807940147
 21
5.1174058419
 31
0.0
 11
5.6807290913
 21
5.1173683317
 31
0.0
 11
5.6806531808
 21
5.1173308034
 31
0.0
 11
5.6805662951
 21
5.1172932569
 31
0.0
 11
5.6804684459
 21
5.1172556923
 31
0.0
 11
5.6802399046
 21
5.1171805084
 31
0.0
 11
5.6799676517
 21
5.1171052514
 31
0.0
 11
5.679651782
 21
5.1170299211
 31
0.0
 11
5.6792923907
 21
5.1169545173
 31
0.0
 11
5.6788896231
 21
5.1168790396
 31
0.0
 11
5.678443714
 21
5.116803488
 31
0.0
 11
5.677954908
 21
5.1167278623
 31
0.0
 11
5.6774234496
 21
5.1166521623
 31
0.0
 11
5.6768495833
 21
5.116576388
 31
0.0
 11
5.6755756731
 21
5.1164246153
 31
0.0
 11
5.6741359049
 21
5.116272543
 31
0.0
 11
5.6725334219
 21
5.1161201695
 31
0.0
 11
5.6707714627
 21
5.1159674931
 31
0.0
 11
5.6688539715
 21
5.1158145117
 31
0.0
 11
5.6667852237
 21
5.1156612227
 31
0.0
 11
5.6645696306
 21
5.1155076236
 31
0.0
 11
5.6622123219
 21
5.1153537125
 31
0.0
 11
5.6570942154
 21
5.1150449469
 31
0.0
 11
5.6514779987
 21
5.1147349121
 31
0.0
 11
5.6454161124
 21
5.1144235954
 31
0.0
 11
5.638966281
 21
5.1141109842
 31
0.0
 11
5.6321904086
 21
5.113797053
 31
0.0
 11
5.6251545679
 21
5.1134817857
 31
0.0
 11
5.6179288981
 21
5.1131651891
 31
0.0
 11
5.6105837784
 21
5.1128471555
 31
0.0
 11
5.6031974218
 21
5.1125278277
 31
0.0
  0
SPLINE
  5
269
100
AcDbEntity
  8
0
100
AcDbSpline
 62
6
  6
CONTINUOUS
 70
0
 71
3
 72
66
 73
62
 74
60
 42
0.0000001
 43
0.0000001
 44
0.0000000001
 12
0.1131739133
 22
0.0659178232
 32
0.0
 13
0.0000365492
 23
0.1309713432
 33
0.0
 40
0.0
 40
0.0
 40
0.0
 40
0.0
 40
0.0018930339
 40
0.0040292573
 40
0.0064140581
 40
0.0090507127
 40
0.0119408168
 40
0.015085113
 40
0.0184837744
 40
0.0221365652
 40
0.030201817
 40
0.039270899
 40
0.0493278359
 40
0.0603550501
 40
0.0723316518
 40
0.0852321572
 40
0.0990302519
 40
0.1136978484
 40
0.1292025966
 40
0.1455112627
 40
0.1804000909
 40
0.2180604992
 40
0.2581649571
 40
0.3003628328
 40
0.344283712
 40
0.3895429539
 40
0.4357425926
 40
0.5293349925
 40
0.5759050509
 40
0.6217779614
 40
0.6665502658
 40
0.7098295321
 40
0.7512356441
 40
0.7904060515
 40
0.8269993286
 40
0.8442282869
 40
0.8606958282
 40
0.876366398
 40
0.8912052629
 40
0.9051817194
 40
0.9182666511
 40
0.9304316296
 40
0.9416525081
 40
0.9519080144
 40
0.9611779283
 40
0.969446744
 40
0.973202567
 40
0.9767045644
 40
0.979952028
 40
0.9829446572
 40
0.9856831596
 40
0.9881692759
 40
0.9904057519
 40
0.9923968258
 40
0.9941490421
 40
0.9956726351
 40
0.9969841454
 40
0.9981104446
 40
0.999093923
 40
0.9995521718
 40
1.0
 40
1.0
 40
1.0
 40
1.0
 10
5.5386701573
 20
5.1097867629
 30
0.0
 10
5.5387415713
 20
5.1098283578
 30
0.0
 10
5.5388971727
 20
5.1099107494
 30
0.0
 10
5.5391520053
 20
5.1100270785
 30
0.0
 10
5.539442103
 20
5.1101434783
 30
0.0
 10
5.5397673423
 20
5.1102599363
 30
0.0
 10
5.5401275681
 20
5.1103764617
 30
0.0
 10
5.5405225827
 20
5.1104930416
 30
0.0
 10
5.5409521794
 20
5.1106096735
 30
0.0
 10
5.5415922423
 20
5.1107706005
 30
0.0
 10
5.5424777294
 20
5.1109699316
 30
0.0
 10
5.5436419483
 20
5.1112022641
 30
0.0
 10
5.5449377055
 20
5.1114348801
 30
0.0
 10
5.5463621886
 20
5.1116676992
 30
0.0
 10
5.5479122967
 20
5.1119006532
 30
0.0
 10
5.5495846034
 20
5.1121337542
 30
0.0
 10
5.5513754329
 20
5.1123669573
 30
0.0
 10
5.5532808467
 20
5.1126002174
 30
0.0
 10
5.5552966254
 20
5.1128335617
 30
0.0
 10
5.5581912064
 20
5.1131519637
 30
0.0
 10
5.5620503612
 20
5.1135471369
 30
0.0
 10
5.5669465227
 20
5.1140118541
 30
0.0
 10
5.5721630847
 20
5.1144769005
 30
0.0
 10
5.5776539585
 20
5.1149422105
 30
0.0
 10
5.5833706287
 20
5.1154077176
 30
0.0
 10
5.5892625518
 20
5.1158733489
 30
0.0
 10
5.5973172528
 20
5.116496982
 30
0.0
 10
5.6054298283
 20
5.1171143546
 30
0.0
 10
5.6135277426
 20
5.1177363718
 30
0.0
 10
5.6195000396
 20
5.1182020584
 30
0.0
 10
5.6253282336
 20
5.1186676508
 30
0.0
 10
5.6309607948
 20
5.1191330822
 30
0.0
 10
5.6363479483
 20
5.1195982966
 30
0.0
 10
5.6414420936
 20
5.120063239
 30
0.0
 10
5.6454827051
 20
5.1204578228
 30
0.0
 10
5.6485348753
 20
5.1207755048
 30
0.0
 10
5.6506774328
 20
5.1210089114
 30
0.0
 10
5.6527150069
 20
5.1212422501
 30
0.0
 10
5.6546430847
 20
5.1214755466
 30
0.0
 10
5.656457421
 20
5.1217087629
 30
0.0
 10
5.6581540177
 20
5.1219418654
 30
0.0
 10
5.6597291203
 20
5.1221748685
 30
0.0
 10
5.661179272
 20
5.1224077292
 30
0.0
 10
5.662501319
 20
5.1226403617
 30
0.0
 10
5.6636923492
 20
5.1228727699
 30
0.0
 10
5.6646005328
 20
5.1230720334
 30
0.0
 10
5.6652590677
 20
5.1232328094
 30
0.0
 10
5.6657026459
 20
5.1233494528
 30
0.0
 10
5.6661117005
 20
5.1234660458
 30
0.0
 10
5.6664859986
 20
5.1235825972
 30
0.0
 10
5.6668253596
 20
5.1236990957
 30
0.0
 10
5.6671296549
 20
5.1238155257
 30
0.0
 10
5.6673987874
 20
5.1239318824
 30
0.0
 10
5.6676326889
 20
5.1240481695
 30
0.0
 10
5.6678313346
 20
5.1241644265
 30
0.0
 10
5.6679947701
 20
5.1242807619
 30
0.0
 10
5.6681230964
 20
5.1243975334
 30
0.0
 10
5.6682163902
 20
5.124515239
 30
0.0
 10
5.6682654427
 20
5.1246175727
 30
0.0
 10
5.668284254
 20
5.1246981696
 30
0.0
 10
5.6682873491
 20
5.1247377911
 30
0.0
 10
5.6682873545
 20
5.124757342
 30
0.0
 11
5.5386701573
 21
5.1097867629
 31
0.0
 11
5.5388887706
 21
5.1099037205
 31
0.0
 11
5.539142936
 21
5.1100206782
 31
0.0
 11
5.5394325522
 21
5.1101376358
 31
0.0
 11
5.5397574692
 21
5.1102545935
 31
0.0
 11
5.5401174677
 21
5.1103715511
 31
0.0
 11
5.5405123229
 21
5.1104885087
 31
0.0
 11
5.5409418101
 21
5.1106054664
 31
0.0
 11
5.5414057044
 21
5.110722424
 31
0.0
 11
5.5424357961
 21
5.1109563393
 31
0.0
 11
5.5436003254
 21
5.1111902546
 31
0.0
 11
5.5448965592
 21
5.1114241698
 31
0.0
 11
5.5463217396
 21
5.1116580851
 31
0.0
 11
5.547872792
 21
5.1118920004
 31
0.0
 11
5.5495461181
 21
5.1121259157
 31
0.0
 11
5.5513380704
 21
5.112359831
 31
0.0
 11
5.5532448107
 21
5.1125937462
 31
0.0
 11
5.5552619711
 21
5.1128276615
 31
0.0
 11
5.5573850921
 21
5.1130615768
 31
0.0
 11
5.561930517
 21
5.1135294074
 31
0.0
 11
5.566840715
 21
5.113997238
 31
0.0
 11
5.5720723742
 21
5.1144650686
 31
0.0
 11
5.5775792506
 21
5.1149328991
 31
0.0
 11
5.5833125719
 21
5.1154007297
 31
0.0
 11
5.5892217456
 21
5.1158685603
 31
0.0
 11
5.5952544619
 21
5.1163363909
 31
0.0
 11
5.6074766225
 21
5.1172720521
 31
0.0
 11
5.6135579976
 21
5.1177398827
 31
0.0
 11
5.6195477925
 21
5.1182077133
 31
0.0
 11
5.6253929896
 21
5.1186755439
 31
0.0
 11
5.6310419945
 21
5.1191433746
 31
0.0
 11
5.6364447918
 21
5.1196112052
 31
0.0
 11
5.6415536173
 21
5.1200790358
 31
0.0
 11
5.6463234001
 21
5.1205468664
 31
0.0
 11
5.6485677431
 21
5.1207807817
 31
0.0
 11
5.6507117969
 21
5.121014697
 31
0.0
 11
5.6527508191
 21
5.1212486123
 31
0.0
 11
5.6546801569
 21
5.1214825276
 31
0.0
 11
5.6564956651
 21
5.1217164429
 31
0.0
 11
5.6581933773
 21
5.1219503582
 31
0.0
 11
5.6597693762
 21
5.1221842736
 31
0.0
 11
5.6612202545
 21
5.1224181889
 31
0.0
 11
5.6625429069
 21
5.1226521042
 31
0.0
 11
5.6637342531
 21
5.1228860195
 31
0.0
 11
5.6647916673
 21
5.1231199348
 31
0.0
 11
5.665269466
 21
5.1232368925
 31
0.0
 11
5.6657129647
 21
5.1233538501
 31
0.0
 11
5.6661218926
 21
5.1234708078
 31
0.0
 11
5.6664959844
 21
5.1235877654
 31
0.0
 11
5.6668350445
 21
5.1237047231
 31
0.0
 11
5.6671389241
 21
5.1238216807
 31
0.0
 11
5.6674074751
 21
5.1239386384
 31
0.0
 11
5.6676405498
 21
5.124055596
 31
0.0
 11
5.6678380001
 21
5.1241725537
 31
0.0
 11
5.6679996786
 21
5.1242895114
 31
0.0
 11
5.6681254797
 21
5.124406469
 31
0.0
 11
5.6682153739
 21
5.1245234267
 31
0.0
 11
5.6682693394
 21
5.1246403843
 31
0.0
 11
5.6682828421
 21
5.1246988632
 31
0.0
 11
5.6682873545
 21
5.124757342
 31
0.0
  0
SPLINE
  5
26A
100
AcDbEntity
  8
0
100
AcDbSpline
 62
6
  6
CONTINUOUS
 70
0
 71
3
 72
66
 73
62
 74
60
 42
0.0000001
 43
0.0000001
 44
0.0000000001
 12
0.0000430395
 22
0.1309713418
 32
0.0
 13
0.1131753093
 23
0.0659154276
 33
0.0
 40
0.0
 40
0.0
 40
0.0
 40
0.0
 40
0.0004478304
 40
0.0009060885
 40
0.0018896039
 40
0.0030159346
 40
0.0043274158
 40
0.0058509004
 40
0.0076030848
 40
0.0095941993
 40
0.0118307479
 40
0.0143169244
 40
0.0170554277
 40
0.0200479574
 40
0.0232953544
 40
0.0267973688
 40
0.0305532527
 40
0.0388221584
 40
0.0480919309
 40
0.0583474707
 40
0.0695684447
 40
0.0817333283
 40
0.0948182528
 40
0.1087947936
 40
0.1236336159
 40
0.1393041483
 40
0.1557717531
 40
0.1730007108
 40
0.2095939774
 40
0.2487643615
 40
0.290170514
 40
0.3334497615
 40
0.3782220738
 40
0.4240949901
 40
0.4706650494
 40
0.5642574557
 40
0.6104570946
 40
0.65571634
 40
0.6996372243
 40
0.7418350794
 40
0.7819395719
 40
0.8195999533
 40
0.8544887679
 40
0.8707974291
 40
0.8863022354
 40
0.9009697953
 40
0.914767844
 40
0.9276684266
 40
0.9396450206
 40
0.9506721393
 40
0.9607291631
 40
0.9697982758
 40
0.9778633885
 40
0.9815162006
 40
0.9849149201
 40
0.9880592725
 40
0.9909493925
 40
0.9935859861
 40
0.9959706918
 40
0.9981069135
 40
1.0
 40
1.0
 40
1.0
 40
1.0
 10
5.5381074746
 20
5.1169423344
 30
0.0
 10
5.538107481
 20
5.1169618853
 30
0.0
 10
5.5381105789
 20
5.1170015072
 30
0.0
 10
5.5381293982
 20
5.1170821044
 30
0.0
 10
5.5381784612
 20
5.1171844366
 30
0.0
 10
5.5382717599
 20
5.1173021397
 30
0.0
 10
5.5384000794
 20
5.1174189112
 30
0.0
 10
5.5385635007
 20
5.1175352538
 30
0.0
 10
5.5387621431
 20
5.1176515087
 30
0.0
 10
5.5389960492
 20
5.1177677946
 30
0.0
 10
5.5392651905
 20
5.1178841499
 30
0.0
 10
5.5395694923
 20
5.1180005791
 30
0.0
 10
5.5399088517
 20
5.1181170767
 30
0.0
 10
5.5402831413
 20
5.1182336315
 30
0.0
 10
5.540692189
 20
5.1183502248
 30
0.0
 10
5.541135768
 20
5.1184668673
 30
0.0
 10
5.5417943107
 20
5.1186276422
 30
0.0
 10
5.5427024954
 20
5.1188269024
 30
0.0
 10
5.5438935235
 20
5.1190593175
 30
0.0
 10
5.5452155705
 20
5.1192919473
 30
0.0
 10
5.5466657241
 20
5.1195248052
 30
0.0
 10
5.5482408258
 20
5.1197578119
 30
0.0
 10
5.5499374219
 20
5.1199909139
 30
0.0
 10
5.5517517599
 20
5.1202241281
 30
0.0
 10
5.5536798378
 20
5.1204574261
 30
0.0
 10
5.5557174111
 20
5.1206907655
 30
0.0
 10
5.5578599698
 20
5.1209241705
 30
0.0
 10
5.5609121424
 20
5.1212418534
 30
0.0
 10
5.5649527524
 20
5.1216364367
 30
0.0
 10
5.5700468979
 20
5.1221013799
 30
0.0
 10
5.5754340514
 20
5.1225665932
 30
0.0
 10
5.5810666139
 20
5.1230320253
 30
0.0
 10
5.5868948078
 20
5.1234976175
 30
0.0
 10
5.5928671055
 20
5.1239633041
 30
0.0
 10
5.6009650203
 20
5.1245853214
 30
0.0
 10
5.6090775962
 20
5.1252026939
 30
0.0
 10
5.6171322977
 20
5.1258263272
 30
0.0
 10
5.6230242212
 20
5.1262919585
 30
0.0
 10
5.628740891
 20
5.1267574653
 30
0.0
 10
5.6342317655
 20
5.1272227761
 30
0.0
 10
5.639448327
 20
5.1276878216
 30
0.0
 10
5.6443444882
 20
5.1281525396
 30
0.0
 10
5.6482036411
 20
5.1285477124
 30
0.0
 10
5.6510982238
 20
5.1288661153
 30
0.0
 10
5.6531140034
 20
5.1290994581
 30
0.0
 10
5.6550194161
 20
5.1293327189
 30
0.0
 10
5.656810245
 20
5.1295659237
 30
0.0
 10
5.6584825531
 20
5.1297990225
 30
0.0
 10
5.6600326602
 20
5.130031976
 30
0.0
 10
5.6614571419
 20
5.130264799
 30
0.0
 10
5.6627529005
 20
5.1304974122
 30
0.0
 10
5.6639171192
 20
5.1307297416
 30
0.0
 10
5.6648026011
 20
5.1309290788
 30
0.0
 10
5.6654426616
 20
5.1310900039
 30
0.0
 10
5.6658722646
 20
5.1312066353
 30
0.0
 10
5.6662672854
 20
5.1313232145
 30
0.0
 10
5.666627512
 20
5.1314397389
 30
0.0
 10
5.6669527448
 20
5.1315561972
 30
0.0
 10
5.6672428335
 20
5.131672601
 30
0.0
 10
5.6674976643
 20
5.1317889291
 30
0.0
 10
5.6676532688
 20
5.1318713195
 30
0.0
 10
5.6677246857
 20
5.131912914
 30
0.0
 11
5.5381074746
 21
5.1169423344
 31
0.0
 11
5.5381119909
 21
5.1170008132
 31
0.0
 11
5.538125499
 21
5.117059292
 31
0.0
 11
5.5381794762
 21
5.1171762496
 31
0.0
 11
5.5382693771
 21
5.1172932073
 31
0.0
 11
5.5383951731
 21
5.1174101649
 31
0.0
 11
5.5385568341
 21
5.1175271225
 31
0.0
 11
5.5387542795
 21
5.1176440802
 31
0.0
 11
5.5389873602
 21
5.1177610378
 31
0.0
 11
5.5392559216
 21
5.1178779955
 31
0.0
 11
5.5395598096
 21
5.1179949531
 31
0.0
 11
5.5398988698
 21
5.1181119108
 31
0.0
 11
5.540272948
 21
5.1182288684
 31
0.0
 11
5.5406818668
 21
5.118345826
 31
0.0
 11
5.5411253678
 21
5.1184627837
 31
0.0
 11
5.5416031748
 21
5.1185797413
 31
0.0
 11
5.5426606011
 21
5.1188136566
 31
0.0
 11
5.5438519284
 21
5.1190475719
 31
0.0
 11
5.5451745853
 21
5.1192814872
 31
0.0
 11
5.5466254762
 21
5.1195154025
 31
0.0
 11
5.5482014626
 21
5.1197493178
 31
0.0
 11
5.5498991738
 21
5.1199832331
 31
0.0
 11
5.5517146932
 21
5.1202171484
 31
0.0
 11
5.5536440254
 21
5.1204510637
 31
0.0
 11
5.5556830426
 21
5.120684979
 31
0.0
 11
5.5578271048
 21
5.1209188943
 31
0.0
 11
5.5600714477
 21
5.1211528095
 31
0.0
 11
5.5648412292
 21
5.1216206401
 31
0.0
 11
5.5699500516
 21
5.1220884708
 31
0.0
 11
5.5753528543
 21
5.1225563014
 31
0.0
 11
5.5810018568
 21
5.123024132
 31
0.0
 11
5.586847055
 21
5.1234919626
 31
0.0
 11
5.5928368506
 21
5.1239597932
 31
0.0
 11
5.5989182259
 21
5.1244276238
 31
0.0
 11
5.6111403874
 21
5.1253632851
 31
0.0
 11
5.6171731038
 21
5.1258311157
 31
0.0
 11
5.623082278
 21
5.1262989463
 31
0.0
 11
5.6288155999
 21
5.126766777
 31
0.0
 11
5.6343224737
 21
5.1272346076
 31
0.0
 11
5.6395541374
 21
5.1277024382
 31
0.0
 11
5.6444643318
 21
5.1281702689
 31
0.0
 11
5.649009755
 21
5.1286380995
 31
0.0
 11
5.6511328754
 21
5.1288720148
 31
0.0
 11
5.6531500434
 21
5.1291059301
 31
0.0
 11
5.6550567789
 21
5.1293398455
 31
0.0
 11
5.6568487252
 21
5.1295737608
 31
0.0
 11
5.6585220615
 21
5.1298076761
 31
0.0
 11
5.6600731128
 21
5.1300415914
 31
0.0
 11
5.6614982805
 21
5.1302755067
 31
0.0
 11
5.6627945259
 21
5.1305094221
 31
0.0
 11
5.6639590593
 21
5.1307433374
 31
0.0
 11
5.6649891324
 21
5.1309772527
 31
0.0
 11
5.6654530295
 21
5.1310942104
 31
0.0
 11
5.6658825246
 21
5.131211168
 31
0.0
 11
5.6662773874
 21
5.1313281257
 31
0.0
 11
5.6666373881
 21
5.1314450834
 31
0.0
 11
5.6669622967
 21
5.131562041
 31
0.0
 11
5.6672518994
 21
5.1316789987
 31
0.0
 11
5.6675060646
 21
5.1317959563
 31
0.0
 11
5.6677246857
 21
5.131912914
 31
0.0
  0
SPLINE
  5
26B
100
AcDbEntity
  8
0
100
AcDbSpline
 62
6
  6
CONTINUOUS
 70
0
 71
3
 72
65
 73
61
 74
59
 42
0.0000001
 43
0.0000001
 44
0.0000000001
 12
0.0000192886
 22
0.1309713432
 32
0.0
 13
0.1131795155
 23
0.0659081966
 33
0.0
 40
0.0
 40
0.0
 40
0.0
 40
0.0
 40
0.0004478231
 40
0.0009060559
 40
0.0018894848
 40
0.0030157758
 40
0.0043274122
 40
0.0058511383
 40
0.0076033336
 40
0.0095942939
 40
0.0118306412
 40
0.0143166974
 40
0.0170552955
 40
0.0200481381
 40
0.0232956377
 40
0.0267975376
 40
0.0305532169
 40
0.0388219604
 40
0.0480921994
 40
0.0583475107
 40
0.0695682323
 40
0.0817335459
 40
0.094818359
 40
0.108794606
 40
0.1236337542
 40
0.1393043016
 40
0.1730006586
 40
0.2095938062
 40
0.248764435
 40
0.2901703563
 40
0.3334497037
 40
0.3782220763
 40
0.4240948857
 40
0.4706650287
 40
0.5642574498
 40
0.6104570191
 40
0.6557163006
 40
0.6996372581
 40
0.7418349088
 40
0.7819396646
 40
0.8195999273
 40
0.8544885648
 40
0.8707973425
 40
0.8863024122
 40
0.9009696364
 40
0.9147676876
 40
0.9276686029
 40
0.9396449544
 40
0.9506719155
 40
0.9607293079
 40
0.9697983245
 40
0.9778631137
 40
0.9815160789
 40
0.9849150054
 40
0.9880594889
 40
0.9909495371
 40
0.9935858229
 40
0.9959704018
 40
0.9981067227
 40
1.0
 40
1.0
 40
1.0
 40
1.0
 10
5.5381075017
 20
5.1481923505
 30
0.0
 10
5.5381075046
 20
5.1482119012
 30
0.0
 10
5.5381105936
 20
5.1482515221
 30
0.0
 10
5.5381293915
 20
5.148332119
 30
0.0
 10
5.538178431
 20
5.1484344562
 30
0.0
 10
5.5382717266
 20
5.1485521659
 30
0.0
 10
5.5384000758
 20
5.1486689293
 30
0.0
 10
5.5385635267
 20
5.1487852594
 30
0.0
 10
5.5387621695
 20
5.1489015208
 30
0.0
 10
5.5389960572
 20
5.14901781
 30
0.0
 10
5.5392651744
 20
5.1491341687
 30
0.0
 10
5.5395694649
 20
5.1492506002
 30
0.0
 10
5.5399088378
 20
5.1493670975
 30
0.0
 10
5.5402831538
 20
5.1494836421
 30
0.0
 10
5.5406922145
 20
5.1496002374
 30
0.0
 10
5.5411357831
 20
5.1497168822
 30
0.0
 10
5.541794303
 20
5.1498776619
 30
0.0
 10
5.5427024909
 20
5.1500769285
 30
0.0
 10
5.5438935266
 20
5.1503093218
 30
0.0
 10
5.5452155705
 20
5.1505419644
 30
0.0
 10
5.5466657207
 20
5.1507748296
 30
0.0
 10
5.5482408276
 20
5.1510078207
 30
0.0
 10
5.5499374239
 20
5.1512409288
 30
0.0
 10
5.5517517575
 20
5.1514741495
 30
0.0
 10
5.5536798383
 20
5.1517074418
 30
0.0
 10
5.5564647058
 20
5.1520263377
 30
0.0
 10
5.5601966296
 20
5.1524219486
 30
0.0
 10
5.5649527497
 20
5.1528864691
 30
0.0
 10
5.5700468964
 20
5.1533513874
 30
0.0
 10
5.5754340525
 20
5.1538166126
 30
0.0
 10
5.5810666124
 20
5.1542820397
 30
0.0
 10
5.5868948084
 20
5.1547476317
 30
0.0
 10
5.5928671074
 20
5.1552133204
 30
0.0
 10
5.6009650218
 20
5.1558353352
 30
0.0
 10
5.6090775986
 20
5.1564527078
 30
0.0
 10
5.617132299
 20
5.157076342
 30
0.0
 10
5.623024224
 20
5.1575419731
 30
0.0
 10
5.6287408897
 20
5.1580074767
 30
0.0
 10
5.6342317694
 20
5.1584727936
 30
0.0
 10
5.6394483287
 20
5.1589378319
 30
0.0
 10
5.6443444881
 20
5.1594025522
 30
0.0
 10
5.6482036328
 20
5.1597977271
 30
0.0
 10
5.6510982242
 20
5.1601161302
 30
0.0
 10
5.6531140067
 20
5.1603494645
 30
0.0
 10
5.6550194151
 20
5.1605827345
 30
0.0
 10
5.6568102439
 20
5.1608159401
 30
0.0
 10
5.6584825575
 20
5.161049028
 30
0.0
 10
5.6600326606
 20
5.1612819882
 30
0.0
 10
5.6614571396
 20
5.1615148187
 30
0.0
 10
5.6627529057
 20
5.1617474179
 30
0.0
 10
5.6639171224
 20
5.1619797473
 30
0.0
 10
5.6648025888
 20
5.1621790991
 30
0.0
 10
5.665442653
 20
5.1623400163
 30
0.0
 10
5.6658722787
 20
5.1624566455
 30
0.0
 10
5.6662673124
 20
5.1625732221
 30
0.0
 10
5.6666275288
 20
5.1626897433
 30
0.0
 10
5.6669527343
 20
5.1628062123
 30
0.0
 10
5.6672428063
 20
5.162922618
 30
0.0
 10
5.6674976459
 20
5.1630389432
 30
0.0
 10
5.6676532663
 20
5.1631213306
 30
0.0
 10
5.667724693
 20
5.1631629247
 30
0.0
 11
5.5381075017
 21
5.1481923505
 31
0.0
 11
5.5381120055
 21
5.1482508293
 31
0.0
 11
5.5381254989
 21
5.1483093081
 31
0.0
 11
5.5381794489
 21
5.1484262658
 31
0.0
 11
5.5382693414
 21
5.1485432234
 31
0.0
 11
5.5383951651
 21
5.148660181
 31
0.0
 11
5.5385568651
 21
5.1487771387
 31
0.0
 11
5.5387543122
 21
5.1488940963
 31
0.0
 11
5.5389873702
 21
5.149011054
 31
0.0
 11
5.5392559029
 21
5.1491280116
 31
0.0
 11
5.539559774
 21
5.1492449692
 31
0.0
 11
5.5398988474
 21
5.1493619269
 31
0.0
 11
5.5402729684
 21
5.1494788845
 31
0.0
 11
5.5406819012
 21
5.1495958421
 31
0.0
 11
5.5411253867
 21
5.1497127998
 31
0.0
 11
5.5416031661
 21
5.1498297574
 31
0.0
 11
5.5426605706
 21
5.1500636727
 31
0.0
 11
5.5438519601
 21
5.150297588
 31
0.0
 11
5.5451745866
 21
5.1505315032
 31
0.0
 11
5.546625444
 21
5.1507654185
 31
0.0
 11
5.5482014873
 21
5.1509993338
 31
0.0
 11
5.5498991837
 21
5.151233249
 31
0.0
 11
5.5517146642
 21
5.1514671643
 31
0.0
 11
5.5536440393
 21
5.1517010795
 31
0.0
 11
5.5556830585
 21
5.1519349948
 31
0.0
 11
5.5600714493
 21
5.1524028253
 31
0.0
 11
5.564841215
 21
5.1528706558
 31
0.0
 11
5.5699500694
 21
5.1533384863
 31
0.0
 11
5.5753528415
 21
5.1538063168
 31
0.0
 11
5.5810018569
 21
5.1542741473
 31
0.0
 11
5.5868470629
 21
5.1547419777
 31
0.0
 11
5.5928368443
 21
5.1552098082
 31
0.0
 11
5.5989182304
 21
5.1556776387
 31
0.0
 11
5.6111403935
 21
5.1566132995
 31
0.0
 11
5.6171731005
 21
5.15708113
 31
0.0
 11
5.6230822792
 21
5.1575489604
 31
0.0
 11
5.6288156107
 21
5.1580167908
 31
0.0
 11
5.6343224573
 21
5.1584846212
 31
0.0
 11
5.6395541556
 21
5.1589524516
 31
0.0
 11
5.6444643343
 21
5.159420282
 31
0.0
 11
5.649009734
 21
5.1598881124
 31
0.0
 11
5.6511328697
 21
5.1601220276
 31
0.0
 11
5.6531500723
 21
5.1603559427
 31
0.0
 11
5.6550567635
 21
5.1605898579
 31
0.0
 11
5.65684871
 21
5.1608237731
 31
0.0
 11
5.6585220903
 21
5.1610576883
 31
0.0
 11
5.6600731095
 21
5.1612916034
 31
0.0
 11
5.6614982563
 21
5.1615255186
 31
0.0
 11
5.6627945507
 21
5.1617594338
 31
0.0
 11
5.6639590712
 21
5.1619933489
 31
0.0
 11
5.6649891009
 21
5.1622272641
 31
0.0
 11
5.6654530187
 21
5.1623442217
 31
0.0
 11
5.6658825418
 21
5.1624611793
 31
0.0
 11
5.6662774226
 21
5.1625781368
 31
0.0
 11
5.6666374135
 21
5.1626950944
 31
0.0
 11
5.6669622792
 21
5.162812052
 31
0.0
 11
5.6672518641
 21
5.1629290096
 31
0.0
 11
5.6675060435
 21
5.1630459671
 31
0.0
 11
5.667724693
 21
5.1631629247
 31
0.0
  0
ENDSEC
  0
SECTION
  2
OBJECTS
  0
DICTIONARY
  5
C
100
AcDbDictionary
280
0
281
1
  3
ACAD_GROUP
350
D
  3
ACAD_MLINESTYLE
350
17
  3
ACAD_LAYOUT
350
1A
  3
ACAD_PLOTSETTINGS
350
19
  3
ACAD_PLOTSTYLENAME
350
E
  0
DICTIONARY
  5
D
102
{ACAD_REACTORS
330
C
102
}
100
AcDbDictionary
280
0
281
1
  0
ACDBDICTIONARYWDFLT
  5
E
102
{ACAD_REACTORS
330
C
102
}
100
AcDbDictionary
281
1
  3
Normal
350
F
100
AcDbDictionaryWithDefault
340
F
  0
DICTIONARY
  5
17
102
{ACAD_REACTORS
330
C
102
}
100
AcDbDictionary
280
0
281
1
  3
Standard
350
18
  0
DICTIONARY
  5
19
102
{ACAD_REACTORS
330
C
102
}
100
AcDbDictionary
281
1
  0
DICTIONARY
  5
1A
102
{ACAD_REACTORS
330
C
102
}
100
AcDbDictionary
281
1
  3
Model
350
26C
  3
Layout1
350
26D
  0
ACDBPLACEHOLDER
  5
F
102
{ACAD_REACTORS
330
E
102
}
  0
MLINESTYLE
  5
18
102
{ACAD_REACTORS
330
17
102
}
100
AcDbMlineStyle
  2
STANDARD
 70
0
  3

 62
256
 51
90.0
 52
90.0
 71
2
 49
0.5
 62
256
  6
BYLAYER
 49
-0.5
 62
256
  6
BYLAYER
  0
LAYOUT
  5
26C
102
{ACAD_REACTORS
330
1A
102
}
100
AcDbPlotSettings
  1

  2
none_device
  4
ISO_A4_(297.00_x_210.00_MM)
  6

 40
0.0
 41
0.0
 42
0.0
 43
0.0
 44
297.0
 45
210.0
 46
0.0
 47
0.0
 48
0.0
 49
0.0
140
0.0
141
0.0
142
1.0
143
1.0
 70
1024
 72
0
 73
0
 74
0
  7

 75
0
147
1.0
148
0.0
149
0.0
100
AcDbLayout
  1
Model
 70
0
 71
0
 10
0.0
 20
0.0
 11
11.6929133858
 21
8.2677165354
 12
0.0
 22
0.0
 32
0.0
 14
0.0
 24
0.0
 34
0.0
 15
0.0
 25
0.0
 35
0.0
146
0.0
 13
0.0
 23
0.0
 33
0.0
 16
1.0
 26
0.0
 36
0.0
 17
0.0
 27
1.0
 37
0.0
 76
0
330
203
345
0
346
0
  0
LAYOUT
  5
26D
102
{ACAD_REACTORS
330
1A
102
}
100
AcDbPlotSettings
  1

  2
none_device
  4
ISO_A4_(297.00_x_210.00_MM)
  6

 40
0.0
 41
0.0
 42
0.0
 43
0.0
 44
297.0
 45
210.0
 46
0.0
 47
0.0
 48
0.0
 49
0.0
140
0.0
141
0.0
142
1.0
143
1.0
 70
0
 72
0
 73
0
 74
0
  7

 75
0
147
1.0
148
0.0
149
0.0
100
AcDbLayout
  1
Layout1
 70
0
 71
1
 10
0.0
 20
0.0
 11
11.6929133858
 21
8.2677165354
 12
0.0
 22
0.0
 32
0.0
 14
0.0
 24
0.0
 34
0.0
 15
0.0
 25
0.0
 35
0.0
146
0.0
 13
0.0
 23
0.0
 33
0.0
 16
1.0
 26
0.0
 36
0.0
 17
0.0
 27
1.0
 37
0.0
 76
0
330
204
345
0
346
0
  0
ENDSEC
  0
EOF
