999
DXF file: E:\BT Custom\CADOUTPUT\_FRONT.dxf
999
Pro/ENGINEER 2018400 by Parametric Technology Corporation
  0
SECTION
  2
HEADER
  9
$ACADVER
  1
AC1018
  9
$DWGCODEPAGE
  3
ANSI_1252
  9
$EXTMAX
 10
22.0
 20
17.0
 30
0.0
  9
$EXTMIN
 10
0.0
 20
0.0
 30
0.0
  9
$LIMMIN
 10
0.0
 20
0.0
  9
$LIMMAX
 10
22.0
 20
17.0
  9
$VIEWCTR
 10
11.0
 20
8.5
  9
$VIEWSIZE
 40
17.0
  9
$CLAYER
  8
0
  9
$LTSCALE
 40
1.21
  9
$CELTYPE
  6
BYLAYER
  9
$DIMSCALE
 40
1.0
  9
$DIMASZ
 40
0.1
  9
$DIMEXO
 40
0.0625
  9
$DIMDLI
 40
0.836
  9
$DIMEXE
 40
0.125
  9
$DIMCEN
 40
0.198
  9
$DIMLFAC
 40
1.0
  9
$DIMBLK
  1
_FILLED
  9
$DIMALT
 70
1
  9
$DIMALTD
 70
2
  9
$DIMALTTD
 70
2
  9
$DIMALTF
 40
25.4
  9
$DIMTXT
 40
0.08
  9
$DIMTOL
 70
1
  9
$DIMLIM
 70
0
  9
$DIMTFAC
 40
1.0
  9
$DIMTP
 40
0.001
  9
$DIMTM
 40
0.001
  9
$DIMGAP
 40
0.09
  9
$DIMDSEP
 70
46
  9
$AUNITS
 70
0
  9
$PDMODE
 70
3
  9
$PDSIZE
 40
0.06
  9
$HANDSEED
  5
377
  9
$TILEMODE
 70
1
  9
$MEASUREMENT
 70
0
  9
$INSUNITS
 70
1
  0
ENDSEC
  0
SECTION
  2
CLASSES
  0
CLASS
  1
ACDBDICTIONARYWDFLT
  2
AcDbDictionaryWithDefault
  3
AutoCAD 2000
 90
0
 91
1
280
0
281
0
  0
CLASS
  1
ACDBPLACEHOLDER
  2
AcDbPlaceHolder
  3
AutoCAD 2000
 90
0
 91
1
280
0
281
0
  0
CLASS
  1
LAYOUT
  2
AcDbLayout
  3
AutoCAD 2000
 90
0
 91
0
280
0
281
0
  0
ENDSEC
  0
SECTION
  2
TABLES
  0
TABLE
  2
VPORT
  5
8
100
AcDbSymbolTable
 70
2
  0
VPORT
  5
1F4
100
AcDbSymbolTableRecord
100
AcDbViewportTableRecord
  2
*ACTIVE
 70
0
 10
0.0
 20
0.0
 11
1.0
 21
1.0
 12
11.0
 22
8.5
 13
0.0
 23
0.0
 14
1.0
 24
1.0
 15
0.0
 25
0.0
 16
0.0
 26
0.0
 36
1.0
 17
0.0
 27
0.0
 37
0.0
 40
17.0
 41
1.2941176471
 42
50.0
 43
0.0
 44
0.0
 50
0.0
 51
0.0
 71
0
 72
100
 73
1
 74
1
 75
0
 76
0
 77
0
 78
0
  0
ENDTAB
  0
TABLE
  2
LTYPE
  5
5
100
AcDbSymbolTable
 70
6
  0
LTYPE
  5
14
100
AcDbSymbolTableRecord
100
AcDbLinetypeTableRecord
  2
BYBLOCK
 70
0
  3

 72
65
 73
0
 40
0.0
  0
LTYPE
  5
15
100
AcDbSymbolTableRecord
100
AcDbLinetypeTableRecord
  2
BYLAYER
 70
0
  3

 72
65
 73
0
 40
0.0
  0
LTYPE
  5
16
100
AcDbSymbolTableRecord
100
AcDbLinetypeTableRecord
  2
CONTINUOUS
 70
64
  3
Solid line
 72
65
 73
0
 40
0.0
  0
LTYPE
  5
1F5
100
AcDbSymbolTableRecord
100
AcDbLinetypeTableRecord
  2
CENTER
 70
64
  3
____ _ ____ _ ____ _ ____ _ ____ _ ____ _ ____
 72
65
 73
4
 40
0.6
 49
0.375
 74
0
 49
-0.075
 74
0
 49
0.075
 74
0
 49
-0.075
 74
0
  0
LTYPE
  5
1F6
100
AcDbSymbolTableRecord
100
AcDbLinetypeTableRecord
  2
HIDDEN
 70
64
  3
- - - - - - - - - - - - - - - - - - - -
 72
65
 73
2
 40
0.2
 49
0.1
 74
0
 49
-0.1
 74
0
  0
LTYPE
  5
1F7
100
AcDbSymbolTableRecord
100
AcDbLinetypeTableRecord
  2
PHANTOM
 70
64
  3
_____ _ _ _____ _ _ _____ _ _ _____
 72
65
 73
6
 40
0.8
 49
0.45
 74
0
 49
-0.05
 74
0
 49
0.1
 74
0
 49
-0.05
 74
0
 49
0.1
 74
0
 49
-0.05
 74
0
  0
LTYPE
  5
1F8
100
AcDbSymbolTableRecord
100
AcDbLinetypeTableRecord
  2
DOT
 70
64
  3
. . . . . . . . . . . . . . . . . . . .
 72
65
 73
2
 40
0.2
 49
0.1
 74
0
 49
-0.1
 74
0
  0
LTYPE
  5
1F9
100
AcDbSymbolTableRecord
100
AcDbLinetypeTableRecord
  2
DASHED
 70
64
  3
- - - - - - - - - - - - - - - - - - - -
 72
65
 73
2
 40
0.2
 49
0.1
 74
0
 49
-0.1
 74
0
  0
ENDTAB
  0
TABLE
  2
LAYER
  5
2
100
AcDbSymbolTable
 70
36
  0
LAYER
  5
10
100
AcDbSymbolTableRecord
100
AcDbLayerTableRecord
  2
0
 70
0
 62
7
  6
CONTINUOUS
370
-3
390
F
  0
LAYER
  5
1FA
100
AcDbSymbolTableRecord
100
AcDbLayerTableRecord
  2
DEFAULT_1
 70
0
 62
7
  6
CENTER
370
-3
390
F
  0
LAYER
  5
1FB
100
AcDbSymbolTableRecord
100
AcDbLayerTableRecord
  2
DEFAULT_2
 70
0
 62
8
  6
HIDDEN
370
-3
390
F
  0
LAYER
  5
1FC
100
AcDbSymbolTableRecord
100
AcDbLayerTableRecord
  2
DEFAULT_3
 70
0
 62
7
  6
PHANTOM
370
-3
390
F
  0
LAYER
  5
1FD
100
AcDbSymbolTableRecord
100
AcDbLayerTableRecord
  2
ALL_FEATURES
 70
0
 62
7
  6
CONTINUOUS
370
-3
390
F
  0
LAYER
  5
1FE
100
AcDbSymbolTableRecord
100
AcDbLayerTableRecord
  2
AXES_FEATURES
 70
0
 62
7
  6
CONTINUOUS
370
-3
390
F
  0
LAYER
  5
1FF
100
AcDbSymbolTableRecord
100
AcDbLayerTableRecord
  2
DEFAULT_COORDINATE_SYSTEM
 70
0
 62
7
  6
CONTINUOUS
370
-3
390
F
  0
LAYER
  5
200
100
AcDbSymbolTableRecord
100
AcDbLayerTableRecord
  2
DEFAULT_DATUM_AXES
 70
0
 62
7
  6
CONTINUOUS
370
-3
390
F
  0
LAYER
  5
201
100
AcDbSymbolTableRecord
100
AcDbLayerTableRecord
  2
DEFAULT_DATUM_PLANES
 70
0
 62
7
  6
CONTINUOUS
370
-3
390
F
  0
LAYER
  5
202
100
AcDbSymbolTableRecord
100
AcDbLayerTableRecord
  2
DIMENSIONS
 70
0
 62
7
  6
CONTINUOUS
370
-3
390
F
  0
ENDTAB
  0
TABLE
  2
STYLE
  5
3
100
AcDbSymbolTable
 70
1
  0
STYLE
  5
11
100
AcDbSymbolTableRecord
100
AcDbTextStyleTableRecord
  2
STANDARD
 70
0
 40
0.0
 41
0.8
 50
0.0
 71
0
 42
0.2
  3
txt
  4

  0
STYLE
  5
203
100
AcDbSymbolTableRecord
100
AcDbTextStyleTableRecord
  2
TEXTSTYLE_1
 70
0
 40
0.0
 41
0.8
 50
0.0
 71
0
 42
0.2
  3
gdt
  4

  0
ENDTAB
  0
TABLE
  2
VIEW
  5
6
100
AcDbSymbolTable
 70
0
  0
ENDTAB
  0
TABLE
  2
UCS
  5
7
100
AcDbSymbolTable
 70
0
  0
ENDTAB
  0
TABLE
  2
APPID
  5
9
100
AcDbSymbolTable
 70
1
  0
APPID
  5
204
100
AcDbSymbolTableRecord
100
AcDbRegAppTableRecord
  2
ACAD
 70
0
  0
ENDTAB
  0
TABLE
  2
BLOCK_RECORD
  5
1
100
AcDbSymbolTable
 70
0
  0
BLOCK_RECORD
  5
205
100
AcDbSymbolTableRecord
100
AcDbBlockTableRecord
  2
*Model_Space
  0
BLOCK_RECORD
  5
206
100
AcDbSymbolTableRecord
100
AcDbBlockTableRecord
  2
*Paper_Space
  0
BLOCK_RECORD
  5
207
100
AcDbSymbolTableRecord
100
AcDbBlockTableRecord
  2
_FILLED
  0
ENDTAB
  0
TABLE
  2
DIMSTYLE
  5
A
100
AcDbSymbolTable
 70
1
100
AcDbDimStyleTable
 71
0
  0
DIMSTYLE
105
208
100
AcDbSymbolTableRecord
100
AcDbDimStyleTableRecord
  2
STANDARD
 70
0
  3

  4

 40
1.0
 41
0.1
 42
0.0625
 43
0.38
 44
0.125
 45
0.0
 46
0.0
 47
0.001
 48
0.001
140
0.08
141
0.09
142
0.0
143
25.4
144
1.0
145
0.0
146
1.0
147
0.09
 71
1.0
 72
0.0
 73
1
 74
1
 75
0
 76
0
 77
0
 78
4
 79
1
170
1
171
2
172
0
173
0
174
0
175
0
176
0
177
0
178
0
270
2
179
3
271
3
272
3
273
2
274
2
275
0
280
0
281
0
282
0
283
1
284
4
285
0
286
0
287
3
288
0
340
11
278
46
341
207
342
207
343
207
344
207
  0
ENDTAB
  0
ENDSEC
  0
SECTION
  2
BLOCKS
  0
BLOCK
  5
20
100
AcDbEntity
  8
0
100
AcDbBlockBegin
  2
*Model_Space
 70
0
 10
0.0
 20
0.0
 30
0.0
  3
*Model_Space
  1

  0
ENDBLK
  5
21
100
AcDbEntity
  8
0
100
AcDbBlockEnd
  0
BLOCK
  5
1C
100
AcDbEntity
  8
0
100
AcDbBlockBegin
  2
*Paper_Space
 70
0
 10
0.0
 20
0.0
 30
0.0
  3
*Paper_Space
  1

  0
ENDBLK
  5
1D
100
AcDbEntity
  8
0
100
AcDbBlockEnd
  0
BLOCK
  5
209
100
AcDbEntity
  8
0
100
AcDbBlockBegin
  2
_FILLED
 70
64
 10
0.0
 20
0.0
  3
_FILLED
  1

  0
SOLID
  5
20A
100
AcDbEntity
  8
0
  6
BYBLOCK
 62
0
100
AcDbTrace
 10
0.0
 20
0.0
 11
-1.0
 21
0.2
 12
-1.0
 22
-0.2
 13
-1.0
 23
-0.2
  0
ENDBLK
  5
20B
100
AcDbEntity
  8
0
  6
BYBLOCK
 62
0
100
AcDbBlockEnd
  0
ENDSEC
  0
SECTION
  2
ENTITIES
  0
LINE
  5
20C
100
AcDbEntity
  8
0
100
AcDbLine
 62
7
  6
CONTINUOUS
 10
10.7706398536
 20
4.5552187254
 11
12.7006390748
 21
4.5552187254
  0
LINE
  5
20D
100
AcDbEntity
  8
0
100
AcDbLine
 62
9
  6
CONTINUOUS
 10
12.7006394642
 20
4.6206120924
 11
10.7706394642
 21
4.6206124403
  0
LINE
  5
20E
100
AcDbEntity
  8
0
100
AcDbLine
 62
9
  6
CONTINUOUS
 10
12.684485618
 20
4.6472256984
 11
12.6124386778
 21
4.6472256906
  0
LINE
  5
20F
100
AcDbEntity
  8
0
100
AcDbLine
 62
9
  6
CONTINUOUS
 10
12.6010726365
 20
4.6472256931
 11
10.8702055954
 21
4.6472256931
  0
LINE
  5
210
100
AcDbEntity
  8
0
100
AcDbLine
 62
9
  6
CONTINUOUS
 10
10.8588401336
 20
4.6472260384
 11
10.7867933104
 21
4.6472260463
  0
LINE
  5
211
100
AcDbEntity
  8
0
100
AcDbLine
 62
9
  6
CONTINUOUS
 10
11.0178117466
 20
4.7359377184
 11
12.4534671818
 21
4.7359377184
  0
LINE
  5
212
100
AcDbEntity
  8
0
100
AcDbLine
 62
9
  6
CONTINUOUS
 10
12.5806612349
 20
4.7359377184
 11
12.6306394642
 21
4.7359377184
  0
LINE
  5
213
100
AcDbEntity
  8
0
100
AcDbLine
 62
9
  6
CONTINUOUS
 10
10.8406394642
 20
4.7359380663
 11
10.8906174395
 21
4.7359380663
  0
LINE
  5
214
100
AcDbEntity
  8
0
100
AcDbLine
 62
9
  6
CONTINUOUS
 10
12.6038911911
 20
4.828480011
 11
11.9773590684
 21
4.828480011
  0
LINE
  5
215
100
AcDbEntity
  8
0
100
AcDbLine
 62
9
  6
CONTINUOUS
 10
11.49391986
 20
4.828480011
 11
10.8673877373
 21
4.828480011
  0
LINE
  5
216
100
AcDbEntity
  8
0
100
AcDbLine
 62
9
  6
CONTINUOUS
 10
10.8542088764
 20
4.864776108
 11
12.617070052
 21
4.864776108
  0
LINE
  5
217
100
AcDbEntity
  8
0
100
AcDbLine
 62
9
  6
CONTINUOUS
 10
10.8603709244
 20
4.9024488061
 11
12.610908004
 21
4.9024488061
  0
LINE
  5
218
100
AcDbEntity
  8
0
100
AcDbLine
 62
9
  6
CONTINUOUS
 10
10.8667432466
 20
4.9438164454
 11
12.6045356818
 21
4.9438164454
  0
LINE
  5
219
100
AcDbEntity
  8
0
100
AcDbLine
 62
7
  6
CONTINUOUS
 10
10.8941811309
 20
4.9802187254
 11
12.5770977975
 21
4.9802187254
  0
LINE
  5
21A
100
AcDbEntity
  8
0
100
AcDbLine
 62
7
  6
CONTINUOUS
 10
10.5056394642
 20
5.7962187254
 11
10.6656394642
 21
5.7962187254
  0
LINE
  5
21B
100
AcDbEntity
  8
0
100
AcDbLine
 62
7
  6
CONTINUOUS
 10
10.9398678947
 20
5.9062187254
 11
10.6656394642
 21
5.9062187254
  0
LINE
  5
21C
100
AcDbEntity
  8
0
100
AcDbLine
 62
7
  6
CONTINUOUS
 10
9.2756394642
 20
6.0112187254
 11
10.0506394642
 21
6.0112187254
  0
LINE
  5
21D
100
AcDbEntity
  8
0
100
AcDbLine
 62
7
  6
CONTINUOUS
 10
9.2756394642
 20
6.7712187254
 11
9.3706394642
 21
6.7712187254
  0
LINE
  5
21E
100
AcDbEntity
  8
0
100
AcDbLine
 62
7
  6
CONTINUOUS
 10
9.8606394642
 20
6.7712187254
 11
10.0506394642
 21
6.7712187254
  0
LINE
  5
21F
100
AcDbEntity
  8
0
100
AcDbLine
 62
7
  6
CONTINUOUS
 10
10.9398678956
 20
6.8762187254
 11
10.6656394642
 21
6.8762187254
  0
LINE
  5
220
100
AcDbEntity
  8
0
100
AcDbLine
 62
9
  6
CONTINUOUS
 10
9.4406394642
 20
6.9485686602
 11
9.7906394642
 21
6.9485686602
  0
LINE
  5
221
100
AcDbEntity
  8
0
100
AcDbLine
 62
9
  6
CONTINUOUS
 10
9.4245069526
 20
6.9751711557
 11
9.8067719758
 21
6.9751711557
  0
LINE
  5
222
100
AcDbEntity
  8
0
100
AcDbLine
 62
7
  6
CONTINUOUS
 10
10.5056394642
 20
6.9862187254
 11
10.6656394642
 21
6.9862187254
  0
LINE
  5
223
100
AcDbEntity
  8
0
100
AcDbLine
 62
9
  6
CONTINUOUS
 10
9.821170908
 20
7.0230255566
 11
9.4101080204
 21
7.0230255566
  0
LINE
  5
224
100
AcDbEntity
  8
0
100
AcDbLine
 62
9
  6
CONTINUOUS
 10
9.8243983083
 20
7.0567992207
 11
9.4068806201
 21
7.0567992207
  0
LINE
  5
225
100
AcDbEntity
  8
0
100
AcDbLine
 62
9
  6
CONTINUOUS
 10
9.7864220232
 20
7.1126601994
 11
9.7365198961
 21
7.1126601914
  0
LINE
  5
226
100
AcDbEntity
  8
0
100
AcDbLine
 62
9
  6
CONTINUOUS
 10
9.4947591394
 20
7.1126602123
 11
9.4448568577
 21
7.1126602104
  0
LINE
  5
227
100
AcDbEntity
  8
0
100
AcDbLine
 62
9
  6
CONTINUOUS
 10
9.7874611468
 20
7.1518290719
 11
9.7372555598
 21
7.1518291435
  0
LINE
  5
228
100
AcDbEntity
  8
0
100
AcDbLine
 62
9
  6
CONTINUOUS
 10
9.4940235533
 20
7.1518291146
 11
9.4438177508
 21
7.1518291221
  0
LINE
  5
229
100
AcDbEntity
  8
0
100
AcDbLine
 62
7
  6
CONTINUOUS
 10
9.1756394642
 20
6.7486783923
 11
9.1756394642
 21
6.0337590585
  0
LINE
  5
22A
100
AcDbEntity
  8
0
100
AcDbLine
 62
7
  6
CONTINUOUS
 10
9.2756394642
 20
6.7712187254
 11
9.2756394642
 21
6.0112187254
  0
LINE
  5
22B
100
AcDbEntity
  8
0
100
AcDbLine
 62
7
  6
CONTINUOUS
 10
10.8506394642
 20
7.3302187254
 11
12.6206394642
 21
7.3302187254
  0
LINE
  5
22C
100
AcDbEntity
  8
0
100
AcDbLine
 62
9
  6
CONTINUOUS
 10
10.8206394642
 20
7.3602187254
 11
12.6506394642
 21
7.3602187254
  0
LINE
  5
22D
100
AcDbEntity
  8
0
100
AcDbLine
 62
9
  6
CONTINUOUS
 10
10.8206394642
 20
7.4312894173
 11
12.6506394642
 21
7.4312894173
  0
LINE
  5
22E
100
AcDbEntity
  8
0
100
AcDbLine
 62
9
  6
CONTINUOUS
 10
10.8347603739
 20
7.4567424032
 11
12.6365185545
 21
7.4567424032
  0
LINE
  5
22F
100
AcDbEntity
  8
0
100
AcDbLine
 62
7
  6
CONTINUOUS
 10
9.3856394642
 20
8.7247333392
 11
9.426991362
 21
7.145568074
  0
LINE
  5
230
100
AcDbEntity
  8
0
100
AcDbLine
 62
7
  6
CONTINUOUS
 10
9.3356394642
 20
8.9080187254
 11
9.3356394642
 21
8.8677043866
  0
LINE
  5
231
100
AcDbEntity
  8
0
100
AcDbLine
 62
9
  6
CONTINUOUS
 10
9.370085146
 20
8.8677043866
 11
9.370085146
 21
8.9080187254
  0
LINE
  5
232
100
AcDbEntity
  8
0
100
AcDbLine
 62
9
  6
CONTINUOUS
 10
9.3834184793
 20
8.8677043866
 11
9.3834184793
 21
8.9080187254
  0
LINE
  5
233
100
AcDbEntity
  8
0
100
AcDbLine
 62
7
  6
CONTINUOUS
 10
9.4406394642
 20
6.9485686602
 11
9.4406394642
 21
6.8412187254
  0
LINE
  5
234
100
AcDbEntity
  8
0
100
AcDbLine
 62
9
  6
CONTINUOUS
 10
11.0218516732
 20
7.649101392
 11
12.4494272552
 21
7.649101392
  0
LINE
  5
235
100
AcDbEntity
  8
0
100
AcDbLine
 62
9
  6
CONTINUOUS
 10
11.0392229474
 20
7.6627018731
 11
12.432055981
 21
7.6627018731
  0
LINE
  5
236
100
AcDbEntity
  8
0
100
AcDbLine
 62
9
  6
CONTINUOUS
 10
11.1688234218
 20
7.694319293
 11
12.3024555066
 21
7.694319293
  0
LINE
  5
237
100
AcDbEntity
  8
0
100
AcDbLine
 62
9
  6
CONTINUOUS
 10
11.1913587602
 20
7.7339363117
 11
12.2799201682
 21
7.7339363117
  0
LINE
  5
238
100
AcDbEntity
  8
0
100
AcDbLine
 62
9
  6
CONTINUOUS
 10
11.1950988187
 20
7.7730238452
 11
12.2761801097
 21
7.7730238452
  0
LINE
  5
239
100
AcDbEntity
  8
0
100
AcDbLine
 62
9
  6
CONTINUOUS
 10
11.1988184153
 20
7.8164413852
 11
12.2724605131
 21
7.8164413852
  0
LINE
  5
23A
100
AcDbEntity
  8
0
100
AcDbLine
 62
7
  6
CONTINUOUS
 10
12.2416394642
 20
7.8612338804
 11
11.2296394642
 21
7.8612338804
  0
LINE
  5
23B
100
AcDbEntity
  8
0
100
AcDbLine
 62
7
  6
CONTINUOUS
 10
9.7906394642
 20
6.9485686602
 11
9.7906394642
 21
6.8412187254
  0
LINE
  5
23C
100
AcDbEntity
  8
0
100
AcDbLine
 62
9
  6
CONTINUOUS
 10
9.8478604491
 20
8.8677043866
 11
9.8478604491
 21
8.9080187254
  0
LINE
  5
23D
100
AcDbEntity
  8
0
100
AcDbLine
 62
9
  6
CONTINUOUS
 10
9.8611937824
 20
8.8677043866
 11
9.8611937824
 21
8.9080187254
  0
LINE
  5
23E
100
AcDbEntity
  8
0
100
AcDbLine
 62
7
  6
CONTINUOUS
 10
9.8956394642
 20
8.9080187254
 11
9.8956394642
 21
8.8677043866
  0
LINE
  5
23F
100
AcDbEntity
  8
0
100
AcDbLine
 62
7
  6
CONTINUOUS
 10
9.8456394642
 20
8.7247333392
 11
9.8042875664
 21
7.145568074
  0
LINE
  5
240
100
AcDbEntity
  8
0
100
AcDbLine
 62
9
  6
CONTINUOUS
 10
10.0506394642
 20
6.7712187254
 11
10.0506394642
 21
6.0112187254
  0
LINE
  5
241
100
AcDbEntity
  8
0
100
AcDbLine
 62
7
  6
CONTINUOUS
 10
10.1106394642
 20
6.8388187254
 11
10.1106394642
 21
5.9436187254
  0
LINE
  5
242
100
AcDbEntity
  8
0
100
AcDbLine
 62
9
  6
CONTINUOUS
 10
10.1424875607
 20
6.8613584185
 11
10.1424875607
 21
5.9210790324
  0
LINE
  5
243
100
AcDbEntity
  8
0
100
AcDbLine
 62
9
  6
CONTINUOUS
 10
10.1715438553
 20
6.8664999226
 11
10.1715438553
 21
5.9159375283
  0
LINE
  5
244
100
AcDbEntity
  8
0
100
AcDbLine
 62
9
  6
CONTINUOUS
 10
10.2166092732
 20
5.915355089
 11
10.2166092732
 21
6.8670823618
  0
LINE
  5
245
100
AcDbEntity
  8
0
100
AcDbLine
 62
9
  6
CONTINUOUS
 10
10.2462187959
 20
5.9195758683
 11
10.2462187959
 21
6.8628615825
  0
LINE
  5
246
100
AcDbEntity
  8
0
100
AcDbLine
 62
9
  6
CONTINUOUS
 10
10.251125601
 20
5.9187272773
 11
10.251125601
 21
6.8637101735
  0
LINE
  5
247
100
AcDbEntity
  8
0
100
AcDbLine
 62
7
  6
CONTINUOUS
 10
12.0499494508
 20
11.4996946841
 11
12.0466923064
 21
11.4960220121
  0
LINE
  5
248
100
AcDbEntity
  8
0
100
AcDbLine
 62
7
  6
CONTINUOUS
 10
12.0499520389
 20
11.4996974067
 11
12.05353312
 21
11.5035757551
  0
LINE
  5
249
100
AcDbEntity
  8
0
100
AcDbLine
 62
9
  6
CONTINUOUS
 10
12.0499563894
 20
11.4997019808
 11
12.0499451008
 21
11.4996901099
  0
LINE
  5
24A
100
AcDbEntity
  8
0
100
AcDbLine
 62
9
  6
CONTINUOUS
 10
10.4959947284
 20
5.8010787625
 11
10.4959947284
 21
6.9813586883
  0
LINE
  5
24B
100
AcDbEntity
  8
0
100
AcDbLine
 62
9
  6
CONTINUOUS
 10
10.5056394642
 20
5.7962187254
 11
10.5056394642
 21
6.9862187254
  0
LINE
  5
24C
100
AcDbEntity
  8
0
100
AcDbLine
 62
9
  6
CONTINUOUS
 10
12.0466944205
 20
11.4960245568
 11
12.0466923064
 21
11.4960220121
  0
LINE
  5
24D
100
AcDbEntity
  8
0
100
AcDbLine
 62
7
  6
CONTINUOUS
 10
12.0233604205
 20
11.1847191644
 11
12.023255517
 21
11.1846133306
  0
LINE
  5
24E
100
AcDbEntity
  8
0
100
AcDbLine
 62
9
  6
CONTINUOUS
 10
9.8456394642
 20
8.7247333392
 11
9.8209048598
 21
8.7247333392
  0
LINE
  5
24F
100
AcDbEntity
  8
0
100
AcDbLine
 62
9
  6
CONTINUOUS
 10
9.8066633001
 20
8.7247333392
 11
9.4246156283
 21
8.7247333392
  0
LINE
  5
250
100
AcDbEntity
  8
0
100
AcDbLine
 62
9
  6
CONTINUOUS
 10
9.4103740686
 20
8.7247333392
 11
9.3856394642
 21
8.7247333392
  0
LINE
  5
251
100
AcDbEntity
  8
0
100
AcDbLine
 62
9
  6
CONTINUOUS
 10
9.8573040614
 20
8.8556185828
 11
9.8915747254
 21
8.8556185499
  0
LINE
  5
252
100
AcDbEntity
  8
0
100
AcDbLine
 62
9
  6
CONTINUOUS
 10
9.3845982964
 20
8.8556185828
 11
9.8466806281
 21
8.8556185739
  0
LINE
  5
253
100
AcDbEntity
  8
0
100
AcDbLine
 62
9
  6
CONTINUOUS
 10
9.339704203
 20
8.8556185499
 11
9.3739748729
 21
8.8556185739
  0
LINE
  5
254
100
AcDbEntity
  8
0
100
AcDbLine
 62
9
  6
CONTINUOUS
 10
9.3356394642
 20
8.8677043866
 11
9.8956394642
 21
8.8677043866
  0
LINE
  5
255
100
AcDbEntity
  8
0
100
AcDbLine
 62
9
  6
CONTINUOUS
 10
9.8956394642
 20
8.9080187254
 11
9.3356394642
 21
8.9080187254
  0
LINE
  5
256
100
AcDbEntity
  8
0
100
AcDbLine
 62
9
  6
CONTINUOUS
 10
9.8834540638
 20
8.9264288322
 11
9.8495330501
 21
8.9264288322
  0
LINE
  5
257
100
AcDbEntity
  8
0
100
AcDbLine
 62
9
  6
CONTINUOUS
 10
9.844323317
 20
8.9264288322
 11
9.3869556114
 21
8.9264288322
  0
LINE
  5
258
100
AcDbEntity
  8
0
100
AcDbLine
 62
9
  6
CONTINUOUS
 10
9.3817458784
 20
8.9264288322
 11
9.3478248646
 21
8.9264288322
  0
LINE
  5
259
100
AcDbEntity
  8
0
100
AcDbLine
 62
9
  6
CONTINUOUS
 10
9.8686779305
 20
8.9368187254
 11
9.83874344
 21
8.9368187254
  0
LINE
  5
25A
100
AcDbEntity
  8
0
100
AcDbLine
 62
9
  6
CONTINUOUS
 10
9.828676906
 20
8.9368187254
 11
9.4026020224
 21
8.9368187254
  0
LINE
  5
25B
100
AcDbEntity
  8
0
100
AcDbLine
 62
9
  6
CONTINUOUS
 10
9.3925354884
 20
8.9368187254
 11
9.3626009979
 21
8.9368187254
  0
LINE
  5
25C
100
AcDbEntity
  8
0
100
AcDbLine
 62
7
  6
CONTINUOUS
 10
9.7899886682
 20
8.9712187254
 11
9.4412902602
 21
8.9712187254
  0
LINE
  5
25D
100
AcDbEntity
  8
0
100
AcDbLine
 62
7
  6
CONTINUOUS
 10
10.6656394642
 20
5.7962194659
 11
10.6656394642
 21
6.9862179849
  0
LINE
  5
25E
100
AcDbEntity
  8
0
100
AcDbLine
 62
7
  6
CONTINUOUS
 10
10.7706394642
 20
4.5552187254
 11
10.7706394642
 21
4.6206124403
  0
LINE
  5
25F
100
AcDbEntity
  8
0
100
AcDbLine
 62
7
  6
CONTINUOUS
 10
10.8206394642
 20
7.3602187254
 11
10.8206394642
 21
7.4312894173
  0
LINE
  5
260
100
AcDbEntity
  8
0
100
AcDbLine
 62
7
  6
CONTINUOUS
 10
10.8406394642
 20
4.7359380663
 11
10.8406394642
 21
4.8178451483
  0
LINE
  5
261
100
AcDbEntity
  8
0
100
AcDbLine
 62
9
  6
CONTINUOUS
 10
10.8429087819
 20
4.6206124403
 11
10.8429087819
 21
4.5552187254
  0
LINE
  5
262
100
AcDbEntity
  8
0
100
AcDbLine
 62
9
  6
CONTINUOUS
 10
10.8675352186
 20
4.6206120924
 11
10.8675352186
 21
4.5552187254
  0
LINE
  5
263
100
AcDbEntity
  8
0
100
AcDbLine
 62
7
  6
CONTINUOUS
 10
10.9306394642
 20
4.9802187254
 11
10.9306394642
 21
5.8912187254
  0
LINE
  5
264
100
AcDbEntity
  8
0
100
AcDbLine
 62
7
  6
CONTINUOUS
 10
10.9306394642
 20
6.8912187254
 11
10.9306394642
 21
7.3302187254
  0
LINE
  5
265
100
AcDbEntity
  8
0
100
AcDbLine
 62
7
  6
CONTINUOUS
 10
11.3911125161
 20
11.5930964228
 11
11.3908290719
 21
11.5916195198
  0
LINE
  5
266
100
AcDbEntity
  8
0
100
AcDbLine
 62
9
  6
CONTINUOUS
 10
11.4471262778
 20
11.4410793622
 11
11.4468469182
 21
11.4454228276
  0
LINE
  5
267
100
AcDbEntity
  8
0
100
AcDbLine
 62
7
  6
CONTINUOUS
 10
11.4856394642
 20
13.7301301235
 11
11.4856394642
 21
11.6832067672
  0
LINE
  5
268
100
AcDbEntity
  8
0
100
AcDbLine
 62
7
  6
CONTINUOUS
 10
11.4856394642
 20
7.8612187254
 11
11.4856394642
 21
11.157769172
  0
LINE
  5
269
100
AcDbEntity
  8
0
100
AcDbLine
 62
7
  6
CONTINUOUS
 10
11.4517283593
 20
11.338431713
 11
11.4522120736
 21
11.361669716
  0
LINE
  5
26A
100
AcDbEntity
  8
0
100
AcDbLine
 62
7
  6
CONTINUOUS
 10
11.9856394642
 20
13.7301301235
 11
11.9856394642
 21
11.6831692197
  0
LINE
  5
26B
100
AcDbEntity
  8
0
100
AcDbLine
 62
7
  6
CONTINUOUS
 10
11.9856394642
 20
7.8612187254
 11
11.9856394642
 21
11.1577491787
  0
LINE
  5
26C
100
AcDbEntity
  8
0
100
AcDbLine
 62
9
  6
CONTINUOUS
 10
12.0244320102
 20
11.4454228276
 11
12.0241526316
 21
11.4410792138
  0
LINE
  5
26D
100
AcDbEntity
  8
0
100
AcDbLine
 62
7
  6
CONTINUOUS
 10
12.0190668549
 20
11.361669716
 11
12.0195505773
 21
11.338431517
  0
LWPOLYLINE
  5
26E
100
AcDbEntity
  8
0
100
AcDbPolyline
 62
7
  6
CONTINUOUS
 90
7
 70
0
 10
12.6306399168
 20
4.8178434525
 10
12.6305093147
 20
4.8206397283
 10
12.6298593262
 20
4.8246424638
 10
12.6286750293
 20
4.8285220944
 10
12.6269780028
 20
4.8322068311
 10
12.6247996215
 20
4.8356285726
 10
12.6233489006
 20
4.8374471272
  0
LINE
  5
26F
100
AcDbEntity
  8
0
100
AcDbLine
 62
7
  6
CONTINUOUS
 10
12.5406394642
 20
4.9802187254
 11
12.5406394642
 21
7.3302187254
  0
LINE
  5
270
100
AcDbEntity
  8
0
100
AcDbLine
 62
9
  6
CONTINUOUS
 10
12.6037437098
 20
4.6206120924
 11
12.6037437098
 21
4.5552187254
  0
LINE
  5
271
100
AcDbEntity
  8
0
100
AcDbLine
 62
9
  6
CONTINUOUS
 10
12.6283701465
 20
4.6206120924
 11
12.6283701465
 21
4.5552187254
  0
LINE
  5
272
100
AcDbEntity
  8
0
100
AcDbLine
 62
7
  6
CONTINUOUS
 10
12.6306394642
 20
4.7359377184
 11
12.6306394642
 21
4.817843453
  0
LINE
  5
273
100
AcDbEntity
  8
0
100
AcDbLine
 62
7
  6
CONTINUOUS
 10
12.6506394642
 20
7.3602187254
 11
12.6506394642
 21
7.4312894173
  0
LINE
  5
274
100
AcDbEntity
  8
0
100
AcDbLine
 62
7
  6
CONTINUOUS
 10
11.4480233377
 20
11.1846134048
 11
11.4479207669
 21
11.1847168815
  0
LINE
  5
275
100
AcDbEntity
  8
0
100
AcDbLine
 62
7
  6
CONTINUOUS
 10
12.0804498565
 20
11.5916195198
 11
12.0801666514
 21
11.5930952201
  0
LINE
  5
276
100
AcDbEntity
  8
0
100
AcDbLine
 62
7
  6
CONTINUOUS
 10
12.7006394642
 20
4.5552187254
 11
12.7006394642
 21
4.6206120924
  0
LINE
  5
277
100
AcDbEntity
  8
0
100
AcDbLine
 62
9
  6
CONTINUOUS
 10
11.4213339588
 20
11.499689972
 11
11.4213170378
 21
11.4997077674
  0
LINE
  5
278
100
AcDbEntity
  8
0
100
AcDbLine
 62
7
  6
CONTINUOUS
 10
11.4177457814
 20
11.5035757853
 11
11.4213213883
 21
11.4997031933
  0
LINE
  5
279
100
AcDbEntity
  8
0
100
AcDbLine
 62
9
  6
CONTINUOUS
 10
11.4177400081
 20
11.5035822269
 11
11.4177211544
 21
11.5036032701
  0
LINE
  5
27A
100
AcDbEntity
  8
0
100
AcDbLine
 62
7
  6
CONTINUOUS
 10
11.424586622
 20
11.4960220121
 11
11.4213296088
 21
11.4996945462
  0
LINE
  5
27B
100
AcDbEntity
  8
0
100
AcDbLine
 62
9
  6
CONTINUOUS
 10
12.032589453
 20
11.2981238575
 11
12.0325873352
 21
11.2981267691
  0
ARC
  5
27C
100
AcDbEntity
  8
0
100
AcDbCircle
 62
9
  6
CONTINUOUS
 10
8.410822173
 20
6.6196995608
 40
1.4759053767
100
AcDbArc
 50
21.1336371058
 51
22.0535331008
  0
ARC
  5
27D
100
AcDbEntity
  8
0
100
AcDbCircle
 62
9
  6
CONTINUOUS
 10
9.0311648167
 20
6.9192770729
 40
0.8025049573
100
AcDbArc
 50
16.0969091109
 51
19.4718526946
  0
ARC
  5
27E
100
AcDbEntity
  8
0
100
AcDbCircle
 62
9
  6
CONTINUOUS
 10
10.181053538
 20
6.9253911084
 40
0.7824966927
100
AcDbArc
 50
160.4849920559
 51
163.946258492
  0
ARC
  5
27F
100
AcDbEntity
  8
0
100
AcDbCircle
 62
7
  6
CONTINUOUS
 10
10.2621098844
 20
5.6279346613
 40
0.291
100
AcDbArc
 50
36.5124119026
 51
92.1632392682
  0
ARC
  5
280
100
AcDbEntity
  8
0
100
AcDbCircle
 62
7
  6
CONTINUOUS
 10
9.8606394642
 20
6.8412187254
 40
0.07
100
AcDbArc
 50
179.9999999998
 51
270.0000000009
  0
ARC
  5
281
100
AcDbEntity
  8
0
100
AcDbCircle
 62
7
  6
CONTINUOUS
 10
9.3706394642
 20
6.8412187254
 40
0.07
100
AcDbArc
 50
269.9999999991
 51
360.0
  0
ARC
  5
282
100
AcDbEntity
  8
0
100
AcDbCircle
 62
7
  6
CONTINUOUS
 10
10.0506394642
 20
6.8312187254
 40
0.06
100
AcDbArc
 50
270.0
 51
360.0
  0
ARC
  5
283
100
AcDbEntity
  8
0
100
AcDbCircle
 62
7
  6
CONTINUOUS
 10
10.0506394642
 20
5.9512187254
 40
0.06
100
AcDbArc
 50
0.0
 51
90.0
  0
ARC
  5
284
100
AcDbEntity
  8
0
100
AcDbCircle
 62
7
  6
CONTINUOUS
 10
9.2281797973
 20
6.0337590585
 40
0.0525403331
100
AcDbArc
 50
180.0
 51
334.5952455743
  0
ARC
  5
285
100
AcDbEntity
  8
0
100
AcDbCircle
 62
7
  6
CONTINUOUS
 10
9.2281797973
 20
6.7486783923
 40
0.0525403331
100
AcDbArc
 50
25.4047544257
 51
180.0
  0
ARC
  5
286
100
AcDbEntity
  8
0
100
AcDbCircle
 62
7
  6
CONTINUOUS
 10
10.1944393807
 20
5.9437187254
 40
0.036
100
AcDbArc
 50
230.5067866396
 51
308.0122795444
  0
ARC
  5
287
100
AcDbEntity
  8
0
100
AcDbCircle
 62
7
  6
CONTINUOUS
 10
10.1944393807
 20
6.8387187254
 40
0.036
100
AcDbArc
 50
51.9877204556
 51
129.4932133604
  0
ARC
  5
288
100
AcDbEntity
  8
0
100
AcDbCircle
 62
7
  6
CONTINUOUS
 10
9.4406394642
 20
7.0061187254
 40
0.0349
100
AcDbArc
 50
151.0244449213
 51
242.4676334307
  0
ARC
  5
289
100
AcDbEntity
  8
0
100
AcDbCircle
 62
7
  6
CONTINUOUS
 10
9.7906394642
 20
7.0061187254
 40
0.0349
100
AcDbArc
 50
297.5323665693
 51
28.9755550787
  0
ARC
  5
28A
100
AcDbEntity
  8
0
100
AcDbCircle
 62
7
  6
CONTINUOUS
 10
10.2350841836
 20
5.8917187254
 40
0.03
100
AcDbArc
 50
68.2132107017
 51
128.0122795443
  0
ARC
  5
28B
100
AcDbEntity
  8
0
100
AcDbCircle
 62
7
  6
CONTINUOUS
 10
10.2350841836
 20
6.8907187254
 40
0.03
100
AcDbArc
 50
231.9877204556
 51
291.7867892983
  0
ARC
  5
28C
100
AcDbEntity
  8
0
100
AcDbCircle
 62
7
  6
CONTINUOUS
 10
10.1524642508
 20
5.8927865306
 40
0.03
100
AcDbArc
 50
50.5067866396
 51
109.4240083987
  0
ARC
  5
28D
100
AcDbEntity
  8
0
100
AcDbCircle
 62
7
  6
CONTINUOUS
 10
10.1524642508
 20
6.8896509202
 40
0.03
100
AcDbArc
 50
250.5759916013
 51
309.4932133604
  0
ARC
  5
28E
100
AcDbEntity
  8
0
100
AcDbCircle
 62
7
  6
CONTINUOUS
 10
9.4106394642
 20
6.9485686602
 40
0.03
100
AcDbArc
 50
0.0
 51
62.4676334378
  0
ARC
  5
28F
100
AcDbEntity
  8
0
100
AcDbCircle
 62
7
  6
CONTINUOUS
 10
9.8206394642
 20
6.9485686602
 40
0.03
100
AcDbArc
 50
117.5323665622
 51
180.0
  0
ARC
  5
290
100
AcDbEntity
  8
0
100
AcDbCircle
 62
7
  6
CONTINUOUS
 10
9.847415702
 20
7.0375586494
 40
0.03
100
AcDbArc
 50
140.1072629186
 51
208.9755550888
  0
ARC
  5
291
100
AcDbEntity
  8
0
100
AcDbCircle
 62
7
  6
CONTINUOUS
 10
9.3838632264
 20
7.0375586494
 40
0.03
100
AcDbArc
 50
331.0244449112
 51
39.8927370814
  0
ARC
  5
292
100
AcDbEntity
  8
0
100
AcDbCircle
 62
7
  6
CONTINUOUS
 10
10.1345394642
 20
5.9436187254
 40
0.0239
100
AcDbArc
 50
180.0
 51
289.4240083987
  0
ARC
  5
293
100
AcDbEntity
  8
0
100
AcDbCircle
 62
7
  6
CONTINUOUS
 10
10.1345394642
 20
6.8388187254
 40
0.0239
100
AcDbArc
 50
70.5759916013
 51
180.0
  0
ARC
  5
294
100
AcDbEntity
  8
0
100
AcDbCircle
 62
7
  6
CONTINUOUS
 10
10.2506726409
 20
5.9307187254
 40
0.012
100
AcDbArc
 50
248.2132107017
 51
272.1632392682
  0
ARC
  5
295
100
AcDbEntity
  8
0
100
AcDbCircle
 62
7
  6
CONTINUOUS
 10
10.5056394642
 20
5.8082187254
 40
0.012
100
AcDbArc
 50
216.5124119026
 51
270.0
  0
ARC
  5
296
100
AcDbEntity
  8
0
100
AcDbCircle
 62
7
  6
CONTINUOUS
 10
10.2506726409
 20
6.8517187254
 40
0.012
100
AcDbArc
 50
87.8367607318
 51
111.7867892983
  0
ARC
  5
297
100
AcDbEntity
  8
0
100
AcDbCircle
 62
7
  6
CONTINUOUS
 10
10.5056394642
 20
6.9742187254
 40
0.012
100
AcDbArc
 50
90.0
 51
143.4875880974
  0
ARC
  5
298
100
AcDbEntity
  8
0
100
AcDbCircle
 62
7
  6
CONTINUOUS
 10
10.5378213848
 20
7.9327132393
 40
0.561
100
AcDbArc
 50
301.9583741621
 51
329.632332158
  0
ARC
  5
299
100
AcDbEntity
  8
0
100
AcDbCircle
 62
7
  6
CONTINUOUS
 10
10.2621098844
 20
7.1545027895
 40
0.291
100
AcDbArc
 50
267.8367607318
 51
323.4875880974
  0
ARC
  5
29A
100
AcDbEntity
  8
0
100
AcDbCircle
 62
7
  6
CONTINUOUS
 10
10.0719618826
 20
8.7188068781
 40
0.2264
100
AcDbArc
 50
142.8220998294
 51
178.5
  0
ARC
  5
29B
100
AcDbEntity
  8
0
100
AcDbCircle
 62
7
  6
CONTINUOUS
 10
9.1593170458
 20
8.7188068781
 40
0.2264
100
AcDbArc
 50
1.5
 51
37.1779001706
  0
ARC
  5
29C
100
AcDbEntity
  8
0
100
AcDbCircle
 62
7
  6
CONTINUOUS
 10
9.7899886682
 20
8.8640187254
 40
0.1072
100
AcDbArc
 50
42.7737033384
 51
90.0
  0
ARC
  5
29D
100
AcDbEntity
  8
0
100
AcDbCircle
 62
7
  6
CONTINUOUS
 10
9.4412902602
 20
8.8640187254
 40
0.1072
100
AcDbArc
 50
90.0
 51
137.2262966616
  0
ARC
  5
29E
100
AcDbEntity
  8
0
100
AcDbCircle
 62
9
  6
CONTINUOUS
 10
9.7721350872
 20
8.8924641159
 40
0.0787546101
100
AcDbArc
 50
77.1759405247
 51
90.0071578157
  0
ARC
  5
29F
100
AcDbEntity
  8
0
100
AcDbCircle
 62
9
  6
CONTINUOUS
 10
9.4591437984
 20
8.8924644304
 40
0.0787542956
100
AcDbArc
 50
89.9928109918
 51
102.8241361469
  0
ARC
  5
2A0
100
AcDbEntity
  8
0
100
AcDbCircle
 62
7
  6
CONTINUOUS
 10
9.4406394642
 20
7.0850187254
 40
0.044
100
AcDbArc
 50
126.1357432441
 51
219.89273707
  0
ARC
  5
2A1
100
AcDbEntity
  8
0
100
AcDbCircle
 62
7
  6
CONTINUOUS
 10
9.7906394642
 20
7.0850187254
 40
0.044
100
AcDbArc
 50
320.10726293
 51
53.8642567559
  0
ARC
  5
2A2
100
AcDbEntity
  8
0
100
AcDbCircle
 62
7
  6
CONTINUOUS
 10
9.9002710821
 20
8.9660473821
 40
0.04304
100
AcDbArc
 50
222.7737033384
 51
247.0000715388
  0
ARC
  5
2A3
100
AcDbEntity
  8
0
100
AcDbCircle
 62
7
  6
CONTINUOUS
 10
9.3310078463
 20
8.9660473821
 40
0.04304
100
AcDbArc
 50
292.9999284612
 51
317.2262966616
  0
ARC
  5
2A4
100
AcDbEntity
  8
0
100
AcDbCircle
 62
7
  6
CONTINUOUS
 10
9.3970016422
 20
7.1447827655
 40
0.03
100
AcDbArc
 50
306.1357432441
 51
1.5000000088
  0
ARC
  5
2A5
100
AcDbEntity
  8
0
100
AcDbCircle
 62
7
  6
CONTINUOUS
 10
9.8342772862
 20
7.1447827655
 40
0.03
100
AcDbArc
 50
178.4999999912
 51
233.8642567559
  0
ARC
  5
2A6
100
AcDbEntity
  8
0
100
AcDbCircle
 62
7
  6
CONTINUOUS
 10
9.8756394642
 20
8.8677043866
 40
0.02
100
AcDbArc
 50
322.8220998294
 51
360.0
  0
ARC
  5
2A7
100
AcDbEntity
  8
0
100
AcDbCircle
 62
7
  6
CONTINUOUS
 10
9.3556394642
 20
8.8677043866
 40
0.02
100
AcDbArc
 50
180.0
 51
217.1779001706
  0
ARC
  5
2A8
100
AcDbEntity
  8
0
100
AcDbCircle
 62
7
  6
CONTINUOUS
 10
9.8756394642
 20
8.9080187254
 40
0.02
100
AcDbArc
 50
0.0
 51
67.0000715388
  0
ARC
  5
2A9
100
AcDbEntity
  8
0
100
AcDbCircle
 62
7
  6
CONTINUOUS
 10
9.3556394642
 20
8.9080187254
 40
0.02
100
AcDbArc
 50
112.9999284612
 51
180.0
  0
ARC
  5
2AA
100
AcDbEntity
  8
0
100
AcDbCircle
 62
9
  6
CONTINUOUS
 10
11.8121495857
 20
0.3815544887
 40
4.401356189
100
AcDbArc
 50
80.4340987634
 51
81.6216580969
  0
ARC
  5
2AB
100
AcDbEntity
  8
0
100
AcDbCircle
 62
9
  6
CONTINUOUS
 10
11.6576458417
 20
0.3911147568
 40
4.3916823925
100
AcDbArc
 50
98.3773679798
 51
99.5675438056
  0
ARC
  5
2AC
100
AcDbEntity
  8
0
100
AcDbCircle
 62
9
  6
CONTINUOUS
 10
11.7929642491
 20
1.3131084587
 40
3.5142378001
100
AcDbArc
 50
77.6256114286
 51
79.1279070658
  0
ARC
  5
2AD
100
AcDbEntity
  8
0
100
AcDbCircle
 62
9
  6
CONTINUOUS
 10
11.6735076507
 20
1.3364784856
 40
3.4903805749
100
AcDbArc
 50
100.866958903
 51
102.3795243748
  0
ARC
  5
2AE
100
AcDbEntity
  8
0
100
AcDbCircle
 62
9
  6
CONTINUOUS
 10
11.1652413452
 20
5.7999935338
 40
1.7359584972
100
AcDbArc
 50
323.3710621795
 51
325.9690269244
  0
ARC
  5
2AF
100
AcDbEntity
  8
0
100
AcDbCircle
 62
9
  6
CONTINUOUS
 10
12.306034709
 20
5.7999915127
 40
1.7359549842
100
AcDbArc
 50
214.0309708855
 51
216.6289265417
  0
ARC
  5
2B0
100
AcDbEntity
  8
0
100
AcDbCircle
 62
9
  6
CONTINUOUS
 10
10.8479628275
 20
6.6088095032
 40
1.5054878621
100
AcDbArc
 50
157.9553918809
 51
158.8572104116
  0
ARC
  5
2B1
100
AcDbEntity
  8
0
100
AcDbCircle
 62
7
  6
CONTINUOUS
 10
11.4302395653
 20
6.3413427227
 40
1.378
100
AcDbArc
 50
100.9356812119
 51
106.4845399258
  0
ARC
  5
2B2
100
AcDbEntity
  8
0
100
AcDbCircle
 62
7
  6
CONTINUOUS
 10
12.0410393631
 20
6.3413427227
 40
1.378
100
AcDbArc
 50
73.5154600742
 51
79.0643187881
  0
ARC
  5
2B3
100
AcDbEntity
  8
0
100
AcDbCircle
 62
7
  6
CONTINUOUS
 10
10.7406394642
 20
4.7359380663
 40
0.1
100
AcDbArc
 50
297.4864262504
 51
360.0
  0
ARC
  5
2B4
100
AcDbEntity
  8
0
100
AcDbCircle
 62
7
  6
CONTINUOUS
 10
12.7306394642
 20
4.7359377184
 40
0.1
100
AcDbArc
 50
180.0
 51
242.5135737496
  0
ARC
  5
2B5
100
AcDbEntity
  8
0
100
AcDbCircle
 62
7
  6
CONTINUOUS
 10
12.6526020485
 20
4.9300460279
 40
0.05
100
AcDbArc
 50
164.0136493617
 51
213.5005119846
  0
ARC
  5
2B6
100
AcDbEntity
  8
0
100
AcDbCircle
 62
7
  6
CONTINUOUS
 10
10.8186768799
 20
4.9300460279
 40
0.05
100
AcDbArc
 50
326.4994880154
 51
15.9863506383
  0
ARC
  5
2B7
100
AcDbEntity
  8
0
100
AcDbCircle
 62
7
  6
CONTINUOUS
 10
12.5720977975
 20
4.8767603921
 40
0.0465416667
100
AcDbArc
 50
345.078476065
 51
33.5005119843
  0
ARC
  5
2B8
100
AcDbEntity
  8
0
100
AcDbCircle
 62
7
  6
CONTINUOUS
 10
10.8991811309
 20
4.8767603921
 40
0.0465416667
100
AcDbArc
 50
146.4994880157
 51
194.921523935
  0
ARC
  5
2B9
100
AcDbEntity
  8
0
100
AcDbCircle
 62
9
  6
CONTINUOUS
 10
12.5949956604
 20
4.7997715118
 40
0.0300531524
100
AcDbArc
 50
0.261737843
 51
72.7840367448
  0
ARC
  5
2BA
100
AcDbEntity
  8
0
100
AcDbCircle
 62
9
  6
CONTINUOUS
 10
10.8762832676
 20
4.7997715121
 40
0.0300531523
100
AcDbArc
 50
107.2159627891
 51
179.7382626441
  0
ARC
  5
2BB
100
AcDbEntity
  8
0
100
AcDbCircle
 62
7
  6
CONTINUOUS
 10
10.8252204939
 20
4.8570512338
 40
0.03
100
AcDbArc
 50
319.1989286932
 51
14.921523935
  0
ARC
  5
2BC
100
AcDbEntity
  8
0
100
AcDbCircle
 62
7
  6
CONTINUOUS
 10
10.8706394642
 20
4.8178451483
 40
0.03
100
AcDbArc
 50
139.1989286933
 51
179.9999999999
  0
ARC
  5
2BD
100
AcDbEntity
  8
0
100
AcDbCircle
 62
7
  6
CONTINUOUS
 10
12.6460584345
 20
4.8570512338
 40
0.03
100
AcDbArc
 50
165.078476065
 51
220.8025486095
  0
ARC
  5
2BE
100
AcDbEntity
  8
0
100
AcDbCircle
 62
7
  6
CONTINUOUS
 10
10.8006394642
 20
4.6206124403
 40
0.03
100
AcDbArc
 50
117.4864262504
 51
180.0
  0
ARC
  5
2BF
100
AcDbEntity
  8
0
100
AcDbCircle
 62
7
  6
CONTINUOUS
 10
12.6706394642
 20
4.6206120924
 40
0.03
100
AcDbArc
 50
0.0
 51
62.5135737496
  0
ARC
  5
2C0
100
AcDbEntity
  8
0
100
AcDbCircle
 62
7
  6
CONTINUOUS
 10
10.8941811309
 20
4.9516770587
 40
0.0285416667
100
AcDbArc
 50
90.0
 51
195.9863506381
  0
ARC
  5
2C1
100
AcDbEntity
  8
0
100
AcDbCircle
 62
7
  6
CONTINUOUS
 10
12.5770977975
 20
4.9516770587
 40
0.0285416667
100
AcDbArc
 50
344.0136493619
 51
90.0
  0
ARC
  5
2C2
100
AcDbEntity
  8
0
100
AcDbCircle
 62
7
  6
CONTINUOUS
 10
12.6412293306
 20
11.3616907435
 40
0.622162478
100
AcDbArc
 50
172.6690661548
 51
180.0019363728
  0
ARC
  5
2C3
100
AcDbEntity
  8
0
100
AcDbCircle
 62
7
  6
CONTINUOUS
 10
10.8300548328
 20
11.3616909349
 40
0.6221572431
100
AcDbArc
 50
359.9980459897
 51
7.3309673424
  0
ARC
  5
2C4
100
AcDbEntity
  8
0
100
AcDbCircle
 62
7
  6
CONTINUOUS
 10
12.9334575436
 20
7.9327132393
 40
0.561
100
AcDbArc
 50
210.367667842
 51
238.0416258379
  0
ARC
  5
2C5
100
AcDbEntity
  8
0
100
AcDbCircle
 62
7
  6
CONTINUOUS
 10
11.7356394642
 20
13.7302187254
 40
0.25
100
AcDbArc
 50
0.0
 51
180.0
  0
ARC
  5
2C6
100
AcDbEntity
  8
0
100
AcDbCircle
 62
7
  6
CONTINUOUS
 10
11.3253317751
 20
11.4254029922
 40
0.1227992242
100
AcDbArc
 50
7.3341170075
 51
9.3808617921
  0
ARC
  5
2C7
100
AcDbEntity
  8
0
100
AcDbCircle
 62
7
  6
CONTINUOUS
 10
12.1458877433
 20
11.4254104023
 40
0.1227393543
100
AcDbArc
 50
170.6204574292
 51
172.6657735268
  0
ARC
  5
2C8
100
AcDbEntity
  8
0
100
AcDbCircle
 62
7
  6
CONTINUOUS
 10
11.4857042254
 20
11.5740260916
 40
0.096492142
100
AcDbArc
 50
169.4950477777
 51
179.9936056041
  0
ARC
  5
2C9
100
AcDbEntity
  8
0
100
AcDbCircle
 62
7
  6
CONTINUOUS
 10
11.9855911096
 20
11.574027255
 40
0.0964757353
100
AcDbArc
 50
0.0057045372
 51
10.5058744697
  0
ARC
  5
2CA
100
AcDbEntity
  8
0
100
AcDbCircle
 62
9
  6
CONTINUOUS
 10
11.4808806303
 20
11.5563735804
 40
0.0822121397
100
AcDbArc
 50
219.7772835097
 51
223.5718230895
  0
ARC
  5
2CB
100
AcDbEntity
  8
0
100
AcDbCircle
 62
9
  6
CONTINUOUS
 10
11.9918348861
 20
11.555094698
 40
0.080289864
100
AcDbArc
 50
316.3770769565
 51
320.2581623455
  0
ARC
  5
2CC
100
AcDbEntity
  8
0
100
AcDbCircle
 62
7
  6
CONTINUOUS
 10
11.497579125
 20
11.2459793003
 40
0.076939677
100
AcDbArc
 50
168.8791297224
 51
179.9912899704
  0
ARC
  5
2CD
100
AcDbEntity
  8
0
100
AcDbCircle
 62
7
  6
CONTINUOUS
 10
11.9737132879
 20
11.2459803379
 40
0.0769261923
100
AcDbArc
 50
0.0079387354
 51
11.1218837022
  0
ARC
  5
2CE
100
AcDbEntity
  8
0
100
AcDbCircle
 62
9
  6
CONTINUOUS
 10
11.4783165527
 20
11.540697243
 40
0.0698768819
100
AcDbArc
 50
215.7149301757
 51
219.7410510974
  0
ARC
  5
2CF
100
AcDbEntity
  8
0
100
AcDbCircle
 62
9
  6
CONTINUOUS
 10
11.9942082754
 20
11.539733354
 40
0.0683026463
100
AcDbArc
 50
320.2135239496
 51
324.3316205285
  0
ARC
  5
2D0
100
AcDbEntity
  8
0
100
AcDbCircle
 62
9
  6
CONTINUOUS
 10
11.4736412103
 20
11.5372402354
 40
0.0640628335
100
AcDbArc
 50
215.0678657661
 51
215.6455192238
  0
ARC
  5
2D1
100
AcDbEntity
  8
0
100
AcDbCircle
 62
9
  6
CONTINUOUS
 10
11.9977952187
 20
11.5371284852
 40
0.063869718
100
AcDbArc
 50
324.353767681
 51
324.9330071706
  0
ARC
  5
2D2
100
AcDbEntity
  8
0
100
AcDbCircle
 62
9
  6
CONTINUOUS
 10
11.4703932754
 20
11.5349883147
 40
0.0601106612
100
AcDbArc
 50
210.6905836512
 51
215.0897455215
  0
ARC
  5
2D3
100
AcDbEntity
  8
0
100
AcDbCircle
 62
9
  6
CONTINUOUS
 10
12.0019221998
 20
11.5343180826
 40
0.0588772344
100
AcDbArc
 50
324.8640800495
 51
329.3418104241
  0
ARC
  5
2D4
100
AcDbEntity
  8
0
100
AcDbCircle
 62
7
  6
CONTINUOUS
 10
11.1521198563
 20
7.7985739682
 40
0.05
100
AcDbArc
 50
329.2693737715
 51
20.9374374986
  0
ARC
  5
2D5
100
AcDbEntity
  8
0
100
AcDbCircle
 62
7
  6
CONTINUOUS
 10
12.3191590721
 20
7.7985739682
 40
0.05
100
AcDbArc
 50
159.0625625014
 51
210.7306262285
  0
ARC
  5
2D6
100
AcDbEntity
  8
0
100
AcDbCircle
 62
7
  6
CONTINUOUS
 10
12.2366394642
 20
7.749517732
 40
0.046
100
AcDbArc
 50
340.2006937409
 51
30.7306262285
  0
ARC
  5
2D7
100
AcDbEntity
  8
0
100
AcDbCircle
 62
7
  6
CONTINUOUS
 10
11.2346394642
 20
7.749517732
 40
0.046
100
AcDbArc
 50
149.2693737715
 51
199.7993062591
  0
ARC
  5
2D8
100
AcDbEntity
  8
0
100
AcDbCircle
 62
9
  6
CONTINUOUS
 10
11.4328572745
 20
11.5838407704
 40
0.042741969
100
AcDbArc
 50
167.347499967
 51
169.513609752
  0
ARC
  5
2D9
100
AcDbEntity
  8
0
100
AcDbCircle
 62
9
  6
CONTINUOUS
 10
12.0385585589
 20
11.5838687969
 40
0.0426022498
100
AcDbArc
 50
10.4828136376
 51
12.6560524477
  0
ARC
  5
2DA
100
AcDbEntity
  8
0
100
AcDbCircle
 62
7
  6
CONTINUOUS
 10
12.2416394642
 20
7.8282338804
 40
0.033
100
AcDbArc
 50
339.0625625014
 51
90.0
  0
ARC
  5
2DB
100
AcDbEntity
  8
0
100
AcDbCircle
 62
7
  6
CONTINUOUS
 10
11.2296394642
 20
7.8282338804
 40
0.033
100
AcDbArc
 50
90.0
 51
200.9374374986
  0
ARC
  5
2DC
100
AcDbEntity
  8
0
100
AcDbCircle
 62
7
  6
CONTINUOUS
 10
10.8506394642
 20
7.3602187254
 40
0.03
100
AcDbArc
 50
180.0
 51
270.0
  0
ARC
  5
2DD
100
AcDbEntity
  8
0
100
AcDbCircle
 62
7
  6
CONTINUOUS
 10
12.6206394642
 20
7.3602187254
 40
0.03
100
AcDbArc
 50
270.0
 51
360.0
  0
ARC
  5
2DE
100
AcDbEntity
  8
0
100
AcDbCircle
 62
7
  6
CONTINUOUS
 10
10.8506394642
 20
7.4312894173
 40
0.03
100
AcDbArc
 50
121.9583741619
 51
180.0
  0
ARC
  5
2DF
100
AcDbEntity
  8
0
100
AcDbCircle
 62
7
  6
CONTINUOUS
 10
12.6206394642
 20
7.4312894173
 40
0.03
100
AcDbArc
 50
0.0
 51
58.0416258381
  0
ARC
  5
2E0
100
AcDbEntity
  8
0
100
AcDbCircle
 62
7
  6
CONTINUOUS
 10
11.0477356459
 20
7.6339349831
 40
0.03
100
AcDbArc
 50
106.4845399256
 51
149.6323321576
  0
ARC
  5
2E1
100
AcDbEntity
  8
0
100
AcDbCircle
 62
7
  6
CONTINUOUS
 10
12.4235432825
 20
7.6339349831
 40
0.03
100
AcDbArc
 50
30.3676678424
 51
73.5154600744
  0
ARC
  5
2E2
100
AcDbEntity
  8
0
100
AcDbCircle
 62
7
  6
CONTINUOUS
 10
11.1631322141
 20
7.7237745159
 40
0.03
100
AcDbArc
 50
280.9356812118
 51
19.7993062593
  0
ARC
  5
2E3
100
AcDbEntity
  8
0
100
AcDbCircle
 62
7
  6
CONTINUOUS
 10
12.3081467143
 20
7.7237745159
 40
0.03
100
AcDbArc
 50
160.2006937407
 51
259.0643187882
  0
SPLINE
  5
2E4
100
AcDbEntity
  8
0
100
AcDbSpline
 62
7
  6
CONTINUOUS
 70
0
 71
3
 72
41
 73
37
 74
0
 42
0.0000001
 43
0.0000001
 44
0.0000000001
 40
0.0
 40
0.0
 40
0.0
 40
0.0
 40
0.0110985197
 40
0.043138621
 40
0.093039958
 40
0.1235608176
 40
0.1572252634
 40
0.1936554438
 40
0.2325155566
 40
0.2735046127
 40
0.3163417652
 40
0.3607447903
 40
0.3834415867
 40
0.406410283
 40
0.4296037403
 40
0.4529701522
 40
0.4647018495
 40
0.4764557897
 40
0.5000000026
 40
0.5235442156
 40
0.5352981558
 40
0.5470298529
 40
0.5703962641
 40
0.5935897208
 40
0.6165584175
 40
0.6392552138
 40
0.6836582383
 40
0.7264953907
 40
0.7674844459
 40
0.8063445576
 40
0.8427747373
 40
0.8764391827
 40
0.9069600419
 40
0.9568613791
 40
0.9889014805
 40
1.0
 40
1.0
 40
1.0
 40
1.0
 10
10.9306394642
 20
6.8912187254
 30
0.0
 10
10.9327336905
 20
6.8878470483
 30
0.0
 10
10.9408372531
 20
6.8747190717
 30
0.0
 10
10.9579970671
 20
6.8462100079
 30
0.0
 10
10.9779290219
 20
6.8112683482
 30
0.0
 10
10.9971860993
 20
6.7752951592
 30
0.0
 10
11.0134146672
 20
6.743175148
 30
0.0
 10
11.0299824838
 20
6.7079006209
 30
0.0
 10
11.0463522545
 20
6.6696627904
 30
0.0
 10
11.0619431838
 20
6.6286342905
 30
0.0
 10
11.0761223737
 20
6.5850015658
 30
0.0
 10
11.0861223409
 20
6.5469495998
 30
0.0
 10
11.092780419
 20
6.5154288859
 30
0.0
 10
11.0970317661
 20
6.4911672991
 30
0.0
 10
11.1004269621
 20
6.4665292745
 30
0.0
 10
11.1024881647
 20
6.4457790872
 30
0.0
 10
11.103654327
 20
6.4290632171
 30
0.0
 10
11.1044943729
 20
6.4122640983
 30
0.0
 10
11.104915405
 20
6.3912187226
 30
0.0
 10
11.104494373
 20
6.3701733469
 30
0.0
 10
11.1036543266
 20
6.3533742281
 30
0.0
 10
11.1024881639
 20
6.3366583583
 30
0.0
 10
11.1004269618
 20
6.3159081715
 30
0.0
 10
11.0970317654
 20
6.2912701473
 30
0.0
 10
11.0927804179
 20
6.2670085607
 30
0.0
 10
11.0861223403
 20
6.2354878469
 30
0.0
 10
11.0761223724
 20
6.1974358813
 30
0.0
 10
11.0619431828
 20
6.1538031571
 30
0.0
 10
11.0463522535
 20
6.1127746579
 30
0.0
 10
11.0299824831
 20
6.0745368284
 30
0.0
 10
11.0134146669
 20
6.0392623021
 30
0.0
 10
10.9971860992
 20
6.0071422914
 30
0.0
 10
10.9779290219
 20
5.9711691025
 30
0.0
 10
10.9579970671
 20
5.9362274429
 30
0.0
 10
10.9408372531
 20
5.907718379
 30
0.0
 10
10.9327336905
 20
5.8945904025
 30
0.0
 10
10.9306394642
 20
5.8912187254
 30
0.0
  0
SPLINE
  5
2E5
100
AcDbEntity
  8
0
100
AcDbSpline
 62
7
  6
CONTINUOUS
 70
0
 71
3
 72
14
 73
10
 74
0
 42
0.0000001
 43
0.0000001
 44
0.0000000001
 40
0.0
 40
0.0
 40
0.0
 40
0.0
 40
0.0840948666
 40
0.1835577325
 40
0.2965935931
 40
0.4213022736
 40
0.6980724057
 40
0.8467294068
 40
1.0
 40
1.0
 40
1.0
 40
1.0
 10
12.0466911599
 20
11.4960206218
 30
0.0
 10
12.0456926371
 20
11.4948187247
 30
0.0
 10
12.0435971744
 20
11.4921246455
 30
0.0
 10
12.0404813109
 20
11.4875750357
 30
0.0
 10
12.0372709447
 20
11.4821889555
 30
0.0
 10
12.0329179888
 20
11.4736712323
 30
0.0
 10
12.0292153966
 20
11.464102204
 30
0.0
 10
12.0263606319
 20
11.4537293621
 30
0.0
 10
12.0252535051
 20
11.4482235269
 30
0.0
 10
12.0247893634
 20
11.4454136886
 30
0.0
  0
SPLINE
  5
2E6
100
AcDbEntity
  8
0
100
AcDbSpline
 62
7
  6
CONTINUOUS
 70
0
 71
3
 72
14
 73
10
 74
0
 42
0.0000001
 43
0.0000001
 44
0.0000000001
 40
0.0
 40
0.0
 40
0.0
 40
0.0
 40
0.1532469656
 40
0.3018806728
 40
0.5786744728
 40
0.7033848445
 40
0.8164320143
 40
0.915903759
 40
1.0
 40
1.0
 40
1.0
 40
1.0
 10
11.4464887637
 20
11.4454188253
 30
0.0
 10
11.4460246503
 20
11.4482279791
 30
0.0
 10
11.4449176594
 20
11.4537324792
 30
0.0
 10
11.4420624058
 20
11.464103763
 30
0.0
 10
11.4383608733
 20
11.4736723463
 30
0.0
 10
11.4340070658
 20
11.4821894811
 30
0.0
 10
11.4307974194
 20
11.4875758356
 30
0.0
 10
11.4276813472
 20
11.492125247
 30
0.0
 10
11.4255858182
 20
11.4948191386
 30
0.0
 10
11.4245873975
 20
11.4960209818
 30
0.0
  0
SPLINE
  5
2E7
100
AcDbEntity
  8
0
100
AcDbSpline
 62
7
  6
CONTINUOUS
 70
0
 71
3
 72
16
 73
12
 74
0
 42
0.0000001
 43
0.0000001
 44
0.0000000001
 40
0.0
 40
0.0
 40
0.0
 40
0.0
 40
0.1225870565
 40
0.2452239049
 40
0.368443144
 40
0.4926496498
 40
0.6180182946
 40
0.6811746497
 40
0.7446214526
 40
0.8720112247
 40
1.0
 40
1.0
 40
1.0
 40
1.0
 10
12.0233794152
 20
11.1847383507
 30
0.0
 10
12.0253567052
 20
11.1867366721
 30
0.0
 10
12.0291731337
 20
11.1908751737
 30
0.0
 10
12.0344057558
 20
11.1975206487
 30
0.0
 10
12.0390748371
 20
11.2046208692
 30
0.0
 10
12.0430952293
 20
11.2121802152
 30
0.0
 10
12.0458192671
 20
11.2188295073
 30
0.0
 10
12.047579704
 20
11.2243357432
 30
0.0
 10
12.0490486961
 20
11.2299747826
 30
0.0
 10
12.050302462
 20
11.2371940947
 30
0.0
 10
12.0506394795
 20
11.2430559009
 30
0.0
 10
12.0506394795
 20
11.2459909966
 30
0.0
  0
SPLINE
  5
2E8
100
AcDbEntity
  8
0
100
AcDbSpline
 62
7
  6
CONTINUOUS
 70
0
 71
3
 72
15
 73
11
 74
0
 42
0.0000001
 43
0.0000001
 44
0.0000000001
 40
0.0
 40
0.0
 40
0.0
 40
0.0
 40
0.1450490459
 40
0.2827498879
 40
0.4137226321
 40
0.5387376036
 40
0.6587198567
 40
0.7747603664
 40
0.8880849375
 40
1.0
 40
1.0
 40
1.0
 40
1.0
 10
11.4479207686
 20
11.1847168817
 30
0.0
 10
11.4466311647
 20
11.1860201185
 30
0.0
 10
11.444199166
 20
11.1886437906
 30
0.0
 10
11.4409359371
 20
11.1927368497
 30
0.0
 10
11.4381618463
 20
11.1968757231
 30
0.0
 10
11.435882315
 20
11.2010538307
 30
0.0
 10
11.4341026649
 20
11.2052649188
 30
0.0
 10
11.4328273425
 20
11.209502151
 30
0.0
 10
11.4320606313
 20
11.2137567207
 30
0.0
 10
11.4318895214
 20
11.2166066258
 30
0.0
 10
11.4318895214
 20
11.2180212481
 30
0.0
  0
SPLINE
  5
2E9
100
AcDbEntity
  8
0
100
AcDbSpline
 62
7
  6
CONTINUOUS
 70
0
 71
3
 72
16
 73
12
 74
0
 42
0.0000001
 43
0.0000001
 44
0.0000000001
 40
0.0
 40
0.0
 40
0.0
 40
0.0
 40
0.1279913991
 40
0.2553736031
 40
0.3188231722
 40
0.3819811941
 40
0.507350664
 40
0.6315562532
 40
0.7547759828
 40
0.877417226
 40
1.0
 40
1.0
 40
1.0
 40
1.0
 10
11.420639449
 20
11.2459909966
 30
0.0
 10
11.420639449
 20
11.2430556614
 30
0.0
 10
11.4209764089
 20
11.2371935957
 30
0.0
 10
11.4222305408
 20
11.2299739469
 30
0.0
 10
11.4236995413
 20
11.2243346179
 30
0.0
 10
11.4254602028
 20
11.2188279551
 30
0.0
 10
11.4281845226
 20
11.2121782552
 30
0.0
 10
11.4322055598
 20
11.2046186592
 30
0.0
 10
11.4368749325
 20
11.1975178908
 30
0.0
 10
11.4421083985
 20
11.1908724121
 30
0.0
 10
11.4459249089
 20
11.1867335146
 30
0.0
 10
11.4479024022
 20
11.184735291
 30
0.0
  0
SPLINE
  5
2EA
100
AcDbEntity
  8
0
100
AcDbSpline
 62
7
  6
CONTINUOUS
 70
0
 71
3
 72
16
 73
12
 74
0
 42
0.0000001
 43
0.0000001
 44
0.0000000001
 40
0.0
 40
0.0
 40
0.0
 40
0.0
 40
0.120849327
 40
0.2426836561
 40
0.3658004237
 40
0.4903440747
 40
0.6162703834
 40
0.6797294356
 40
0.7434733736
 40
0.871463581
 40
1.0
 40
1.0
 40
1.0
 40
1.0
 10
12.0535517191
 20
11.5035964263
 30
0.0
 10
12.0556408442
 20
11.5059283869
 30
0.0
 10
12.0596728794
 20
11.5107611713
 30
0.0
 10
12.0651753797
 20
11.5184888114
 30
0.0
 10
12.0700725825
 20
11.5267277425
 30
0.0
 10
12.0742701523
 20
11.5354632151
 30
0.0
 10
12.0770975946
 20
11.5431035202
 30
0.0
 10
12.0789182941
 20
11.5494060822
 30
0.0
 10
12.0804338614
 20
11.5558439334
 30
0.0
 10
12.0817213498
 20
11.5640559403
 30
0.0
 10
12.0820668445
 20
11.570706816
 30
0.0
 10
12.0820668445
 20
11.5740368605
 30
0.0
  0
SPLINE
  5
2EB
100
AcDbEntity
  8
0
100
AcDbSpline
 62
7
  6
CONTINUOUS
 70
0
 71
3
 72
15
 73
11
 74
0
 42
0.0000001
 43
0.0000001
 44
0.0000000001
 40
0.0
 40
0.0
 40
0.0
 40
0.0
 40
0.1119165523
 40
0.2252424374
 40
0.3412839239
 40
0.461266679
 40
0.5862815771
 40
0.7172536052
 40
0.8549530494
 40
1.0
 40
1.0
 40
1.0
 40
1.0
 10
12.039389407
 20
11.2180212481
 30
0.0
 10
12.039389407
 20
11.2166067267
 30
0.0
 10
12.0392183218
 20
11.2137570277
 30
0.0
 10
12.0384517208
 20
11.2095027624
 30
0.0
 10
12.0371765811
 20
11.2052658306
 30
0.0
 10
12.0353971848
 20
11.2010550368
 30
0.0
 10
12.0331179772
 20
11.1968772162
 30
0.0
 10
12.0303442784
 20
11.1927386214
 30
0.0
 10
12.0270815084
 20
11.1886458313
 30
0.0
 10
12.0246498451
 20
11.1860223216
 30
0.0
 10
12.0233604188
 20
11.1847191646
 30
0.0
  0
SPLINE
  5
2EC
100
AcDbEntity
  8
0
100
AcDbSpline
 62
7
  6
CONTINUOUS
 70
0
 71
3
 72
16
 73
12
 74
0
 42
0.0000001
 43
0.0000001
 44
0.0000000001
 40
0.0
 40
0.0
 40
0.0
 40
0.0
 40
0.1285367449
 40
0.2565171537
 40
0.320263058
 40
0.3837234004
 40
0.5096496557
 40
0.6341945788
 40
0.7573116454
 40
0.8791510944
 40
1.0
 40
1.0
 40
1.0
 40
1.0
 10
11.389212084
 20
11.5740368605
 30
0.0
 10
11.389212084
 20
11.5707077149
 30
0.0
 10
11.389557271
 20
11.5640588858
 30
0.0
 10
11.3908442475
 20
11.5558493018
 30
0.0
 10
11.3923587775
 20
11.5494132353
 30
0.0
 10
11.3941784892
 20
11.5431121619
 30
0.0
 10
11.3970043895
 20
11.5354735862
 30
0.0
 10
11.4011999542
 20
11.526740044
 30
0.0
 10
11.4060946711
 20
11.5185024804
 30
0.0
 10
11.4115946067
 20
11.5107760308
 30
0.0
 10
11.4156248395
 20
11.5059438101
 30
0.0
 10
11.4177131254
 20
11.5036122577
 30
0.0
  0
SPLINE
  5
2ED
100
AcDbEntity
  8
0
100
AcDbSpline
 62
7
  6
CONTINUOUS
 70
0
 71
3
 72
45
 73
41
 74
0
 42
0.0000001
 43
0.0000001
 44
0.0000000001
 40
0.0
 40
0.0
 40
0.0
 40
0.0
 40
0.0225843179
 40
0.0460072882
 40
0.0581182461
 40
0.0705300621
 40
0.0832624542
 40
0.0963309464
 40
0.1097466373
 40
0.1235176065
 40
0.1521339675
 40
0.1821762133
 40
0.2135957158
 40
0.2463097451
 40
0.2802080665
 40
0.3151582365
 40
0.3510099735
 40
0.3875989207
 40
0.4247498957
 40
0.4622798368
 40
0.5000005271
 40
0.5377212118
 40
0.5752511367
 40
0.6124020853
 40
0.648990995
 40
0.6848426842
 40
0.7197927976
 40
0.7536910552
 40
0.7864050109
 40
0.8178244336
 40
0.847866592
 40
0.8764828705
 40
0.8902537862
 40
0.9036694259
 40
0.9167378285
 40
0.9294702357
 40
0.9418820224
 40
0.9539927865
 40
0.9774157406
 40
1.0
 40
1.0
 40
1.0
 40
1.0
 10
11.4480418056
 20
11.184594782
 30
0.0
 10
11.4512568385
 20
11.1813569341
 30
0.0
 10
11.4582183648
 20
11.1751626625
 30
0.0
 10
11.4677521115
 20
11.1682802016
 30
0.0
 10
11.4759510344
 20
11.163117466
 30
0.0
 10
11.4824745151
 20
11.1593586913
 30
0.0
 10
11.4893005213
 20
11.1557483869
 30
0.0
 10
11.4964254794
 20
11.1522792758
 30
0.0
 10
11.5038460281
 20
11.1489471799
 30
0.0
 10
11.5142611562
 20
11.1446267975
 30
0.0
 10
11.528002252
 20
11.1395743072
 30
0.0
 10
11.5453669141
 20
11.1341070449
 30
0.0
 10
11.563746355
 20
11.1291647456
 30
0.0
 10
11.5830606083
 20
11.1247578333
 30
0.0
 10
11.6032182122
 20
11.1208997946
 30
0.0
 10
11.6241171358
 20
11.1176051056
 30
0.0
 10
11.6456466856
 20
11.114887753
 30
0.0
 10
11.6676890447
 20
11.1127602337
 30
0.0
 10
11.6901208154
 20
11.111232861
 30
0.0
 10
11.7128144645
 20
11.1103132971
 30
0.0
 10
11.7356397295
 20
11.1100062515
 30
0.0
 10
11.758464991
 20
11.1103133118
 30
0.0
 10
11.7811586297
 20
11.1112328899
 30
0.0
 10
11.8035903833
 20
11.112760276
 30
0.0
 10
11.8256327185
 20
11.1148878074
 30
0.0
 10
11.8471622382
 20
11.1176051703
 30
0.0
 10
11.868061126
 20
11.1208998675
 30
0.0
 10
11.888218689
 20
11.1247579118
 30
0.0
 10
11.9075328968
 20
11.1291648261
 30
0.0
 10
11.9259122875
 20
11.1341071244
 30
0.0
 10
11.9432768987
 20
11.1395743804
 30
0.0
 10
11.9570179487
 20
11.1446268646
 30
0.0
 10
11.9674330382
 20
11.1489472417
 30
0.0
 10
11.9748535474
 20
11.1522793284
 30
0.0
 10
11.9819784948
 20
11.155748405
 30
0.0
 10
11.9888044562
 20
11.1593587487
 30
0.0
 10
11.9953279154
 20
11.1631174759
 30
0.0
 10
12.0035267866
 20
11.1682802036
 30
0.0
 10
12.0130604989
 20
11.1751626177
 30
0.0
 10
12.0200220197
 20
11.181356873
 30
0.0
 10
12.0232370491
 20
11.1845947078
 30
0.0
  0
SPLINE
  5
2EE
100
AcDbEntity
  8
0
100
AcDbSpline
 62
7
  6
CONTINUOUS
 70
0
 71
3
 72
48
 73
44
 74
0
 42
0.0000001
 43
0.0000001
 44
0.0000000001
 40
0.0
 40
0.0
 40
0.0
 40
0.0
 40
0.0120406946
 40
0.0240812206
 40
0.0362094764
 40
0.0484681926
 40
0.0608891628
 40
0.0735115757
 40
0.0863727151
 40
0.0995009603
 40
0.1129189477
 40
0.1266443735
 40
0.1406903791
 40
0.155066351
 40
0.1848202685
 40
0.215905213
 40
0.2482702076
 40
0.2818259106
 40
0.3164522619
 40
0.3520047595
 40
0.3883197134
 40
0.4252187731
 40
0.4625129657
 40
0.5000064262
 40
0.5374998766
 40
0.5747940381
 40
0.6116930444
 40
0.6480079298
 40
0.6835603394
 40
0.7181865814
 40
0.7517421623
 40
0.7841070261
 40
0.8151918282
 40
0.8449455826
 40
0.873364695
 40
0.9005043454
 40
0.92648921
 40
0.9391117286
 40
0.9515319297
 40
0.9637894679
 40
0.9759187036
 40
0.987962861
 40
1.0
 40
1.0
 40
1.0
 40
1.0
 10
12.0597118703
 20
11.6335990119
 30
0.0
 10
12.0579118717
 20
11.6357025251
 30
0.0
 10
12.0541686235
 20
11.6397889995
 30
0.0
 10
12.0481656184
 20
11.6455647081
 30
0.0
 10
12.0418055961
 20
11.6510213981
 30
0.0
 10
12.0350988803
 20
11.6561892866
 30
0.0
 10
12.0280593894
 20
11.6610944921
 30
0.0
 10
12.0206928161
 20
11.6657568551
 30
0.0
 10
12.0130035466
 20
11.6701991858
 30
0.0
 10
12.0049925396
 20
11.6744371489
 30
0.0
 10
11.996661711
 20
11.6784832407
 30
0.0
 10
11.9880136038
 20
11.6823475778
 30
0.0
 10
11.979050893
 20
11.6860369807
 30
0.0
 10
11.9665439466
 20
11.6907849954
 30
0.0
 10
11.9501396825
 20
11.696285518
 30
0.0
 10
11.9295240922
 20
11.7021623389
 30
0.0
 10
11.9078344918
 20
11.707388897
 30
0.0
 10
11.8851663188
 20
11.7119570547
 30
0.0
 10
11.8616305292
 20
11.7158543908
 30
0.0
 10
11.8373518353
 20
11.7190670296
 30
0.0
 10
11.8124659473
 20
11.7215816118
 30
0.0
 10
11.7871172535
 20
11.7233866216
 30
0.0
 10
11.7614565248
 20
11.7244732778
 30
0.0
 10
11.7356387396
 20
11.7248361027
 30
0.0
 10
11.7098209621
 20
11.7244732369
 30
0.0
 10
11.6841602569
 20
11.7233865407
 30
0.0
 10
11.6588116009
 20
11.7215814926
 30
0.0
 10
11.6339257657
 20
11.7190668743
 30
0.0
 10
11.6096471356
 20
11.7158542028
 30
0.0
 10
11.5861114327
 20
11.7119568384
 30
0.0
 10
11.5634433231
 20
11.7073886556
 30
0.0
 10
11.5417539139
 20
11.7021620822
 30
0.0
 10
11.5211381041
 20
11.6962852362
 30
0.0
 10
11.5016722758
 20
11.6897577413
 30
0.0
 10
11.4834119117
 20
11.6825644956
 30
0.0
 10
11.4663933336
 20
11.6746678584
 30
0.0
 10
11.453136004
 20
11.6673705336
 30
0.0
 10
11.4432192984
 20
11.6610942095
 30
0.0
 10
11.4361800368
 20
11.6561893007
 30
0.0
 10
11.4294734286
 20
11.6510216659
 30
0.0
 10
11.4231128362
 20
11.6455644062
 30
0.0
 10
11.4171099578
 20
11.6397882255
 30
0.0
 10
11.4133665252
 20
11.635701904
 30
0.0
 10
11.4115670582
 20
11.6335990119
 30
0.0
  0
SPLINE
  5
2EF
100
AcDbEntity
  8
0
100
AcDbSpline
 62
7
  6
CONTINUOUS
 70
0
 71
3
 72
14
 73
10
 74
0
 42
0.0000001
 43
0.0000001
 44
0.0000000001
 40
0.0
 40
0.0
 40
0.0
 40
0.0
 40
0.2484540276
 40
0.3726889523
 40
0.4971971477
 40
0.6221744169
 40
0.7475514758
 40
0.8733299656
 40
1.0
 40
1.0
 40
1.0
 40
1.0
 10
11.4115111831
 20
11.6335336587
 30
0.0
 10
11.4090484306
 20
11.6306512616
 30
0.0
 10
11.4055697866
 20
11.6261335737
 30
0.0
 10
11.4014754546
 20
11.6197423369
 30
0.0
 10
11.3986965613
 20
11.6147579604
 30
0.0
 10
11.3962376633
 20
11.6095888152
 30
0.0
 10
11.3941236355
 20
11.6042478823
 30
0.0
 10
11.3923823635
 20
11.5987468628
 30
0.0
 10
11.3914901207
 20
11.5949951551
 30
0.0
 10
11.3911131122
 20
11.5930993897
 30
0.0
  0
SPLINE
  5
2F0
100
AcDbEntity
  8
0
100
AcDbSpline
 62
7
  6
CONTINUOUS
 70
0
 71
3
 72
14
 73
10
 74
0
 42
0.0000001
 43
0.0000001
 44
0.0000000001
 40
0.0
 40
0.0
 40
0.0
 40
0.0
 40
0.1266965457
 40
0.2524468227
 40
0.3778136097
 40
0.502799975
 40
0.627314172
 40
0.751548563
 40
1.0
 40
1.0
 40
1.0
 40
1.0
 10
12.0801658162
 20
11.5930993897
 30
0.0
 10
12.0797887119
 20
11.5949956371
 30
0.0
 10
12.0788965528
 20
11.5987475193
 30
0.0
 10
12.0771550353
 20
11.6042485472
 30
0.0
 10
12.0750409139
 20
11.6095892318
 30
0.0
 10
12.0725819411
 20
11.6147587033
 30
0.0
 10
12.0698028936
 20
11.6197435473
 30
0.0
 10
12.0657081433
 20
11.6261349758
 30
0.0
 10
12.0622293259
 20
11.6306527883
 30
0.0
 10
12.0597664277
 20
11.6335352329
 30
0.0
  0
SPLINE
  5
2F1
100
AcDbEntity
  8
0
100
AcDbSpline
 62
7
  6
CONTINUOUS
 70
0
 71
3
 72
16
 73
12
 74
0
 42
0.0000001
 43
0.0000001
 44
0.0000000001
 40
0.0
 40
0.0
 40
0.0
 40
0.0
 40
0.0817645271
 40
0.180255525
 40
0.2934462085
 40
0.4190910136
 40
0.4858890358
 40
0.5549584806
 40
0.625976624
 40
0.6986083736
 40
1.0
 40
1.0
 40
1.0
 40
1.0
 10
11.4386897289
 20
11.2981242042
 30
0.0
 10
11.4393779246
 20
11.2990704457
 30
0.0
 10
11.4408210492
 20
11.3012110081
 30
0.0
 10
11.4429330089
 20
11.3048440432
 30
0.0
 10
11.4450655462
 20
11.3091790189
 30
0.0
 10
11.4467092828
 20
11.3132365404
 30
0.0
 10
11.4479240001
 20
11.3167768618
 30
0.0
 10
11.4487775794
 20
11.3196123807
 30
0.0
 10
11.4495445001
 20
11.3225590799
 30
0.0
 10
11.4509143395
 20
11.3287786344
 30
0.0
 10
11.4515489317
 20
11.3341238888
 30
0.0
 10
11.4517284078
 20
11.3384330169
 30
0.0
  0
SPLINE
  5
2F2
100
AcDbEntity
  8
0
100
AcDbSpline
 62
7
  6
CONTINUOUS
 70
0
 71
3
 72
17
 73
13
 74
0
 42
0.0000001
 43
0.0000001
 44
0.0000000001
 40
0.0
 40
0.0
 40
0.0
 40
0.0
 40
0.3013913335
 40
0.3739996813
 40
0.4450128009
 40
0.5140929605
 40
0.5809024076
 40
0.6451538594
 40
0.7065711042
 40
0.8197446592
 40
0.9182444571
 40
1.0
 40
1.0
 40
1.0
 40
1.0
 10
12.0195505206
 20
11.3384330169
 30
0.0
 10
12.0197300073
 20
11.3341236346
 30
0.0
 10
12.0203642675
 20
11.3287783279
 30
0.0
 10
12.0217346365
 20
11.3225589164
 30
0.0
 10
12.0225018663
 20
11.3196123648
 30
0.0
 10
12.0233552733
 20
11.3167763995
 30
0.0
 10
12.0242846749
 20
11.3140664998
 30
0.0
 10
12.0252752158
 20
11.3114955708
 30
0.0
 10
12.0266197446
 20
11.3083524746
 30
0.0
 10
12.0283471261
 20
11.3048427846
 30
0.0
 10
12.0304584322
 20
11.3012094779
 30
0.0
 10
12.031902108
 20
11.299069076
 30
0.0
 10
12.0325902323
 20
11.2981228549
 30
0.0
  0
SPLINE
  5
2F3
100
AcDbEntity
  8
0
100
AcDbSpline
 62
7
  6
CONTINUOUS
 70
0
 71
3
 72
14
 73
10
 74
0
 42
0.0000001
 43
0.0000001
 44
0.0000000001
 40
0.0
 40
0.0
 40
0.0
 40
0.0
 40
0.245242004
 40
0.3690489147
 40
0.4937063502
 40
0.6192002419
 40
0.7453885776
 40
0.8722465231
 40
1.0
 40
1.0
 40
1.0
 40
1.0
 10
11.4386897924
 20
11.298124225
 30
0.0
 10
11.4367110197
 20
11.2954036535
 30
0.0
 10
11.4339230412
 20
11.2911653799
 30
0.0
 10
11.4306413434
 20
11.2852387033
 30
0.0
 10
11.4283967102
 20
11.2806231656
 30
0.0
 10
11.4263959681
 20
11.2758614125
 30
0.0
 10
11.4246563343
 20
11.2709658321
 30
0.0
 10
11.4231959335
 20
11.2659475642
 30
0.0
 10
11.4224206763
 20
11.2625395321
 30
0.0
 10
11.4220836804
 20
11.2608197942
 30
0.0
  0
SPLINE
  5
2F4
100
AcDbEntity
  8
0
100
AcDbSpline
 62
7
  6
CONTINUOUS
 70
0
 71
3
 72
14
 73
10
 74
0
 42
0.0000001
 43
0.0000001
 44
0.0000000001
 40
0.0
 40
0.0
 40
0.0
 40
0.0
 40
0.1277968462
 40
0.2546164525
 40
0.3807811663
 40
0.506281749
 40
0.6309526089
 40
0.7547606754
 40
1.0
 40
1.0
 40
1.0
 40
1.0
 10
12.0491952481
 20
11.2608197942
 30
0.0
 10
12.0488580955
 20
11.2625403313
 30
0.0
 10
12.0480828496
 20
11.2659488879
 30
0.0
 10
12.0466221085
 20
11.2709674788
 30
0.0
 10
12.0448822331
 20
11.2758628556
 30
0.0
 10
12.0428811921
 20
11.2806251265
 30
0.0
 10
12.0406362321
 20
11.2852415472
 30
0.0
 10
12.0373537679
 20
11.2911689611
 30
0.0
 10
12.0345652435
 20
11.2954076088
 30
0.0
 10
12.0325861129
 20
11.2981283952
 30
0.0
  0
SPLINE
  5
2F5
100
AcDbEntity
  8
0
100
AcDbSpline
 62
9
  6
CONTINUOUS
 70
0
 71
3
 72
61
 73
57
 74
0
 42
0.0000001
 43
0.0000001
 44
0.0000000001
 40
0.0
 40
0.0
 40
0.0
 40
0.0
 40
0.0075225775
 40
0.01518096
 40
0.0231000719
 40
0.0313928111
 40
0.0401539299
 40
0.0494595668
 40
0.0593685163
 40
0.0699244005
 40
0.0811575092
 40
0.0930870203
 40
0.1057229237
 40
0.1190671569
 40
0.133115271
 40
0.1478570037
 40
0.1632772901
 40
0.1793569204
 40
0.1960728066
 40
0.2133988054
 40
0.2313056925
 40
0.2497617484
 40
0.268732959
 40
0.2881831355
 40
0.3283650541
 40
0.3699874215
 40
0.4127074801
 40
0.4561675218
 40
0.5
 40
0.5438324782
 40
0.5872925199
 40
0.6300125785
 40
0.6716349459
 40
0.7118168645
 40
0.731267041
 40
0.7502382516
 40
0.7686943075
 40
0.7866011946
 40
0.8039271934
 40
0.8206430796
 40
0.8367227099
 40
0.8521429963
 40
0.866884729
 40
0.8809328431
 40
0.8942770763
 40
0.9069129797
 40
0.9188424908
 40
0.9300755995
 40
0.9406314837
 40
0.9505404332
 40
0.9598460701
 40
0.9686071889
 40
0.9768999281
 40
0.98481904
 40
0.9924774225
 40
1.0
 40
1.0
 40
1.0
 40
1.0
 10
12.0056394638
 20
11.2067052388
 30
0.0
 10
12.0056394638
 20
11.2051910622
 30
0.0
 10
12.0054178123
 20
11.2021309973
 30
0.0
 10
12.0044262281
 20
11.1975737859
 30
0.0
 10
12.0027797379
 20
11.1930455188
 30
0.0
 10
12.0004865604
 20
11.1885594594
 30
0.0
 10
11.9975555925
 20
11.1841250074
 30
0.0
 10
11.9939957195
 20
11.1797514823
 30
0.0
 10
11.9898167668
 20
11.1754474464
 30
0.0
 10
11.985028973
 20
11.1712218176
 30
0.0
 10
11.9796437863
 20
11.1670835171
 30
0.0
 10
11.9736738639
 20
11.1630415959
 30
0.0
 10
11.9671331292
 20
11.1591053085
 30
0.0
 10
11.9600370209
 20
11.1552835804
 30
0.0
 10
11.9524022167
 20
11.1515854977
 30
0.0
 10
11.944246832
 20
11.1480197343
 30
0.0
 10
11.935590249
 20
11.1445947769
 30
0.0
 10
11.9264530808
 20
11.1413189094
 30
0.0
 10
11.9168571863
 20
11.1381998738
 30
0.0
 10
11.9068255056
 20
11.135245304
 30
0.0
 10
11.8963820938
 20
11.132462237
 30
0.0
 10
11.8855520121
 20
11.1298574175
 30
0.0
 10
11.8743612176
 20
11.1274371388
 30
0.0
 10
11.8588266663
 20
11.1244314551
 30
0.0
 10
11.8386987017
 20
11.1211921321
 30
0.0
 10
11.813812294
 20
11.1181608661
 30
0.0
 10
11.7881753397
 20
11.1159743274
 30
0.0
 10
11.7620341246
 20
11.1146537931
 30
0.0
 10
11.7356394642
 20
11.1142121767
 30
0.0
 10
11.7092448038
 20
11.1146537931
 30
0.0
 10
11.6831035887
 20
11.1159743274
 30
0.0
 10
11.6574666344
 20
11.1181608661
 30
0.0
 10
11.6325802267
 20
11.1211921321
 30
0.0
 10
11.6124522621
 20
11.1244314551
 30
0.0
 10
11.5969177108
 20
11.1274371388
 30
0.0
 10
11.5857269164
 20
11.1298574175
 30
0.0
 10
11.5748968347
 20
11.132462237
 30
0.0
 10
11.5644534229
 20
11.135245304
 30
0.0
 10
11.5544217422
 20
11.1381998738
 30
0.0
 10
11.5448258476
 20
11.1413189094
 30
0.0
 10
11.5356886794
 20
11.1445947769
 30
0.0
 10
11.5270320965
 20
11.1480197343
 30
0.0
 10
11.5188767118
 20
11.1515854977
 30
0.0
 10
11.5112419076
 20
11.1552835804
 30
0.0
 10
11.5041457993
 20
11.1591053085
 30
0.0
 10
11.4976050645
 20
11.1630415959
 30
0.0
 10
11.4916351422
 20
11.1670835171
 30
0.0
 10
11.4862499554
 20
11.1712218176
 30
0.0
 10
11.4814621617
 20
11.1754474464
 30
0.0
 10
11.477283209
 20
11.1797514823
 30
0.0
 10
11.4737233359
 20
11.1841250074
 30
0.0
 10
11.470792368
 20
11.1885594594
 30
0.0
 10
11.4684991906
 20
11.1930455188
 30
0.0
 10
11.4668527003
 20
11.1975737859
 30
0.0
 10
11.4658611162
 20
11.2021309973
 30
0.0
 10
11.4656394647
 20
11.2051910622
 30
0.0
 10
11.4656394647
 20
11.2067052388
 30
0.0
  0
SPLINE
  5
2F6
100
AcDbEntity
  8
0
100
AcDbSpline
 62
9
  6
CONTINUOUS
 70
0
 71
3
 72
61
 73
57
 74
0
 42
0.0000001
 43
0.0000001
 44
0.0000000001
 40
0.0
 40
0.0
 40
0.0
 40
0.0
 40
0.0075226437
 40
0.0151810088
 40
0.023100109
 40
0.0313928716
 40
0.0401539905
 40
0.0494596137
 40
0.0593685804
 40
0.0699244479
 40
0.0811575761
 40
0.0930870871
 40
0.1057229766
 40
0.1190672375
 40
0.133115314
 40
0.1478570728
 40
0.1632773548
 40
0.1793569669
 40
0.1960728861
 40
0.213398841
 40
0.2313057547
 40
0.2497618028
 40
0.2687329948
 40
0.2881831991
 40
0.3283650984
 40
0.3699874428
 40
0.4127074916
 40
0.4561675308
 40
0.5
 40
0.5438324692
 40
0.5872925084
 40
0.6300125572
 40
0.6716349016
 40
0.7118168009
 40
0.7312670052
 40
0.7502381972
 40
0.7686942453
 40
0.786601159
 40
0.8039271139
 40
0.8206430331
 40
0.8367226452
 40
0.8521429272
 40
0.866884686
 40
0.8809327625
 40
0.8942770234
 40
0.9069129129
 40
0.9188424239
 40
0.9300755521
 40
0.9406314196
 40
0.9505403863
 40
0.9598460095
 40
0.9686071284
 40
0.976899891
 40
0.9848189912
 40
0.9924773563
 40
1.0
 40
1.0
 40
1.0
 40
1.0
 10
12.0209586118
 20
11.2080963852
 30
0.0
 10
12.0209586118
 20
11.2064962838
 30
0.0
 10
12.0207243934
 20
11.2032625865
 30
0.0
 10
12.0196765261
 20
11.1984468063
 30
0.0
 10
12.0179366213
 20
11.1936616175
 30
0.0
 10
12.0155133309
 20
11.188921028
 30
0.0
 10
12.0124160589
 20
11.1842349794
 30
0.0
 10
12.0086542153
 20
11.1796133026
 30
0.0
 10
12.0042381367
 20
11.175065092
 30
0.0
 10
11.9991787165
 20
11.1705996813
 30
0.0
 10
11.9934879675
 20
11.1662266065
 30
0.0
 10
11.9871793266
 20
11.1619553558
 30
0.0
 10
11.9802674932
 20
11.157795714
 30
0.0
 10
11.9727687532
 20
11.1537571906
 30
0.0
 10
11.9647007858
 20
11.149849245
 30
0.0
 10
11.9560826729
 20
11.1460812011
 30
0.0
 10
11.9469349374
 20
11.1424619172
 30
0.0
 10
11.9372793534
 20
11.1390001625
 30
0.0
 10
11.9271390027
 20
11.135704206
 30
0.0
 10
11.9165381597
 20
11.1325819524
 30
0.0
 10
11.9055022095
 20
11.1296410163
 30
0.0
 10
11.8940576564
 20
11.126888402
 30
0.0
 10
11.8822319272
 20
11.1243307808
 30
0.0
 10
11.8658159761
 20
11.1211546081
 30
0.0
 10
11.8445460079
 20
11.1177314655
 30
0.0
 10
11.8182476165
 20
11.1145282077
 30
0.0
 10
11.7911560909
 20
11.112217607
 30
0.0
 10
11.7635316897
 20
11.1108221665
 30
0.0
 10
11.7356394642
 20
11.1103555044
 30
0.0
 10
11.7077472388
 20
11.1108221665
 30
0.0
 10
11.6801228375
 20
11.112217607
 30
0.0
 10
11.653031312
 20
11.1145282077
 30
0.0
 10
11.6267329206
 20
11.1177314655
 30
0.0
 10
11.6054629524
 20
11.1211546081
 30
0.0
 10
11.5890470012
 20
11.1243307808
 30
0.0
 10
11.5772212721
 20
11.126888402
 30
0.0
 10
11.565776719
 20
11.1296410163
 30
0.0
 10
11.5547407687
 20
11.1325819524
 30
0.0
 10
11.5441399257
 20
11.135704206
 30
0.0
 10
11.5339995751
 20
11.1390001625
 30
0.0
 10
11.524343991
 20
11.1424619172
 30
0.0
 10
11.5151962555
 20
11.1460812011
 30
0.0
 10
11.5065781427
 20
11.149849245
 30
0.0
 10
11.4985101752
 20
11.1537571906
 30
0.0
 10
11.4910114352
 20
11.157795714
 30
0.0
 10
11.4840996018
 20
11.1619553558
 30
0.0
 10
11.477790961
 20
11.1662266065
 30
0.0
 10
11.472100212
 20
11.1705996813
 30
0.0
 10
11.4670407917
 20
11.175065092
 30
0.0
 10
11.4626247131
 20
11.1796133026
 30
0.0
 10
11.4588628696
 20
11.1842349794
 30
0.0
 10
11.4557655976
 20
11.188921028
 30
0.0
 10
11.4533423072
 20
11.1936616175
 30
0.0
 10
11.4516024024
 20
11.1984468063
 30
0.0
 10
11.450554535
 20
11.2032625865
 30
0.0
 10
11.4503203167
 20
11.2064962838
 30
0.0
 10
11.4503203167
 20
11.2080963852
 30
0.0
  0
SPLINE
  5
2F7
100
AcDbEntity
  8
0
100
AcDbSpline
 62
9
  6
CONTINUOUS
 70
0
 71
3
 72
17
 73
13
 74
0
 42
0.0000001
 43
0.0000001
 44
0.0000000001
 40
0.0
 40
0.0
 40
0.0
 40
0.0
 40
0.1363827974
 40
0.2697993078
 40
0.3996519504
 40
0.4632179992
 40
0.5258833612
 40
0.6485940309
 40
0.7682126896
 40
0.8270309441
 40
0.8852464658
 40
1.0
 40
1.0
 40
1.0
 40
1.0
 10
10.9277034973
 20
4.7217103753
 30
0.0
 10
10.9270139261
 20
4.7173177029
 30
0.0
 10
10.9250102234
 20
4.708715046
 30
0.0
 10
10.9202830948
 20
4.6965318061
 30
0.0
 10
10.9151166892
 20
4.6871743654
 30
0.0
 10
10.9103993727
 20
4.6802803059
 30
0.0
 10
10.9054110141
 20
4.6738723215
 30
0.0
 10
10.8986138092
 20
4.6665818612
 30
0.0
 10
10.8911381097
 20
4.6601851418
 30
0.0
 10
10.8848871444
 20
4.6556569142
 30
0.0
 10
10.8785421519
 20
4.6515476895
 30
0.0
 10
10.8735771803
 20
4.6488473235
 30
0.0
 10
10.8702055954
 20
4.6472256931
 30
0.0
  0
SPLINE
  5
2F8
100
AcDbEntity
  8
0
100
AcDbSpline
 62
9
  6
CONTINUOUS
 70
0
 71
3
 72
13
 73
9
 74
0
 42
0.0000001
 43
0.0000001
 44
0.0000000001
 40
0.0
 40
0.0
 40
0.0
 40
0.0
 40
0.1193866204
 40
0.2393680669
 40
0.3604722653
 40
0.4832123717
 40
0.7354689867
 40
1.0
 40
1.0
 40
1.0
 40
1.0
 10
12.0590060017
 20
11.5262517309
 30
0.0
 10
12.0590061322
 20
11.5253304685
 30
0.0
 10
12.0589385421
 20
11.5234826356
 30
0.0
 10
12.0586344227
 20
11.5207153716
 30
0.0
 10
12.0581278664
 20
11.5179514412
 30
0.0
 10
12.0571748266
 20
11.514240941
 30
0.0
 10
12.0554565274
 20
11.5095985992
 30
0.0
 10
12.0536100167
 20
11.506052067
 30
0.0
 10
12.0525698452
 20
11.5042956787
 30
0.0
  0
SPLINE
  5
2F9
100
AcDbEntity
  8
0
100
AcDbSpline
 62
9
  6
CONTINUOUS
 70
0
 71
3
 72
15
 73
11
 74
0
 42
0.0000001
 43
0.0000001
 44
0.0000000001
 40
0.0
 40
0.0
 40
0.0
 40
0.0
 40
0.1150198867
 40
0.2310912323
 40
0.34919128
 40
0.4702563806
 40
0.5951525339
 40
0.7246482155
 40
0.859407856
 40
1.0
 40
1.0
 40
1.0
 40
1.0
 10
12.0661573708
 20
11.5346599818
 30
0.0
 10
12.0661573708
 20
11.5333547352
 30
0.0
 10
12.066023925
 20
11.5307304113
 30
0.0
 10
12.0654253574
 20
11.5268069718
 30
0.0
 10
12.0644289459
 20
11.5228943411
 30
0.0
 10
12.0630368386
 20
11.5189985072
 30
0.0
 10
12.0612515518
 20
11.5151241495
 30
0.0
 10
12.0590759494
 20
11.5112757486
 30
0.0
 10
12.0565134646
 20
11.507457761
 30
0.0
 10
12.0545919181
 20
11.5049902244
 30
0.0
 10
12.0535724055
 20
11.5037630221
 30
0.0
  0
SPLINE
  5
2FA
100
AcDbEntity
  8
0
100
AcDbSpline
 62
9
  6
CONTINUOUS
 70
0
 71
3
 72
14
 73
10
 74
0
 42
0.0000001
 43
0.0000001
 44
0.0000000001
 40
0.0
 40
0.0
 40
0.0
 40
0.0
 40
0.1137814391
 40
0.2287578647
 40
0.346039803
 40
0.4666831993
 40
0.7215367926
 40
0.8575346199
 40
1.0
 40
1.0
 40
1.0
 40
1.0
 10
12.0681394643
 20
11.5369115342
 30
0.0
 10
12.0681394643
 20
11.5355009471
 30
0.0
 10
12.0679843379
 20
11.532662585
 30
0.0
 10
12.0672888631
 20
11.5284215963
 30
0.0
 10
12.0661312631
 20
11.5241942188
 30
0.0
 10
12.0639370346
 20
11.5184838513
 30
0.0
 10
12.0608253335
 20
11.5129149549
 30
0.0
 10
12.0569489922
 20
11.5075548906
 30
0.0
 10
12.0547268256
 20
11.5049081146
 30
0.0
 10
12.053548259
 20
11.5035926626
 30
0.0
  0
SPLINE
  5
2FB
100
AcDbEntity
  8
0
100
AcDbSpline
 62
9
  6
CONTINUOUS
 70
0
 71
3
 72
59
 73
55
 74
0
 42
0.0000001
 43
0.0000001
 44
0.0000000001
 40
0.0
 40
0.0
 40
0.0
 40
0.0
 40
0.0075598929
 40
0.0153993841
 40
0.0236151481
 40
0.0322875738
 40
0.0414814395
 40
0.0512470499
 40
0.0616216791
 40
0.0726316431
 40
0.0842936602
 40
0.0966166158
 40
0.1096026344
 40
0.1232480177
 40
0.1375443191
 40
0.1524786441
 40
0.168034519
 40
0.1841921634
 40
0.2009288312
 40
0.2182193365
 40
0.2360360173
 40
0.2543492595
 40
0.2923356348
 40
0.3319094676
 40
0.3727779688
 40
0.4146316956
 40
0.4571489583
 40
0.4999999968
 40
0.5428510354
 40
0.5853682982
 40
0.6272220251
 40
0.6680905267
 40
0.7076643598
 40
0.7456507355
 40
0.7639639779
 40
0.7817806589
 40
0.7990711645
 40
0.8158078325
 40
0.8319654772
 40
0.8475213524
 40
0.8624556776
 40
0.8767519793
 40
0.8903973629
 40
0.9033833818
 40
0.9157063377
 40
0.9273683551
 40
0.9383783194
 40
0.9487529489
 40
0.9585185596
 40
0.9677124255
 40
0.9763848514
 40
0.9846006157
 40
0.992440107
 40
1.0
 40
1.0
 40
1.0
 40
1.0
 10
12.0491950102
 20
11.2608208649
 30
0.0
 10
12.0488614194
 20
11.2625231944
 30
0.0
 10
12.0479462214
 20
11.2659484106
 30
0.0
 10
12.0458971724
 20
11.2709782073
 30
0.0
 10
12.0431607267
 20
11.275961992
 30
0.0
 10
12.0397460361
 20
11.2808886996
 30
0.0
 10
12.0356621892
 20
11.2857493429
 30
0.0
 10
12.030919064
 20
11.2905347231
 30
0.0
 10
12.0255274176
 20
11.2952358514
 30
0.0
 10
12.0194988916
 20
11.299843286
 30
0.0
 10
12.0128465799
 20
11.3043477972
 30
0.0
 10
12.0055847548
 20
11.3087399393
 30
0.0
 10
11.9977290775
 20
11.3130103712
 30
0.0
 10
11.9892965941
 20
11.3171500128
 30
0.0
 10
11.9803055786
 20
11.3211497477
 30
0.0
 10
11.9707756737
 20
11.325000961
 30
0.0
 10
11.9607276891
 20
11.3286951427
 30
0.0
 10
11.9501836324
 20
11.3322241471
 30
0.0
 10
11.9391666501
 20
11.335580275
 30
0.0
 10
11.9277009322
 20
11.3387559833
 30
0.0
 10
11.9158116716
 20
11.3417444149
 30
0.0
 10
11.8992270914
 20
11.345516161
 30
0.0
 10
11.8776216161
 20
11.3496962676
 30
0.0
 10
11.8507542917
 20
11.3538138126
 30
0.0
 10
11.8228739018
 20
11.3570551105
 30
0.0
 10
11.7942259092
 20
11.3593912542
 30
0.0
 10
11.7650621951
 20
11.360801348
 30
0.0
 10
11.7356394676
 20
11.3612727883
 30
0.0
 10
11.70621674
 20
11.3608013483
 30
0.0
 10
11.6770530258
 20
11.3593912546
 30
0.0
 10
11.6484050331
 20
11.3570551111
 30
0.0
 10
11.620524643
 20
11.3538138134
 30
0.0
 10
11.5936573183
 20
11.3496962686
 30
0.0
 10
11.5720518428
 20
11.3455161622
 30
0.0
 10
11.5554672623
 20
11.3417444163
 30
0.0
 10
11.5435780015
 20
11.3387559847
 30
0.0
 10
11.5321122834
 20
11.3355802765
 30
0.0
 10
11.521095301
 20
11.3322241487
 30
0.0
 10
11.510551244
 20
11.3286951443
 30
0.0
 10
11.5005032592
 20
11.3250009627
 30
0.0
 10
11.490973354
 20
11.3211497494
 30
0.0
 10
11.4819823383
 20
11.3171500146
 30
0.0
 10
11.4735498547
 20
11.3130103732
 30
0.0
 10
11.4656941771
 20
11.3087399413
 30
0.0
 10
11.4584323517
 20
11.3043477992
 30
0.0
 10
11.4517800397
 20
11.2998432881
 30
0.0
 10
11.4457515134
 20
11.2952358536
 30
0.0
 10
11.4403598668
 20
11.2905347252
 30
0.0
 10
11.4356167413
 20
11.2857493451
 30
0.0
 10
11.4315328941
 20
11.2808887018
 30
0.0
 10
11.4281182031
 20
11.2759619942
 30
0.0
 10
11.4253817571
 20
11.2709782096
 30
0.0
 10
11.4233327078
 20
11.2659484128
 30
0.0
 10
11.4224175096
 20
11.2625231967
 30
0.0
 10
11.4220839187
 20
11.2608208672
 30
0.0
  0
SPLINE
  5
2FC
100
AcDbEntity
  8
0
100
AcDbSpline
 62
9
  6
CONTINUOUS
 70
0
 71
3
 72
61
 73
57
 74
0
 42
0.0000001
 43
0.0000001
 44
0.0000000001
 40
0.0
 40
0.0
 40
0.0
 40
0.0
 40
0.0075226437
 40
0.0151810088
 40
0.023100109
 40
0.0313928716
 40
0.0401539905
 40
0.0494596137
 40
0.0593685804
 40
0.0699244479
 40
0.0811575761
 40
0.0930870871
 40
0.1057229766
 40
0.1190672375
 40
0.133115314
 40
0.1478570728
 40
0.1632773548
 40
0.1793569669
 40
0.1960728861
 40
0.213398841
 40
0.2313057547
 40
0.2497618028
 40
0.2687329948
 40
0.2881831991
 40
0.3283650984
 40
0.3699874428
 40
0.4127074916
 40
0.4561675308
 40
0.5
 40
0.5438324692
 40
0.5872925084
 40
0.6300125572
 40
0.6716349016
 40
0.7118168009
 40
0.7312670052
 40
0.7502381972
 40
0.7686942453
 40
0.786601159
 40
0.8039271139
 40
0.8206430331
 40
0.8367226452
 40
0.8521429272
 40
0.866884686
 40
0.8809327625
 40
0.8942770234
 40
0.9069129129
 40
0.9188424239
 40
0.9300755521
 40
0.9406314196
 40
0.9505403863
 40
0.9598460095
 40
0.9686071284
 40
0.976899891
 40
0.9848189912
 40
0.9924773563
 40
1.0
 40
1.0
 40
1.0
 40
1.0
 10
12.039389407
 20
11.2180212481
 30
0.0
 10
12.039389407
 20
11.2197247115
 30
0.0
 10
12.0391400589
 20
11.2231672964
 30
0.0
 10
12.0380245023
 20
11.2282941621
 30
0.0
 10
12.0361722047
 20
11.2333884603
 30
0.0
 10
12.0335923767
 20
11.2384352782
 30
0.0
 10
12.0302950298
 20
11.243424032
 30
0.0
 10
12.026290182
 20
11.2483442559
 30
0.0
 10
12.0215888375
 20
11.2531862678
 30
0.0
 10
12.0162025932
 20
11.2579401312
 30
0.0
 10
12.0101442382
 20
11.262595694
 30
0.0
 10
12.0034280773
 20
11.2671428552
 30
0.0
 10
11.9960697594
 20
11.2715711979
 30
0.0
 10
11.9880866224
 20
11.2758705983
 30
0.0
 10
11.9794974875
 20
11.2800309859
 30
0.0
 10
11.9703226694
 20
11.2840424346
 30
0.0
 10
11.9605840165
 20
11.2878955138
 30
0.0
 10
11.9503047095
 20
11.2915808879
 30
0.0
 10
11.9395093215
 20
11.2950897536
 30
0.0
 10
11.9282236945
 20
11.2984136958
 30
0.0
 10
11.9164748536
 20
11.301544608
 30
0.0
 10
11.9042910154
 20
11.3044750332
 30
0.0
 10
11.8917013782
 20
11.3071978694
 30
0.0
 10
11.8742250038
 20
11.3105792137
 30
0.0
 10
11.851581057
 20
11.3142234815
 30
0.0
 10
11.8235838652
 20
11.3176336605
 30
0.0
 10
11.7947423051
 20
11.3200935193
 30
0.0
 10
11.7653334471
 20
11.3215791012
 30
0.0
 10
11.7356394642
 20
11.3220759084
 30
0.0
 10
11.7059454813
 20
11.3215791012
 30
0.0
 10
11.6765366233
 20
11.3200935193
 30
0.0
 10
11.6476950632
 20
11.3176336605
 30
0.0
 10
11.6196978715
 20
11.3142234815
 30
0.0
 10
11.5970539246
 20
11.3105792137
 30
0.0
 10
11.5795775503
 20
11.3071978694
 30
0.0
 10
11.566987913
 20
11.3044750332
 30
0.0
 10
11.5548040748
 20
11.301544608
 30
0.0
 10
11.5430552339
 20
11.2984136958
 30
0.0
 10
11.531769607
 20
11.2950897536
 30
0.0
 10
11.5209742189
 20
11.2915808879
 30
0.0
 10
11.5106949119
 20
11.2878955138
 30
0.0
 10
11.500956259
 20
11.2840424346
 30
0.0
 10
11.4917814409
 20
11.2800309859
 30
0.0
 10
11.483192306
 20
11.2758705983
 30
0.0
 10
11.475209169
 20
11.2715711979
 30
0.0
 10
11.4678508511
 20
11.2671428552
 30
0.0
 10
11.4611346902
 20
11.262595694
 30
0.0
 10
11.4550763352
 20
11.2579401312
 30
0.0
 10
11.449690091
 20
11.2531862678
 30
0.0
 10
11.4449887464
 20
11.2483442559
 30
0.0
 10
11.4409838986
 20
11.243424032
 30
0.0
 10
11.4376865518
 20
11.2384352782
 30
0.0
 10
11.4351067238
 20
11.2333884603
 30
0.0
 10
11.4332544261
 20
11.2282941621
 30
0.0
 10
11.4321388696
 20
11.2231672964
 30
0.0
 10
11.4318895214
 20
11.2197247115
 30
0.0
 10
11.4318895214
 20
11.2180212481
 30
0.0
  0
SPLINE
  5
2FD
100
AcDbEntity
  8
0
100
AcDbSpline
 62
9
  6
CONTINUOUS
 70
0
 71
3
 72
61
 73
57
 74
0
 42
0.0000001
 43
0.0000001
 44
0.0000000001
 40
0.0
 40
0.0
 40
0.0
 40
0.0
 40
0.0075226437
 40
0.0151810088
 40
0.023100109
 40
0.0313928716
 40
0.0401539905
 40
0.0494596137
 40
0.0593685804
 40
0.0699244479
 40
0.0811575761
 40
0.0930870871
 40
0.1057229766
 40
0.1190672375
 40
0.133115314
 40
0.1478570728
 40
0.1632773548
 40
0.1793569669
 40
0.1960728861
 40
0.213398841
 40
0.2313057547
 40
0.2497618028
 40
0.2687329948
 40
0.2881831991
 40
0.3283650984
 40
0.3699874428
 40
0.4127074916
 40
0.4561675308
 40
0.5
 40
0.5438324692
 40
0.5872925084
 40
0.6300125572
 40
0.6716349016
 40
0.7118168009
 40
0.7312670052
 40
0.7502381972
 40
0.7686942453
 40
0.786601159
 40
0.8039271139
 40
0.8206430331
 40
0.8367226452
 40
0.8521429272
 40
0.866884686
 40
0.8809327625
 40
0.8942770234
 40
0.9069129129
 40
0.9188424239
 40
0.9300755521
 40
0.9406314196
 40
0.9505403863
 40
0.9598460095
 40
0.9686071284
 40
0.976899891
 40
0.9848189912
 40
0.9924773563
 40
1.0
 40
1.0
 40
1.0
 40
1.0
 10
12.0244320102
 20
11.4454228276
 30
0.0
 10
12.0244320102
 20
11.4470424083
 30
0.0
 10
12.0241949406
 20
11.4503154718
 30
0.0
 10
12.0231343168
 20
11.455189878
 30
0.0
 10
12.0213732308
 20
11.4600333204
 30
0.0
 10
12.0189204399
 20
11.4648316205
 30
0.0
 10
12.0157854626
 20
11.4695747158
 30
0.0
 10
12.0119778234
 20
11.4742526557
 30
0.0
 10
12.0075079846
 20
11.478856235
 30
0.0
 10
12.0023869723
 20
11.4833760064
 30
0.0
 10
11.9966269457
 20
11.4878023178
 30
0.0
 10
11.9902415052
 20
11.4921255656
 30
0.0
 10
11.983245529
 20
11.4963358457
 30
0.0
 10
11.9756555013
 20
11.500423533
 30
0.0
 10
11.9674893166
 20
11.5043790529
 30
0.0
 10
11.9587662892
 20
11.508192968
 30
0.0
 10
11.9495071916
 20
11.5118563121
 30
0.0
 10
11.9397340631
 20
11.5153602092
 30
0.0
 10
11.9294702665
 20
11.5186962897
 30
0.0
 10
11.9187403717
 20
11.5218565528
 30
0.0
 10
11.9075700728
 20
11.5248332911
 30
0.0
 10
11.8959861968
 20
11.527619415
 30
0.0
 10
11.8840165044
 20
11.530208172
 30
0.0
 10
11.8674007099
 20
11.5334230105
 30
0.0
 10
11.8458718068
 20
11.5368878256
 30
0.0
 10
11.8192532659
 20
11.540130079
 30
0.0
 10
11.7918319354
 20
11.5424688083
 30
0.0
 10
11.7638712421
 20
11.5438812365
 30
0.0
 10
11.7356394642
 20
11.5443535797
 30
0.0
 10
11.7074076863
 20
11.5438812365
 30
0.0
 10
11.6794469931
 20
11.5424688083
 30
0.0
 10
11.6520256626
 20
11.540130079
 30
0.0
 10
11.6254071217
 20
11.5368878256
 30
0.0
 10
11.6038782186
 20
11.5334230105
 30
0.0
 10
11.5872624241
 20
11.530208172
 30
0.0
 10
11.5752927316
 20
11.527619415
 30
0.0
 10
11.5637088557
 20
11.5248332911
 30
0.0
 10
11.5525385567
 20
11.5218565528
 30
0.0
 10
11.5418086619
 20
11.5186962897
 30
0.0
 10
11.5315448654
 20
11.5153602092
 30
0.0
 10
11.5217717368
 20
11.5118563121
 30
0.0
 10
11.5125126393
 20
11.508192968
 30
0.0
 10
11.5037896118
 20
11.5043790529
 30
0.0
 10
11.4956234271
 20
11.500423533
 30
0.0
 10
11.4880333995
 20
11.4963358457
 30
0.0
 10
11.4810374233
 20
11.4921255656
 30
0.0
 10
11.4746519827
 20
11.4878023178
 30
0.0
 10
11.4688919561
 20
11.4833760064
 30
0.0
 10
11.4637709438
 20
11.478856235
 30
0.0
 10
11.4593011051
 20
11.4742526557
 30
0.0
 10
11.4554934659
 20
11.4695747158
 30
0.0
 10
11.4523584885
 20
11.4648316205
 30
0.0
 10
11.4499056976
 20
11.4600333204
 30
0.0
 10
11.4481446117
 20
11.455189878
 30
0.0
 10
11.4470839879
 20
11.4503154718
 30
0.0
 10
11.4468469182
 20
11.4470424083
 30
0.0
 10
11.4468469182
 20
11.4454228276
 30
0.0
  0
SPLINE
  5
2FE
100
AcDbEntity
  8
0
100
AcDbSpline
 62
9
  6
CONTINUOUS
 70
0
 71
3
 72
17
 73
13
 74
0
 42
0.0000001
 43
0.0000001
 44
0.0000000001
 40
0.0
 40
0.0
 40
0.0
 40
0.0
 40
0.1363829672
 40
0.2697996471
 40
0.3996524253
 40
0.4632185278
 40
0.525883933
 40
0.6485946379
 40
0.7682132402
 40
0.8270314265
 40
0.885246846
 40
1.0
 40
1.0
 40
1.0
 40
1.0
 10
12.5435754003
 20
4.7217103806
 30
0.0
 10
12.5442649529
 20
4.7173177196
 30
0.0
 10
12.5462685813
 20
4.7087150742
 30
0.0
 10
12.5509956607
 20
4.6965318588
 30
0.0
 10
12.5561620013
 20
4.6871744242
 30
0.0
 10
12.5608792686
 20
4.6802803665
 30
0.0
 10
12.5658675761
 20
4.6738723825
 30
0.0
 10
12.5726647127
 20
4.6665819181
 30
0.0
 10
12.5801403425
 20
4.660185189
 30
0.0
 10
12.586391247
 20
4.6556569484
 30
0.0
 10
12.5927361685
 20
4.6515477089
 30
0.0
 10
12.597701086
 20
4.6488473282
 30
0.0
 10
12.6010726365
 20
4.6472256931
 30
0.0
  0
SPLINE
  5
2FF
100
AcDbEntity
  8
0
100
AcDbSpline
 62
9
  6
CONTINUOUS
 70
0
 71
3
 72
14
 73
10
 74
0
 42
0.0000001
 43
0.0000001
 44
0.0000000001
 40
0.0
 40
0.0
 40
0.0
 40
0.0
 40
0.1424565763
 40
0.2784486004
 40
0.5332991461
 40
0.653944672
 40
0.7712306566
 40
0.8862124727
 40
1.0
 40
1.0
 40
1.0
 40
1.0
 10
11.4177211662
 20
11.5036032714
 30
0.0
 10
11.4165433509
 20
11.5049183429
 30
0.0
 10
11.4143226035
 20
11.5075643468
 30
0.0
 10
11.4104487459
 20
11.5129228147
 30
0.0
 10
11.407339099
 20
11.5184899508
 30
0.0
 10
11.4051463372
 20
11.5241984119
 30
0.0
 10
11.4039895019
 20
11.5284244048
 30
0.0
 10
11.4032944876
 20
11.5326639938
 30
0.0
 10
11.4031394641
 20
11.5355014111
 30
0.0
 10
11.4031394641
 20
11.5369115342
 30
0.0
  0
SPLINE
  5
300
100
AcDbEntity
  8
0
100
AcDbSpline
 62
9
  6
CONTINUOUS
 70
0
 71
3
 72
17
 73
13
 74
0
 42
0.0000001
 43
0.0000001
 44
0.0000000001
 40
0.0
 40
0.0
 40
0.0
 40
0.0
 40
0.0743699995
 40
0.1476217148
 40
0.2895452581
 40
0.3579845707
 40
0.4246185616
 40
0.552365367
 40
0.6730944489
 40
0.787411449
 40
0.8961178447
 40
1.0
 40
1.0
 40
1.0
 40
1.0
 10
12.5682739033
 20
4.7217089367
 30
0.0
 10
12.5685393133
 20
4.7195077012
 30
0.0
 10
12.5691904568
 20
4.7151520873
 30
0.0
 10
12.5709454187
 20
4.7066970371
 30
0.0
 10
12.5733531843
 20
4.6985696293
 30
0.0
 10
12.5763598777
 20
4.6908746974
 30
0.0
 10
12.5796122182
 20
4.6837424133
 30
0.0
 10
12.5842048612
 20
4.6755236195
 30
0.0
 10
12.5904990226
 20
4.6667015865
 30
0.0
 10
12.5973480491
 20
4.659049445
 30
0.0
 10
12.6046289397
 20
4.6525418439
 30
0.0
 10
12.6098122615
 20
4.6488668676
 30
0.0
 10
12.6124386778
 20
4.6472256906
 30
0.0
  0
SPLINE
  5
301
100
AcDbEntity
  8
0
100
AcDbSpline
 62
9
  6
CONTINUOUS
 70
0
 71
3
 72
11
 73
7
 74
0
 42
0.0000001
 43
0.0000001
 44
0.0000000001
 40
0.0
 40
0.0
 40
0.0
 40
0.0
 40
0.2549083828
 40
0.5067310996
 40
0.7551736436
 40
1.0
 40
1.0
 40
1.0
 40
1.0
 10
12.5682739033
 20
4.7217089367
 30
0.0
 10
12.5692686105
 20
4.7229666149
 30
0.0
 10
12.571278242
 20
4.7254414166
 30
0.0
 10
12.5743631915
 20
4.72905437
 30
0.0
 10
12.5774864902
 20
4.7325495189
 30
0.0
 10
12.5796009689
 20
4.734820729
 30
0.0
 10
12.5806612349
 20
4.7359377184
 30
0.0
  0
SPLINE
  5
302
100
AcDbEntity
  8
0
100
AcDbSpline
 62
9
  6
CONTINUOUS
 70
0
 71
3
 72
14
 73
10
 74
0
 42
0.0000001
 43
0.0000001
 44
0.0000000001
 40
0.0
 40
0.0
 40
0.0
 40
0.0
 40
0.2752130272
 40
0.4047280326
 40
0.5296454087
 40
0.6507334253
 40
0.768857764
 40
0.8849543623
 40
1.0
 40
1.0
 40
1.0
 40
1.0
 10
11.4176975384
 20
11.5037738389
 30
0.0
 10
11.415703426
 20
11.5061750897
 30
0.0
 10
11.4129817532
 20
11.5098968705
 30
0.0
 10
11.4100239402
 20
11.515130982
 30
0.0
 10
11.4082398101
 20
11.5190041788
 30
0.0
 10
11.4068487384
 20
11.5228985768
 30
0.0
 10
11.405853039
 20
11.5268098166
 30
0.0
 10
11.405254907
 20
11.5307318354
 30
0.0
 10
11.4051215577
 20
11.5333552052
 30
0.0
 10
11.4051215577
 20
11.5346599818
 30
0.0
  0
SPLINE
  5
303
100
AcDbEntity
  8
0
100
AcDbSpline
 62
9
  6
CONTINUOUS
 70
0
 71
3
 72
15
 73
11
 74
0
 42
0.0000001
 43
0.0000001
 44
0.0000000001
 40
0.0
 40
0.0
 40
0.0
 40
0.0
 40
0.1253583962
 40
0.250948981
 40
0.3765640039
 40
0.5020549355
 40
0.6272537328
 40
0.7520218475
 40
0.8762953043
 40
1.0
 40
1.0
 40
1.0
 40
1.0
 10
12.5583762369
 20
4.7642681467
 30
0.0
 10
12.559925763
 20
4.7638315698
 30
0.0
 10
12.5629637204
 20
4.762709623
 30
0.0
 10
12.56719801
 20
4.760334705
 30
0.0
 10
12.5710109242
 20
4.7573248901
 30
0.0
 10
12.5743025135
 20
4.7537595376
 30
0.0
 10
12.5769871409
 20
4.7497302691
 30
0.0
 10
12.578995605
 20
4.745341405
 30
0.0
 10
12.5802742942
 20
4.7407081827
 30
0.0
 10
12.580619225
 20
4.7375257801
 30
0.0
 10
12.5806612349
 20
4.7359377184
 30
0.0
  0
SPLINE
  5
304
100
AcDbEntity
  8
0
100
AcDbSpline
 62
9
  6
CONTINUOUS
 70
0
 71
3
 72
16
 73
12
 74
0
 42
0.0000001
 43
0.0000001
 44
0.0000000001
 40
0.0
 40
0.0
 40
0.0
 40
0.0
 40
0.027815978
 40
0.0617239395
 40
0.1015097136
 40
0.1469241933
 40
0.2535197393
 40
0.3788802795
 40
0.5198806041
 40
0.6729818013
 40
1.0
 40
1.0
 40
1.0
 40
1.0
 10
11.9773590684
 20
4.828480011
 30
0.0
 10
11.9773797568
 20
4.8282156037
 30
0.0
 10
11.9774127105
 20
4.8276278804
 30
0.0
 10
11.9774426263
 20
4.8266604347
 30
0.0
 10
11.9774570947
 20
4.8255248188
 30
0.0
 10
11.9774553274
 20
4.8236960752
 30
0.0
 10
11.9774087939
 20
4.8210516894
 30
0.0
 10
11.9772955911
 20
4.8174974124
 30
0.0
 10
11.9771238558
 20
4.8135016035
 30
0.0
 10
11.97681533
 20
4.8075874371
 30
0.0
 10
11.9765213532
 20
4.8030188798
 30
0.0
 10
11.976299381
 20
4.7999087883
 30
0.0
  0
SPLINE
  5
305
100
AcDbEntity
  8
0
100
AcDbSpline
 62
9
  6
CONTINUOUS
 70
0
 71
3
 72
13
 73
9
 74
0
 42
0.0000001
 43
0.0000001
 44
0.0000000001
 40
0.0
 40
0.0
 40
0.0
 40
0.0
 40
0.2507118631
 40
0.375935043
 40
0.5010386028
 40
0.6260125003
 40
0.7508437414
 40
1.0
 40
1.0
 40
1.0
 40
1.0
 10
11.976299381
 20
4.7999087883
 30
0.0
 10
12.0164545376
 20
4.7970532763
 30
0.0
 10
12.0765982599
 20
4.7917380438
 30
0.0
 10
12.1565459666
 20
4.7827327444
 30
0.0
 10
12.216320311
 20
4.775064725
 30
0.0
 10
12.275912154
 20
4.7665230973
 30
0.0
 10
12.3550524497
 20
4.7540343305
 30
0.0
 10
12.4141753954
 20
4.7434675092
 30
0.0
 10
12.4534671818
 20
4.7359377184
 30
0.0
  0
SPLINE
  5
306
100
AcDbEntity
  8
0
100
AcDbSpline
 62
9
  6
CONTINUOUS
 70
0
 71
3
 72
13
 73
9
 74
0
 42
0.0000001
 43
0.0000001
 44
0.0000000001
 40
0.0
 40
0.0
 40
0.0
 40
0.0
 40
0.2491562612
 40
0.3739875055
 40
0.4989614057
 40
0.6240649655
 40
0.7492881415
 40
1.0
 40
1.0
 40
1.0
 40
1.0
 10
11.0178117466
 20
4.7359377184
 30
0.0
 10
11.0571035325
 20
4.7434675136
 30
0.0
 10
11.1162264803
 20
4.7540343288
 30
0.0
 10
11.1953667785
 20
4.7665230885
 30
0.0
 10
11.2549586222
 20
4.7750647171
 30
0.0
 10
11.3147329659
 20
4.7827327407
 30
0.0
 10
11.3946806702
 20
4.7917380482
 30
0.0
 10
11.4548243911
 20
4.7970532823
 30
0.0
 10
11.4949795475
 20
4.7999087883
 30
0.0
  0
SPLINE
  5
307
100
AcDbEntity
  8
0
100
AcDbSpline
 62
9
  6
CONTINUOUS
 70
0
 71
3
 72
18
 73
14
 74
0
 42
0.0000001
 43
0.0000001
 44
0.0000000001
 40
0.0
 40
0.0
 40
0.0
 40
0.0
 40
0.0268546314
 40
0.0596309363
 40
0.0982808271
 40
0.1426538261
 40
0.1925420759
 40
0.2476768286
 40
0.3723353274
 40
0.5136083166
 40
0.6679480864
 40
0.8314844414
 40
1.0
 40
1.0
 40
1.0
 40
1.0
 10
11.015469204
 20
4.7642681467
 30
0.0
 10
11.0153948765
 20
4.7640235538
 30
0.0
 10
11.0152697552
 20
4.763468439
 30
0.0
 10
11.015141368
 20
4.7625411882
 30
0.0
 10
11.0150560427
 20
4.7614416128
 30
0.0
 10
11.0150145789
 20
4.7601767802
 30
0.0
 10
11.0150175588
 20
4.7587544002
 30
0.0
 10
11.0150840057
 20
4.7565687813
 30
0.0
 10
11.0152872015
 20
4.7535182567
 30
0.0
 10
11.0156899502
 20
4.749537344
 30
0.0
 10
11.0162523355
 20
4.7452023765
 30
0.0
 10
11.0169603049
 20
4.7406263233
 30
0.0
 10
11.0175137566
 20
4.7375139457
 30
0.0
 10
11.0178117466
 20
4.7359377184
 30
0.0
  0
SPLINE
  5
308
100
AcDbEntity
  8
0
100
AcDbSpline
 62
9
  6
CONTINUOUS
 70
0
 71
3
 72
11
 73
7
 74
0
 42
0.0000001
 43
0.0000001
 44
0.0000000001
 40
0.0
 40
0.0
 40
0.0
 40
0.0
 40
0.2326706015
 40
0.4745918053
 40
0.7295900667
 40
1.0
 40
1.0
 40
1.0
 40
1.0
 10
12.6124389463
 20
4.6472255809
 30
0.0
 10
12.6116061763
 20
4.647563815
 30
0.0
 10
12.6098306572
 20
4.6480766264
 30
0.0
 10
12.6070071512
 20
4.6483207242
 30
0.0
 10
12.6040415744
 20
4.6480504527
 30
0.0
 10
12.6020656596
 20
4.6475500401
 30
0.0
 10
12.6010726653
 20
4.6472256756
 30
0.0
  0
SPLINE
  5
309
100
AcDbEntity
  8
0
100
AcDbSpline
 62
9
  6
CONTINUOUS
 70
0
 71
3
 72
21
 73
17
 74
0
 42
0.0000001
 43
0.0000001
 44
0.0000000001
 40
0.0
 40
0.0
 40
0.0
 40
0.0
 40
0.1816530707
 40
0.3541432831
 40
0.513352331
 40
0.6555984437
 40
0.7193175268
 40
0.7776072687
 40
0.8301610723
 40
0.8767076118
 40
0.9170372766
 40
0.9510053907
 40
0.9655879034
 40
0.9785864514
 40
0.9900363731
 40
1.0
 40
1.0
 40
1.0
 40
1.0
 10
12.5435756135
 20
4.7217094896
 30
0.0
 10
12.5450722019
 20
4.7218644969
 30
0.0
 10
12.5479929648
 20
4.7221378689
 30
0.0
 10
12.552234144
 20
4.7224457088
 30
0.0
 10
12.5561555206
 20
4.7226360009
 30
0.0
 10
12.5591802268
 20
4.7226957869
 30
0.0
 10
12.5613690436
 20
4.7226754148
 30
0.0
 10
12.5628143318
 20
4.7226296818
 30
0.0
 10
12.5641159093
 20
4.722553308
 30
0.0
 10
12.5652661234
 20
4.7224463159
 30
0.0
 10
12.5662580607
 20
4.7223100311
 30
0.0
 10
12.5669812449
 20
4.7221686172
 30
0.0
 10
12.5674742897
 20
4.7220382921
 30
0.0
 10
12.5677821316
 20
4.7219388737
 30
0.0
 10
12.568046891
 20
4.7218326447
 30
0.0
 10
12.5682051508
 20
4.7217516358
 30
0.0
 10
12.5682759447
 20
4.7217092227
 30
0.0
  0
SPLINE
  5
30A
100
AcDbEntity
  8
0
100
AcDbSpline
 62
9
  6
CONTINUOUS
 70
0
 71
3
 72
29
 73
25
 74
0
 42
0.0000001
 43
0.0000001
 44
0.0000000001
 40
0.0
 40
0.0
 40
0.0
 40
0.0
 40
0.0624554436
 40
0.1249307957
 40
0.1874240082
 40
0.2499254788
 40
0.2811772299
 40
0.3124299285
 40
0.3436853411
 40
0.37494635
 40
0.4062113878
 40
0.4374767927
 40
0.5000002946
 40
0.5625233126
 40
0.5937885018
 40
0.6250535839
 40
0.6563149964
 40
0.6875706772
 40
0.7188233671
 40
0.7500749307
 40
0.8125758868
 40
0.875068943
 40
0.937544437
 40
1.0
 40
1.0
 40
1.0
 40
1.0
 10
11.4949795475
 20
4.7999087883
 30
0.0
 10
11.5050061036
 20
4.8006218309
 30
0.0
 10
11.5250482097
 20
4.8022498286
 30
0.0
 10
11.5550796737
 20
4.8050877478
 30
0.0
 10
11.5850998938
 20
4.8081135398
 30
0.0
 10
11.6101220518
 20
4.8106179331
 30
0.0
 10
11.6301544821
 20
4.8124841131
 30
0.0
 10
11.6451887642
 20
4.8137832251
 30
0.0
 10
11.6602354694
 20
4.8149503491
 30
0.0
 10
11.6752961505
 20
4.8159523406
 30
0.0
 10
11.6903699086
 20
4.8167664057
 30
0.0
 10
11.710480863
 20
4.8175758838
 30
0.0
 10
11.7356395219
 20
4.8180214568
 30
0.0
 10
11.7607981909
 20
4.8175769418
 30
0.0
 10
11.7809089994
 20
4.8167663677
 30
0.0
 10
11.7959827563
 20
4.8159516487
 30
0.0
 10
11.811043559
 20
4.8149497823
 30
0.0
 10
11.8260903978
 20
4.8137830003
 30
0.0
 10
11.8411247149
 20
4.812484156
 30
0.0
 10
11.8611570583
 20
4.8106182719
 30
0.0
 10
11.8861790631
 20
4.8081137255
 30
0.0
 10
11.9161991534
 20
4.8050874938
 30
0.0
 10
11.9462306476
 20
4.8022497005
 30
0.0
 10
11.9662728034
 20
4.8006218018
 30
0.0
 10
11.976299381
 20
4.7999087883
 30
0.0
  0
SPLINE
  5
30B
100
AcDbEntity
  8
0
100
AcDbSpline
 62
9
  6
CONTINUOUS
 70
0
 71
3
 72
10
 73
6
 74
0
 42
0.0000001
 43
0.0000001
 44
0.0000000001
 40
0.0
 40
0.0
 40
0.0
 40
0.0
 40
0.3333133264
 40
0.6135583745
 40
1.0
 40
1.0
 40
1.0
 40
1.0
 10
12.5806612349
 20
4.7359377184
 30
0.0
 10
12.5857630078
 20
4.742924893
 30
0.0
 10
12.5950631704
 20
4.7558537711
 30
0.0
 10
12.609909965
 20
4.7771451479
 30
0.0
 10
12.6195556786
 20
4.7915142746
 30
0.0
 10
12.6250459813
 20
4.7999087883
 30
0.0
  0
SPLINE
  5
30C
100
AcDbEntity
  8
0
100
AcDbSpline
 62
9
  6
CONTINUOUS
 70
0
 71
3
 72
11
 73
7
 74
0
 42
0.0000001
 43
0.0000001
 44
0.0000000001
 40
0.0
 40
0.0
 40
0.0
 40
0.0
 40
0.2704105618
 40
0.5254075497
 40
0.767327995
 40
1.0
 40
1.0
 40
1.0
 40
1.0
 10
10.8702062371
 20
4.647225781
 30
0.0
 10
10.8692132412
 20
4.6475501575
 30
0.0
 10
10.8672373249
 20
4.6480505741
 30
0.0
 10
10.8642717519
 20
4.6483209014
 30
0.0
 10
10.8614482361
 20
4.6480768397
 30
0.0
 10
10.8596727048
 20
4.6475640425
 30
0.0
 10
10.8588399244
 20
4.647225813
 30
0.0
  0
SPLINE
  5
30D
100
AcDbEntity
  8
0
100
AcDbSpline
 62
9
  6
CONTINUOUS
 70
0
 71
3
 72
21
 73
17
 74
0
 42
0.0000001
 43
0.0000001
 44
0.0000000001
 40
0.0
 40
0.0
 40
0.0
 40
0.0
 40
0.0099678663
 40
0.0214274428
 40
0.0344361998
 40
0.0490264208
 40
0.0829968419
 40
0.1233192414
 40
0.1698586493
 40
0.2224078838
 40
0.2806939605
 40
0.3444095209
 40
0.4866503106
 40
0.6458556338
 40
0.8183449732
 40
1.0
 40
1.0
 40
1.0
 40
1.0
 10
10.9030029175
 20
4.7217059713
 30
0.0
 10
10.9030737348
 20
4.7217484174
 30
0.0
 10
10.9032319904
 20
4.7218296704
 30
0.0
 10
10.9034966986
 20
4.7219365729
 30
0.0
 10
10.9038045192
 20
4.7220368234
 30
0.0
 10
10.9042974644
 20
4.7221682475
 30
0.0
 10
10.9050206225
 20
4.7223101696
 30
0.0
 10
10.9060125304
 20
4.7224461263
 30
0.0
 10
10.9071626336
 20
4.7225528589
 30
0.0
 10
10.9084641065
 20
4.7226293313
 30
0.0
 10
10.9099093288
 20
4.7226751917
 30
0.0
 10
10.9120980942
 20
4.7226955562
 30
0.0
 10
10.9151227695
 20
4.7226358815
 30
0.0
 10
10.9190441546
 20
4.7224454154
 30
0.0
 10
10.9232853853
 20
4.7221374264
 30
0.0
 10
10.9262063886
 20
4.7218657538
 30
0.0
 10
10.9277030301
 20
4.7217107566
 30
0.0
  0
SPLINE
  5
30E
100
AcDbEntity
  8
0
100
AcDbSpline
 62
9
  6
CONTINUOUS
 70
0
 71
3
 72
15
 73
11
 74
0
 42
0.0000001
 43
0.0000001
 44
0.0000000001
 40
0.0
 40
0.0
 40
0.0
 40
0.0
 40
0.1255100294
 40
0.2510048886
 40
0.376337937
 40
0.5015152911
 40
0.6264847876
 40
0.7512100667
 40
0.8757399823
 40
1.0
 40
1.0
 40
1.0
 40
1.0
 10
12.6283701465
 20
4.620612088
 30
0.0
 10
12.6283701465
 20
4.6219745587
 30
0.0
 10
12.6281863022
 20
4.6247028604
 30
0.0
 10
12.627365411
 20
4.6287168831
 30
0.0
 10
12.6260132336
 20
4.6325814161
 30
0.0
 10
12.6241559863
 20
4.6362236553
 30
0.0
 10
12.6218271881
 20
4.6395760547
 30
0.0
 10
12.6190702996
 20
4.6425770945
 30
0.0
 10
12.615936916
 20
4.6451694341
 30
0.0
 10
12.6136320142
 20
4.6465961975
 30
0.0
 10
12.6124389463
 20
4.6472255809
 30
0.0
  0
SPLINE
  5
30F
100
AcDbEntity
  8
0
100
AcDbSpline
 62
9
  6
CONTINUOUS
 70
0
 71
3
 72
16
 73
12
 74
0
 42
0.0000001
 43
0.0000001
 44
0.0000000001
 40
0.0
 40
0.0
 40
0.0
 40
0.0
 40
0.152045786
 40
0.3014041413
 40
0.4452765265
 40
0.5811522714
 40
0.7065959033
 40
0.8194112945
 40
0.9177354867
 40
0.9609663533
 40
1.0
 40
1.0
 40
1.0
 40
1.0
 10
10.8675352463
 20
4.620612262
 30
0.0
 10
10.8675352441
 20
4.6219717388
 30
0.0
 10
10.8675652392
 20
4.6246667658
 30
0.0
 10
10.8677003446
 20
4.6286461398
 30
0.0
 10
10.8679229664
 20
4.6324768257
 30
0.0
 10
10.8682282364
 20
4.6360873166
 30
0.0
 10
10.8686104007
 20
4.6394112763
 30
0.0
 10
10.8690616607
 20
4.6423874094
 30
0.0
 10
10.8695042588
 20
4.6446196415
 30
0.0
 10
10.8698952818
 20
4.64618655
 30
0.0
 10
10.8701005242
 20
4.6468931671
 30
0.0
 10
10.8702062371
 20
4.647225781
 30
0.0
  0
SPLINE
  5
310
100
AcDbEntity
  8
0
100
AcDbSpline
 62
9
  6
CONTINUOUS
 70
0
 71
3
 72
36
 73
32
 74
0
 42
0.0000001
 43
0.0000001
 44
0.0000000001
 40
0.0
 40
0.0
 40
0.0
 40
0.0
 40
0.216567753
 40
0.3163648127
 40
0.4103722985
 40
0.4984500837
 40
0.5804182788
 40
0.6560596867
 40
0.7251181658
 40
0.7872945562
 40
0.8422534247
 40
0.8669129872
 40
0.8896277899
 40
0.91034737
 40
0.9290197019
 40
0.9455913613
 40
0.9600077532
 40
0.9722198083
 40
0.9774942354
 40
0.9822141397
 40
0.9863794331
 40
0.9899900274
 40
0.9930458342
 40
0.9955467654
 40
0.997492733
 40
0.998257578
 40
0.9988836492
 40
0.999370936
 40
0.9997194277
 40
0.9999291153
 40
1.0
 40
1.0
 40
1.0
 40
1.0
 10
12.6038911911
 20
4.828480011
 30
0.0
 10
12.6054101832
 20
4.8288264656
 30
0.0
 10
12.6076099988
 20
4.8294239558
 30
0.0
 10
12.6104054579
 20
4.8303748649
 30
0.0
 10
12.6122986507
 20
4.8311031203
 30
0.0
 10
12.6140448208
 20
4.8318521623
 30
0.0
 10
12.6156429203
 20
4.8326081093
 30
0.0
 10
12.6170917349
 20
4.8333571519
 30
0.0
 10
12.6183901614
 20
4.8340850668
 30
0.0
 10
12.6195376224
 20
4.834776512
 30
0.0
 10
12.6203959502
 20
4.8353279796
 30
0.0
 10
12.6210072906
 20
4.8357381782
 30
0.0
 10
12.621410827
 20
4.8360159256
 30
0.0
 10
12.6217761497
 20
4.8362731717
 30
0.0
 10
12.6221031666
 20
4.8365080222
 30
0.0
 10
12.622391794
 20
4.8367185702
 30
0.0
 10
12.622641941
 20
4.8369029977
 30
0.0
 10
12.6228265563
 20
4.8370393521
 30
0.0
 10
12.6229550481
 20
4.8371342795
 30
0.0
 10
12.6230369669
 20
4.8371948255
 30
0.0
 10
12.62310925
 20
4.8372482708
 30
0.0
 10
12.6231718943
 20
4.8372946141
 30
0.0
 10
12.6232249074
 20
4.8373338485
 30
0.0
 10
12.623268268
 20
4.8373659812
 30
0.0
 10
12.6232984123
 20
4.8373882994
 30
0.0
 10
12.6233176464
 20
4.8374026292
 30
0.0
 10
12.6233285753
 20
4.837410648
 30
0.0
 10
12.623336792
 20
4.8374170362
 30
0.0
 10
12.6233433141
 20
4.8374212918
 30
0.0
 10
12.6233460611
 20
4.8374244384
 30
0.0
 10
12.6233485778
 20
4.8374252121
 30
0.0
 10
12.623348595
 20
4.8374257217
 30
0.0
  0
SPLINE
  5
311
100
AcDbEntity
  8
0
100
AcDbSpline
 62
9
  6
CONTINUOUS
 70
0
 71
3
 72
28
 73
24
 74
0
 42
0.0000001
 43
0.0000001
 44
0.0000000001
 40
0.0
 40
0.0
 40
0.0
 40
0.0
 40
0.0620623415
 40
0.1243000664
 40
0.1866890656
 40
0.2492032084
 40
0.3118147277
 40
0.3431488287
 40
0.3744981077
 40
0.4058604151
 40
0.4372338134
 40
0.4686149209
 40
0.4999998487
 40
0.5313847152
 40
0.5627656478
 40
0.5941387861
 40
0.6255009237
 40
0.6568501883
 40
0.6881843868
 40
0.7507962766
 40
0.8133107959
 40
0.8757001527
 40
1.0
 40
1.0
 40
1.0
 40
1.0
 10
11.49391986
 20
4.828480011
 30
0.0
 10
11.5039221643
 20
4.8288451441
 30
0.0
 10
11.5239513771
 20
4.829677501
 30
0.0
 10
11.5540247958
 20
4.8311186184
 30
0.0
 10
11.5841669983
 20
4.8326431514
 30
0.0
 10
11.6143708778
 20
4.8341415339
 30
0.0
 10
11.6395785881
 20
4.8352695561
 30
0.0
 10
11.659770687
 20
4.8360386016
 30
0.0
 10
11.6749297063
 20
4.8365335423
 30
0.0
 10
11.6900979638
 20
4.8369313222
 30
0.0
 10
11.7052739164
 20
4.8372161821
 30
0.0
 10
11.7204552216
 20
4.8373873211
 30
0.0
 10
11.7356392338
 20
4.8374447209
 30
0.0
 10
11.7508232208
 20
4.8373881092
 30
0.0
 10
11.7660044532
 20
4.8372174334
 30
0.0
 10
11.7811802996
 20
4.8369320117
 30
0.0
 10
11.7963484655
 20
4.8365334951
 30
0.0
 10
11.8115074589
 20
4.836038215
 30
0.0
 10
11.8316996241
 20
4.8352689632
 30
0.0
 10
11.8569074671
 20
4.8341411215
 30
0.0
 10
11.8871115952
 20
4.8326432809
 30
0.0
 10
11.9272498677
 20
4.8306133435
 30
0.0
 10
11.9573262292
 20
4.8292113007
 30
0.0
 10
11.9773590684
 20
4.828480011
 30
0.0
  0
SPLINE
  5
312
100
AcDbEntity
  8
0
100
AcDbSpline
 62
9
  6
CONTINUOUS
 70
0
 71
3
 72
38
 73
34
 74
0
 42
0.0000001
 43
0.0000001
 44
0.0000000001
 40
0.0
 40
0.0
 40
0.0
 40
0.0
 40
0.0000725132
 40
0.0001634185
 40
0.0002906621
 40
0.0006538819
 40
0.0011616086
 40
0.0018132799
 40
0.0026083356
 40
0.0035462178
 40
0.0046263704
 40
0.0072112726
 40
0.0103586393
 40
0.0140641016
 40
0.0183233266
 40
0.0231320175
 40
0.0284859146
 40
0.0408124428
 40
0.0552696201
 40
0.071824756
 40
0.0904458075
 40
0.1111013934
 40
0.1337560556
 40
0.1583615785
 40
0.2132293105
 40
0.2753341001
 40
0.3443361462
 40
0.419930381
 40
0.5018500671
 40
0.5898740021
 40
0.6838237813
 40
0.7835603476
 40
1.0
 40
1.0
 40
1.0
 40
1.0
 10
10.8479299791
 20
4.8374481911
 30
0.0
 10
10.847930008
 20
4.8374487123
 30
0.0
 10
10.8479315089
 20
4.8374466197
 30
0.0
 10
10.8479328107
 20
4.8374459794
 30
0.0
 10
10.8479362078
 20
4.8374429104
 30
0.0
 10
10.8479416119
 20
4.8374386229
 30
0.0
 10
10.8479501295
 20
4.837431505
 30
0.0
 10
10.8479609745
 20
4.8374226265
 30
0.0
 10
10.8479742668
 20
4.8374117332
 30
0.0
 10
10.8479899607
 20
4.8373989453
 30
0.0
 10
10.8480156904
 20
4.8373780614
 30
0.0
 10
10.8480538729
 20
4.8373472885
 30
0.0
 10
10.8481069564
 20
4.8373048839
 30
0.0
 10
10.8481696772
 20
4.8372552349
 30
0.0
 10
10.8482420308
 20
4.8371984868
 30
0.0
 10
10.8483240115
 20
4.8371347865
 30
0.0
 10
10.8484523052
 20
4.8370360411
 30
0.0
 10
10.8486366605
 20
4.8368962612
 30
0.0
 10
10.8488870258
 20
4.8367101002
 30
0.0
 10
10.8491757763
 20
4.8364996475
 30
0.0
 10
10.8495028714
 20
4.8362660787
 30
0.0
 10
10.849868233
 20
4.8360105759
 30
0.0
 10
10.8502717185
 20
4.8357344544
 30
0.0
 10
10.8508831538
 20
4.8353261873
 30
0.0
 10
10.8517416158
 20
4.8347765936
 30
0.0
 10
10.8528890853
 20
4.8340865324
 30
0.0
 10
10.8541874198
 20
4.8333590594
 30
0.0
 10
10.8556358298
 20
4.8326093041
 30
0.0
 10
10.8572336449
 20
4.8318525447
 30
0.0
 10
10.8589797729
 20
4.8311031485
 30
0.0
 10
10.860873018
 20
4.8303747628
 30
0.0
 10
10.8636686699
 20
4.8294238952
 30
0.0
 10
10.8658686502
 20
4.8288265042
 30
0.0
 10
10.8673877373
 20
4.828480011
 30
0.0
  0
SPLINE
  5
313
100
AcDbEntity
  8
0
100
AcDbSpline
 62
9
  6
CONTINUOUS
 70
0
 71
3
 72
30
 73
26
 74
0
 42
0.0000001
 43
0.0000001
 44
0.0000000001
 40
0.0
 40
0.0
 40
0.0
 40
0.0
 40
0.0702282932
 40
0.1451574085
 40
0.2238634067
 40
0.3052838101
 40
0.4715827953
 40
0.5539673536
 40
0.6338725565
 40
0.709698286
 40
0.7798269582
 40
0.8426282095
 40
0.8707698207
 40
0.8964983438
 40
0.9196833103
 40
0.9401968547
 40
0.957910959
 40
0.9726974647
 40
0.9844280837
 40
0.9891073142
 40
0.9929744107
 40
0.9960133052
 40
0.9982079228
 40
0.9995421829
 40
1.0
 40
1.0
 40
1.0
 40
1.0
 10
12.6250459813
 20
4.7999087883
 30
0.0
 10
12.6252880111
 20
4.80027887
 30
0.0
 10
12.6257516568
 20
4.8010679724
 30
0.0
 10
12.6263786562
 20
4.8023312898
 30
0.0
 10
12.6269626129
 20
4.8036919588
 30
0.0
 10
12.6276886636
 20
4.8056153301
 30
0.0
 10
12.6283170484
 20
4.8075982456
 30
0.0
 10
12.6288673438
 20
4.8095927622
 30
0.0
 10
12.6292355319
 20
4.8110462837
 30
0.0
 10
12.6295606262
 20
4.8124308252
 30
0.0
 10
12.629842488
 20
4.8137147353
 30
0.0
 10
12.6300481639
 20
4.8147078803
 30
0.0
 10
12.6301919854
 20
4.8154282964
 30
0.0
 10
12.6302850446
 20
4.815904473
 30
0.0
 10
12.6303671986
 20
4.8163338377
 30
0.0
 10
12.6304384355
 20
4.8167139093
 30
0.0
 10
12.6304987447
 20
4.8170422247
 30
0.0
 10
12.6305480961
 20
4.8173163225
 30
0.0
 10
12.6305822824
 20
4.8175097568
 30
0.0
 10
12.6306041272
 20
4.8176355474
 30
0.0
 10
12.6306165739
 20
4.8177074295
 30
0.0
 10
12.6306260345
 20
4.8177639345
 30
0.0
 10
12.6306333154
 20
4.817804671
 30
0.0
 10
12.6306367432
 20
4.8178295036
 30
0.0
 10
12.6306393245
 20
4.8178405604
 30
0.0
 10
12.630639464
 20
4.8178434397
 30
0.0
  0
SPLINE
  5
314
100
AcDbEntity
  8
0
100
AcDbSpline
 62
9
  6
CONTINUOUS
 70
0
 71
3
 72
53
 73
49
 74
0
 42
0.0000001
 43
0.0000001
 44
0.0000000001
 40
0.0
 40
0.0
 40
0.0
 40
0.0
 40
0.0088025957
 40
0.0180735646
 40
0.0278347934
 40
0.0381022361
 40
0.0488864451
 40
0.0601935342
 40
0.0720255531
 40
0.0843812035
 40
0.0972560986
 40
0.1106432581
 40
0.1245333076
 40
0.1389147999
 40
0.1537743973
 40
0.1690970573
 40
0.2010621054
 40
0.2346633902
 40
0.2697335947
 40
0.3060899101
 40
0.3435367347
 40
0.3818680893
 40
0.4208698502
 40
0.4603218658
 40
0.5
 40
0.5396781342
 40
0.5791301498
 40
0.6181319107
 40
0.6564632653
 40
0.6939100899
 40
0.7302664053
 40
0.7653366098
 40
0.7989378946
 40
0.8309029427
 40
0.8462256027
 40
0.8610852001
 40
0.8754666924
 40
0.8893567419
 40
0.9027439014
 40
0.9156187965
 40
0.9279744469
 40
0.9398064658
 40
0.9511135549
 40
0.9618977639
 40
0.9721652066
 40
0.9819264354
 40
0.9911974043
 40
1.0
 40
1.0
 40
1.0
 40
1.0
 10
12.0597118465
 20
11.6335990095
 30
0.0
 10
12.058408176
 20
11.6351225154
 30
0.0
 10
12.0556127595
 20
11.6381504506
 30
0.0
 10
12.0510098027
 20
11.6425166966
 30
0.0
 10
12.0458992942
 20
11.6468151014
 30
0.0
 10
12.0402896131
 20
11.6510387322
 30
0.0
 10
12.0341896378
 20
11.6551813667
 30
0.0
 10
12.0276090105
 20
11.659236468
 30
0.0
 10
12.0205582064
 20
11.6631977761
 30
0.0
 10
12.0130484162
 20
11.6670589674
 30
0.0
 10
12.0050916299
 20
11.670813952
 30
0.0
 10
11.9967005511
 20
11.6744566962
 30
0.0
 10
11.987888615
 20
11.6779813802
 30
0.0
 10
11.9786699565
 20
11.6813823184
 30
0.0
 10
11.9690593449
 20
11.6846540788
 30
0.0
 10
11.9555523504
 20
11.6888968804
 30
0.0
 10
11.9377901232
 20
11.6938201789
 30
0.0
 10
11.9154662658
 20
11.6990549574
 30
0.0
 10
11.8919847595
 20
11.7036628093
 30
0.0
 10
11.867496704
 20
11.7076137628
 30
0.0
 10
11.8421593758
 20
11.7108820734
 30
0.0
 10
11.8161358356
 20
11.7134464467
 30
0.0
 10
11.7895936351
 20
11.7152901716
 30
0.0
 10
11.7627037561
 20
11.7164012341
 30
0.0
 10
11.7356394642
 20
11.7167723944
 30
0.0
 10
11.7085751723
 20
11.7164012341
 30
0.0
 10
11.6816852933
 20
11.7152901716
 30
0.0
 10
11.6551430929
 20
11.7134464467
 30
0.0
 10
11.6291195526
 20
11.7108820734
 30
0.0
 10
11.6037822245
 20
11.7076137628
 30
0.0
 10
11.5792941689
 20
11.7036628093
 30
0.0
 10
11.5558126626
 20
11.6990549574
 30
0.0
 10
11.5334888052
 20
11.6938201789
 30
0.0
 10
11.515726578
 20
11.6888968804
 30
0.0
 10
11.5022195836
 20
11.6846540788
 30
0.0
 10
11.492608972
 20
11.6813823184
 30
0.0
 10
11.4833903135
 20
11.6779813802
 30
0.0
 10
11.4745783773
 20
11.6744566962
 30
0.0
 10
11.4661872986
 20
11.670813952
 30
0.0
 10
11.4582305123
 20
11.6670589674
 30
0.0
 10
11.450720722
 20
11.6631977761
 30
0.0
 10
11.4436699179
 20
11.659236468
 30
0.0
 10
11.4370892907
 20
11.6551813667
 30
0.0
 10
11.4309893153
 20
11.6510387322
 30
0.0
 10
11.4253796342
 20
11.6468151014
 30
0.0
 10
11.4202691258
 20
11.6425166966
 30
0.0
 10
11.4156661689
 20
11.6381504506
 30
0.0
 10
11.4128707525
 20
11.6351225154
 30
0.0
 10
11.4115670819
 20
11.6335990095
 30
0.0
  0
SPLINE
  5
315
100
AcDbEntity
  8
0
100
AcDbSpline
 62
9
  6
CONTINUOUS
 70
0
 71
3
 72
59
 73
55
 74
0
 42
0.0000001
 43
0.0000001
 44
0.0000000001
 40
0.0
 40
0.0
 40
0.0
 40
0.0
 40
0.0075619459
 40
0.0154053652
 40
0.0236264101
 40
0.0323050283
 40
0.0415055958
 40
0.0512781236
 40
0.0616596009
 40
0.0726760967
 40
0.0843442387
 40
0.0966726997
 40
0.1096635763
 40
0.1233130902
 40
0.1376126861
 40
0.1525495512
 40
0.1681070855
 40
0.1842655767
 40
0.2010022867
 40
0.218291969
 40
0.2361071072
 40
0.2544180098
 40
0.2923976552
 40
0.3319622377
 40
0.3728194116
 40
0.4146602266
 40
0.4571635019
 40
0.5
 40
0.5428364981
 40
0.5853397734
 40
0.6271805884
 40
0.6680377623
 40
0.7076023448
 40
0.7455819902
 40
0.7638928928
 40
0.781708031
 40
0.7989977133
 40
0.8157344233
 40
0.8318929145
 40
0.8474504488
 40
0.8623873139
 40
0.8766869098
 40
0.8903364237
 40
0.9033273003
 40
0.9156557613
 40
0.9273239033
 40
0.9383403991
 40
0.9487218764
 40
0.9584944042
 40
0.9676949717
 40
0.9763735899
 40
0.9845946348
 40
0.9924380541
 40
1.0
 40
1.0
 40
1.0
 40
1.0
 10
12.0801657957
 20
11.5930993892
 30
0.0
 10
12.0797940547
 20
11.5949688876
 30
0.0
 10
12.0787782724
 20
11.5987302133
 30
0.0
 10
12.0765130817
 20
11.6042526173
 30
0.0
 10
12.0734937571
 20
11.6097243514
 30
0.0
 10
12.0697302406
 20
11.6151332167
 30
0.0
 10
12.0652326262
 20
11.6204694477
 30
0.0
 10
12.060011675
 20
11.625722896
 30
0.0
 10
12.0540792257
 20
11.6308837035
 30
0.0
 10
12.0474481067
 20
11.6359415776
 30
0.0
 10
12.0401326247
 20
11.6408862712
 30
0.0
 10
12.0321485337
 20
11.645707562
 30
0.0
 10
12.0235129755
 20
11.6503951087
 30
0.0
 10
12.0142446809
 20
11.6549389665
 30
0.0
 10
12.0043637394
 20
11.6593292323
 30
0.0
 10
11.9938916588
 20
11.6635563026
 30
0.0
 10
11.9828513245
 20
11.6676110073
 30
0.0
 10
11.9712668591
 20
11.6714843228
 30
0.0
 10
11.9591636631
 20
11.6751677979
 30
0.0
 10
11.9465682988
 20
11.6786532842
 30
0.0
 10
11.9335083738
 20
11.6819330859
 30
0.0
 10
11.9152920289
 20
11.6860725398
 30
0.0
 10
11.8915622123
 20
11.6906600513
 30
0.0
 10
11.862054683
 20
11.6951789344
 30
0.0
 10
11.831436086
 20
11.6987361061
 30
0.0
 10
11.7999756352
 20
11.7012998789
 30
0.0
 10
11.7679495806
 20
11.7028473371
 30
0.0
 10
11.7356394642
 20
11.7033646952
 30
0.0
 10
11.7033293478
 20
11.7028473371
 30
0.0
 10
11.6713032933
 20
11.7012998789
 30
0.0
 10
11.6398428425
 20
11.6987361061
 30
0.0
 10
11.6092242454
 20
11.6951789344
 30
0.0
 10
11.5797167161
 20
11.6906600513
 30
0.0
 10
11.5559868995
 20
11.6860725398
 30
0.0
 10
11.5377705547
 20
11.6819330859
 30
0.0
 10
11.5247106296
 20
11.6786532842
 30
0.0
 10
11.5121152654
 20
11.6751677979
 30
0.0
 10
11.5000120693
 20
11.6714843228
 30
0.0
 10
11.4884276039
 20
11.6676110073
 30
0.0
 10
11.4773872697
 20
11.6635563026
 30
0.0
 10
11.466915189
 20
11.6593292323
 30
0.0
 10
11.4570342476
 20
11.6549389665
 30
0.0
 10
11.447765953
 20
11.6503951087
 30
0.0
 10
11.4391303947
 20
11.645707562
 30
0.0
 10
11.4311463037
 20
11.6408862712
 30
0.0
 10
11.4238308217
 20
11.6359415776
 30
0.0
 10
11.4171997027
 20
11.6308837035
 30
0.0
 10
11.4112672535
 20
11.625722896
 30
0.0
 10
11.4060463023
 20
11.6204694477
 30
0.0
 10
11.4015486879
 20
11.6151332167
 30
0.0
 10
11.3977851714
 20
11.6097243514
 30
0.0
 10
11.3947658468
 20
11.6042526173
 30
0.0
 10
11.3925006561
 20
11.5987302133
 30
0.0
 10
11.3914848737
 20
11.5949688876
 30
0.0
 10
11.3911131327
 20
11.5930993892
 30
0.0
  0
LINE
  5
316
100
AcDbEntity
  8
0
100
AcDbLine
 62
9
  6
CONTINUOUS
 10
9.4290720765
 20
7.141781856
 11
9.426991362
 21
7.145568074
  0
SPLINE
  5
317
100
AcDbEntity
  8
0
100
AcDbSpline
 62
9
  6
CONTINUOUS
 70
0
 71
3
 72
59
 73
55
 74
0
 42
0.0000001
 43
0.0000001
 44
0.0000000001
 40
0.0
 40
0.0
 40
0.0
 40
0.0
 40
0.0075825777
 40
0.0154620624
 40
0.0237309871
 40
0.0324652631
 40
0.0417258159
 40
0.0515598561
 40
0.062002045
 40
0.0730765632
 40
0.0847986553
 40
0.0971758687
 40
0.1102094857
 40
0.1238951642
 40
0.1382239085
 40
0.15318269
 40
0.1687547685
 40
0.1849204068
 40
0.2016569658
 40
0.2189393263
 40
0.2367402107
 40
0.2550302039
 40
0.2929494663
 40
0.3324315917
 40
0.3731880018
 40
0.4149139514
 40
0.4572927843
 40
0.5
 40
0.5427072157
 40
0.5850860486
 40
0.6268119982
 40
0.6675684083
 40
0.7070505337
 40
0.7449697961
 40
0.7632597893
 40
0.7810606737
 40
0.7983430342
 40
0.8150795932
 40
0.8312452315
 40
0.84681731
 40
0.8617760915
 40
0.8761048358
 40
0.8897905143
 40
0.9028241313
 40
0.9152013447
 40
0.9269234368
 40
0.937997955
 40
0.9484401439
 40
0.9582741841
 40
0.9675347369
 40
0.9762690129
 40
0.9845379376
 40
0.9924174223
 40
1.0
 40
1.0
 40
1.0
 40
1.0
 10
12.0801256969
 20
11.5932028593
 30
0.0
 10
12.0797080554
 20
11.5950635484
 30
0.0
 10
12.0786025138
 20
11.5988047663
 30
0.0
 10
12.0762163184
 20
11.6042893832
 30
0.0
 10
12.0730860991
 20
11.6097220912
 30
0.0
 10
12.0692214471
 20
11.6150909889
 30
0.0
 10
12.0646324905
 20
11.6203865371
 30
0.0
 10
12.0593299003
 20
11.6255987311
 30
0.0
 10
12.0533254538
 20
11.6307178167
 30
0.0
 10
12.0466319991
 20
11.6357336984
 30
0.0
 10
12.0392637577
 20
11.6406362127
 30
0.0
 10
12.0312364522
 20
11.6454153583
 30
0.0
 10
12.022567125
 20
11.6500609697
 30
0.0
 10
12.0132743623
 20
11.6545632571
 30
0.0
 10
12.0033781052
 20
11.6589125634
 30
0.0
 10
11.9928996385
 20
11.6630994284
 30
0.0
 10
11.9818616134
 20
11.6671148951
 30
0.0
 10
11.9702878779
 20
11.6709501357
 30
0.0
 10
11.9582035132
 20
11.6745968461
 30
0.0
 10
11.9456347451
 20
11.6780470884
 30
0.0
 10
11.9326088032
 20
11.6812933045
 30
0.0
 10
11.9144505302
 20
11.6853892695
 30
0.0
 10
11.8908090262
 20
11.6899282268
 30
0.0
 10
11.8614244512
 20
11.6943991142
 30
0.0
 10
11.8309470665
 20
11.6979180056
 30
0.0
 10
11.7996417644
 20
11.7004539186
 30
0.0
 10
11.7677802736
 20
11.701984455
 30
0.0
 10
11.7356394642
 20
11.702496138
 30
0.0
 10
11.7034986549
 20
11.701984455
 30
0.0
 10
11.671637164
 20
11.7004539186
 30
0.0
 10
11.6403318619
 20
11.6979180056
 30
0.0
 10
11.6098544773
 20
11.6943991142
 30
0.0
 10
11.5804699022
 20
11.6899282268
 30
0.0
 10
11.5568283983
 20
11.6853892695
 30
0.0
 10
11.5386701253
 20
11.6812933045
 30
0.0
 10
11.5256441833
 20
11.6780470884
 30
0.0
 10
11.5130754153
 20
11.6745968461
 30
0.0
 10
11.5009910506
 20
11.6709501357
 30
0.0
 10
11.4894173151
 20
11.6671148951
 30
0.0
 10
11.47837929
 20
11.6630994284
 30
0.0
 10
11.4679008232
 20
11.6589125634
 30
0.0
 10
11.4580045661
 20
11.6545632571
 30
0.0
 10
11.4487118034
 20
11.6500609697
 30
0.0
 10
11.4400424762
 20
11.6454153583
 30
0.0
 10
11.4320151707
 20
11.6406362127
 30
0.0
 10
11.4246469294
 20
11.6357336984
 30
0.0
 10
11.4179534747
 20
11.6307178167
 30
0.0
 10
11.4119490281
 20
11.6255987311
 30
0.0
 10
11.406646438
 20
11.6203865371
 30
0.0
 10
11.4020574813
 20
11.6150909889
 30
0.0
 10
11.3981928294
 20
11.6097220912
 30
0.0
 10
11.3950626101
 20
11.6042893832
 30
0.0
 10
11.3926764147
 20
11.5988047663
 30
0.0
 10
11.3915708731
 20
11.5950635484
 30
0.0
 10
11.3911532315
 20
11.5932028593
 30
0.0
  0
LINE
  5
318
100
AcDbEntity
  8
0
100
AcDbLine
 62
9
  6
CONTINUOUS
 10
9.443508133
 20
7.1867870719
 11
9.4103740686
 21
8.7247333392
  0
SPLINE
  5
319
100
AcDbEntity
  8
0
100
AcDbSpline
 62
9
  6
CONTINUOUS
 70
0
 71
3
 72
14
 73
10
 74
0
 42
0.0000001
 43
0.0000001
 44
0.0000000001
 40
0.0
 40
0.0
 40
0.0
 40
0.0
 40
0.1312822
 40
0.2617140433
 40
0.3907128046
 40
0.5177760434
 40
0.6425020942
 40
0.7645916768
 40
1.0
 40
1.0
 40
1.0
 40
1.0
 10
9.4103740686
 20
8.7247333392
 30
0.0
 10
9.410248018
 20
8.7307407453
 30
0.0
 10
9.4096152921
 20
8.7427122252
 30
0.0
 10
9.4075313907
 20
8.7604847696
 30
0.0
 10
9.4043540213
 20
8.7778991811
 30
0.0
 10
9.4001352719
 20
8.7948212359
 30
0.0
 10
9.3949387898
 20
8.8111390089
 30
0.0
 10
9.3869012731
 20
8.8317048852
 30
0.0
 10
9.3794847775
 20
8.8463594401
 30
0.0
 10
9.3739748729
 20
8.8556185739
 30
0.0
  0
SPLINE
  5
31A
100
AcDbEntity
  8
0
100
AcDbSpline
 62
9
  6
CONTINUOUS
 70
0
 71
3
 72
15
 73
11
 74
0
 42
0.0000001
 43
0.0000001
 44
0.0000000001
 40
0.0
 40
0.0
 40
0.0
 40
0.0
 40
0.1255214595
 40
0.2512251731
 40
0.3768560529
 40
0.502321968
 40
0.6274661916
 40
0.7521551101
 40
0.876377501
 40
1.0
 40
1.0
 40
1.0
 40
1.0
 10
12.54606265
 20
4.745703194
 30
0.0
 10
12.5474557234
 20
4.7453289235
 30
0.0
 10
12.5501949391
 20
4.7443820573
 30
0.0
 10
12.554062379
 20
4.7424031892
 30
0.0
 10
12.5576154053
 20
4.7399030485
 30
0.0
 10
12.560779616
 20
4.7369356544
 30
0.0
 10
12.5634886172
 20
4.7335613282
 30
0.0
 10
12.5656873316
 20
4.7298505022
 30
0.0
 10
12.5673275114
 20
4.7258808658
 30
0.0
 10
12.5680287393
 20
4.7231082011
 30
0.0
 10
12.5682759447
 20
4.7217092227
 30
0.0
  0
SPLINE
  5
31B
100
AcDbEntity
  8
0
100
AcDbSpline
 62
9
  6
CONTINUOUS
 70
0
 71
3
 72
15
 73
11
 74
0
 42
0.0000001
 43
0.0000001
 44
0.0000000001
 40
0.0
 40
0.0
 40
0.0
 40
0.0
 40
0.1268414389
 40
0.25345831
 40
0.3796439223
 40
0.5052262827
 40
0.6300825759
 40
0.7541500004
 40
0.877432164
 40
1.0
 40
1.0
 40
1.0
 40
1.0
 10
9.370085146
 20
8.9080187254
 30
0.0
 10
9.3700851456
 20
8.9089921155
 30
0.0
 10
9.3702214111
 20
8.9109399211
 30
0.0
 10
9.3708304875
 20
8.9137982879
 30
0.0
 10
9.3718313655
 20
8.9165345274
 30
0.0
 10
9.3732029817
 20
8.9190897056
 30
0.0
 10
9.3749163445
 20
8.9214095401
 30
0.0
 10
9.3769354366
 20
8.9234444954
 30
0.0
 10
9.3792166758
 20
8.9251506153
 30
0.0
 10
9.3808860745
 20
8.9260474471
 30
0.0
 10
9.3817458784
 20
8.9264288322
 30
0.0
  0
SPLINE
  5
31C
100
AcDbEntity
  8
0
100
AcDbSpline
 62
9
  6
CONTINUOUS
 70
0
 71
3
 72
59
 73
55
 74
0
 42
0.0000001
 43
0.0000001
 44
0.0000000001
 40
0.0
 40
0.0
 40
0.0
 40
0.0
 40
0.0075124953
 40
0.0151943247
 40
0.0231651134
 40
0.0315308755
 40
0.0403793044
 40
0.0497804632
 40
0.0597881312
 40
0.0704416145
 40
0.0817680604
 40
0.0937840628
 40
0.1064976765
 40
0.1199095744
 40
0.1340141423
 40
0.1488006249
 40
0.164253474
 40
0.1803532881
 40
0.1970771182
 40
0.2143988256
 40
0.2322896627
 40
0.2507182439
 40
0.2890504686
 40
0.3291073721
 40
0.3705729802
 40
0.4131117794
 40
0.4563738928
 40
0.5
 40
0.5436261072
 40
0.5868882206
 40
0.6294270198
 40
0.6708926279
 40
0.7109495314
 40
0.7492817561
 40
0.7677103373
 40
0.7856011744
 40
0.8029228818
 40
0.8196467119
 40
0.835746526
 40
0.8511993751
 40
0.8659858577
 40
0.8800904256
 40
0.8935023235
 40
0.9062159372
 40
0.9182319396
 40
0.9295583855
 40
0.9402118688
 40
0.9502195368
 40
0.9596206956
 40
0.9684691245
 40
0.9768348866
 40
0.9848056753
 40
0.9924875047
 40
1.0
 40
1.0
 40
1.0
 40
1.0
 10
12.0195504932
 20
11.3384330166
 30
0.0
 10
12.0194845661
 20
11.3400149341
 30
0.0
 10
12.0191211201
 20
11.3432091881
 30
0.0
 10
12.0178985877
 20
11.3479503665
 30
0.0
 10
12.0160021308
 20
11.3526581575
 30
0.0
 10
12.0134402251
 20
11.357319704
 30
0.0
 10
12.0102220242
 20
11.3619256644
 30
0.0
 10
12.006356788
 20
11.3664666538
 30
0.0
 10
12.001854553
 20
11.3709337499
 30
0.0
 10
11.9967261898
 20
11.3753179629
 30
0.0
 10
11.9909835307
 20
11.3796099159
 30
0.0
 10
11.9846399027
 20
11.3838004118
 30
0.0
 10
11.9777098565
 20
11.3878800174
 30
0.0
 10
11.9702094004
 20
11.3918394466
 30
0.0
 10
11.9621559568
 20
11.3956696562
 30
0.0
 10
11.9535682278
 20
11.3993616052
 30
0.0
 10
11.9444663111
 20
11.4029067627
 30
0.0
 10
11.9348715061
 20
11.4062967306
 30
0.0
 10
11.9248063264
 20
11.4095234941
 30
0.0
 10
11.9142944592
 20
11.4125794911
 30
0.0
 10
11.9033605896
 20
11.4154574359
 30
0.0
 10
11.8880526339
 20
11.4190958655
 30
0.0
 10
11.8680434906
 20
11.4231301542
 30
0.0
 10
11.8430919701
 20
11.4271050171
 30
0.0
 10
11.8171277426
 20
11.4302367419
 30
0.0
 10
11.7903955897
 20
11.4324953806
 30
0.0
 10
11.7631472033
 20
11.4338592664
 30
0.0
 10
11.7356394642
 20
11.4343153516
 30
0.0
 10
11.7081317252
 20
11.4338592664
 30
0.0
 10
11.6808833388
 20
11.4324953806
 30
0.0
 10
11.6541511858
 20
11.4302367419
 30
0.0
 10
11.6281869584
 20
11.4271050171
 30
0.0
 10
11.6032354378
 20
11.4231301542
 30
0.0
 10
11.5832262945
 20
11.4190958655
 30
0.0
 10
11.5679183388
 20
11.4154574359
 30
0.0
 10
11.5569844692
 20
11.4125794911
 30
0.0
 10
11.5464726021
 20
11.4095234941
 30
0.0
 10
11.5364074223
 20
11.4062967306
 30
0.0
 10
11.5268126174
 20
11.4029067627
 30
0.0
 10
11.5177107007
 20
11.3993616052
 30
0.0
 10
11.5091229717
 20
11.3956696562
 30
0.0
 10
11.501069528
 20
11.3918394466
 30
0.0
 10
11.4935690719
 20
11.3878800174
 30
0.0
 10
11.4866390258
 20
11.3838004118
 30
0.0
 10
11.4802953978
 20
11.3796099159
 30
0.0
 10
11.4745527386
 20
11.3753179629
 30
0.0
 10
11.4694243754
 20
11.3709337499
 30
0.0
 10
11.4649221404
 20
11.3664666538
 30
0.0
 10
11.4610569042
 20
11.3619256644
 30
0.0
 10
11.4578387033
 20
11.357319704
 30
0.0
 10
11.4552767976
 20
11.3526581575
 30
0.0
 10
11.4533803408
 20
11.3479503665
 30
0.0
 10
11.4521578084
 20
11.3432091881
 30
0.0
 10
11.4517943623
 20
11.3400149341
 30
0.0
 10
11.4517284353
 20
11.3384330166
 30
0.0
  0
SPLINE
  5
31D
100
AcDbEntity
  8
0
100
AcDbSpline
 62
9
  6
CONTINUOUS
 70
0
 71
3
 72
11
 73
7
 74
0
 42
0.0000001
 43
0.0000001
 44
0.0000000001
 40
0.0
 40
0.0
 40
0.0
 40
0.0
 40
0.2310035201
 40
0.4734204816
 40
0.7291807956
 40
1.0
 40
1.0
 40
1.0
 40
1.0
 10
9.3817458784
 20
8.9264288322
 30
0.0
 10
9.3827498361
 20
8.9270146579
 30
0.0
 10
9.3847335412
 20
8.9283458649
 30
0.0
 10
9.3875263554
 20
8.9307371688
 30
0.0
 10
9.3901733876
 20
8.9335697467
 30
0.0
 10
9.3917704933
 20
8.9356909833
 30
0.0
 10
9.3925354884
 20
8.9368187254
 30
0.0
  0
SPLINE
  5
31E
100
AcDbEntity
  8
0
100
AcDbSpline
 62
9
  6
CONTINUOUS
 70
0
 71
3
 72
18
 73
14
 74
0
 42
0.0000001
 43
0.0000001
 44
0.0000000001
 40
0.0
 40
0.0
 40
0.0
 40
0.0
 40
0.0266703622
 40
0.0590318445
 40
0.0970482065
 40
0.1406068687
 40
0.189535245
 40
0.24363624
 40
0.3663064591
 40
0.5062432423
 40
0.6606136117
 40
0.8263740865
 40
1.0
 40
1.0
 40
1.0
 40
1.0
 10
12.54606265
 20
4.745703194
 30
0.0
 10
12.5461144979
 20
4.7454942584
 30
0.0
 10
12.5461986684
 20
4.7450242905
 30
0.0
 10
12.5462771093
 20
4.744244507
 30
0.0
 10
12.5463184629
 20
4.7433253945
 30
0.0
 10
12.5463221233
 20
4.742271817
 30
0.0
 10
12.5462880088
 20
4.7410889371
 30
0.0
 10
12.5461874976
 20
4.739269791
 30
0.0
 10
12.5459610299
 20
4.7367228125
 30
0.0
 10
12.5455575285
 20
4.7333810243
 30
0.0
 10
12.5450183229
 20
4.7297065367
 30
0.0
 10
12.5443551034
 20
4.7257764463
 30
0.0
 10
12.5438477352
 20
4.7230842561
 30
0.0
 10
12.5435756135
 20
4.7217094896
 30
0.0
  0
SPLINE
  5
31F
100
AcDbEntity
  8
0
100
AcDbSpline
 62
9
  6
CONTINUOUS
 70
0
 71
3
 72
18
 73
14
 74
0
 42
0.0000001
 43
0.0000001
 44
0.0000000001
 40
0.0
 40
0.0
 40
0.0
 40
0.0
 40
0.0268546331
 40
0.0596309392
 40
0.0982808308
 40
0.1426538304
 40
0.1925420805
 40
0.2476768333
 40
0.3723353318
 40
0.5136083201
 40
0.6679480889
 40
0.8314844426
 40
1.0
 40
1.0
 40
1.0
 40
1.0
 10
12.4558097244
 20
4.7642681467
 30
0.0
 10
12.455884052
 20
4.7640235538
 30
0.0
 10
12.4560091733
 20
4.763468439
 30
0.0
 10
12.4561375607
 20
4.7625411882
 30
0.0
 10
12.4562228861
 20
4.7614416127
 30
0.0
 10
12.45626435
 20
4.7601767801
 30
0.0
 10
12.4562613701
 20
4.7587544001
 30
0.0
 10
12.4561949233
 20
4.7565687812
 30
0.0
 10
12.4559917276
 20
4.7535182566
 30
0.0
 10
12.455588979
 20
4.7495373439
 30
0.0
 10
12.4550265935
 20
4.7452023764
 30
0.0
 10
12.4543186239
 20
4.7406263232
 30
0.0
 10
12.453765172
 20
4.7375139457
 30
0.0
 10
12.4534671818
 20
4.7359377184
 30
0.0
  0
SPLINE
  5
320
100
AcDbEntity
  8
0
100
AcDbSpline
 62
9
  6
CONTINUOUS
 70
0
 71
3
 72
15
 73
11
 74
0
 42
0.0000001
 43
0.0000001
 44
0.0000000001
 40
0.0
 40
0.0
 40
0.0
 40
0.0
 40
0.1336311947
 40
0.2643646434
 40
0.3923299972
 40
0.5177516858
 40
0.640893144
 40
0.7620728808
 40
0.8816505871
 40
1.0
 40
1.0
 40
1.0
 40
1.0
 10
9.3925354884
 20
8.9368187254
 30
0.0
 10
9.3941700811
 20
8.9389356207
 30
0.0
 10
9.3975714392
 20
8.9429974608
 30
0.0
 10
9.4030946842
 20
8.9485908423
 30
0.0
 10
9.4089421304
 20
8.9535962218
 30
0.0
 10
9.4150716175
 20
8.9579962622
 30
0.0
 10
9.4214430639
 20
8.9617786331
 30
0.0
 10
9.4280173294
 20
8.9649353138
 30
0.0
 10
9.4347560377
 20
8.9674607316
 30
0.0
 10
9.4393540303
 20
8.9687281985
 30
0.0
 10
9.4416635529
 20
8.9692542741
 30
0.0
  0
SPLINE
  5
321
100
AcDbEntity
  8
0
100
AcDbSpline
 62
9
  6
CONTINUOUS
 70
0
 71
3
 72
53
 73
49
 74
0
 42
0.0000001
 43
0.0000001
 44
0.0000000001
 40
0.0
 40
0.0
 40
0.0
 40
0.0
 40
0.0084842965
 40
0.0174289932
 40
0.0268651715
 40
0.0368160678
 40
0.0472983104
 40
0.058322691
 40
0.0698950371
 40
0.0820168983
 40
0.0946860296
 40
0.1078970332
 40
0.1216415122
 40
0.1359087067
 40
0.1506854113
 40
0.165956609
 40
0.1979108223
 40
0.2316193194
 40
0.2669058707
 40
0.3035762513
 40
0.3414214324
 40
0.3802204068
 40
0.4197427826
 40
0.4597512286
 40
0.50000383
 40
0.540256392
 40
0.5802647201
 40
0.6197869007
 40
0.6585856043
 40
0.6964304417
 40
0.7331004092
 40
0.7683864823
 40
0.8020944412
 40
0.8340480628
 40
0.849318947
 40
0.8640953277
 40
0.8783621892
 40
0.8921063276
 40
0.9053169841
 40
0.9179857641
 40
0.9301072713
 40
0.9416792632
 40
0.9527032919
 40
0.963185188
 40
0.9731357463
 40
0.9825715996
 40
0.9915159885
 40
1.0
 40
1.0
 40
1.0
 40
1.0
 10
12.0325873341
 20
11.2981267681
 30
0.0
 10
12.0315395505
 20
11.2995671734
 30
0.0
 10
12.0292586908
 20
11.3024342867
 30
0.0
 10
12.0254204464
 20
11.3065729777
 30
0.0
 10
12.021085704
 20
11.3106519589
 30
0.0
 10
12.016262306
 20
11.3146645045
 30
0.0
 10
12.0109582924
 20
11.3186043075
 30
0.0
 10
12.0051826549
 20
11.3224649717
 30
0.0
 10
11.9989451214
 20
11.3262401588
 30
0.0
 10
11.9922562099
 20
11.3299235348
 30
0.0
 10
11.9851272681
 20
11.3335089739
 30
0.0
 10
11.9775703609
 20
11.3369903083
 30
0.0
 10
11.9695983759
 20
11.3403617339
 30
0.0
 10
11.9612248686
 20
11.3436173431
 30
0.0
 10
11.9524641406
 20
11.3467517631
 30
0.0
 10
11.9400994691
 20
11.3508234727
 30
0.0
 10
11.9237726067
 20
11.3555512316
 30
0.0
 10
11.9031788793
 20
11.3605792684
 30
0.0
 10
11.8814373346
 20
11.3650097133
 30
0.0
 10
11.8586968151
 20
11.3688118684
 30
0.0
 10
11.8351127079
 20
11.3719593503
 30
0.0
 10
11.8108465329
 20
11.3744303145
 30
0.0
 10
11.7860645712
 20
11.3762076093
 30
0.0
 10
11.7609367407
 20
11.3772788983
 30
0.0
 10
11.7356353815
 20
11.3776367457
 30
0.0
 10
11.7103340503
 20
11.3772786676
 30
0.0
 10
11.6852063037
 20
11.3762071496
 30
0.0
 10
11.660424481
 20
11.3744296289
 30
0.0
 10
11.6361584994
 20
11.3719584436
 30
0.0
 10
11.6125746383
 20
11.368810747
 30
0.0
 10
11.5898344163
 20
11.3650083848
 30
0.0
 10
11.5680932179
 20
11.3605777421
 30
0.0
 10
11.5474998835
 20
11.3555495181
 30
0.0
 10
11.53117338
 20
11.3508216078
 30
0.0
 10
11.5188090181
 20
11.3467497825
 30
0.0
 10
11.5100485351
 20
11.3436152826
 30
0.0
 10
11.501675282
 20
11.340359597
 30
0.0
 10
11.4937035604
 20
11.3369880986
 30
0.0
 10
11.4861469251
 20
11.3335066951
 30
0.0
 10
11.4790182631
 20
11.3299211911
 30
0.0
 10
11.4723296391
 20
11.3262377538
 30
0.0
 10
11.4660924
 20
11.3224625095
 30
0.0
 10
11.4603170636
 20
11.3186017922
 30
0.0
 10
11.455013357
 20
11.3146619404
 30
0.0
 10
11.4501902716
 20
11.3106493498
 30
0.0
 10
11.4458558467
 20
11.3065703279
 30
0.0
 10
11.4420179246
 20
11.3024316002
 30
0.0
 10
11.4397372896
 20
11.2995644666
 30
0.0
 10
11.4386896193
 20
11.2981240529
 30
0.0
  0
SPLINE
  5
322
100
AcDbEntity
  8
0
100
AcDbSpline
 62
9
  6
CONTINUOUS
 70
0
 71
3
 72
16
 73
12
 74
0
 42
0.0000001
 43
0.0000001
 44
0.0000000001
 40
0.0
 40
0.0
 40
0.0
 40
0.0
 40
0.0278159802
 40
0.0617239432
 40
0.101509718
 40
0.146924198
 40
0.253519744
 40
0.3788802835
 40
0.519880607
 40
0.6729818032
 40
1.0
 40
1.0
 40
1.0
 40
1.0
 10
11.49391986
 20
4.828480011
 30
0.0
 10
11.4938991714
 20
4.8282156037
 30
0.0
 10
11.4938662174
 20
4.8276278804
 30
0.0
 10
11.4938363011
 20
4.8266604347
 30
0.0
 10
11.4938218324
 20
4.8255248188
 30
0.0
 10
11.4938235994
 20
4.8236960751
 30
0.0
 10
11.4938701328
 20
4.8210516893
 30
0.0
 10
11.4939833356
 20
4.8174974122
 30
0.0
 10
11.4941550712
 20
4.8135016034
 30
0.0
 10
11.4944635975
 20
4.807587437
 30
0.0
 10
11.4947575749
 20
4.8030188798
 30
0.0
 10
11.4949795475
 20
4.7999087883
 30
0.0
  0
SPLINE
  5
323
100
AcDbEntity
  8
0
100
AcDbSpline
 62
9
  6
CONTINUOUS
 70
0
 71
3
 72
18
 73
14
 74
0
 42
0.0000001
 43
0.0000001
 44
0.0000000001
 40
0.0
 40
0.0
 40
0.0
 40
0.0
 40
0.0266621752
 40
0.0590104521
 40
0.0970175968
 40
0.1405733087
 40
0.1895015648
 40
0.2436026522
 40
0.3662734343
 40
0.5062141709
 40
0.6605912322
 40
0.8263615073
 40
1.0
 40
1.0
 40
1.0
 40
1.0
 10
10.9252157602
 20
4.7457030562
 30
0.0
 10
10.9251639167
 20
4.7454942031
 30
0.0
 10
10.9250800521
 20
4.7450243744
 30
0.0
 10
10.9250023039
 20
4.7442448308
 30
0.0
 10
10.924961389
 20
4.7433259753
 30
0.0
 10
10.9249576745
 20
4.7422725755
 30
0.0
 10
10.9249915745
 20
4.7410897957
 30
0.0
 10
10.9250919179
 20
4.7392707619
 30
0.0
 10
10.925318465
 20
4.7367239316
 30
0.0
 10
10.9257217881
 20
4.7333822689
 30
0.0
 10
10.9262611348
 20
4.729707896
 30
0.0
 10
10.9269241046
 20
4.7257778144
 30
0.0
 10
10.9274309415
 20
4.7230855332
 30
0.0
 10
10.9277030301
 20
4.7217107566
 30
0.0
  0
SPLINE
  5
324
100
AcDbEntity
  8
0
100
AcDbSpline
 62
9
  6
CONTINUOUS
 70
0
 71
3
 72
15
 73
11
 74
0
 42
0.0000001
 43
0.0000001
 44
0.0000000001
 40
0.0
 40
0.0
 40
0.0
 40
0.0
 40
0.1255204226
 40
0.2512254057
 40
0.376857489
 40
0.5023249898
 40
0.6274704301
 40
0.7521615607
 40
0.8763822999
 40
1.0
 40
1.0
 40
1.0
 40
1.0
 10
10.9252157602
 20
4.7457030562
 30
0.0
 10
10.923822628
 20
4.7453287489
 30
0.0
 10
10.9210834703
 20
4.7443811571
 30
0.0
 10
10.9172160486
 20
4.7424018053
 30
0.0
 10
10.9136627679
 20
4.7399015219
 30
0.0
 10
10.9104986019
 20
4.7369336562
 30
0.0
 10
10.9077896181
 20
4.7335589427
 30
0.0
 10
10.9055911393
 20
4.7298476751
 30
0.0
 10
10.9039511924
 20
4.7258777532
 30
0.0
 10
10.9032500623
 20
4.7231049827
 30
0.0
 10
10.9030029175
 20
4.7217059713
 30
0.0
  0
SPLINE
  5
325
100
AcDbEntity
  8
0
100
AcDbSpline
 62
9
  6
CONTINUOUS
 70
0
 71
3
 72
15
 73
11
 74
0
 42
0.0000001
 43
0.0000001
 44
0.0000000001
 40
0.0
 40
0.0
 40
0.0
 40
0.0
 40
0.1253583958
 40
0.250948979
 40
0.3765639997
 40
0.5020549294
 40
0.6272537258
 40
0.752021841
 40
0.8762953002
 40
1.0
 40
1.0
 40
1.0
 40
1.0
 10
10.9129024326
 20
4.7642684959
 30
0.0
 10
10.9113529067
 20
4.7638319189
 30
0.0
 10
10.9083149496
 20
4.7627099718
 30
0.0
 10
10.9040806605
 20
4.7603350535
 30
0.0
 10
10.9002677469
 20
4.7573252383
 30
0.0
 10
10.8969761583
 20
4.7537598856
 30
0.0
 10
10.8942915315
 20
4.749730617
 30
0.0
 10
10.8922830681
 20
4.7453417528
 30
0.0
 10
10.8910043796
 20
4.7407085305
 30
0.0
 10
10.8906594492
 20
4.737526128
 30
0.0
 10
10.8906174395
 20
4.7359380663
 30
0.0
  0
SPLINE
  5
326
100
AcDbEntity
  8
0
100
AcDbSpline
 62
9
  6
CONTINUOUS
 70
0
 71
3
 72
10
 73
6
 74
0
 42
0.0000001
 43
0.0000001
 44
0.0000000001
 40
0.0
 40
0.0
 40
0.0
 40
0.0
 40
0.2448317378
 40
0.6187724617
 40
1.0
 40
1.0
 40
1.0
 40
1.0
 10
10.8906174395
 20
4.7359380663
 30
0.0
 10
10.8916777255
 20
4.7348210559
 30
0.0
 10
10.8943301206
 20
4.7319719691
 30
0.0
 10
10.8984982076
 20
4.7272591472
 30
0.0
 10
10.9015173686
 20
4.7235899269
 30
0.0
 10
10.9030049846
 20
4.721709007
 30
0.0
  0
SPLINE
  5
327
100
AcDbEntity
  8
0
100
AcDbSpline
 62
9
  6
CONTINUOUS
 70
0
 71
3
 72
17
 73
13
 74
0
 42
0.0000001
 43
0.0000001
 44
0.0000000001
 40
0.0
 40
0.0
 40
0.0
 40
0.0
 40
0.0743697868
 40
0.1476213436
 40
0.2895445163
 40
0.3579835555
 40
0.4246172905
 40
0.552364024
 40
0.6730932427
 40
0.7874104597
 40
0.8961172454
 40
1.0
 40
1.0
 40
1.0
 40
1.0
 10
10.9030049846
 20
4.721709007
 30
0.0
 10
10.9027395695
 20
4.7195077838
 30
0.0
 10
10.9020884162
 20
4.7151521932
 30
0.0
 10
10.9003334405
 20
4.7066971897
 30
0.0
 10
10.8979256694
 20
4.6985698298
 30
0.0
 10
10.8949189804
 20
4.6908749463
 30
0.0
 10
10.8916666414
 20
4.6837427017
 30
0.0
 10
10.8870740038
 20
4.6755239375
 30
0.0
 10
10.8807798427
 20
4.6667019256
 30
0.0
 10
10.8739308075
 20
4.659049795
 30
0.0
 10
10.8666499027
 20
4.6525421913
 30
0.0
 10
10.8614665648
 20
4.6488672114
 30
0.0
 10
10.8588401336
 20
4.6472260384
 30
0.0
  0
SPLINE
  5
328
100
AcDbEntity
  8
0
100
AcDbSpline
 62
9
  6
CONTINUOUS
 70
0
 71
3
 72
11
 73
7
 74
0
 42
0.0000001
 43
0.0000001
 44
0.0000000001
 40
0.0
 40
0.0
 40
0.0
 40
0.0
 40
0.250742566
 40
0.5010706042
 40
0.750861314
 40
1.0
 40
1.0
 40
1.0
 40
1.0
 10
11.9773590684
 20
4.828480011
 30
0.0
 10
12.0176275558
 20
4.8256171616
 30
0.0
 10
12.0980057737
 20
4.8185168483
 30
0.0
 10
12.2180416269
 20
4.8040152962
 30
0.0
 10
12.3373366847
 20
4.7859971501
 30
0.0
 10
12.4164180982
 20
4.7718354466
 30
0.0
 10
12.4558097244
 20
4.7642681467
 30
0.0
  0
SPLINE
  5
329
100
AcDbEntity
  8
0
100
AcDbSpline
 62
9
  6
CONTINUOUS
 70
0
 71
3
 72
33
 73
29
 74
0
 42
0.0000001
 43
0.0000001
 44
0.0000000001
 40
0.0
 40
0.0
 40
0.0
 40
0.0
 40
0.0150462325
 40
0.0303619219
 40
0.0462003496
 40
0.0627861035
 40
0.0803083506
 40
0.0989196887
 40
0.1187376965
 40
0.1398495706
 40
0.1623158937
 40
0.1861750319
 40
0.2114469541
 40
0.23813554
 40
0.2662318977
 40
0.2957154964
 40
0.3265562118
 40
0.3587156174
 40
0.3921475401
 40
0.4267996938
 40
0.4626136267
 40
0.4995259041
 40
0.5763644108
 40
0.6567286125
 40
0.7399736467
 40
0.8254144526
 40
0.9123339194
 40
1.0
 40
1.0
 40
1.0
 40
1.0
 10
11.9856394642
 20
12.2497640479
 30
0.0
 10
11.9856394642
 20
12.2511661573
 30
0.0
 10
11.985434293
 20
12.2539995468
 30
0.0
 10
11.9845160275
 20
12.258219159
 30
0.0
 10
11.9829915554
 20
12.262411931
 30
0.0
 10
11.9808682654
 20
12.2665657322
 30
0.0
 10
11.9781543718
 20
12.2706716962
 30
0.0
 10
11.9748581963
 20
12.2747212485
 30
0.0
 10
11.9709887992
 20
12.2787064716
 30
0.0
 10
11.9665556507
 20
12.282619088
 30
0.0
 10
11.9615693645
 20
12.2864508474
 30
0.0
 10
11.9560416567
 20
12.2901933655
 30
0.0
 10
11.94998542
 20
12.293838075
 30
0.0
 10
11.943414949
 20
12.2973767108
 30
0.0
 10
11.9363456853
 20
12.3008008592
 30
0.0
 10
11.9287944032
 20
12.3041024917
 30
0.0
 10
11.9207790482
 20
12.3072737466
 30
0.0
 10
11.9123187079
 20
12.3103069559
 30
0.0
 10
11.9034336196
 20
12.3131949531
 30
0.0
 10
11.8941450322
 20
12.3159306551
 30
0.0
 10
11.8844751881
 20
12.3185076045
 30
0.0
 10
11.8709230262
 20
12.3217669638
 30
0.0
 10
11.8531923241
 20
12.3253814495
 30
0.0
 10
11.8310648853
 20
12.3289428884
 30
0.0
 10
11.8080216299
 20
12.3317495779
 30
0.0
 10
11.784283802
 20
12.3337741375
 30
0.0
 10
11.7600791791
 20
12.3349968812
 30
0.0
 10
11.7438087806
 20
12.3352690837
 30
0.0
 10
11.7356394642
 20
12.3352690837
 30
0.0
  0
SPLINE
  5
32A
100
AcDbEntity
  8
0
100
AcDbSpline
 62
9
  6
CONTINUOUS
 70
0
 71
3
 72
9
 73
5
 74
0
 42
0.0000001
 43
0.0000001
 44
0.0000000001
 40
0.0
 40
0.0
 40
0.0
 40
0.0
 40
0.5072047576
 40
1.0
 40
1.0
 40
1.0
 40
1.0
 10
12.546060945
 20
4.7457040776
 30
0.0
 10
12.5479622
 20
4.7489570356
 30
0.0
 10
12.5519122575
 20
4.7552543103
 30
0.0
 10
12.5561961477
 20
4.7613273067
 30
0.0
 10
12.5583762369
 20
4.7642681467
 30
0.0
  0
SPLINE
  5
32B
100
AcDbEntity
  8
0
100
AcDbSpline
 62
9
  6
CONTINUOUS
 70
0
 71
3
 72
86
 73
82
 74
0
 42
0.0000001
 43
0.0000001
 44
0.0000000001
 40
0.0
 40
0.0
 40
0.0
 40
0.0
 40
0.0000126119
 40
0.0000501081
 40
0.0001124344
 40
0.0001995363
 40
0.0003113595
 40
0.0004478498
 40
0.0007946138
 40
0.0012393937
 40
0.0017817557
 40
0.0024212693
 40
0.0031575051
 40
0.0039900338
 40
0.0049184262
 40
0.0070606636
 40
0.0095780808
 40
0.0124637675
 40
0.0157099082
 40
0.0193069686
 40
0.0232452379
 40
0.0275152187
 40
0.0370130146
 40
0.0477203859
 40
0.0595502099
 40
0.0724190335
 40
0.0862485644
 40
0.1009656447
 40
0.1327737339
 40
0.1673254534
 40
0.2041888311
 40
0.242983543
 40
0.2833924563
 40
0.325124041
 40
0.3464024785
 40
0.3679125074
 40
0.3896221318
 40
0.4114976589
 40
0.4335061039
 40
0.4556155095
 40
0.4999997542
 40
0.5443838732
 40
0.5664931607
 40
0.5885014835
 40
0.6103771282
 40
0.6320870777
 40
0.6535973929
 40
0.6748758355
 40
0.7166066927
 40
0.7570165788
 40
0.7958113964
 40
0.8326729618
 40
0.8672262703
 40
0.8835022921
 40
0.8990335144
 40
0.9137508546
 40
0.927581181
 40
0.940450365
 40
0.9522799715
 40
0.9629870215
 40
0.972484681
 40
0.9767546912
 40
0.9806930485
 40
0.9842902124
 40
0.9875363861
 40
0.9904219599
 40
0.9929391745
 40
0.9950812512
 40
0.9960096125
 40
0.9968421407
 40
0.9975783998
 40
0.9982179535
 40
0.9987603657
 40
0.9992051997
 40
0.9995520181
 40
0.9996885346
 40
0.9998003829
 40
0.9998875084
 40
0.9999498562
 40
0.9999873717
 40
1.0
 40
1.0
 40
1.0
 40
1.0
 10
9.3706394642
 20
6.7712187254
 30
0.0
 10
9.3706415291
 20
6.7712181625
 30
0.0
 10
9.3706489937
 20
6.7712138739
 30
0.0
 10
9.3706666224
 20
6.7712067018
 30
0.0
 10
9.3706953335
 20
6.7711931195
 30
0.0
 10
9.3707357323
 20
6.7711748951
 30
0.0
 10
9.3707874821
 20
6.7711511739
 30
0.0
 10
9.3708793408
 20
6.771109226
 30
0.0
 10
9.3710225431
 20
6.7710436753
 30
0.0
 10
9.3712283449
 20
6.7709494009
 30
0.0
 10
9.3714792555
 20
6.7708343065
 30
0.0
 10
9.371775119
 20
6.7706985824
 30
0.0
 10
9.3721157696
 20
6.7705423906
 30
0.0
 10
9.3725010462
 20
6.7703659047
 30
0.0
 10
9.3731033787
 20
6.7700903325
 30
0.0
 10
9.3739660664
 20
6.7696965566
 30
0.0
 10
9.3751316555
 20
6.7691664625
 30
0.0
 10
9.3764687151
 20
6.768560889
 30
0.0
 10
9.3779738135
 20
6.7678822474
 30
0.0
 10
9.3796430896
 20
6.767133159
 30
0.0
 10
9.3814723939
 20
6.7663163051
 30
0.0
 10
9.3842185978
 20
6.7650968721
 30
0.0
 10
9.388021085
 20
6.7634256785
 30
0.0
 10
9.3930105496
 20
6.7612668783
 30
0.0
 10
9.3985398769
 20
6.7589154424
 30
0.0
 10
9.4045746914
 20
6.7563991376
 30
0.0
 10
9.411083013
 20
6.7537457669
 30
0.0
 10
9.4206020778
 20
6.749964755
 30
0.0
 10
9.433464159
 20
6.7450753774
 30
0.0
 10
9.4499766814
 20
6.7392226973
 30
0.0
 10
9.4677681333
 20
6.733447086
 30
0.0
 10
9.4866801425
 20
6.7279298135
 30
0.0
 10
9.5065727522
 20
6.7228641433
 30
0.0
 10
9.5237386366
 20
6.7191851073
 30
0.0
 10
9.5378514728
 20
6.7166189181
 30
0.0
 10
9.5486618598
 20
6.7148981679
 30
0.0
 10
9.5596092631
 20
6.7134119149
 30
0.0
 10
9.5706724532
 20
6.7121720383
 30
0.0
 10
9.5818298925
 20
6.7111915006
 30
0.0
 10
9.5968206263
 20
6.7102482642
 30
0.0
 10
9.6156394051
 20
6.7097739906
 30
0.0
 10
9.6344581976
 20
6.7102479748
 30
0.0
 10
9.6494488125
 20
6.711192135
 30
0.0
 10
9.6606062061
 20
6.7121728966
 30
0.0
 10
9.671669475
 20
6.7134125253
 30
0.0
 10
9.6826170846
 20
6.714898176
 30
0.0
 10
9.6934276369
 20
6.7166185654
 30
0.0
 10
9.7075404123
 20
6.7191847188
 30
0.0
 10
9.7247060751
 20
6.7228649557
 30
0.0
 10
9.7445990389
 20
6.7279293514
 30
0.0
 10
9.7635111113
 20
6.7334461654
 30
0.0
 10
9.7813017394
 20
6.7392240176
 30
0.0
 10
9.7953304448
 20
6.7441939659
 30
0.0
 10
9.8058778835
 20
6.7481409553
 30
0.0
 10
9.8132435346
 20
6.7509845703
 30
0.0
 10
9.8201956303
 20
6.7537459415
 30
0.0
 10
9.8267043059
 20
6.7563990647
 30
0.0
 10
9.832739316
 20
6.7589153198
 30
0.0
 10
9.8382685738
 20
6.7612668416
 30
0.0
 10
9.8432578914
 20
6.763425693
 30
0.0
 10
9.8470602971
 20
6.7650968909
 30
0.0
 10
9.8498065026
 20
6.7663163123
 30
0.0
 10
9.8516358506
 20
6.7671331606
 30
0.0
 10
9.8533051734
 20
6.7678822379
 30
0.0
 10
9.8548102814
 20
6.768560868
 30
0.0
 10
9.8561472859
 20
6.7691664469
 30
0.0
 10
9.8573127793
 20
6.7696965563
 30
0.0
 10
9.8581753894
 20
6.770090341
 30
0.0
 10
9.8587776874
 20
6.7703659101
 30
0.0
 10
9.8591629625
 20
6.770542396
 30
0.0
 10
9.8595036251
 20
6.7706985872
 30
0.0
 10
9.8597995103
 20
6.7708343103
 30
0.0
 10
9.8600504487
 20
6.7709494028
 30
0.0
 10
9.8602562809
 20
6.7710436757
 30
0.0
 10
9.8603995098
 20
6.7711092228
 30
0.0
 10
9.8604913884
 20
6.7711511711
 30
0.0
 10
9.8605431533
 20
6.7711748879
 30
0.0
 10
9.8605835622
 20
6.7711931231
 30
0.0
 10
9.8606122917
 20
6.7712066821
 30
0.0
 10
9.8606299186
 20
6.7712138978
 30
0.0
 10
9.8606374015
 20
6.7712181441
 30
0.0
 10
9.8606394642
 20
6.7712187254
 30
0.0
  0
LINE
  5
32C
100
AcDbEntity
  8
0
100
AcDbLine
 62
9
  6
CONTINUOUS
 10
9.8042875664
 20
7.145568074
 11
9.8022068552
 21
7.1417818625
  0
SPLINE
  5
32D
100
AcDbEntity
  8
0
100
AcDbSpline
 62
9
  6
CONTINUOUS
 70
0
 71
3
 72
16
 73
12
 74
0
 42
0.0000001
 43
0.0000001
 44
0.0000000001
 40
0.0
 40
0.0
 40
0.0
 40
0.0
 40
0.1520464102
 40
0.301405392
 40
0.4452781365
 40
0.5811542261
 40
0.70659801
 40
0.8194135865
 40
0.9177370318
 40
0.9609669298
 40
1.0
 40
1.0
 40
1.0
 40
1.0
 10
12.6037437098
 20
4.6206120924
 30
0.0
 10
12.6037437098
 20
4.6219715772
 30
0.0
 10
12.6037135097
 20
4.6246666188
 30
0.0
 10
12.6035783208
 20
4.6286460084
 30
0.0
 10
12.6033557795
 20
4.632476718
 30
0.0
 10
12.6030504685
 20
4.6360872195
 30
0.0
 10
12.6026683317
 20
4.6394111944
 30
0.0
 10
12.6022170129
 20
4.642387321
 30
0.0
 10
12.6017744455
 20
4.6446195458
 30
0.0
 10
12.6013835499
 20
4.6461864674
 30
0.0
 10
12.6011783455
 20
4.6468930833
 30
0.0
 10
12.6010726345
 20
4.6472256931
 30
0.0
  0
LINE
  5
32E
100
AcDbEntity
  8
0
100
AcDbLine
 62
9
  6
CONTINUOUS
 10
9.7877707954
 20
7.1867870719
 11
9.8209048598
 21
8.7247333392
  0
SPLINE
  5
32F
100
AcDbEntity
  8
0
100
AcDbSpline
 62
9
  6
CONTINUOUS
 70
0
 71
3
 72
33
 73
29
 74
0
 42
0.0000001
 43
0.0000001
 44
0.0000000001
 40
0.0
 40
0.0
 40
0.0
 40
0.0
 40
0.0004426986
 40
0.0009952762
 40
0.0017659311
 40
0.0039532491
 40
0.0069882104
 40
0.0108543791
 40
0.015535326
 40
0.0210146288
 40
0.0272758722
 40
0.0420785527
 40
0.0598122049
 40
0.080345797
 40
0.1035484433
 40
0.1292894169
 40
0.1574360889
 40
0.2202320226
 40
0.2903417216
 40
0.3661422544
 40
0.4460234158
 40
0.5283923746
 40
0.6117219059
 40
0.6947046575
 40
0.7761277735
 40
0.8548377708
 40
0.9297703715
 40
1.0
 40
1.0
 40
1.0
 40
1.0
 10
10.8406394642
 20
4.8178451483
 30
0.0
 10
10.8406394632
 20
4.8178479361
 30
0.0
 10
10.840641221
 20
4.8178330226
 30
0.0
 10
10.8406426797
 20
4.8178265618
 30
0.0
 10
10.8406465524
 20
4.8178022074
 30
0.0
 10
10.8406526853
 20
4.8177668808
 30
0.0
 10
10.8406623807
 20
4.8177095633
 30
0.0
 10
10.8406747211
 20
4.817638031
 30
0.0
 10
10.8406898475
 20
4.8175508825
 30
0.0
 10
10.840707705
 20
4.8174490681
 30
0.0
 10
10.8407368481
 20
4.817284461
 30
0.0
 10
10.8407800818
 20
4.8170440088
 30
0.0
 10
10.8408403699
 20
4.8167152921
 30
0.0
 10
10.8409115915
 20
4.8163348099
 30
0.0
 10
10.8409937307
 20
4.8159050725
 30
0.0
 10
10.8410867775
 20
4.8154286148
 30
0.0
 10
10.8412305817
 20
4.8147080367
 30
0.0
 10
10.8414362451
 20
4.8137149013
 30
0.0
 10
10.8417181143
 20
4.8124311693
 30
0.0
 10
10.8420432137
 20
4.811046907
 30
0.0
 10
10.8424114421
 20
4.8095936779
 30
0.0
 10
10.8428227241
 20
4.8081027507
 30
0.0
 10
10.8432774847
 20
4.8066040189
 30
0.0
 10
10.8437753467
 20
4.8051252426
 30
0.0
 10
10.8443162193
 20
4.803692584
 30
0.0
 10
10.8449001686
 20
4.8023316806
 30
0.0
 10
10.8455272079
 20
4.801068149
 30
0.0
 10
10.8459908912
 20
4.8002789195
 30
0.0
 10
10.8462329471
 20
4.7999087883
 30
0.0
  0
SPLINE
  5
330
100
AcDbEntity
  8
0
100
AcDbSpline
 62
9
  6
CONTINUOUS
 70
0
 71
3
 72
14
 73
10
 74
0
 42
0.0000001
 43
0.0000001
 44
0.0000000001
 40
0.0
 40
0.0
 40
0.0
 40
0.0
 40
0.1312820544
 40
0.2617141333
 40
0.3907128089
 40
0.517776114
 40
0.6425020221
 40
0.7645917099
 40
1.0
 40
1.0
 40
1.0
 40
1.0
 10
9.8209048598
 20
8.7247333392
 30
0.0
 10
9.8210309258
 20
8.7307407392
 30
0.0
 10
9.8216634733
 20
8.7427122359
 30
0.0
 10
9.8237475824
 20
8.7604847617
 30
0.0
 10
9.8269248672
 20
8.7778991975
 30
0.0
 10
9.8311436701
 20
8.7948212358
 30
0.0
 10
9.836340115
 20
8.8111390231
 30
0.0
 10
9.8443776655
 20
8.8317048883
 30
0.0
 10
9.8517941756
 20
8.8463594379
 30
0.0
 10
9.8573040614
 20
8.8556185828
 30
0.0
  0
SPLINE
  5
331
100
AcDbEntity
  8
0
100
AcDbSpline
 62
9
  6
CONTINUOUS
 70
0
 71
3
 72
15
 73
11
 74
0
 42
0.0000001
 43
0.0000001
 44
0.0000000001
 40
0.0
 40
0.0
 40
0.0
 40
0.0
 40
0.1268414389
 40
0.25345831
 40
0.3796439223
 40
0.5052262827
 40
0.6300825759
 40
0.7541500004
 40
0.877432164
 40
1.0
 40
1.0
 40
1.0
 40
1.0
 10
9.8611937824
 20
8.9080187254
 30
0.0
 10
9.8611937829
 20
8.9089921155
 30
0.0
 10
9.8610575173
 20
8.9109399211
 30
0.0
 10
9.8604484409
 20
8.9137982879
 30
0.0
 10
9.8594475629
 20
8.9165345274
 30
0.0
 10
9.8580759467
 20
8.9190897056
 30
0.0
 10
9.8563625839
 20
8.9214095401
 30
0.0
 10
9.8543434918
 20
8.9234444954
 30
0.0
 10
9.8520622526
 20
8.9251506153
 30
0.0
 10
9.8503928539
 20
8.9260474471
 30
0.0
 10
9.8495330501
 20
8.9264288322
 30
0.0
  0
SPLINE
  5
332
100
AcDbEntity
  8
0
100
AcDbSpline
 62
9
  6
CONTINUOUS
 70
0
 71
3
 72
11
 73
7
 74
0
 42
0.0000001
 43
0.0000001
 44
0.0000000001
 40
0.0
 40
0.0
 40
0.0
 40
0.0
 40
0.2310038382
 40
0.4734175726
 40
0.7291810226
 40
1.0
 40
1.0
 40
1.0
 40
1.0
 10
9.8495330501
 20
8.9264288322
 30
0.0
 10
9.8485290914
 20
8.9270146583
 30
0.0
 10
9.8465453947
 20
8.9283458515
 30
0.0
 10
9.8437526042
 20
8.9307371791
 30
0.0
 10
9.8411055387
 20
8.9335697223
 30
0.0
 10
9.839508457
 20
8.9356909935
 30
0.0
 10
9.8387434501
 20
8.9368187254
 30
0.0
  0
SPLINE
  5
333
100
AcDbEntity
  8
0
100
AcDbSpline
 62
9
  6
CONTINUOUS
 70
0
 71
3
 72
15
 73
11
 74
0
 42
0.0000001
 43
0.0000001
 44
0.0000000001
 40
0.0
 40
0.0
 40
0.0
 40
0.0
 40
0.133631866
 40
0.2643649664
 40
0.3923287953
 40
0.5177501557
 40
0.6408929471
 40
0.76207252
 40
0.8816499347
 40
1.0
 40
1.0
 40
1.0
 40
1.0
 10
9.83874344
 20
8.9368187254
 30
0.0
 10
9.8371088429
 20
8.9389356387
 30
0.0
 10
9.8337074452
 20
8.9429974642
 30
0.0
 10
9.8281842167
 20
8.9485908389
 30
0.0
 10
9.8223368263
 20
8.9535962315
 30
0.0
 10
9.8162073403
 20
8.9579962752
 30
0.0
 10
9.8098358545
 20
8.9617786312
 30
0.0
 10
9.8032615689
 20
8.9649353311
 30
0.0
 10
9.7965228464
 20
8.9674607506
 30
0.0
 10
9.7919248391
 20
8.9687282149
 30
0.0
 10
9.7896152997
 20
8.9692542896
 30
0.0
  0
SPLINE
  5
334
100
AcDbEntity
  8
0
100
AcDbSpline
 62
9
  6
CONTINUOUS
 70
0
 71
3
 72
9
 73
5
 74
0
 42
0.0000001
 43
0.0000001
 44
0.0000000001
 40
0.0
 40
0.0
 40
0.0
 40
0.0
 40
0.5009497341
 40
1.0
 40
1.0
 40
1.0
 40
1.0
 10
9.7372555598
 20
7.1518291435
 30
0.0
 10
9.7443640996
 20
7.1551500104
 30
0.0
 10
9.7583680564
 20
7.1621827212
 30
0.0
 10
9.7720137832
 20
7.169881448
 30
0.0
 10
9.7787406365
 20
7.1738617735
 30
0.0
  0
SPLINE
  5
335
100
AcDbEntity
  8
0
100
AcDbSpline
 62
9
  6
CONTINUOUS
 70
0
 71
3
 72
17
 73
13
 74
0
 42
0.0000001
 43
0.0000001
 44
0.0000000001
 40
0.0
 40
0.0
 40
0.0
 40
0.0
 40
0.12482529
 40
0.1873060329
 40
0.2498120579
 40
0.3748808223
 40
0.4999996442
 40
0.6251183502
 40
0.7501872007
 40
0.8126936027
 40
0.8751747091
 40
1.0
 40
1.0
 40
1.0
 40
1.0
 10
9.6685933925
 20
7.1417818915
 30
0.0
 10
9.6642228878
 20
7.1424540714
 30
0.0
 10
9.6576397177
 20
7.1433065975
 30
0.0
 10
9.6488320241
 20
7.1441692006
 30
0.0
 10
9.6400005121
 20
7.1448621777
 30
0.0
 10
9.6289350524
 20
7.1454209934
 30
0.0
 10
9.6156394107
 20
7.1456428618
 30
0.0
 10
9.6023437577
 20
7.1454208629
 30
0.0
 10
9.59127833
 20
7.1448611824
 30
0.0
 10
9.5824468015
 20
7.1441680961
 30
0.0
 10
9.5736390275
 20
7.1433061037
 30
0.0
 10
9.5670557566
 20
7.1424541536
 30
0.0
 10
9.5626852688
 20
7.1417818642
 30
0.0
  0
SPLINE
  5
336
100
AcDbEntity
  8
0
100
AcDbSpline
 62
9
  6
CONTINUOUS
 70
0
 71
3
 72
13
 73
9
 74
0
 42
0.0000001
 43
0.0000001
 44
0.0000000001
 40
0.0
 40
0.0
 40
0.0
 40
0.0
 40
0.2486177803
 40
0.498215638
 40
0.6233722487
 40
0.7487332839
 40
0.8742868927
 40
1.0
 40
1.0
 40
1.0
 40
1.0
 10
9.4585812348
 20
7.1867870719
 30
0.0
 10
9.4666804063
 20
7.1819495666
 30
0.0
 10
9.4831440886
 20
7.1726385964
 30
0.0
 10
9.5043969568
 20
7.1622115829
 30
0.0
 10
9.5218724322
 20
7.1548019718
 30
0.0
 10
9.5352335643
 20
7.1497769345
 30
0.0
 10
9.5488325975
 20
7.1453660902
 30
0.0
 10
9.5580455808
 20
7.1428901571
 30
0.0
 10
9.5626852688
 20
7.1417818642
 30
0.0
  0
LINE
  5
337
100
AcDbEntity
  8
0
100
AcDbLine
 62
9
  6
CONTINUOUS
 10
9.4585812348
 20
7.1867870719
 11
9.4246156283
 21
8.7247333392
  0
LINE
  5
338
100
AcDbEntity
  8
0
100
AcDbLine
 62
9
  6
CONTINUOUS
 10
9.7726976936
 20
7.1867870719
 11
9.8066633001
 21
8.7247333392
  0
SPLINE
  5
339
100
AcDbEntity
  8
0
100
AcDbSpline
 62
9
  6
CONTINUOUS
 70
0
 71
3
 72
13
 73
9
 74
0
 42
0.0000001
 43
0.0000001
 44
0.0000000001
 40
0.0
 40
0.0
 40
0.0
 40
0.0
 40
0.1257130957
 40
0.2512665836
 40
0.3766276848
 40
0.5017843164
 40
0.7513822116
 40
1.0
 40
1.0
 40
1.0
 40
1.0
 10
9.6685933925
 20
7.1417818915
 30
0.0
 10
9.673233058
 20
7.142890321
 30
0.0
 10
9.6824461273
 20
7.1453659611
 30
0.0
 10
9.6960452238
 20
7.1497767411
 30
0.0
 10
9.709406313
 20
7.1548019718
 30
0.0
 10
9.7268818422
 20
7.1622115695
 30
0.0
 10
9.7481347476
 20
7.1726386316
 30
0.0
 10
9.7645984973
 20
7.1819495675
 30
0.0
 10
9.7726976936
 20
7.1867870719
 30
0.0
  0
SPLINE
  5
33A
100
AcDbEntity
  8
0
100
AcDbSpline
 62
9
  6
CONTINUOUS
 70
0
 71
3
 72
15
 73
11
 74
0
 42
0.0000001
 43
0.0000001
 44
0.0000000001
 40
0.0
 40
0.0
 40
0.0
 40
0.0
 40
0.1301090342
 40
0.2595261923
 40
0.3877806943
 40
0.5144608734
 40
0.6392371374
 40
0.7618568785
 40
0.8821488183
 40
1.0
 40
1.0
 40
1.0
 40
1.0
 10
9.8066633001
 20
8.7247333392
 30
0.0
 10
9.8068026902
 20
8.7307423333
 30
0.0
 10
9.8075053366
 20
8.742722741
 30
0.0
 10
9.8098059858
 20
8.7605026894
 30
0.0
 10
9.8133165649
 20
8.7779229373
 30
0.0
 10
9.8179710849
 20
8.7948500591
 30
0.0
 10
9.8236965494
 20
8.8111695431
 30
0.0
 10
9.8304089841
 20
8.8267875595
 30
0.0
 10
9.8380254535
 20
8.8416252681
 30
0.0
 10
9.8437103893
 20
8.8510558447
 30
0.0
 10
9.8466806281
 20
8.8556185739
 30
0.0
  0
SPLINE
  5
33B
100
AcDbEntity
  8
0
100
AcDbSpline
 62
9
  6
CONTINUOUS
 70
0
 71
3
 72
15
 73
11
 74
0
 42
0.0000001
 43
0.0000001
 44
0.0000000001
 40
0.0
 40
0.0
 40
0.0
 40
0.0
 40
0.130109088
 40
0.259526164
 40
0.3877807168
 40
0.5144608484
 40
0.6392371512
 40
0.7618568345
 40
0.8821486261
 40
1.0
 40
1.0
 40
1.0
 40
1.0
 10
9.4246156283
 20
8.7247333392
 30
0.0
 10
9.4244762566
 20
8.7307423355
 30
0.0
 10
9.4237729981
 20
8.7427226959
 30
0.0
 10
9.4214731056
 20
8.7605027305
 30
0.0
 10
9.4179622058
 20
8.7779229226
 30
0.0
 10
9.4133078822
 20
8.7948500896
 30
0.0
 10
9.4075822906
 20
8.8111695308
 30
0.0
 10
9.4008699128
 20
8.8267875514
 30
0.0
 10
9.3932536238
 20
8.8416253563
 30
0.0
 10
9.387568559
 20
8.8510558592
 30
0.0
 10
9.3845982964
 20
8.8556185828
 30
0.0
  0
SPLINE
  5
33C
100
AcDbEntity
  8
0
100
AcDbSpline
 62
9
  6
CONTINUOUS
 70
0
 71
3
 72
18
 73
14
 74
0
 42
0.0000001
 43
0.0000001
 44
0.0000000001
 40
0.0
 40
0.0
 40
0.0
 40
0.0
 40
0.1537602435
 40
0.3045215763
 40
0.449366263
 40
0.5187065727
 40
0.5855538627
 40
0.710560647
 40
0.8222597087
 40
0.8725935955
 40
0.9190465735
 40
0.9615292393
 40
1.0
 40
1.0
 40
1.0
 40
1.0
 10
9.8478604491
 20
8.9080187254
 30
0.0
 10
9.8478604495
 20
8.9089899544
 30
0.0
 10
9.8478199669
 20
8.9109137361
 30
0.0
 10
9.8476385099
 20
8.9137471937
 30
0.0
 10
9.8473867573
 20
8.9160395863
 30
0.0
 10
9.8471254071
 20
8.9177955807
 30
0.0
 10
9.8468383187
 20
8.9194204228
 30
0.0
 10
9.8464241726
 20
8.9212938036
 30
0.0
 10
9.8459095761
 20
8.9230346577
 30
0.0
 10
9.8454481826
 20
8.9242686218
 30
0.0
 10
9.8450962893
 20
8.9250754351
 30
0.0
 10
9.8447283372
 20
8.9257917943
 30
0.0
 10
9.8444604866
 20
8.9262282479
 30
0.0
 10
9.844323317
 20
8.9264288322
 30
0.0
  0
SPLINE
  5
33D
100
AcDbEntity
  8
0
100
AcDbSpline
 62
9
  6
CONTINUOUS
 70
0
 71
3
 72
18
 73
14
 74
0
 42
0.0000001
 43
0.0000001
 44
0.0000000001
 40
0.0
 40
0.0
 40
0.0
 40
0.0
 40
0.1537602435
 40
0.3045215763
 40
0.449366263
 40
0.5187065727
 40
0.5855538627
 40
0.710560647
 40
0.8222597087
 40
0.8725935955
 40
0.9190465735
 40
0.9615292393
 40
1.0
 40
1.0
 40
1.0
 40
1.0
 10
9.3834184793
 20
8.9080187254
 30
0.0
 10
9.3834184789
 20
8.9089899544
 30
0.0
 10
9.3834589615
 20
8.9109137361
 30
0.0
 10
9.3836404185
 20
8.9137471937
 30
0.0
 10
9.3838921711
 20
8.9160395863
 30
0.0
 10
9.3841535213
 20
8.9177955807
 30
0.0
 10
9.3844406097
 20
8.9194204228
 30
0.0
 10
9.3848547558
 20
8.9212938036
 30
0.0
 10
9.3853693523
 20
8.9230346577
 30
0.0
 10
9.3858307458
 20
8.9242686218
 30
0.0
 10
9.3861826391
 20
8.9250754351
 30
0.0
 10
9.3865505912
 20
8.9257917943
 30
0.0
 10
9.3868184418
 20
8.9262282479
 30
0.0
 10
9.3869556114
 20
8.9264288322
 30
0.0
  0
SPLINE
  5
33E
100
AcDbEntity
  8
0
100
AcDbSpline
 62
9
  6
CONTINUOUS
 70
0
 71
3
 72
9
 73
5
 74
0
 42
0.0000001
 43
0.0000001
 44
0.0000000001
 40
0.0
 40
0.0
 40
0.0
 40
0.0
 40
0.4913671093
 40
1.0
 40
1.0
 40
1.0
 40
1.0
 10
9.844323317
 20
8.9264288322
 30
0.0
 10
9.8414578825
 20
8.9275906277
 30
0.0
 10
9.835845448
 20
8.9305341111
 30
0.0
 10
9.830929807
 20
8.9345452694
 30
0.0
 10
9.828676906
 20
8.9368187254
 30
0.0
  0
SPLINE
  5
33F
100
AcDbEntity
  8
0
100
AcDbSpline
 62
9
  6
CONTINUOUS
 70
0
 71
3
 72
9
 73
5
 74
0
 42
0.0000001
 43
0.0000001
 44
0.0000000001
 40
0.0
 40
0.0
 40
0.0
 40
0.0
 40
0.4913681294
 40
1.0
 40
1.0
 40
1.0
 40
1.0
 10
9.3869556114
 20
8.9264288322
 30
0.0
 10
9.3898210515
 20
8.9275906348
 30
0.0
 10
9.3954335051
 20
8.9305340696
 30
0.0
 10
9.4003491847
 20
8.9345452137
 30
0.0
 10
9.4026020224
 20
8.9368187254
 30
0.0
  0
SPLINE
  5
340
100
AcDbEntity
  8
0
100
AcDbSpline
 62
9
  6
CONTINUOUS
 70
0
 71
3
 72
19
 73
15
 74
0
 42
0.0000001
 43
0.0000001
 44
0.0000000001
 40
0.0
 40
0.0
 40
0.0
 40
0.0
 40
0.1434726322
 40
0.280476733
 40
0.3466671082
 40
0.4113794975
 40
0.4746893066
 40
0.536689574
 40
0.6571234908
 40
0.7737001371
 40
0.8309219375
 40
0.8876075532
 40
0.9439128737
 40
1.0
 40
1.0
 40
1.0
 40
1.0
 10
9.828676906
 20
8.9368187254
 30
0.0
 10
9.8268531566
 20
8.9395666378
 30
0.0
 10
9.823023933
 20
8.9447694873
 30
0.0
 10
9.8176431663
 20
8.9506699174
 30
0.0
 10
9.8131216511
 20
8.9548554373
 30
0.0
 10
9.8096747079
 20
8.9576966451
 30
0.0
 10
9.8061432519
 20
8.9602721449
 30
0.0
 10
9.8013827224
 20
8.963318561
 30
0.0
 10
9.7952568833
 20
8.9664793421
 30
0.0
 10
9.7888712579
 20
8.9687738181
 30
0.0
 10
9.783724675
 20
8.9700469684
 30
0.0
 10
9.7798675329
 20
8.9707235008
 30
0.0
 10
9.775998942
 20
8.9711271393
 30
0.0
 10
9.7734145373
 20
8.9712175682
 30
0.0
 10
9.7721252485
 20
8.9712187254
 30
0.0
  0
SPLINE
  5
341
100
AcDbEntity
  8
0
100
AcDbSpline
 62
9
  6
CONTINUOUS
 70
0
 71
3
 72
19
 73
15
 74
0
 42
0.0000001
 43
0.0000001
 44
0.0000000001
 40
0.0
 40
0.0
 40
0.0
 40
0.0
 40
0.1434719814
 40
0.2804770033
 40
0.3466680705
 40
0.4113805211
 40
0.474689631
 40
0.536689374
 40
0.6571238051
 40
0.7736999059
 40
0.8309210784
 40
0.8876065314
 40
0.9439124328
 40
1.0
 40
1.0
 40
1.0
 40
1.0
 10
9.4026020224
 20
8.9368187254
 30
0.0
 10
9.404425772
 20
8.9395666195
 30
0.0
 10
9.4082548489
 20
8.9447695863
 30
0.0
 10
9.4136357698
 20
8.9506699198
 30
0.0
 10
9.418157381
 20
8.9548553886
 30
0.0
 10
9.4216043267
 20
8.9576965924
 30
0.0
 10
9.4251357145
 20
8.9602721386
 30
0.0
 10
9.4298962013
 20
8.9633185949
 30
0.0
 10
9.4360220624
 20
8.9664793066
 30
0.0
 10
9.4424076559
 20
8.9687738132
 30
0.0
 10
9.4475542045
 20
8.9700469765
 30
0.0
 10
9.4514113417
 20
8.9707235086
 30
0.0
 10
9.4552799531
 20
8.9711271394
 30
0.0
 10
9.457864381
 20
8.9712175682
 30
0.0
 10
9.4591536799
 20
8.9712187254
 30
0.0
  0
SPLINE
  5
342
100
AcDbEntity
  8
0
100
AcDbSpline
 62
9
  6
CONTINUOUS
 70
0
 71
3
 72
9
 73
5
 74
0
 42
0.0000001
 43
0.0000001
 44
0.0000000001
 40
0.0
 40
0.0
 40
0.0
 40
0.0
 40
0.4927954378
 40
1.0
 40
1.0
 40
1.0
 40
1.0
 10
10.9129024326
 20
4.7642684959
 30
0.0
 10
10.915082563
 20
4.7613275992
 30
0.0
 10
10.9193665546
 20
4.7552545043
 30
0.0
 10
10.9233166754
 20
4.7489571023
 30
0.0
 10
10.9252179332
 20
4.7457040658
 30
0.0
  0
SPLINE
  5
343
100
AcDbEntity
  8
0
100
AcDbSpline
 62
9
  6
CONTINUOUS
 70
0
 71
3
 72
9
 73
5
 74
0
 42
0.0000001
 43
0.0000001
 44
0.0000000001
 40
0.0
 40
0.0
 40
0.0
 40
0.0
 40
0.4990537599
 40
1.0
 40
1.0
 40
1.0
 40
1.0
 10
9.4525382919
 20
7.1738617735
 30
0.0
 10
9.4592652169
 20
7.1698814036
 30
0.0
 10
9.4729109705
 20
7.1621825942
 30
0.0
 10
9.4869150689
 20
7.1551500414
 30
0.0
 10
9.4940235533
 20
7.1518291146
 30
0.0
  0
SPLINE
  5
344
100
AcDbEntity
  8
0
100
AcDbSpline
 62
9
  6
CONTINUOUS
 70
0
 71
3
 72
11
 73
7
 74
0
 42
0.0000001
 43
0.0000001
 44
0.0000000001
 40
0.0
 40
0.0
 40
0.0
 40
0.0
 40
0.2491386748
 40
0.4989293808
 40
0.7492574286
 40
1.0
 40
1.0
 40
1.0
 40
1.0
 10
11.015469204
 20
4.7642681467
 30
0.0
 10
11.054860828
 20
4.7718354486
 30
0.0
 10
11.13394224
 20
4.7859971465
 30
0.0
 10
11.2532372964
 20
4.8040152959
 30
0.0
 10
11.3732731517
 20
4.818516845
 30
0.0
 10
11.4536513715
 20
4.8256171651
 30
0.0
 10
11.49391986
 20
4.828480011
 30
0.0
  0
SPLINE
  5
345
100
AcDbEntity
  8
0
100
AcDbSpline
 62
9
  6
CONTINUOUS
 70
0
 71
3
 72
10
 73
6
 74
0
 42
0.0000001
 43
0.0000001
 44
0.0000000001
 40
0.0
 40
0.0
 40
0.0
 40
0.0
 40
0.3864417742
 40
0.6666868218
 40
1.0
 40
1.0
 40
1.0
 40
1.0
 10
10.8462329471
 20
4.7999087883
 30
0.0
 10
10.8517232262
 20
4.7915143209
 30
0.0
 10
10.8613688847
 20
4.777145268
 30
0.0
 10
10.8762155921
 20
4.7558540054
 30
0.0
 10
10.8855156968
 20
4.742925199
 30
0.0
 10
10.8906174395
 20
4.7359380663
 30
0.0
  0
SPLINE
  5
346
100
AcDbEntity
  8
0
100
AcDbSpline
 62
9
  6
CONTINUOUS
 70
0
 71
3
 72
15
 73
11
 74
0
 42
0.0000001
 43
0.0000001
 44
0.0000000001
 40
0.0
 40
0.0
 40
0.0
 40
0.0
 40
0.1255100096
 40
0.2510048077
 40
0.3763379675
 40
0.5015153475
 40
0.6264848738
 40
0.7512102504
 40
0.8757401022
 40
1.0
 40
1.0
 40
1.0
 40
1.0
 10
10.8429087819
 20
4.6206124403
 30
0.0
 10
10.8429087815
 20
4.6219749197
 30
0.0
 10
10.8430925933
 20
4.6247032399
 30
0.0
 10
10.8439134837
 20
4.6287172932
 30
0.0
 10
10.8452656918
 20
4.6325818446
 30
0.0
 10
10.8471229589
 20
4.6362241055
 30
0.0
 10
10.8494517889
 20
4.6395765179
 30
0.0
 10
10.8522087108
 20
4.6425775642
 30
0.0
 10
10.8553421315
 20
4.6451699002
 30
0.0
 10
10.8576470568
 20
4.6465966542
 30
0.0
 10
10.8588401328
 20
4.6472260384
 30
0.0
  0
SPLINE
  5
347
100
AcDbEntity
  8
0
100
AcDbSpline
 62
9
  6
CONTINUOUS
 70
0
 71
3
 72
33
 73
29
 74
0
 42
0.0000001
 43
0.0000001
 44
0.0000000001
 40
0.0
 40
0.0
 40
0.0
 40
0.0
 40
0.0876660806
 40
0.1745855474
 40
0.2600263533
 40
0.3432713875
 40
0.4236355892
 40
0.5004740959
 40
0.5373863733
 40
0.5732003062
 40
0.6078524599
 40
0.6412843826
 40
0.6734437882
 40
0.7042845036
 40
0.7337681023
 40
0.76186446
 40
0.7885530459
 40
0.8138249681
 40
0.8376841063
 40
0.8601504294
 40
0.8812623035
 40
0.9010803113
 40
0.9196916494
 40
0.9372138965
 40
0.9537996504
 40
0.9696380781
 40
0.9849537675
 40
1.0
 40
1.0
 40
1.0
 40
1.0
 10
11.7356394642
 20
12.3352690837
 30
0.0
 10
11.7274701478
 20
12.3352690837
 30
0.0
 10
11.7111997493
 20
12.3349968812
 30
0.0
 10
11.6869951264
 20
12.3337741375
 30
0.0
 10
11.6632572985
 20
12.3317495779
 30
0.0
 10
11.6402140431
 20
12.3289428884
 30
0.0
 10
11.6180866043
 20
12.3253814495
 30
0.0
 10
11.6003559022
 20
12.3217669638
 30
0.0
 10
11.5868037403
 20
12.3185076045
 30
0.0
 10
11.5771338962
 20
12.3159306551
 30
0.0
 10
11.5678453088
 20
12.3131949531
 30
0.0
 10
11.5589602205
 20
12.3103069559
 30
0.0
 10
11.5504998802
 20
12.3072737466
 30
0.0
 10
11.5424845252
 20
12.3041024917
 30
0.0
 10
11.5349332431
 20
12.3008008592
 30
0.0
 10
11.5278639794
 20
12.2973767108
 30
0.0
 10
11.5212935084
 20
12.293838075
 30
0.0
 10
11.5152372717
 20
12.2901933655
 30
0.0
 10
11.5097095639
 20
12.2864508474
 30
0.0
 10
11.5047232777
 20
12.282619088
 30
0.0
 10
11.5002901292
 20
12.2787064716
 30
0.0
 10
11.4964207322
 20
12.2747212485
 30
0.0
 10
11.4931245566
 20
12.2706716962
 30
0.0
 10
11.490410663
 20
12.2665657322
 30
0.0
 10
11.488287373
 20
12.262411931
 30
0.0
 10
11.4867629009
 20
12.258219159
 30
0.0
 10
11.4858446354
 20
12.2539995468
 30
0.0
 10
11.4856394642
 20
12.2511661573
 30
0.0
 10
11.4856394642
 20
12.2497640479
 30
0.0
  0
SPLINE
  5
348
100
AcDbEntity
  8
0
100
AcDbSpline
 62
9
  6
CONTINUOUS
 70
0
 71
3
 72
15
 73
11
 74
0
 42
0.0000001
 43
0.0000001
 44
0.0000000001
 40
0.0
 40
0.0
 40
0.0
 40
0.0
 40
0.064859943
 40
0.1449465821
 40
0.2415447299
 40
0.3557044237
 40
0.4881903082
 40
0.6395255841
 40
0.8100624816
 40
1.0
 40
1.0
 40
1.0
 40
1.0
 10
9.8130997162
 20
7.1183028374
 30
0.0
 10
9.8126116842
 20
7.1179585811
 30
0.0
 10
9.8114748589
 20
7.1172538646
 30
0.0
 10
9.8094740327
 20
7.1162752051
 30
0.0
 10
9.8069675564
 20
7.1153220638
 30
0.0
 10
9.8039274172
 20
7.1144460894
 30
0.0
 10
9.8003375389
 20
7.1136947962
 30
0.0
 10
9.7961916215
 20
7.1131127147
 30
0.0
 10
9.7914910873
 20
7.1127402311
 30
0.0
 10
9.7881709767
 20
7.1126602199
 30
0.0
 10
9.7864220232
 20
7.1126601994
 30
0.0
  0
LINE
  5
349
100
AcDbEntity
  8
0
100
AcDbLine
 62
9
  6
CONTINUOUS
 10
9.8165862773
 20
7.1205541006
 11
9.8130997162
 21
7.1183028374
  0
LINE
  5
34A
100
AcDbEntity
  8
0
100
AcDbLine
 62
9
  6
CONTINUOUS
 10
9.4181792172
 20
7.1183028322
 11
9.4146926511
 21
7.1205541006
  0
SPLINE
  5
34B
100
AcDbEntity
  8
0
100
AcDbSpline
 62
9
  6
CONTINUOUS
 70
0
 71
3
 72
15
 73
11
 74
0
 42
0.0000001
 43
0.0000001
 44
0.0000000001
 40
0.0
 40
0.0
 40
0.0
 40
0.0
 40
0.189934244
 40
0.3604743971
 40
0.5118077183
 40
0.6442904031
 40
0.758452735
 40
0.8550529903
 40
0.9351405375
 40
1.0
 40
1.0
 40
1.0
 40
1.0
 10
9.4448568577
 20
7.1126602104
 30
0.0
 10
9.4431079408
 20
7.1126603231
 30
0.0
 10
9.4397878536
 20
7.1127404906
 30
0.0
 10
9.4350873316
 20
7.1131126501
 30
0.0
 10
9.4309414469
 20
7.1136948226
 30
0.0
 10
9.427351679
 20
7.1144464259
 30
0.0
 10
9.4243114811
 20
7.1153221788
 30
0.0
 10
9.4218049098
 20
7.1162751988
 30
0.0
 10
9.4198040525
 20
7.1172538395
 30
0.0
 10
9.4186672507
 20
7.1179585895
 30
0.0
 10
9.4181792172
 20
7.1183028322
 30
0.0
  0
SPLINE
  5
34C
100
AcDbEntity
  8
0
100
AcDbSpline
 62
9
  6
CONTINUOUS
 70
0
 71
3
 72
13
 73
9
 74
0
 42
0.0000001
 43
0.0000001
 44
0.0000000001
 40
0.0
 40
0.0
 40
0.0
 40
0.0
 40
0.2651199534
 40
0.5232590271
 40
0.6483027075
 40
0.7698526942
 40
0.8872999999
 40
1.0
 40
1.0
 40
1.0
 40
1.0
 10
9.5652918348
 20
7.1183028375
 30
0.0
 10
9.5590656325
 20
7.1176948707
 30
0.0
 10
9.5467886633
 20
7.1163817882
 30
0.0
 10
9.5315744337
 20
7.1147835402
 30
0.0
 10
9.5197092123
 20
7.1137494595
 30
0.0
 10
9.5111395795
 20
7.1131503575
 30
0.0
 10
9.5028492585
 20
7.1127597706
 30
0.0
 10
9.4974184275
 20
7.1126602259
 30
0.0
 10
9.4947591394
 20
7.1126602123
 30
0.0
  0
SPLINE
  5
34D
100
AcDbEntity
  8
0
100
AcDbSpline
 62
9
  6
CONTINUOUS
 70
0
 71
3
 72
17
 73
13
 74
0
 42
0.0000001
 43
0.0000001
 44
0.0000000001
 40
0.0
 40
0.0
 40
0.0
 40
0.0
 40
0.1244785891
 40
0.1868994391
 40
0.2494098151
 40
0.3746286006
 40
0.4999998356
 40
0.6253710697
 40
0.7505899729
 40
0.8131004787
 40
0.875521388
 40
1.0
 40
1.0
 40
1.0
 40
1.0
 10
9.6659868992
 20
7.1183028617
 30
0.0
 10
9.6618228729
 20
7.1187093043
 30
0.0
 10
9.6555605711
 20
7.1192192062
 30
0.0
 10
9.6471931973
 20
7.1197301671
 30
0.0
 10
9.6387952478
 20
7.1201396397
 30
0.0
 10
9.6282759141
 20
7.1204679694
 30
0.0
 10
9.6156393864
 20
7.1205976846
 30
0.0
 10
9.6030028532
 20
7.1204679637
 30
0.0
 10
9.5924835173
 20
7.1201394513
 30
0.0
 10
9.5840855571
 20
7.1197299971
 30
0.0
 10
9.5757181679
 20
7.1192191825
 30
0.0
 10
9.5694558546
 20
7.1187093539
 30
0.0
 10
9.5652918348
 20
7.1183028375
 30
0.0
  0
SPLINE
  5
34E
100
AcDbEntity
  8
0
100
AcDbSpline
 62
9
  6
CONTINUOUS
 70
0
 71
3
 72
13
 73
9
 74
0
 42
0.0000001
 43
0.0000001
 44
0.0000000001
 40
0.0
 40
0.0
 40
0.0
 40
0.0
 40
0.1127001834
 40
0.2301472605
 40
0.3516971244
 40
0.4767408632
 40
0.7348801279
 40
1.0
 40
1.0
 40
1.0
 40
1.0
 10
9.7365198961
 20
7.1126601914
 30
0.0
 10
9.7338605925
 20
7.1126602876
 30
0.0
 10
9.728429741
 20
7.112759806
 30
0.0
 10
9.7201393889
 20
7.1131504157
 30
0.0
 10
9.7115697245
 20
7.1137494815
 30
0.0
 10
9.6997044519
 20
7.1147835936
 30
0.0
 10
9.6844901542
 20
7.1163818464
 30
0.0
 10
9.6722131284
 20
7.1176949178
 30
0.0
 10
9.6659868992
 20
7.1183028617
 30
0.0
  0
SPLINE
  5
34F
100
AcDbEntity
  8
0
100
AcDbSpline
 62
9
  6
CONTINUOUS
 70
0
 71
3
 72
91
 73
87
 74
0
 42
0.0000001
 43
0.0000001
 44
0.0000000001
 40
0.0
 40
0.0
 40
0.0
 40
0.0
 40
0.0000029814
 40
0.0000118145
 40
0.0000264948
 40
0.0000470179
 40
0.0001055747
 40
0.0001874492
 40
0.0002926059
 40
0.0004210093
 40
0.0005726237
 40
0.0007474137
 40
0.0011663782
 40
0.001677619
 40
0.0022808095
 40
0.0029755062
 40
0.0037612458
 40
0.0046375652
 40
0.0066600896
 40
0.0090387808
 40
0.0117674628
 40
0.0148395933
 40
0.0182483261
 40
0.0219856306
 40
0.0260432029
 40
0.0350856722
 40
0.0453076168
 40
0.0566388116
 40
0.0690063672
 40
0.0823411078
 40
0.0965777108
 40
0.1116541434
 40
0.1275113682
 40
0.1613572107
 40
0.1977368173
 40
0.2363348428
 40
0.2768848351
 40
0.3191489563
 40
0.3628920472
 40
0.4078461317
 40
0.4536789223
 40
0.4768047643
 40
0.4999910287
 40
0.5231773063
 40
0.5463031323
 40
0.5693113073
 40
0.5921469892
 40
0.6371010365
 40
0.6591454539
 40
0.680851063
 40
0.7231151402
 40
0.7636649652
 40
0.8022631308
 40
0.8386428063
 40
0.8724885672
 40
0.8883459161
 40
0.9034223829
 40
0.9176590285
 40
0.9309938722
 40
0.9433614255
 40
0.954692475
 40
0.9649142817
 40
0.9739567474
 40
0.9780143861
 40
0.9817517563
 40
0.9851605016
 40
0.988232556
 40
0.9909611153
 40
0.9933397018
 40
0.9953621911
 40
0.9962385168
 40
0.997024274
 40
0.9977189962
 40
0.9983222166
 40
0.9988334885
 40
0.9992524837
 40
0.9994272886
 40
0.9995789176
 40
0.999707335
 40
0.9998125051
 40
0.9998943924
 40
0.9999529611
 40
0.9999734898
 40
0.9999881755
 40
0.9999970137
 40
1.0
 40
1.0
 40
1.0
 40
1.0
 10
9.4406394642
 20
6.8412187254
 30
0.0
 10
9.4406396595
 20
6.8412183955
 30
0.0
 10
9.4406411121
 20
6.8412176838
 30
0.0
 10
9.4406435629
 20
6.8412153866
 30
0.0
 10
9.4406481804
 20
6.8412120437
 30
0.0
 10
9.4406576414
 20
6.8412046057
 30
0.0
 10
9.4406740969
 20
6.841192028
 30
0.0
 10
9.4406990946
 20
6.8411727458
 30
0.0
 10
9.4407312674
 20
6.841148044
 30
0.0
 10
9.4407705535
 20
6.8411178887
 30
0.0
 10
9.4408169692
 20
6.8410823147
 30
0.0
 10
9.4408930693
 20
6.8410240555
 30
0.0
 10
9.4410059655
 20
6.8409377903
 30
0.0
 10
9.4411627652
 20
6.8408182569
 30
0.0
 10
9.4413479134
 20
6.8406774301
 30
0.0
 10
9.4415612904
 20
6.8405154152
 30
0.0
 10
9.4418027682
 20
6.8403323348
 30
0.0
 10
9.442180475
 20
6.8400463384
 30
0.0
 10
9.4427218192
 20
6.8396371521
 30
0.0
 10
9.4434536996
 20
6.8390850467
 30
0.0
 10
9.4442942109
 20
6.8384528451
 30
0.0
 10
9.4452417417
 20
6.8377425943
 30
0.0
 10
9.4462945126
 20
6.8369565183
 30
0.0
 10
9.4474507673
 20
6.8360972557
 30
0.0
 10
9.4491917682
 20
6.834810397
 30
0.0
 10
9.451611194
 20
6.8330386426
 30
0.0
 10
9.4547995942
 20
6.8307341175
 30
0.0
 10
9.4583523843
 20
6.8282040367
 30
0.0
 10
9.4622546654
 20
6.8254749929
 30
0.0
 10
9.4664910217
 20
6.8225721645
 30
0.0
 10
9.4710466376
 20
6.8195195378
 30
0.0
 10
9.4759089245
 20
6.8163425268
 30
0.0
 10
9.482940036
 20
6.8118764377
 30
0.0
 10
9.4924112392
 20
6.8061447224
 30
0.0
 10
9.50462545
 20
6.7993112167
 30
0.0
 10
9.5178775717
 20
6.792589136
 30
0.0
 10
9.5321310562
 20
6.7862034942
 30
0.0
 10
9.5473469295
 20
6.7804056927
 30
0.0
 10
9.5634574814
 20
6.7754567076
 30
0.0
 10
9.580349713
 20
6.7716485678
 30
0.0
 10
9.5948791139
 20
6.7696378755
 30
0.0
 10
9.6067023342
 20
6.7688167941
 30
0.0
 10
9.6156394575
 20
6.7686116735
 30
0.0
 10
9.6245764492
 20
6.7688163174
 30
0.0
 10
9.6334714449
 20
6.7694345442
 30
0.0
 10
9.6422841119
 20
6.770452948
 30
0.0
 10
9.6538148395
 20
6.7723002593
 30
0.0
 10
9.6650979861
 20
6.7748421919
 30
0.0
 10
9.676062969
 20
6.7779886919
 30
0.0
 10
9.6865807553
 20
6.7814152221
 30
0.0
 10
9.6991479389
 20
6.7862039111
 30
0.0
 10
9.7134015696
 20
6.7925884665
 30
0.0
 10
9.7266534481
 20
6.7993112472
 30
0.0
 10
9.7388675434
 20
6.8061449182
 30
0.0
 10
9.7483390076
 20
6.8118762477
 30
0.0
 10
9.7553699547
 20
6.8163426147
 30
0.0
 10
9.7602322687
 20
6.8195196298
 30
0.0
 10
9.7647879017
 20
6.8225722736
 30
0.0
 10
9.7690242115
 20
6.8254752025
 30
0.0
 10
9.772926484
 20
6.8282042476
 30
0.0
 10
9.7764793233
 20
6.8307341958
 30
0.0
 10
9.7796677557
 20
6.8330386137
 30
0.0
 10
9.7820871817
 20
6.8348103517
 30
0.0
 10
9.783828161
 20
6.8360972675
 30
0.0
 10
9.7849844053
 20
6.8369565752
 30
0.0
 10
9.7860371673
 20
6.8377426636
 30
0.0
 10
9.786984705
 20
6.8384528651
 30
0.0
 10
9.7878252277
 20
6.8390849867
 30
0.0
 10
9.7885571201
 20
6.8396370201
 30
0.0
 10
9.789098462
 20
6.8400461811
 30
0.0
 10
9.7894761651
 20
6.84033218
 30
0.0
 10
9.7897176422
 20
6.8405152718
 30
0.0
 10
9.7899310182
 20
6.8406773036
 30
0.0
 10
9.7901161649
 20
6.8408181506
 30
0.0
 10
9.7902729631
 20
6.8409377056
 30
0.0
 10
9.7903858575
 20
6.8410239893
 30
0.0
 10
9.7904619563
 20
6.841082263
 30
0.0
 10
9.7905083714
 20
6.8411178469
 30
0.0
 10
9.7905476572
 20
6.8411480114
 30
0.0
 10
9.79057983
 20
6.8411727218
 30
0.0
 10
9.7906048283
 20
6.8411920113
 30
0.0
 10
9.7906212837
 20
6.8412045952
 30
0.0
 10
9.7906307461
 20
6.8412120367
 30
0.0
 10
9.7906353629
 20
6.841215383
 30
0.0
 10
9.7906378169
 20
6.8412176806
 30
0.0
 10
9.7906392679
 20
6.8412183954
 30
0.0
 10
9.7906394642
 20
6.8412187254
 30
0.0
  0
SPLINE
  5
350
100
AcDbEntity
  8
0
100
AcDbSpline
 62
9
  6
CONTINUOUS
 70
0
 71
3
 72
61
 73
57
 74
0
 42
0.0000001
 43
0.0000001
 44
0.0000000001
 40
0.0
 40
0.0
 40
0.0
 40
0.0
 40
0.0075225775
 40
0.01518096
 40
0.0231000719
 40
0.0313928111
 40
0.0401539299
 40
0.0494595668
 40
0.0593685163
 40
0.0699244005
 40
0.0811575092
 40
0.0930870203
 40
0.1057229237
 40
0.1190671569
 40
0.133115271
 40
0.1478570037
 40
0.1632772901
 40
0.1793569204
 40
0.1960728066
 40
0.2133988054
 40
0.2313056925
 40
0.2497617484
 40
0.268732959
 40
0.2881831355
 40
0.3283650541
 40
0.3699874215
 40
0.4127074801
 40
0.4561675218
 40
0.5
 40
0.5438324782
 40
0.5872925199
 40
0.6300125785
 40
0.6716349459
 40
0.7118168645
 40
0.731267041
 40
0.7502382516
 40
0.7686943075
 40
0.7866011946
 40
0.8039271934
 40
0.8206430796
 40
0.8367227099
 40
0.8521429963
 40
0.866884729
 40
0.8809328431
 40
0.8942770763
 40
0.9069129797
 40
0.9188424908
 40
0.9300755995
 40
0.9406314837
 40
0.9505404332
 40
0.9598460701
 40
0.9686071889
 40
0.9768999281
 40
0.98481904
 40
0.9924774225
 40
1.0
 40
1.0
 40
1.0
 40
1.0
 10
12.0056394638
 20
11.2067052388
 30
0.0
 10
12.0056394638
 20
11.2082194155
 30
0.0
 10
12.0054178123
 20
11.2112794803
 30
0.0
 10
12.0044262281
 20
11.2158366918
 30
0.0
 10
12.0027797379
 20
11.2203649588
 30
0.0
 10
12.0004865604
 20
11.2248510182
 30
0.0
 10
11.9975555925
 20
11.2292854702
 30
0.0
 10
11.9939957195
 20
11.2336589953
 30
0.0
 10
11.9898167668
 20
11.2379630312
 30
0.0
 10
11.985028973
 20
11.24218866
 30
0.0
 10
11.9796437863
 20
11.2463269605
 30
0.0
 10
11.9736738639
 20
11.2503688817
 30
0.0
 10
11.9671331292
 20
11.2543051691
 30
0.0
 10
11.9600370209
 20
11.2581268972
 30
0.0
 10
11.9524022167
 20
11.2618249799
 30
0.0
 10
11.944246832
 20
11.2653907434
 30
0.0
 10
11.935590249
 20
11.2688157007
 30
0.0
 10
11.9264530808
 20
11.2720915682
 30
0.0
 10
11.9168571863
 20
11.2752106038
 30
0.0
 10
11.9068255056
 20
11.2781651736
 30
0.0
 10
11.8963820938
 20
11.2809482406
 30
0.0
 10
11.8855520121
 20
11.2835530601
 30
0.0
 10
11.8743612176
 20
11.2859733389
 30
0.0
 10
11.8588266663
 20
11.2889790225
 30
0.0
 10
11.8386987017
 20
11.2922183455
 30
0.0
 10
11.813812294
 20
11.2952496115
 30
0.0
 10
11.7881753397
 20
11.2974361502
 30
0.0
 10
11.7620341246
 20
11.2987566845
 30
0.0
 10
11.7356394642
 20
11.2991983009
 30
0.0
 10
11.7092448038
 20
11.2987566845
 30
0.0
 10
11.6831035887
 20
11.2974361502
 30
0.0
 10
11.6574666344
 20
11.2952496115
 30
0.0
 10
11.6325802267
 20
11.2922183455
 30
0.0
 10
11.6124522621
 20
11.2889790225
 30
0.0
 10
11.5969177108
 20
11.2859733389
 30
0.0
 10
11.5857269164
 20
11.2835530601
 30
0.0
 10
11.5748968347
 20
11.2809482406
 30
0.0
 10
11.5644534229
 20
11.2781651736
 30
0.0
 10
11.5544217422
 20
11.2752106038
 30
0.0
 10
11.5448258476
 20
11.2720915682
 30
0.0
 10
11.5356886794
 20
11.2688157007
 30
0.0
 10
11.5270320965
 20
11.2653907434
 30
0.0
 10
11.5188767118
 20
11.2618249799
 30
0.0
 10
11.5112419076
 20
11.2581268972
 30
0.0
 10
11.5041457993
 20
11.2543051691
 30
0.0
 10
11.4976050645
 20
11.2503688817
 30
0.0
 10
11.4916351422
 20
11.2463269605
 30
0.0
 10
11.4862499554
 20
11.24218866
 30
0.0
 10
11.4814621617
 20
11.2379630312
 30
0.0
 10
11.477283209
 20
11.2336589953
 30
0.0
 10
11.4737233359
 20
11.2292854702
 30
0.0
 10
11.470792368
 20
11.2248510182
 30
0.0
 10
11.4684991906
 20
11.2203649588
 30
0.0
 10
11.4668527003
 20
11.2158366918
 30
0.0
 10
11.4658611162
 20
11.2112794803
 30
0.0
 10
11.4656394647
 20
11.2082194155
 30
0.0
 10
11.4656394647
 20
11.2067052388
 30
0.0
  0
SPLINE
  5
351
100
AcDbEntity
  8
0
100
AcDbSpline
 62
9
  6
CONTINUOUS
 70
0
 71
3
 72
61
 73
57
 74
0
 42
0.0000001
 43
0.0000001
 44
0.0000000001
 40
0.0
 40
0.0
 40
0.0
 40
0.0
 40
0.0075226437
 40
0.0151810088
 40
0.023100109
 40
0.0313928716
 40
0.0401539905
 40
0.0494596137
 40
0.0593685804
 40
0.0699244479
 40
0.0811575761
 40
0.0930870871
 40
0.1057229766
 40
0.1190672375
 40
0.133115314
 40
0.1478570728
 40
0.1632773548
 40
0.1793569669
 40
0.1960728861
 40
0.213398841
 40
0.2313057547
 40
0.2497618028
 40
0.2687329948
 40
0.2881831991
 40
0.3283650984
 40
0.3699874428
 40
0.4127074916
 40
0.4561675308
 40
0.5
 40
0.5438324692
 40
0.5872925084
 40
0.6300125572
 40
0.6716349016
 40
0.7118168009
 40
0.7312670052
 40
0.7502381972
 40
0.7686942453
 40
0.786601159
 40
0.8039271139
 40
0.8206430331
 40
0.8367226452
 40
0.8521429272
 40
0.866884686
 40
0.8809327625
 40
0.8942770234
 40
0.9069129129
 40
0.9188424239
 40
0.9300755521
 40
0.9406314196
 40
0.9505403863
 40
0.9598460095
 40
0.9686071284
 40
0.976899891
 40
0.9848189912
 40
0.9924773563
 40
1.0
 40
1.0
 40
1.0
 40
1.0
 10
12.0209586118
 20
11.2080963852
 30
0.0
 10
12.0209586118
 20
11.2096964867
 30
0.0
 10
12.0207243934
 20
11.212930184
 30
0.0
 10
12.0196765261
 20
11.2177459642
 30
0.0
 10
12.0179366213
 20
11.222531153
 30
0.0
 10
12.0155133309
 20
11.2272717425
 30
0.0
 10
12.0124160589
 20
11.2319577911
 30
0.0
 10
12.0086542153
 20
11.2365794679
 30
0.0
 10
12.0042381367
 20
11.2411276785
 30
0.0
 10
11.9991787165
 20
11.2455930892
 30
0.0
 10
11.9934879675
 20
11.249966164
 30
0.0
 10
11.9871793266
 20
11.2542374147
 30
0.0
 10
11.9802674932
 20
11.2583970565
 30
0.0
 10
11.9727687532
 20
11.2624355799
 30
0.0
 10
11.9647007858
 20
11.2663435255
 30
0.0
 10
11.9560826729
 20
11.2701115694
 30
0.0
 10
11.9469349374
 20
11.2737308533
 30
0.0
 10
11.9372793534
 20
11.277192608
 30
0.0
 10
11.9271390027
 20
11.2804885645
 30
0.0
 10
11.9165381597
 20
11.283610818
 30
0.0
 10
11.9055022095
 20
11.2865517542
 30
0.0
 10
11.8940576564
 20
11.2893043685
 30
0.0
 10
11.8822319272
 20
11.2918619897
 30
0.0
 10
11.8658159761
 20
11.2950381624
 30
0.0
 10
11.8445460079
 20
11.298461305
 30
0.0
 10
11.8182476165
 20
11.3016645628
 30
0.0
 10
11.7911560909
 20
11.3039751635
 30
0.0
 10
11.7635316897
 20
11.305370604
 30
0.0
 10
11.7356394642
 20
11.3058372661
 30
0.0
 10
11.7077472388
 20
11.305370604
 30
0.0
 10
11.6801228375
 20
11.3039751635
 30
0.0
 10
11.653031312
 20
11.3016645628
 30
0.0
 10
11.6267329206
 20
11.298461305
 30
0.0
 10
11.6054629524
 20
11.2950381624
 30
0.0
 10
11.5890470012
 20
11.2918619897
 30
0.0
 10
11.5772212721
 20
11.2893043685
 30
0.0
 10
11.565776719
 20
11.2865517542
 30
0.0
 10
11.5547407687
 20
11.283610818
 30
0.0
 10
11.5441399257
 20
11.2804885645
 30
0.0
 10
11.5339995751
 20
11.277192608
 30
0.0
 10
11.524343991
 20
11.2737308533
 30
0.0
 10
11.5151962555
 20
11.2701115694
 30
0.0
 10
11.5065781427
 20
11.2663435255
 30
0.0
 10
11.4985101752
 20
11.2624355799
 30
0.0
 10
11.4910114352
 20
11.2583970565
 30
0.0
 10
11.4840996018
 20
11.2542374147
 30
0.0
 10
11.477790961
 20
11.249966164
 30
0.0
 10
11.472100212
 20
11.2455930892
 30
0.0
 10
11.4670407917
 20
11.2411276785
 30
0.0
 10
11.4626247131
 20
11.2365794679
 30
0.0
 10
11.4588628696
 20
11.2319577911
 30
0.0
 10
11.4557655976
 20
11.2272717425
 30
0.0
 10
11.4533423072
 20
11.222531153
 30
0.0
 10
11.4516024024
 20
11.2177459642
 30
0.0
 10
11.450554535
 20
11.212930184
 30
0.0
 10
11.4503203167
 20
11.2096964867
 30
0.0
 10
11.4503203167
 20
11.2080963852
 30
0.0
  0
SPLINE
  5
352
100
AcDbEntity
  8
0
100
AcDbSpline
 62
9
  6
CONTINUOUS
 70
0
 71
3
 72
10
 73
6
 74
0
 42
0.0000001
 43
0.0000001
 44
0.0000000001
 40
0.0
 40
0.0
 40
0.0
 40
0.0
 40
0.5155129192
 40
0.7608985041
 40
1.0
 40
1.0
 40
1.0
 40
1.0
 10
9.844323317
 20
8.9264288322
 30
0.0
 10
9.8452026915
 20
8.9266336373
 30
0.0
 10
9.8465403146
 20
8.9268041866
 30
0.0
 10
9.84829206
 20
8.926697874
 30
0.0
 10
9.8491283076
 20
8.9265363534
 30
0.0
 10
9.8495330501
 20
8.9264288322
 30
0.0
  0
SPLINE
  5
353
100
AcDbEntity
  8
0
100
AcDbSpline
 62
9
  6
CONTINUOUS
 70
0
 71
3
 72
13
 73
9
 74
0
 42
0.0000001
 43
0.0000001
 44
0.0000000001
 40
0.0
 40
0.0
 40
0.0
 40
0.0
 40
0.2945816903
 40
0.4310341343
 40
0.5597651918
 40
0.6807109527
 40
0.7940645937
 40
1.0
 40
1.0
 40
1.0
 40
1.0
 10
9.828676906
 20
8.9368187253
 30
0.0
 10
9.8296431139
 20
8.9371184665
 30
0.0
 10
9.8310856378
 20
8.9374763293
 30
0.0
 10
9.8329932327
 20
8.9377266447
 30
0.0
 10
9.8343193386
 20
8.937790295
 30
0.0
 10
9.8355672658
 20
8.9377339365
 30
0.0
 10
9.837063005
 20
8.9375070487
 30
0.0
 10
9.8381185858
 20
8.9371499405
 30
0.0
 10
9.83874344
 20
8.9368187253
 30
0.0
  0
SPLINE
  5
354
100
AcDbEntity
  8
0
100
AcDbSpline
 62
9
  6
CONTINUOUS
 70
0
 71
3
 72
10
 73
6
 74
0
 42
0.0000001
 43
0.0000001
 44
0.0000000001
 40
0.0
 40
0.0
 40
0.0
 40
0.0
 40
0.2391014959
 40
0.4844870808
 40
1.0
 40
1.0
 40
1.0
 40
1.0
 10
9.3817458784
 20
8.9264288322
 30
0.0
 10
9.3821506209
 20
8.9265363534
 30
0.0
 10
9.3829868684
 20
8.926697874
 30
0.0
 10
9.3847386138
 20
8.9268041866
 30
0.0
 10
9.386076237
 20
8.9266336373
 30
0.0
 10
9.3869556114
 20
8.9264288322
 30
0.0
  0
SPLINE
  5
355
100
AcDbEntity
  8
0
100
AcDbSpline
 62
9
  6
CONTINUOUS
 70
0
 71
3
 72
13
 73
9
 74
0
 42
0.0000001
 43
0.0000001
 44
0.0000000001
 40
0.0
 40
0.0
 40
0.0
 40
0.0
 40
0.2059354181
 40
0.3192890557
 40
0.4402348115
 40
0.5689658648
 40
0.705418306
 40
1.0
 40
1.0
 40
1.0
 40
1.0
 10
9.3925354884
 20
8.9368187253
 30
0.0
 10
9.3931603426
 20
8.9371499405
 30
0.0
 10
9.3942159234
 20
8.9375070488
 30
0.0
 10
9.3957116627
 20
8.9377339366
 30
0.0
 10
9.3969595898
 20
8.937790295
 30
0.0
 10
9.3982856957
 20
8.9377266447
 30
0.0
 10
9.4001932906
 20
8.9374763292
 30
0.0
 10
9.4016358145
 20
8.9371184665
 30
0.0
 10
9.4026020224
 20
8.9368187253
 30
0.0
  0
SPLINE
  5
356
100
AcDbEntity
  8
0
100
AcDbSpline
 62
9
  6
CONTINUOUS
 70
0
 71
3
 72
13
 73
9
 74
0
 42
0.0000001
 43
0.0000001
 44
0.0000000001
 40
0.0
 40
0.0
 40
0.0
 40
0.0
 40
0.2645166393
 40
0.5167707894
 40
0.6395131186
 40
0.7606212233
 40
0.8806077249
 40
1.0
 40
1.0
 40
1.0
 40
1.0
 10
11.4187019439
 20
11.5043077372
 30
0.0
 10
11.4176628979
 20
11.5060632286
 30
0.0
 10
11.4158184026
 20
11.5096079293
 30
0.0
 10
11.4141020485
 20
11.5142476639
 30
0.0
 10
11.4131500806
 20
11.517956074
 30
0.0
 10
11.4126440901
 20
11.5207184658
 30
0.0
 10
11.4123403107
 20
11.5234841846
 30
0.0
 10
11.4122727963
 20
11.5253309819
 30
0.0
 10
11.4122729267
 20
11.5262517309
 30
0.0
  0
SPLINE
  5
357
100
AcDbEntity
  8
0
100
AcDbSpline
 62
9
  6
CONTINUOUS
 70
0
 71
3
 72
15
 73
11
 74
0
 42
0.0000001
 43
0.0000001
 44
0.0000000001
 40
0.0
 40
0.0
 40
0.0
 40
0.0
 40
0.120105835
 40
0.2438169818
 40
0.3702587036
 40
0.4982612113
 40
0.6265102216
 40
0.7536679772
 40
0.8784945047
 40
1.0
 40
1.0
 40
1.0
 40
1.0
 10
9.7874611479
 20
7.1518290719
 30
0.0
 10
9.7864617515
 20
7.1504994875
 30
0.0
 10
9.7846652207
 20
7.1476188066
 30
0.0
 10
9.7826734355
 20
7.1428726944
 30
0.0
 10
9.7813955449
 20
7.1377737168
 30
0.0
 10
9.7808711255
 20
7.1324812011
 30
0.0
 10
9.7811153914
 20
7.1271585575
 30
0.0
 10
9.782121472
 20
7.1219700971
 30
0.0
 10
9.7838580098
 20
7.1170778061
 30
0.0
 10
9.7854960549
 20
7.1140652003
 30
0.0
 10
9.7864220232
 20
7.1126601994
 30
0.0
  0
SPLINE
  5
358
100
AcDbEntity
  8
0
100
AcDbSpline
 62
9
  6
CONTINUOUS
 70
0
 71
3
 72
15
 73
11
 74
0
 42
0.0000001
 43
0.0000001
 44
0.0000000001
 40
0.0
 40
0.0
 40
0.0
 40
0.0
 40
0.1144989154
 40
0.2368453095
 40
0.3649453459
 40
0.4962790847
 40
0.6281196107
 40
0.7577075673
 40
0.8824232223
 40
1.0
 40
1.0
 40
1.0
 40
1.0
 10
9.7372555253
 20
7.1518291435
 30
0.0
 10
9.7365314751
 20
7.1504681036
 30
0.0
 10
9.7352475765
 20
7.1475360405
 30
0.0
 10
9.7338536896
 20
7.1428132051
 30
0.0
 10
9.7329590128
 20
7.1377408222
 30
0.0
 10
9.7325916741
 20
7.1324761237
 30
0.0
 10
9.7327627344
 20
7.1271814467
 30
0.0
 10
9.7334671586
 20
7.1220202177
 30
0.0
 10
9.7346826322
 20
7.1171525947
 30
0.0
 10
9.7358506689
 20
7.1140948713
 30
0.0
 10
9.7365198961
 20
7.1126601914
 30
0.0
  0
SPLINE
  5
359
100
AcDbEntity
  8
0
100
AcDbSpline
 62
9
  6
CONTINUOUS
 70
0
 71
3
 72
13
 73
9
 74
0
 42
0.0000001
 43
0.0000001
 44
0.0000000001
 40
0.0
 40
0.0
 40
0.0
 40
0.0
 40
0.2827328997
 40
0.5523410355
 40
0.6779973106
 40
0.795439309
 40
0.9032208262
 40
1.0
 40
1.0
 40
1.0
 40
1.0
 10
9.6685933951
 20
7.1417818914
 30
0.0
 10
9.6682656465
 20
7.1395790871
 30
0.0
 10
9.6676622434
 20
7.1352701638
 30
0.0
 10
9.6670155425
 20
7.1299686002
 30
0.0
 10
9.6665903593
 20
7.1259524422
 30
0.0
 10
9.666331821
 20
7.1232006445
 30
0.0
 10
9.6661291201
 20
7.1206722985
 30
0.0
 10
9.6660268134
 20
7.1190641341
 30
0.0
 10
9.6659868992
 20
7.1183028617
 30
0.0
  0
SPLINE
  5
35A
100
AcDbEntity
  8
0
100
AcDbSpline
 62
9
  6
CONTINUOUS
 70
0
 71
3
 72
13
 73
9
 74
0
 42
0.0000001
 43
0.0000001
 44
0.0000000001
 40
0.0
 40
0.0
 40
0.0
 40
0.0
 40
0.2827324849
 40
0.5523403325
 40
0.6779966095
 40
0.7954387278
 40
0.9032204825
 40
1.0
 40
1.0
 40
1.0
 40
1.0
 10
9.5626852451
 20
7.1417818723
 30
0.0
 10
9.5630131804
 20
7.1395790955
 30
0.0
 10
9.5636168202
 20
7.1352702022
 30
0.0
 10
9.5642635576
 20
7.1299686386
 30
0.0
 10
9.5646886727
 20
7.125952468
 30
0.0
 10
9.5649471276
 20
7.123200655
 30
0.0
 10
9.5651497263
 20
7.1206722911
 30
0.0
 10
9.5652519606
 20
7.1190641148
 30
0.0
 10
9.565291836
 20
7.1183028365
 30
0.0
  0
SPLINE
  5
35B
100
AcDbEntity
  8
0
100
AcDbSpline
 62
9
  6
CONTINUOUS
 70
0
 71
3
 72
15
 73
11
 74
0
 42
0.0000001
 43
0.0000001
 44
0.0000000001
 40
0.0
 40
0.0
 40
0.0
 40
0.0
 40
0.114499949
 40
0.236846202
 40
0.3649459377
 40
0.4962793388
 40
0.6281195843
 40
0.7577073687
 40
0.8824230137
 40
1.0
 40
1.0
 40
1.0
 40
1.0
 10
9.4940235643
 20
7.1518291147
 30
0.0
 10
9.4947476728
 20
7.1504680887
 30
0.0
 10
9.4960316449
 20
7.1475360362
 30
0.0
 10
9.4974255252
 20
7.1428131851
 30
0.0
 10
9.4983201999
 20
7.1377408087
 30
0.0
 10
9.4986875109
 20
7.132476116
 30
0.0
 10
9.4985164218
 20
7.1271814466
 30
0.0
 10
9.4978119629
 20
7.1220202244
 30
0.0
 10
9.4965964493
 20
7.1171526069
 30
0.0
 10
9.4954283824
 20
7.1140948892
 30
0.0
 10
9.4947591394
 20
7.1126602123
 30
0.0
  0
SPLINE
  5
35C
100
AcDbEntity
  8
0
100
AcDbSpline
 62
9
  6
CONTINUOUS
 70
0
 71
3
 72
15
 73
11
 74
0
 42
0.0000001
 43
0.0000001
 44
0.0000000001
 40
0.0
 40
0.0
 40
0.0
 40
0.0
 40
0.120106494
 40
0.2438175351
 40
0.3702589943
 40
0.498261196
 40
0.6265099561
 40
0.753667589
 40
0.8784941881
 40
1.0
 40
1.0
 40
1.0
 40
1.0
 10
9.4438177356
 20
7.1518291221
 30
0.0
 10
9.4448171679
 20
7.1504995462
 30
0.0
 10
9.446613754
 20
7.1476188736
 30
0.0
 10
9.4486055661
 20
7.1428727478
 30
0.0
 10
9.4498834738
 20
7.1377737653
 30
0.0
 10
9.4504078894
 20
7.1324812414
 30
0.0
 10
9.4501636082
 20
7.1271585892
 30
0.0
 10
9.4491574997
 20
7.1219701195
 30
0.0
 10
9.4474209213
 20
7.1170778197
 30
0.0
 10
9.4457828436
 20
7.1140652118
 30
0.0
 10
9.4448568577
 20
7.1126602104
 30
0.0
  0
SPLINE
  5
35D
100
AcDbEntity
  8
0
100
AcDbSpline
 62
9
  6
CONTINUOUS
 70
0
 71
3
 72
15
 73
11
 74
0
 42
0.0000001
 43
0.0000001
 44
0.0000000001
 40
0.0
 40
0.0
 40
0.0
 40
0.0
 40
0.1243713434
 40
0.2489299213
 40
0.3736695019
 40
0.4986052451
 40
0.623726678
 40
0.7490139979
 40
0.8744552427
 40
1.0
 40
1.0
 40
1.0
 40
1.0
 10
9.429072077
 20
7.1417818548
 30
0.0
 10
9.4290888304
 20
7.140672971
 30
0.0
 10
9.4289966549
 20
7.1384496121
 30
0.0
 10
9.4284839828
 20
7.1351505217
 30
0.0
 10
9.4276030885
 20
7.1319245136
 30
0.0
 10
9.4263653232
 20
7.1288126485
 30
0.0
 10
9.4247860759
 20
7.1258538853
 30
0.0
 10
9.4228852593
 20
7.1230851421
 30
0.0
 10
9.4206870087
 20
7.1205416868
 30
0.0
 10
9.4190412543
 20
7.1190170544
 30
0.0
 10
9.4181792172
 20
7.1183028322
 30
0.0
  0
LINE
  5
35E
100
AcDbEntity
  8
0
100
AcDbLine
 62
9
  6
CONTINUOUS
 10
9.4435081318
 20
7.1867870718
 11
9.4585812345
 21
7.1867870718
  0
SPLINE
  5
35F
100
AcDbEntity
  8
0
100
AcDbSpline
 62
9
  6
CONTINUOUS
 70
0
 71
3
 72
14
 73
10
 74
0
 42
0.0000001
 43
0.0000001
 44
0.0000000001
 40
0.0
 40
0.0
 40
0.0
 40
0.0
 40
0.1972922585
 40
0.3089334708
 40
0.4297266593
 40
0.5596508293
 40
0.6984007924
 40
0.8454736399
 40
1.0
 40
1.0
 40
1.0
 40
1.0
 10
9.3739748302
 20
8.8556184161
 30
0.0
 10
9.3746030066
 20
8.8552795399
 30
0.0
 10
9.3756836152
 20
8.8549241767
 30
0.0
 10
9.3772223822
 20
8.8546996665
 30
0.0
 10
9.3785347172
 20
8.8546438822
 30
0.0
 10
9.3799436217
 20
8.8547082825
 30
0.0
 10
9.3814377886
 20
8.8548920797
 30
0.0
 10
9.3830031096
 20
8.8551936358
 30
0.0
 10
9.3840606852
 20
8.855464983
 30
0.0
 10
9.3845981912
 20
8.8556186355
 30
0.0
  0
LINE
  5
360
100
AcDbEntity
  8
0
100
AcDbLine
 62
9
  6
CONTINUOUS
 10
9.4103740686
 20
8.724733339
 11
9.4246156283
 21
8.7247333391
  0
SPLINE
  5
361
100
AcDbEntity
  8
0
100
AcDbSpline
 62
9
  6
CONTINUOUS
 70
0
 71
3
 72
59
 73
55
 74
0
 42
0.0000001
 43
0.0000001
 44
0.0000000001
 40
0.0
 40
0.0
 40
0.0
 40
0.0
 40
0.0075226783
 40
0.0151810787
 40
0.0231002155
 40
0.0313930163
 40
0.0401541756
 40
0.0494598417
 40
0.0593688541
 40
0.0699247702
 40
0.0811579501
 40
0.0930875161
 40
0.1057234639
 40
0.1190677863
 40
0.1331159275
 40
0.1478577543
 40
0.1632781074
 40
0.1793577936
 40
0.1960737899
 40
0.2133998246
 40
0.2313068208
 40
0.249762954
 40
0.2881822227
 40
0.3283643073
 40
0.3699868436
 40
0.4127070893
 40
0.4561673288
 40
0.5
 40
0.5438326712
 40
0.5872929107
 40
0.6300131564
 40
0.6716356927
 40
0.7118177773
 40
0.750237046
 40
0.7686931792
 40
0.7866001754
 40
0.8039262101
 40
0.8206422064
 40
0.8367218926
 40
0.8521422457
 40
0.8668840725
 40
0.8809322137
 40
0.8942765361
 40
0.9069124839
 40
0.9188420499
 40
0.9300752298
 40
0.9406311459
 40
0.9505401583
 40
0.9598458244
 40
0.9686069837
 40
0.9768997845
 40
0.9848189213
 40
0.9924773217
 40
1.0
 40
1.0
 40
1.0
 40
1.0
 10
12.019066853
 20
11.3616697169
 30
0.0
 10
12.019066853
 20
11.3632592092
 30
0.0
 10
12.0188341876
 20
11.3664714661
 30
0.0
 10
12.0177932679
 20
11.371255316
 30
0.0
 10
12.0160648992
 20
11.3760087775
 30
0.0
 10
12.013657676
 20
11.3807179354
 30
0.0
 10
12.01058094
 20
11.3853729139
 30
0.0
 10
12.0068440387
 20
11.3899639475
 30
0.0
 10
12.0024572401
 20
11.394482002
 30
0.0
 10
11.9974313655
 20
11.3989178056
 30
0.0
 10
11.991778348
 20
11.4032618855
 30
0.0
 10
11.9855115355
 20
11.4075048164
 30
0.0
 10
11.9786455298
 20
11.4116368784
 30
0.0
 10
11.9711965089
 20
11.4156486251
 30
0.0
 10
11.9631820347
 20
11.4195306597
 30
0.0
 10
11.9546210627
 20
11.4232737202
 30
0.0
 10
11.9455339796
 20
11.4268690073
 30
0.0
 10
11.9359424156
 20
11.4303078088
 30
0.0
 10
11.9258692973
 20
11.4335819145
 30
0.0
 10
11.9153387471
 20
11.4366834565
 30
0.0
 10
11.9043759463
 20
11.4396049324
 30
0.0
 10
11.889011727
 20
11.4433001169
 30
0.0
 10
11.8689102559
 20
11.4473978707
 30
0.0
 10
11.8438241711
 20
11.4514355264
 30
0.0
 10
11.8176998279
 20
11.4546174963
 30
0.0
 10
11.7907880168
 20
11.4569127907
 30
0.0
 10
11.7633467503
 20
11.4582989751
 30
0.0
 10
11.7356394642
 20
11.4587625444
 30
0.0
 10
11.7079321782
 20
11.4582989751
 30
0.0
 10
11.6804909117
 20
11.4569127907
 30
0.0
 10
11.6535791006
 20
11.4546174963
 30
0.0
 10
11.6274547573
 20
11.4514355264
 30
0.0
 10
11.6023686725
 20
11.4473978707
 30
0.0
 10
11.5822672014
 20
11.4433001169
 30
0.0
 10
11.5669029822
 20
11.4396049324
 30
0.0
 10
11.5559401814
 20
11.4366834565
 30
0.0
 10
11.5454096311
 20
11.4335819145
 30
0.0
 10
11.5353365129
 20
11.4303078088
 30
0.0
 10
11.5257449488
 20
11.4268690073
 30
0.0
 10
11.5166578657
 20
11.4232737202
 30
0.0
 10
11.5080968938
 20
11.4195306597
 30
0.0
 10
11.5000824196
 20
11.4156486251
 30
0.0
 10
11.4926333987
 20
11.4116368784
 30
0.0
 10
11.485767393
 20
11.4075048164
 30
0.0
 10
11.4795005805
 20
11.4032618855
 30
0.0
 10
11.473847563
 20
11.3989178056
 30
0.0
 10
11.4688216883
 20
11.394482002
 30
0.0
 10
11.4644348898
 20
11.3899639475
 30
0.0
 10
11.4606979885
 20
11.3853729139
 30
0.0
 10
11.4576212524
 20
11.3807179354
 30
0.0
 10
11.4552140292
 20
11.3760087775
 30
0.0
 10
11.4534856605
 20
11.371255316
 30
0.0
 10
11.4524447409
 20
11.3664714661
 30
0.0
 10
11.4522120755
 20
11.3632592092
 30
0.0
 10
11.4522120755
 20
11.3616697169
 30
0.0
  0
SPLINE
  5
362
100
AcDbEntity
  8
0
100
AcDbSpline
 62
9
  6
CONTINUOUS
 70
0
 71
3
 72
67
 73
63
 74
0
 42
0.0000001
 43
0.0000001
 44
0.0000000001
 40
0.0
 40
0.0
 40
0.0
 40
0.0
 40
0.0037551718
 40
0.0075275662
 40
0.0113337965
 40
0.0151899549
 40
0.0231088837
 40
0.0314014869
 40
0.0357197944
 40
0.0401654191
 40
0.0494707955
 40
0.059379533
 40
0.0699351264
 40
0.0811679757
 40
0.0930972086
 40
0.1057327548
 40
0.1190767075
 40
0.1331244307
 40
0.1478658071
 40
0.1632857374
 40
0.1793649157
 40
0.1960804368
 40
0.2134059733
 40
0.2313124108
 40
0.2497680333
 40
0.2687387332
 40
0.2881884545
 40
0.3283693477
 40
0.3699906742
 40
0.412709668
 40
0.4561686212
 40
0.5
 40
0.5438313788
 40
0.587290332
 40
0.6300093258
 40
0.6716306523
 40
0.7118115455
 40
0.7312612668
 40
0.7502319667
 40
0.7686875892
 40
0.7865940267
 40
0.8039195632
 40
0.8206350843
 40
0.8367142626
 40
0.8521341929
 40
0.8668755693
 40
0.8809232925
 40
0.8942672452
 40
0.9069027914
 40
0.9188320243
 40
0.9300648736
 40
0.940620467
 40
0.9505292045
 40
0.9598345809
 40
0.9642802056
 40
0.9685985131
 40
0.9768911163
 40
0.9848100451
 40
0.9886662035
 40
0.9924724338
 40
0.9962448282
 40
1.0
 40
1.0
 40
1.0
 40
1.0
 10
12.0590060017
 20
11.5262517309
 30
0.0
 10
12.0590061299
 20
11.5271570085
 30
0.0
 10
12.0589409294
 20
11.5289723984
 30
0.0
 10
12.0586474075
 20
11.5316910693
 30
0.0
 10
12.0581584574
 20
11.5344063786
 30
0.0
 10
12.0572388314
 20
11.5380509454
 30
0.0
 10
12.0555810991
 20
11.542611536
 30
0.0
 10
12.0533229366
 20
11.5470287795
 30
0.0
 10
12.0511552947
 20
11.5505247802
 30
0.0
 10
12.0486670454
 20
11.5541024544
 30
0.0
 10
12.0450606663
 20
11.5585332636
 30
0.0
 10
12.0400558869
 20
11.5636876849
 30
0.0
 10
12.0343217447
 20
11.5687486551
 30
0.0
 10
12.0278721482
 20
11.573704859
 30
0.0
 10
12.0207222294
 20
11.5785456627
 30
0.0
 10
12.0128887233
 20
11.583260032
 30
0.0
 10
12.0043900088
 20
11.5878370631
 30
0.0
 10
11.9952461786
 20
11.5922661394
 30
0.0
 10
11.9854788445
 20
11.5965366766
 30
0.0
 10
11.9751112441
 20
11.6006385504
 30
0.0
 10
11.9641680972
 20
11.6045619739
 30
0.0
 10
11.9526755222
 20
11.6082974281
 30
0.0
 10
11.9406610498
 20
11.6118360177
 30
0.0
 10
11.9281534603
 20
11.6151691723
 30
0.0
 10
11.9151827661
 20
11.6182888015
 30
0.0
 10
11.9017800763
 20
11.6211875122
 30
0.0
 10
11.8831750584
 20
11.6247872201
 30
0.0
 10
11.8590687346
 20
11.6286668568
 30
0.0
 10
11.8292634382
 20
11.6322972463
 30
0.0
 10
11.7985592456
 20
11.6349159573
 30
0.0
 10
11.7672511238
 20
11.636497497
 30
0.0
 10
11.7356394642
 20
11.6370264037
 30
0.0
 10
11.7040278047
 20
11.636497497
 30
0.0
 10
11.6727196828
 20
11.6349159573
 30
0.0
 10
11.6420154903
 20
11.6322972463
 30
0.0
 10
11.6122101939
 20
11.6286668568
 30
0.0
 10
11.58810387
 20
11.6247872201
 30
0.0
 10
11.5694988521
 20
11.6211875122
 30
0.0
 10
11.5560961623
 20
11.6182888015
 30
0.0
 10
11.5431254681
 20
11.6151691723
 30
0.0
 10
11.5306178787
 20
11.6118360177
 30
0.0
 10
11.5186034062
 20
11.6082974281
 30
0.0
 10
11.5071108312
 20
11.6045619739
 30
0.0
 10
11.4961676843
 20
11.6006385504
 30
0.0
 10
11.485800084
 20
11.5965366766
 30
0.0
 10
11.4760327498
 20
11.5922661394
 30
0.0
 10
11.4668889196
 20
11.5878370631
 30
0.0
 10
11.4583902051
 20
11.583260032
 30
0.0
 10
11.4505566991
 20
11.5785456627
 30
0.0
 10
11.4434067803
 20
11.573704859
 30
0.0
 10
11.4369571837
 20
11.5687486551
 30
0.0
 10
11.4312230415
 20
11.5636876849
 30
0.0
 10
11.4262182621
 20
11.5585332636
 30
0.0
 10
11.422611883
 20
11.5541024544
 30
0.0
 10
11.4201236338
 20
11.5505247802
 30
0.0
 10
11.4179559919
 20
11.5470287795
 30
0.0
 10
11.4156978294
 20
11.542611536
 30
0.0
 10
11.4140400971
 20
11.5380509454
 30
0.0
 10
11.413120471
 20
11.5344063786
 30
0.0
 10
11.4126315209
 20
11.5316910693
 30
0.0
 10
11.412337999
 20
11.5289723984
 30
0.0
 10
11.4122727986
 20
11.5271570085
 30
0.0
 10
11.4122729267
 20
11.5262517309
 30
0.0
  0
SPLINE
  5
363
100
AcDbEntity
  8
0
100
AcDbSpline
 62
9
  6
CONTINUOUS
 70
0
 71
3
 72
15
 73
11
 74
0
 42
0.0000001
 43
0.0000001
 44
0.0000000001
 40
0.0
 40
0.0
 40
0.0
 40
0.0
 40
0.1243715238
 40
0.2489302029
 40
0.3736698187
 40
0.4986055449
 40
0.6237269231
 40
0.7490141637
 40
0.874455321
 40
1.0
 40
1.0
 40
1.0
 40
1.0
 10
9.802206851
 20
7.1417818659
 30
0.0
 10
9.8021900962
 20
7.1406729798
 30
0.0
 10
9.8022822694
 20
7.138449617
 30
0.0
 10
9.8027949393
 20
7.1351505214
 30
0.0
 10
9.8036758327
 20
7.1319245099
 30
0.0
 10
9.8049135982
 20
7.1288126431
 30
0.0
 10
9.8064928468
 20
7.1258538799
 30
0.0
 10
9.8083936659
 20
7.1230851383
 30
0.0
 10
9.81059192
 20
7.1205416863
 30
0.0
 10
9.8122376769
 20
7.1190170568
 30
0.0
 10
9.8130997153
 20
7.1183028363
 30
0.0
  0
LINE
  5
364
100
AcDbEntity
  8
0
100
AcDbLine
 62
9
  6
CONTINUOUS
 10
9.7726976939
 20
7.1867870718
 11
9.7877707966
 21
7.1867870718
  0
SPLINE
  5
365
100
AcDbEntity
  8
0
100
AcDbSpline
 62
9
  6
CONTINUOUS
 70
0
 71
3
 72
14
 73
10
 74
0
 42
0.0000001
 43
0.0000001
 44
0.0000000001
 40
0.0
 40
0.0
 40
0.0
 40
0.0
 40
0.1545258744
 40
0.301599103
 40
0.4403449088
 40
0.5702657945
 40
0.6910559829
 40
0.8026935598
 40
1.0
 40
1.0
 40
1.0
 40
1.0
 10
9.8466805747
 20
8.8556184161
 30
0.0
 10
9.8472180946
 20
8.8554647618
 30
0.0
 10
9.8482757349
 20
8.8551935342
 30
0.0
 10
9.8498411088
 20
8.8548921253
 30
0.0
 10
9.851335283
 20
8.8547082698
 30
0.0
 10
9.8527441925
 20
8.8546438812
 30
0.0
 10
9.8540565226
 20
8.8546996801
 30
0.0
 10
9.8555953797
 20
8.8549241326
 30
0.0
 10
9.8566759846
 20
8.8552797241
 30
0.0
 10
9.8573042229
 20
8.8556186355
 30
0.0
  0
LINE
  5
366
100
AcDbEntity
  8
0
100
AcDbLine
 62
9
  6
CONTINUOUS
 10
9.8066633001
 20
8.724733339
 11
9.8209048598
 21
8.7247333391
  0
SPLINE
  5
367
100
AcDbEntity
  8
0
100
AcDbSpline
 62
9
  6
CONTINUOUS
 70
0
 71
3
 72
61
 73
57
 74
0
 42
0.0000001
 43
0.0000001
 44
0.0000000001
 40
0.0
 40
0.0
 40
0.0
 40
0.0
 40
0.0075226898
 40
0.0151810094
 40
0.0231000915
 40
0.031392876
 40
0.0401539978
 40
0.0494596052
 40
0.0593685879
 40
0.0699244436
 40
0.081157572
 40
0.0930871013
 40
0.1057229613
 40
0.1190672454
 40
0.1331153176
 40
0.1478570602
 40
0.1632773735
 40
0.1793569512
 40
0.1960728875
 40
0.2133988544
 40
0.2313057367
 40
0.2497618175
 40
0.2687329887
 40
0.2881831931
 40
0.3283650844
 40
0.3699874448
 40
0.4127074998
 40
0.4561675325
 40
0.5
 40
0.5438324675
 40
0.5872925002
 40
0.6300125552
 40
0.6716349156
 40
0.7118168069
 40
0.7312670113
 40
0.7502381825
 40
0.7686942633
 40
0.7866011456
 40
0.8039271125
 40
0.8206430488
 40
0.8367226265
 40
0.8521429398
 40
0.8668846824
 40
0.8809327546
 40
0.8942770387
 40
0.9069128987
 40
0.918842428
 40
0.9300755564
 40
0.9406314121
 40
0.9505403948
 40
0.9598460022
 40
0.968607124
 40
0.9768999085
 40
0.9848189906
 40
0.9924773102
 40
1.0
 40
1.0
 40
1.0
 40
1.0
 10
12.0661573708
 20
11.5346599818
 30
0.0
 10
12.0661573708
 20
11.5365135743
 30
0.0
 10
12.0658860642
 20
11.540259539
 30
0.0
 10
12.0646721742
 20
11.5458382006
 30
0.0
 10
12.0626566543
 20
11.5513814253
 30
0.0
 10
12.0598494856
 20
11.5568730009
 30
0.0
 10
12.0562615433
 20
11.5623013793
 30
0.0
 10
12.0519037894
 20
11.5676552164
 30
0.0
 10
12.0467881178
 20
11.5729239069
 30
0.0
 10
12.0409272266
 20
11.5780967225
 30
0.0
 10
12.0343349766
 20
11.5831625587
 30
0.0
 10
12.0270269397
 20
11.5881104109
 30
0.0
 10
12.0190201914
 20
11.5929290426
 30
0.0
 10
12.0103335252
 20
11.5976072957
 30
0.0
 10
12.0009874757
 20
11.6021343228
 30
0.0
 10
11.9910041335
 20
11.6064993045
 30
0.0
 10
11.9804072498
 20
11.6106918928
 30
0.0
 10
11.9692220912
 20
11.6147020842
 30
0.0
 10
11.9574753538
 20
11.6185201493
 30
0.0
 10
11.9451951769
 20
11.622136996
 30
0.0
 10
11.9324109776
 20
11.6255438646
 30
0.0
 10
11.9191534317
 20
11.6287324855
 30
0.0
 10
11.9054543365
 20
11.6316953023
 30
0.0
 10
11.8864378619
 20
11.635374619
 30
0.0
 10
11.8617984179
 20
11.6393400553
 30
0.0
 10
11.8313339665
 20
11.6430507322
 30
0.0
 10
11.7999507395
 20
11.645727357
 30
0.0
 10
11.7679502272
 20
11.647343873
 30
0.0
 10
11.7356394642
 20
11.6478844766
 30
0.0
 10
11.7033287013
 20
11.647343873
 30
0.0
 10
11.6713281889
 20
11.645727357
 30
0.0
 10
11.6399449619
 20
11.6430507322
 30
0.0
 10
11.6094805105
 20
11.6393400553
 30
0.0
 10
11.5848410666
 20
11.635374619
 30
0.0
 10
11.5658245919
 20
11.6316953023
 30
0.0
 10
11.5521254967
 20
11.6287324855
 30
0.0
 10
11.5388679509
 20
11.6255438646
 30
0.0
 10
11.5260837515
 20
11.622136996
 30
0.0
 10
11.5138035747
 20
11.6185201493
 30
0.0
 10
11.5020568372
 20
11.6147020842
 30
0.0
 10
11.4908716786
 20
11.6106918928
 30
0.0
 10
11.480274795
 20
11.6064993045
 30
0.0
 10
11.4702914527
 20
11.6021343228
 30
0.0
 10
11.4609454032
 20
11.5976072957
 30
0.0
 10
11.452258737
 20
11.5929290426
 30
0.0
 10
11.4442519887
 20
11.5881104109
 30
0.0
 10
11.4369439518
 20
11.5831625587
 30
0.0
 10
11.4303517018
 20
11.5780967225
 30
0.0
 10
11.4244908107
 20
11.5729239069
 30
0.0
 10
11.419375139
 20
11.5676552164
 30
0.0
 10
11.4150173852
 20
11.5623013793
 30
0.0
 10
11.4114294428
 20
11.5568730009
 30
0.0
 10
11.4086222742
 20
11.5513814253
 30
0.0
 10
11.4066067542
 20
11.5458382006
 30
0.0
 10
11.4053928642
 20
11.540259539
 30
0.0
 10
11.4051215577
 20
11.5365135743
 30
0.0
 10
11.4051215577
 20
11.5346599818
 30
0.0
  0
SPLINE
  5
368
100
AcDbEntity
  8
0
100
AcDbSpline
 62
9
  6
CONTINUOUS
 70
0
 71
3
 72
61
 73
57
 74
0
 42
0.0000001
 43
0.0000001
 44
0.0000000001
 40
0.0
 40
0.0
 40
0.0
 40
0.0
 40
0.0075226898
 40
0.0151810094
 40
0.0231000915
 40
0.031392876
 40
0.0401539978
 40
0.0494596051
 40
0.0593685879
 40
0.0699244436
 40
0.0811575719
 40
0.0930871013
 40
0.1057229613
 40
0.1190672454
 40
0.1331153176
 40
0.1478570602
 40
0.1632773735
 40
0.1793569512
 40
0.1960728875
 40
0.2133988544
 40
0.2313057367
 40
0.2497618175
 40
0.2687329887
 40
0.2881831931
 40
0.3283650844
 40
0.3699874448
 40
0.4127074998
 40
0.4561675325
 40
0.5
 40
0.5438324675
 40
0.5872925002
 40
0.6300125552
 40
0.6716349156
 40
0.7118168069
 40
0.7312670113
 40
0.7502381825
 40
0.7686942633
 40
0.7866011456
 40
0.8039271125
 40
0.8206430488
 40
0.8367226265
 40
0.8521429398
 40
0.8668846824
 40
0.8809327546
 40
0.8942770387
 40
0.9069128987
 40
0.9188424281
 40
0.9300755564
 40
0.9406314121
 40
0.9505403949
 40
0.9598460022
 40
0.968607124
 40
0.9768999085
 40
0.9848189906
 40
0.9924773102
 40
1.0
 40
1.0
 40
1.0
 40
1.0
 10
12.0681394643
 20
11.5369115342
 30
0.0
 10
12.0681394643
 20
11.5387762426
 30
0.0
 10
12.0678665308
 20
11.5425446716
 30
0.0
 10
12.0666453611
 20
11.548156788
 30
0.0
 10
12.0646177543
 20
11.5537332551
 30
0.0
 10
12.0617937512
 20
11.5592577633
 30
0.0
 10
12.0581842922
 20
11.5647186953
 30
0.0
 10
12.0538004052
 20
11.570104639
 30
0.0
 10
12.0486540552
 20
11.5754049255
 30
0.0
 10
12.0427580167
 20
11.5806087621
 30
0.0
 10
12.0361262334
 20
11.5857049778
 30
0.0
 10
12.0287743707
 20
11.590682502
 30
0.0
 10
12.0207196065
 20
11.5955300306
 30
0.0
 10
12.0119808469
 20
11.6002363389
 30
0.0
 10
12.0025787498
 20
11.6047905143
 30
0.0
 10
11.9925355381
 20
11.6091816724
 30
0.0
 10
11.9818751057
 20
11.6133994034
 30
0.0
 10
11.9706228704
 20
11.6174336437
 30
0.0
 10
11.9588056886
 20
11.6212746055
 30
0.0
 10
11.9464518683
 20
11.6249131422
 30
0.0
 10
11.933591003
 20
11.6283404415
 30
0.0
 10
11.9202539526
 20
11.6315481844
 30
0.0
 10
11.9064727048
 20
11.6345287689
 30
0.0
 10
11.8873421897
 20
11.6382301503
 30
0.0
 10
11.8625549846
 20
11.6422193671
 30
0.0
 10
11.83190784
 20
11.6459522966
 30
0.0
 10
11.8003364099
 20
11.6486449729
 30
0.0
 10
11.7681439926
 20
11.6502711831
 30
0.0
 10
11.7356394642
 20
11.6508150287
 30
0.0
 10
11.7031349358
 20
11.6502711831
 30
0.0
 10
11.6709425186
 20
11.6486449729
 30
0.0
 10
11.6393710885
 20
11.6459522966
 30
0.0
 10
11.6087239438
 20
11.6422193671
 30
0.0
 10
11.5839367388
 20
11.6382301503
 30
0.0
 10
11.5648062236
 20
11.6345287689
 30
0.0
 10
11.5510249759
 20
11.6315481844
 30
0.0
 10
11.5376879254
 20
11.6283404415
 30
0.0
 10
11.5248270601
 20
11.6249131422
 30
0.0
 10
11.5124732399
 20
11.6212746055
 30
0.0
 10
11.500656058
 20
11.6174336437
 30
0.0
 10
11.4894038228
 20
11.6133994034
 30
0.0
 10
11.4787433903
 20
11.6091816724
 30
0.0
 10
11.4687001786
 20
11.6047905143
 30
0.0
 10
11.4592980815
 20
11.6002363389
 30
0.0
 10
11.450559322
 20
11.5955300306
 30
0.0
 10
11.4425045577
 20
11.590682502
 30
0.0
 10
11.435152695
 20
11.5857049778
 30
0.0
 10
11.4285209117
 20
11.5806087621
 30
0.0
 10
11.4226248732
 20
11.5754049255
 30
0.0
 10
11.4174785232
 20
11.570104639
 30
0.0
 10
11.4130946363
 20
11.5647186953
 30
0.0
 10
11.4094851772
 20
11.5592577633
 30
0.0
 10
11.4066611742
 20
11.5537332551
 30
0.0
 10
11.4046335673
 20
11.548156788
 30
0.0
 10
11.4034123977
 20
11.5425446716
 30
0.0
 10
11.4031394641
 20
11.5387762426
 30
0.0
 10
11.4031394641
 20
11.5369115342
 30
0.0
  0
SPLINE
  5
369
100
AcDbEntity
  8
0
100
AcDbSpline
 62
9
  6
CONTINUOUS
 70
0
 71
3
 72
15
 73
11
 74
0
 42
0.0000001
 43
0.0000001
 44
0.0000000001
 40
0.0
 40
0.0
 40
0.0
 40
0.0
 40
0.2051548067
 40
0.3842841932
 40
0.5386721284
 40
0.6697925941
 40
0.7793457682
 40
0.8693632037
 40
0.9421203101
 40
1.0
 40
1.0
 40
1.0
 40
1.0
 10
9.4438178495
 20
7.1518294135
 30
0.0
 10
9.4427922404
 20
7.1511656444
 30
0.0
 10
9.4408668292
 20
7.1499289499
 30
0.0
 10
9.4381611256
 20
7.1482060031
 30
0.0
 10
9.4358292998
 20
7.1467167006
 30
0.0
 10
9.4338577619
 20
7.1454330391
 30
0.0
 10
9.4322284424
 20
7.1443267864
 30
0.0
 10
9.4309157397
 20
7.1433738395
 30
0.0
 10
9.429890831
 20
7.1425506696
 30
0.0
 10
9.4293157857
 20
7.1420255204
 30
0.0
 10
9.4290720646
 20
7.1417818125
 30
0.0
  0
SPLINE
  5
36A
100
AcDbEntity
  8
0
100
AcDbSpline
 62
9
  6
CONTINUOUS
 70
0
 71
3
 72
11
 73
7
 74
0
 42
0.0000001
 43
0.0000001
 44
0.0000000001
 40
0.0
 40
0.0
 40
0.0
 40
0.0
 40
0.2656234461
 40
0.5248587973
 40
0.7715579641
 40
1.0
 40
1.0
 40
1.0
 40
1.0
 10
9.8478604491
 20
8.8677041953
 30
0.0
 10
9.8478604491
 20
8.8666271538
 30
0.0
 10
9.847810833
 20
8.8644986295
 30
0.0
 10
9.847588667
 20
8.8613767912
 30
0.0
 10
9.8472252398
 20
8.8584199915
 30
0.0
 10
9.8468797297
 20
8.8565230327
 30
0.0
 10
9.8466805747
 20
8.8556184161
 30
0.0
  0
SPLINE
  5
36B
100
AcDbEntity
  8
0
100
AcDbSpline
 62
9
  6
CONTINUOUS
 70
0
 71
3
 72
11
 73
7
 74
0
 42
0.0000001
 43
0.0000001
 44
0.0000000001
 40
0.0
 40
0.0
 40
0.0
 40
0.0
 40
0.2656237862
 40
0.5248593871
 40
0.7715589103
 40
1.0
 40
1.0
 40
1.0
 40
1.0
 10
9.3834184793
 20
8.8677043866
 30
0.0
 10
9.3834184793
 20
8.8666273424
 30
0.0
 10
9.3834681006
 20
8.8644988141
 30
0.0
 10
9.3836902477
 20
8.8613769654
 30
0.0
 10
9.3840537314
 20
8.8584201729
 30
0.0
 10
9.3843991488
 20
8.8565231975
 30
0.0
 10
9.3845982993
 20
8.8556185828
 30
0.0
  0
SPLINE
  5
36C
100
AcDbEntity
  8
0
100
AcDbSpline
 62
9
  6
CONTINUOUS
 70
0
 71
3
 72
11
 73
7
 74
0
 42
0.0000001
 43
0.0000001
 44
0.0000000001
 40
0.0
 40
0.0
 40
0.0
 40
0.0
 40
0.2512909081
 40
0.5020247762
 40
0.7517205916
 40
1.0
 40
1.0
 40
1.0
 40
1.0
 10
9.370085146
 20
8.8677041953
 30
0.0
 10
9.370085146
 20
8.8666242008
 30
0.0
 10
9.3702529171
 20
8.8644628774
 30
0.0
 10
9.3710020411
 20
8.8613071834
 30
0.0
 10
9.372228289
 20
8.8583183856
 30
0.0
 10
9.3733480674
 20
8.8564819947
 30
0.0
 10
9.3739748302
 20
8.8556184161
 30
0.0
  0
SPLINE
  5
36D
100
AcDbEntity
  8
0
100
AcDbSpline
 62
9
  6
CONTINUOUS
 70
0
 71
3
 72
13
 73
9
 74
0
 42
0.0000001
 43
0.0000001
 44
0.0000000001
 40
0.0
 40
0.0
 40
0.0
 40
0.0
 40
0.1173844034
 40
0.2369309728
 40
0.3587553305
 40
0.4829445966
 40
0.7377201106
 40
1.0
 40
1.0
 40
1.0
 40
1.0
 10
9.4435081318
 20
7.1867870718
 30
0.0
 10
9.4436076464
 20
7.1861601003
 30
0.0
 10
9.4438864241
 20
7.1849057446
 30
0.0
 10
9.4445275969
 20
7.183070306
 30
0.0
 10
9.4453879515
 20
7.1812856751
 30
0.0
 10
9.4468241236
 20
7.1789841746
 30
0.0
 10
9.4491167217
 20
7.1763487769
 30
0.0
 10
9.4513421162
 20
7.1746240618
 30
0.0
 10
9.4525382916
 20
7.1738617739
 30
0.0
  0
SPLINE
  5
36E
100
AcDbEntity
  8
0
100
AcDbSpline
 62
9
  6
CONTINUOUS
 70
0
 71
3
 72
13
 73
9
 74
0
 42
0.0000001
 43
0.0000001
 44
0.0000000001
 40
0.0
 40
0.0
 40
0.0
 40
0.0
 40
0.2952367357
 40
0.5681455661
 40
0.6923472159
 40
0.806498749
 40
0.9094079201
 40
1.0
 40
1.0
 40
1.0
 40
1.0
 10
9.4585812345
 20
7.1867870718
 30
0.0
 10
9.4578742552
 20
7.1855705268
 30
0.0
 10
9.4565579854
 20
7.183203402
 30
0.0
 10
9.4550771831
 20
7.1802531784
 30
0.0
 10
9.4540734481
 20
7.1780325899
 30
0.0
 10
9.4534496428
 20
7.1765302146
 30
0.0
 10
9.4529379421
 20
7.1751558014
 30
0.0
 10
9.452656378
 20
7.1742770596
 30
0.0
 10
9.4525382916
 20
7.1738617739
 30
0.0
  0
SPLINE
  5
36F
100
AcDbEntity
  8
0
100
AcDbSpline
 62
9
  6
CONTINUOUS
 70
0
 71
3
 72
13
 73
9
 74
0
 42
0.0000001
 43
0.0000001
 44
0.0000000001
 40
0.0
 40
0.0
 40
0.0
 40
0.0
 40
0.255275965
 40
0.5083525832
 40
0.6335020017
 40
0.7573578013
 40
0.8796342682
 40
1.0
 40
1.0
 40
1.0
 40
1.0
 10
9.5626852336
 20
7.141781873
 30
0.0
 10
9.5567881975
 20
7.1422125741
 30
0.0
 10
9.545054508
 20
7.1432086056
 30
0.0
 10
9.530474241
 20
7.1448902643
 30
0.0
 10
9.518969848
 20
7.1465970982
 30
0.0
 10
9.5104973051
 20
7.1480770703
 30
0.0
 10
9.5021814686
 20
7.1497891807
 30
0.0
 10
9.4967184447
 20
7.1511156335
 30
0.0
 10
9.4940233765
 20
7.1518291917
 30
0.0
  0
SPLINE
  5
370
100
AcDbEntity
  8
0
100
AcDbSpline
 62
9
  6
CONTINUOUS
 70
0
 71
3
 72
13
 73
9
 74
0
 42
0.0000001
 43
0.0000001
 44
0.0000000001
 40
0.0
 40
0.0
 40
0.0
 40
0.0
 40
0.1173841663
 40
0.2369306129
 40
0.35875499
 40
0.4829442501
 40
0.7377197382
 40
1.0
 40
1.0
 40
1.0
 40
1.0
 10
9.7877707966
 20
7.1867870718
 30
0.0
 10
9.7876712819
 20
7.1861601018
 30
0.0
 10
9.7873925019
 20
7.184905749
 30
0.0
 10
9.786751328
 20
7.1830703136
 30
0.0
 10
9.7858909741
 20
7.1812856839
 30
0.0
 10
9.7844548018
 20
7.1789841842
 30
0.0
 10
9.7821621959
 20
7.1763487944
 30
0.0
 10
9.7799368137
 20
7.1746240623
 30
0.0
 10
9.7787406368
 20
7.1738617739
 30
0.0
  0
SPLINE
  5
371
100
AcDbEntity
  8
0
100
AcDbSpline
 62
9
  6
CONTINUOUS
 70
0
 71
3
 72
11
 73
7
 74
0
 42
0.0000001
 43
0.0000001
 44
0.0000000001
 40
0.0
 40
0.0
 40
0.0
 40
0.0
 40
0.2512907393
 40
0.5020244175
 40
0.7517199802
 40
1.0
 40
1.0
 40
1.0
 40
1.0
 10
9.8611937824
 20
8.8677043866
 30
0.0
 10
9.8611937824
 20
8.8666243894
 30
0.0
 10
9.8610260123
 20
8.8644630601
 30
0.0
 10
9.8602768777
 20
8.8613073626
 30
0.0
 10
9.8590506428
 20
8.8583185448
 30
0.0
 10
9.8579308226
 20
8.8564821706
 30
0.0
 10
9.8573040623
 20
8.8556185828
 30
0.0
  0
SPLINE
  5
372
100
AcDbEntity
  8
0
100
AcDbSpline
 62
9
  6
CONTINUOUS
 70
0
 71
3
 72
14
 73
10
 74
0
 42
0.0000001
 43
0.0000001
 44
0.0000000001
 40
0.0
 40
0.0
 40
0.0
 40
0.0
 40
0.1203648841
 40
0.2426401232
 40
0.3664942087
 40
0.4916423742
 40
0.6178028373
 40
0.7447268161
 40
1.0
 40
1.0
 40
1.0
 40
1.0
 10
9.7372562574
 20
7.1518293928
 30
0.0
 10
9.7345611175
 20
7.1511158922
 30
0.0
 10
9.7290979937
 20
7.1497894361
 30
0.0
 10
9.7207820583
 20
7.148077112
 30
0.0
 10
9.7123093979
 20
7.1465970726
 30
0.0
 10
9.7037128884
 20
7.1453217346
 30
0.0
 10
9.6950204771
 20
7.1442235147
 30
0.0
 10
9.6833129289
 20
7.1429610231
 30
0.0
 10
9.6744904295
 20
7.1422127555
 30
0.0
 10
9.6685933134
 20
7.1417818729
 30
0.0
  0
SPLINE
  5
373
100
AcDbEntity
  8
0
100
AcDbSpline
 62
9
  6
CONTINUOUS
 70
0
 71
3
 72
13
 73
9
 74
0
 42
0.0000001
 43
0.0000001
 44
0.0000000001
 40
0.0
 40
0.0
 40
0.0
 40
0.0
 40
0.2952368738
 40
0.5681458178
 40
0.6923475212
 40
0.806499171
 40
0.9094082385
 40
1.0
 40
1.0
 40
1.0
 40
1.0
 10
9.7726976939
 20
7.1867870718
 30
0.0
 10
9.7734046715
 20
7.1855705255
 30
0.0
 10
9.7747209265
 20
7.183203392
 30
0.0
 10
9.7762017269
 20
7.1802531673
 30
0.0
 10
9.7772054634
 20
7.1780325787
 30
0.0
 10
9.7778292568
 20
7.1765301985
 30
0.0
 10
9.7783409619
 20
7.1751557898
 30
0.0
 10
9.7786225514
 20
7.1742770582
 30
0.0
 10
9.7787406368
 20
7.1738617739
 30
0.0
  0
SPLINE
  5
374
100
AcDbEntity
  8
0
100
AcDbSpline
 62
9
  6
CONTINUOUS
 70
0
 71
3
 72
15
 73
11
 74
0
 42
0.0000001
 43
0.0000001
 44
0.0000000001
 40
0.0
 40
0.0
 40
0.0
 40
0.0
 40
0.0578806887
 40
0.1306377908
 40
0.220657168
 40
0.3302089151
 40
0.4613267467
 40
0.6157185059
 40
0.794846377
 40
1.0
 40
1.0
 40
1.0
 40
1.0
 10
9.8022068513
 20
7.1417818657
 30
0.0
 10
9.8019631681
 20
7.1420256115
 30
0.0
 10
9.8013881405
 20
7.142550774
 30
0.0
 10
9.8003632203
 20
7.1433739212
 30
0.0
 10
9.7990504969
 20
7.1443267979
 30
0.0
 10
9.797421201
 20
7.1454330018
 30
0.0
 10
9.7954496854
 20
7.1467166211
 30
0.0
 10
9.7931179233
 20
7.1482059315
 30
0.0
 10
9.7904122407
 20
7.1499288216
 30
0.0
 10
9.7884868072
 20
7.1511653785
 30
0.0
 10
9.7874611743
 20
7.1518290593
 30
0.0
  0
ENDSEC
  0
SECTION
  2
OBJECTS
  0
DICTIONARY
  5
C
100
AcDbDictionary
280
0
281
1
  3
ACAD_GROUP
350
D
  3
ACAD_MLINESTYLE
350
17
  3
ACAD_LAYOUT
350
1A
  3
ACAD_PLOTSETTINGS
350
19
  3
ACAD_PLOTSTYLENAME
350
E
  0
DICTIONARY
  5
D
102
{ACAD_REACTORS
330
C
102
}
100
AcDbDictionary
280
0
281
1
  0
ACDBDICTIONARYWDFLT
  5
E
102
{ACAD_REACTORS
330
C
102
}
100
AcDbDictionary
281
1
  3
Normal
350
F
100
AcDbDictionaryWithDefault
340
F
  0
DICTIONARY
  5
17
102
{ACAD_REACTORS
330
C
102
}
100
AcDbDictionary
280
0
281
1
  3
Standard
350
18
  0
DICTIONARY
  5
19
102
{ACAD_REACTORS
330
C
102
}
100
AcDbDictionary
281
1
  0
DICTIONARY
  5
1A
102
{ACAD_REACTORS
330
C
102
}
100
AcDbDictionary
281
1
  3
Model
350
375
  3
Layout1
350
376
  0
ACDBPLACEHOLDER
  5
F
102
{ACAD_REACTORS
330
E
102
}
  0
MLINESTYLE
  5
18
102
{ACAD_REACTORS
330
17
102
}
100
AcDbMlineStyle
  2
STANDARD
 70
0
  3

 62
256
 51
90.0
 52
90.0
 71
2
 49
0.5
 62
256
  6
BYLAYER
 49
-0.5
 62
256
  6
BYLAYER
  0
LAYOUT
  5
375
102
{ACAD_REACTORS
330
1A
102
}
100
AcDbPlotSettings
  1

  2
none_device
  4
ANSI_C_(22.00_x_17.00_Inches)
  6

 40
0.0
 41
0.0
 42
0.0
 43
0.0
 44
558.8
 45
431.8
 46
0.0
 47
0.0
 48
0.0
 49
0.0
140
0.0
141
0.0
142
1.0
143
1.0
 70
1024
 72
0
 73
0
 74
0
  7

 75
0
147
1.0
148
0.0
149
0.0
100
AcDbLayout
  1
Model
 70
0
 71
0
 10
0.0
 20
0.0
 11
22.0
 21
17.0
 12
0.0
 22
0.0
 32
0.0
 14
0.0
 24
0.0
 34
0.0
 15
0.0
 25
0.0
 35
0.0
146
0.0
 13
0.0
 23
0.0
 33
0.0
 16
1.0
 26
0.0
 36
0.0
 17
0.0
 27
1.0
 37
0.0
 76
0
330
205
345
0
346
0
  0
LAYOUT
  5
376
102
{ACAD_REACTORS
330
1A
102
}
100
AcDbPlotSettings
  1

  2
none_device
  4
ANSI_C_(22.00_x_17.00_Inches)
  6

 40
0.0
 41
0.0
 42
0.0
 43
0.0
 44
558.8
 45
431.8
 46
0.0
 47
0.0
 48
0.0
 49
0.0
140
0.0
141
0.0
142
1.0
143
1.0
 70
0
 72
0
 73
0
 74
0
  7

 75
0
147
1.0
148
0.0
149
0.0
100
AcDbLayout
  1
Layout1
 70
0
 71
1
 10
0.0
 20
0.0
 11
22.0
 21
17.0
 12
0.0
 22
0.0
 32
0.0
 14
0.0
 24
0.0
 34
0.0
 15
0.0
 25
0.0
 35
0.0
146
0.0
 13
0.0
 23
0.0
 33
0.0
 16
1.0
 26
0.0
 36
0.0
 17
0.0
 27
1.0
 37
0.0
 76
0
330
206
345
0
346
0
  0
ENDSEC
  0
EOF
