999
DXF file: E:\BT Custom\CADOUTPUT\_FRONT.dxf
999
Pro/ENGINEER 2018400 by Parametric Technology Corporation
  0
SECTION
  2
HEADER
  9
$ACADVER
  1
AC1018
  9
$DWGCODEPAGE
  3
ANSI_1252
  9
$EXTMAX
 10
22.0
 20
17.0
 30
0.0
  9
$EXTMIN
 10
0.0
 20
0.0
 30
0.0
  9
$LIMMIN
 10
0.0
 20
0.0
  9
$LIMMAX
 10
22.0
 20
17.0
  9
$VIEWCTR
 10
11.0
 20
8.5
  9
$VIEWSIZE
 40
17.0
  9
$CLAYER
  8
0
  9
$LTSCALE
 40
1.21
  9
$CELTYPE
  6
BYLAYER
  9
$DIMSCALE
 40
1.0
  9
$DIMASZ
 40
0.1
  9
$DIMEXO
 40
0.0625
  9
$DIMDLI
 40
0.836
  9
$DIMEXE
 40
0.125
  9
$DIMCEN
 40
0.198
  9
$DIMLFAC
 40
1.0
  9
$DIMBLK
  1
_FILLED
  9
$DIMALT
 70
1
  9
$DIMALTD
 70
2
  9
$DIMALTTD
 70
2
  9
$DIMALTF
 40
25.4
  9
$DIMTXT
 40
0.08
  9
$DIMTOL
 70
1
  9
$DIMLIM
 70
0
  9
$DIMTFAC
 40
1.0
  9
$DIMTP
 40
0.001
  9
$DIMTM
 40
0.001
  9
$DIMGAP
 40
0.09
  9
$DIMDSEP
 70
46
  9
$AUNITS
 70
0
  9
$PDMODE
 70
3
  9
$PDSIZE
 40
0.06
  9
$HANDSEED
  5
25E
  9
$TILEMODE
 70
1
  9
$MEASUREMENT
 70
0
  9
$INSUNITS
 70
1
  0
ENDSEC
  0
SECTION
  2
CLASSES
  0
CLASS
  1
ACDBDICTIONARYWDFLT
  2
AcDbDictionaryWithDefault
  3
AutoCAD 2000
 90
0
 91
1
280
0
281
0
  0
CLASS
  1
ACDBPLACEHOLDER
  2
AcDbPlaceHolder
  3
AutoCAD 2000
 90
0
 91
1
280
0
281
0
  0
CLASS
  1
LAYOUT
  2
AcDbLayout
  3
AutoCAD 2000
 90
0
 91
0
280
0
281
0
  0
ENDSEC
  0
SECTION
  2
TABLES
  0
TABLE
  2
VPORT
  5
8
100
AcDbSymbolTable
 70
2
  0
VPORT
  5
1F4
100
AcDbSymbolTableRecord
100
AcDbViewportTableRecord
  2
*ACTIVE
 70
0
 10
0.0
 20
0.0
 11
1.0
 21
1.0
 12
11.0
 22
8.5
 13
0.0
 23
0.0
 14
1.0
 24
1.0
 15
0.0
 25
0.0
 16
0.0
 26
0.0
 36
1.0
 17
0.0
 27
0.0
 37
0.0
 40
17.0
 41
1.2941176471
 42
50.0
 43
0.0
 44
0.0
 50
0.0
 51
0.0
 71
0
 72
100
 73
1
 74
1
 75
0
 76
0
 77
0
 78
0
  0
ENDTAB
  0
TABLE
  2
LTYPE
  5
5
100
AcDbSymbolTable
 70
6
  0
LTYPE
  5
14
100
AcDbSymbolTableRecord
100
AcDbLinetypeTableRecord
  2
BYBLOCK
 70
0
  3

 72
65
 73
0
 40
0.0
  0
LTYPE
  5
15
100
AcDbSymbolTableRecord
100
AcDbLinetypeTableRecord
  2
BYLAYER
 70
0
  3

 72
65
 73
0
 40
0.0
  0
LTYPE
  5
16
100
AcDbSymbolTableRecord
100
AcDbLinetypeTableRecord
  2
CONTINUOUS
 70
64
  3
Solid line
 72
65
 73
0
 40
0.0
  0
LTYPE
  5
1F5
100
AcDbSymbolTableRecord
100
AcDbLinetypeTableRecord
  2
CENTER
 70
64
  3
____ _ ____ _ ____ _ ____ _ ____ _ ____ _ ____
 72
65
 73
4
 40
0.6
 49
0.375
 74
0
 49
-0.075
 74
0
 49
0.075
 74
0
 49
-0.075
 74
0
  0
LTYPE
  5
1F6
100
AcDbSymbolTableRecord
100
AcDbLinetypeTableRecord
  2
HIDDEN
 70
64
  3
- - - - - - - - - - - - - - - - - - - -
 72
65
 73
2
 40
0.2
 49
0.1
 74
0
 49
-0.1
 74
0
  0
LTYPE
  5
1F7
100
AcDbSymbolTableRecord
100
AcDbLinetypeTableRecord
  2
PHANTOM
 70
64
  3
_____ _ _ _____ _ _ _____ _ _ _____
 72
65
 73
6
 40
0.8
 49
0.45
 74
0
 49
-0.05
 74
0
 49
0.1
 74
0
 49
-0.05
 74
0
 49
0.1
 74
0
 49
-0.05
 74
0
  0
LTYPE
  5
1F8
100
AcDbSymbolTableRecord
100
AcDbLinetypeTableRecord
  2
DOT
 70
64
  3
. . . . . . . . . . . . . . . . . . . .
 72
65
 73
2
 40
0.2
 49
0.1
 74
0
 49
-0.1
 74
0
  0
LTYPE
  5
1F9
100
AcDbSymbolTableRecord
100
AcDbLinetypeTableRecord
  2
DASHED
 70
64
  3
- - - - - - - - - - - - - - - - - - - -
 72
65
 73
2
 40
0.2
 49
0.1
 74
0
 49
-0.1
 74
0
  0
ENDTAB
  0
TABLE
  2
LAYER
  5
2
100
AcDbSymbolTable
 70
36
  0
LAYER
  5
10
100
AcDbSymbolTableRecord
100
AcDbLayerTableRecord
  2
0
 70
0
 62
7
  6
CONTINUOUS
370
-3
390
F
  0
LAYER
  5
1FA
100
AcDbSymbolTableRecord
100
AcDbLayerTableRecord
  2
DEFAULT_1
 70
0
 62
7
  6
CENTER
370
-3
390
F
  0
LAYER
  5
1FB
100
AcDbSymbolTableRecord
100
AcDbLayerTableRecord
  2
DEFAULT_2
 70
0
 62
8
  6
HIDDEN
370
-3
390
F
  0
LAYER
  5
1FC
100
AcDbSymbolTableRecord
100
AcDbLayerTableRecord
  2
DEFAULT_3
 70
0
 62
7
  6
PHANTOM
370
-3
390
F
  0
LAYER
  5
1FD
100
AcDbSymbolTableRecord
100
AcDbLayerTableRecord
  2
ALL_FEATURES
 70
0
 62
7
  6
CONTINUOUS
370
-3
390
F
  0
LAYER
  5
1FE
100
AcDbSymbolTableRecord
100
AcDbLayerTableRecord
  2
AXES_FEATURES
 70
0
 62
7
  6
CONTINUOUS
370
-3
390
F
  0
LAYER
  5
1FF
100
AcDbSymbolTableRecord
100
AcDbLayerTableRecord
  2
DEFAULT_COORDINATE_SYSTEM
 70
0
 62
7
  6
CONTINUOUS
370
-3
390
F
  0
LAYER
  5
200
100
AcDbSymbolTableRecord
100
AcDbLayerTableRecord
  2
DEFAULT_DATUM_AXES
 70
0
 62
7
  6
CONTINUOUS
370
-3
390
F
  0
LAYER
  5
201
100
AcDbSymbolTableRecord
100
AcDbLayerTableRecord
  2
DEFAULT_DATUM_PLANES
 70
0
 62
7
  6
CONTINUOUS
370
-3
390
F
  0
LAYER
  5
202
100
AcDbSymbolTableRecord
100
AcDbLayerTableRecord
  2
DIMENSIONS
 70
0
 62
7
  6
CONTINUOUS
370
-3
390
F
  0
ENDTAB
  0
TABLE
  2
STYLE
  5
3
100
AcDbSymbolTable
 70
1
  0
STYLE
  5
11
100
AcDbSymbolTableRecord
100
AcDbTextStyleTableRecord
  2
STANDARD
 70
0
 40
0.0
 41
0.8
 50
0.0
 71
0
 42
0.2
  3
txt
  4

  0
STYLE
  5
203
100
AcDbSymbolTableRecord
100
AcDbTextStyleTableRecord
  2
TEXTSTYLE_1
 70
0
 40
0.0
 41
0.8
 50
0.0
 71
0
 42
0.2
  3
gdt
  4

  0
ENDTAB
  0
TABLE
  2
VIEW
  5
6
100
AcDbSymbolTable
 70
0
  0
ENDTAB
  0
TABLE
  2
UCS
  5
7
100
AcDbSymbolTable
 70
0
  0
ENDTAB
  0
TABLE
  2
APPID
  5
9
100
AcDbSymbolTable
 70
1
  0
APPID
  5
204
100
AcDbSymbolTableRecord
100
AcDbRegAppTableRecord
  2
ACAD
 70
0
  0
ENDTAB
  0
TABLE
  2
BLOCK_RECORD
  5
1
100
AcDbSymbolTable
 70
0
  0
BLOCK_RECORD
  5
205
100
AcDbSymbolTableRecord
100
AcDbBlockTableRecord
  2
*Model_Space
  0
BLOCK_RECORD
  5
206
100
AcDbSymbolTableRecord
100
AcDbBlockTableRecord
  2
*Paper_Space
  0
BLOCK_RECORD
  5
207
100
AcDbSymbolTableRecord
100
AcDbBlockTableRecord
  2
_FILLED
  0
ENDTAB
  0
TABLE
  2
DIMSTYLE
  5
A
100
AcDbSymbolTable
 70
1
100
AcDbDimStyleTable
 71
0
  0
DIMSTYLE
105
208
100
AcDbSymbolTableRecord
100
AcDbDimStyleTableRecord
  2
STANDARD
 70
0
  3

  4

 40
1.0
 41
0.1
 42
0.0625
 43
0.38
 44
0.125
 45
0.0
 46
0.0
 47
0.001
 48
0.001
140
0.08
141
0.09
142
0.0
143
25.4
144
1.0
145
0.0
146
1.0
147
0.09
 71
1.0
 72
0.0
 73
1
 74
1
 75
0
 76
0
 77
0
 78
4
 79
1
170
1
171
2
172
0
173
0
174
0
175
0
176
0
177
0
178
0
270
2
179
3
271
3
272
3
273
2
274
2
275
0
280
0
281
0
282
0
283
1
284
4
285
0
286
0
287
3
288
0
340
11
278
46
341
207
342
207
343
207
344
207
  0
ENDTAB
  0
ENDSEC
  0
SECTION
  2
BLOCKS
  0
BLOCK
  5
20
100
AcDbEntity
  8
0
100
AcDbBlockBegin
  2
*Model_Space
 70
0
 10
0.0
 20
0.0
 30
0.0
  3
*Model_Space
  1

  0
ENDBLK
  5
21
100
AcDbEntity
  8
0
100
AcDbBlockEnd
  0
BLOCK
  5
1C
100
AcDbEntity
  8
0
100
AcDbBlockBegin
  2
*Paper_Space
 70
0
 10
0.0
 20
0.0
 30
0.0
  3
*Paper_Space
  1

  0
ENDBLK
  5
1D
100
AcDbEntity
  8
0
100
AcDbBlockEnd
  0
BLOCK
  5
209
100
AcDbEntity
  8
0
100
AcDbBlockBegin
  2
_FILLED
 70
64
 10
0.0
 20
0.0
  3
_FILLED
  1

  0
SOLID
  5
20A
100
AcDbEntity
  8
0
  6
BYBLOCK
 62
0
100
AcDbTrace
 10
0.0
 20
0.0
 11
-1.0
 21
0.2
 12
-1.0
 22
-0.2
 13
-1.0
 23
-0.2
  0
ENDBLK
  5
20B
100
AcDbEntity
  8
0
  6
BYBLOCK
 62
0
100
AcDbBlockEnd
  0
ENDSEC
  0
SECTION
  2
ENTITIES
  0
LINE
  5
20C
100
AcDbEntity
  8
0
100
AcDbLine
 62
7
  6
CONTINUOUS
 10
9.8751923427
 20
4.6301695021
 11
12.0001923427
 21
4.6301695021
  0
LINE
  5
20D
100
AcDbEntity
  8
0
100
AcDbLine
 62
9
  6
CONTINUOUS
 10
9.8751923427
 20
4.9501695021
 11
12.0001923427
 21
4.9501695021
  0
LINE
  5
20E
100
AcDbEntity
  8
0
100
AcDbLine
 62
7
  6
CONTINUOUS
 10
9.9051923427
 20
4.9801695021
 11
11.9701923427
 21
4.9801695021
  0
LINE
  5
20F
100
AcDbEntity
  8
0
100
AcDbLine
 62
9
  6
CONTINUOUS
 10
11.9251923427
 20
5.0101695021
 11
9.9501923427
 21
5.0101695021
  0
LINE
  5
210
100
AcDbEntity
  8
0
100
AcDbLine
 62
9
  6
CONTINUOUS
 10
9.9501923427
 20
5.0251695021
 11
11.9251923427
 21
5.0251695021
  0
LINE
  5
211
100
AcDbEntity
  8
0
100
AcDbLine
 62
7
  6
CONTINUOUS
 10
9.9801923427
 20
5.0551695021
 11
11.8951923427
 21
5.0551695021
  0
LINE
  5
212
100
AcDbEntity
  8
0
100
AcDbLine
 62
7
  6
CONTINUOUS
 10
10.1479629242
 20
5.9911695021
 11
8.4376923427
 21
5.9911695021
  0
LINE
  5
213
100
AcDbEntity
  8
0
100
AcDbLine
 62
7
  6
CONTINUOUS
 10
11.7274217613
 20
5.9911695021
 11
13.4376923427
 21
5.9911695021
  0
LINE
  5
214
100
AcDbEntity
  8
0
100
AcDbLine
 62
7
  6
CONTINUOUS
 10
8.3776923427
 20
6.0661695021
 11
8.3576923427
 21
6.0661695021
  0
LINE
  5
215
100
AcDbEntity
  8
0
100
AcDbLine
 62
7
  6
CONTINUOUS
 10
13.4976923427
 20
6.0661695021
 11
13.5176923427
 21
6.0661695021
  0
LINE
  5
216
100
AcDbEntity
  8
0
100
AcDbLine
 62
7
  6
CONTINUOUS
 10
8.3276923427
 20
6.0961695021
 11
8.3276923427
 21
6.8361695021
  0
LINE
  5
217
100
AcDbEntity
  8
0
100
AcDbLine
 62
9
  6
CONTINUOUS
 10
8.3576923427
 20
6.0661695021
 11
8.3576923427
 21
6.8661695021
  0
LINE
  5
218
100
AcDbEntity
  8
0
100
AcDbLine
 62
9
  6
CONTINUOUS
 10
8.3776923427
 20
6.8661695021
 11
8.3776923427
 21
6.0661695021
  0
LINE
  5
219
100
AcDbEntity
  8
0
100
AcDbLine
 62
7
  6
CONTINUOUS
 10
8.4076923427
 20
6.9111695021
 11
8.4076923427
 21
6.0211695021
  0
LINE
  5
21A
100
AcDbEntity
  8
0
100
AcDbLine
 62
9
  6
CONTINUOUS
 10
8.4376923427
 20
6.9411695021
 11
8.4376923427
 21
5.9911695021
  0
LINE
  5
21B
100
AcDbEntity
  8
0
100
AcDbLine
 62
7
  6
CONTINUOUS
 10
8.5356923427
 20
8.7471695021
 11
8.5356923427
 21
6.9382681017
  0
LINE
  5
21C
100
AcDbEntity
  8
0
100
AcDbLine
 62
7
  6
CONTINUOUS
 10
8.3776923427
 20
6.8661695021
 11
8.3576923427
 21
6.8661695021
  0
LINE
  5
21D
100
AcDbEntity
  8
0
100
AcDbLine
 62
7
  6
CONTINUOUS
 10
13.4976923427
 20
6.8661695021
 11
13.5176923427
 21
6.8661695021
  0
LINE
  5
21E
100
AcDbEntity
  8
0
100
AcDbLine
 62
7
  6
CONTINUOUS
 10
10.1479629233
 20
6.9411695021
 11
8.9031923427
 21
6.9411695021
  0
LINE
  5
21F
100
AcDbEntity
  8
0
100
AcDbLine
 62
7
  6
CONTINUOUS
 10
8.5281923427
 20
6.9411695021
 11
8.4376923427
 21
6.9411695021
  0
LINE
  5
220
100
AcDbEntity
  8
0
100
AcDbLine
 62
7
  6
CONTINUOUS
 10
11.7274217621
 20
6.9411695021
 11
12.9721923427
 21
6.9411695021
  0
LINE
  5
221
100
AcDbEntity
  8
0
100
AcDbLine
 62
7
  6
CONTINUOUS
 10
13.3471923427
 20
6.9411695021
 11
13.4376923427
 21
6.9411695021
  0
LINE
  5
222
100
AcDbEntity
  8
0
100
AcDbLine
 62
7
  6
CONTINUOUS
 10
8.8956923427
 20
6.938268102
 11
8.8956923427
 21
8.7471695021
  0
LINE
  5
223
100
AcDbEntity
  8
0
100
AcDbLine
 62
9
  6
CONTINUOUS
 10
11.7426923427
 20
7.8374450927
 11
10.1326923427
 21
7.8374450927
  0
LINE
  5
224
100
AcDbEntity
  8
0
100
AcDbLine
 62
7
  6
CONTINUOUS
 10
11.7230073034
 20
7.8571301321
 11
10.1523773821
 21
7.8571301321
  0
LINE
  5
225
100
AcDbEntity
  8
0
100
AcDbLine
 62
9
  6
CONTINUOUS
 10
10.2126923427
 20
7.8768151714
 11
11.6626923427
 21
7.8768151714
  0
LINE
  5
226
100
AcDbEntity
  8
0
100
AcDbLine
 62
7
  6
CONTINUOUS
 10
9.8751923427
 20
4.9501695021
 11
9.8751923427
 21
4.6301695021
  0
LINE
  5
227
100
AcDbEntity
  8
0
100
AcDbLine
 62
9
  6
CONTINUOUS
 10
11.6626923427
 20
7.9164845077
 11
10.2126923427
 21
7.9164845077
  0
LINE
  5
228
100
AcDbEntity
  8
0
100
AcDbLine
 62
7
  6
CONTINUOUS
 10
11.6430062305
 20
7.936169547
 11
10.232378455
 21
7.936169547
  0
LINE
  5
229
100
AcDbEntity
  8
0
100
AcDbLine
 62
7
  6
CONTINUOUS
 10
9.9501923427
 20
5.0101695021
 11
9.9501923427
 21
5.0251695021
  0
LINE
  5
22A
100
AcDbEntity
  8
0
100
AcDbLine
 62
7
  6
CONTINUOUS
 10
10.1326923427
 20
5.0551695021
 11
10.1326923427
 21
5.9661695021
  0
LINE
  5
22B
100
AcDbEntity
  8
0
100
AcDbLine
 62
7
  6
CONTINUOUS
 10
10.1326923427
 20
6.9661695021
 11
10.1326923427
 21
7.8374450927
  0
LINE
  5
22C
100
AcDbEntity
  8
0
100
AcDbLine
 62
7
  6
CONTINUOUS
 10
10.2126923427
 20
7.9164845077
 11
10.2126923427
 21
7.8768151714
  0
LINE
  5
22D
100
AcDbEntity
  8
0
100
AcDbLine
 62
7
  6
CONTINUOUS
 10
13.3396923427
 20
8.7471695021
 11
12.9796923427
 21
8.7471695021
  0
LINE
  5
22E
100
AcDbEntity
  8
0
100
AcDbLine
 62
7
  6
CONTINUOUS
 10
8.8956923427
 20
8.7471695021
 11
8.5356923427
 21
8.7471695021
  0
LINE
  5
22F
100
AcDbEntity
  8
0
100
AcDbLine
 62
7
  6
CONTINUOUS
 10
10.6876923427
 20
7.936169547
 11
10.6876923427
 21
13.6551695021
  0
LINE
  5
230
100
AcDbEntity
  8
0
100
AcDbLine
 62
7
  6
CONTINUOUS
 10
11.1876923427
 20
7.936169547
 11
11.1876923427
 21
13.6551695021
  0
LINE
  5
231
100
AcDbEntity
  8
0
100
AcDbLine
 62
7
  6
CONTINUOUS
 10
11.6626923427
 20
7.9164845077
 11
11.6626923427
 21
7.8768151714
  0
LINE
  5
232
100
AcDbEntity
  8
0
100
AcDbLine
 62
7
  6
CONTINUOUS
 10
11.7426923427
 20
5.0551695021
 11
11.7426923427
 21
5.9661695021
  0
LINE
  5
233
100
AcDbEntity
  8
0
100
AcDbLine
 62
7
  6
CONTINUOUS
 10
11.7426923427
 20
6.9661695021
 11
11.7426923427
 21
7.8374450927
  0
LINE
  5
234
100
AcDbEntity
  8
0
100
AcDbLine
 62
7
  6
CONTINUOUS
 10
11.9251923427
 20
5.0101695021
 11
11.9251923427
 21
5.0251695021
  0
LINE
  5
235
100
AcDbEntity
  8
0
100
AcDbLine
 62
7
  6
CONTINUOUS
 10
12.0001923427
 20
4.9501695021
 11
12.0001923427
 21
4.6301695021
  0
LINE
  5
236
100
AcDbEntity
  8
0
100
AcDbLine
 62
7
  6
CONTINUOUS
 10
12.9796923427
 20
8.7471695021
 11
12.9796923427
 21
6.9382681017
  0
LINE
  5
237
100
AcDbEntity
  8
0
100
AcDbLine
 62
7
  6
CONTINUOUS
 10
11.1876900672
 20
11.1551695021
 11
10.6876946182
 21
11.1551695021
  0
LINE
  5
238
100
AcDbEntity
  8
0
100
AcDbLine
 62
7
  6
CONTINUOUS
 10
13.3396923427
 20
6.938268102
 11
13.3396923427
 21
8.7471695021
  0
LINE
  5
239
100
AcDbEntity
  8
0
100
AcDbLine
 62
9
  6
CONTINUOUS
 10
13.4376923427
 20
5.9911695021
 11
13.4376923427
 21
6.9411695021
  0
LINE
  5
23A
100
AcDbEntity
  8
0
100
AcDbLine
 62
7
  6
CONTINUOUS
 10
13.4676923427
 20
6.0211695021
 11
13.4676923427
 21
6.9111695021
  0
LINE
  5
23B
100
AcDbEntity
  8
0
100
AcDbLine
 62
9
  6
CONTINUOUS
 10
11.1876923427
 20
11.6551695021
 11
10.6876923427
 21
11.6551695021
  0
LINE
  5
23C
100
AcDbEntity
  8
0
100
AcDbLine
 62
9
  6
CONTINUOUS
 10
13.4976923427
 20
6.0661695021
 11
13.4976923427
 21
6.8661695021
  0
LINE
  5
23D
100
AcDbEntity
  8
0
100
AcDbLine
 62
9
  6
CONTINUOUS
 10
13.5176923427
 20
6.8661695021
 11
13.5176923427
 21
6.0661695021
  0
LINE
  5
23E
100
AcDbEntity
  8
0
100
AcDbLine
 62
7
  6
CONTINUOUS
 10
13.5476923427
 20
6.8361695021
 11
13.5476923427
 21
6.0961695021
  0
ARC
  5
23F
100
AcDbEntity
  8
0
100
AcDbCircle
 62
7
  6
CONTINUOUS
 10
10.9376923427
 20
13.6551695021
 40
0.25
100
AcDbArc
 50
0.0
 51
180.0
  0
ARC
  5
240
100
AcDbEntity
  8
0
100
AcDbCircle
 62
7
  6
CONTINUOUS
 10
11.8951923427
 20
5.0251695021
 40
0.03
100
AcDbArc
 50
0.0
 51
90.0
  0
ARC
  5
241
100
AcDbEntity
  8
0
100
AcDbCircle
 62
7
  6
CONTINUOUS
 10
9.9801923427
 20
5.0251695021
 40
0.03
100
AcDbArc
 50
90.0
 51
180.0
  0
ARC
  5
242
100
AcDbEntity
  8
0
100
AcDbCircle
 62
7
  6
CONTINUOUS
 10
11.9551923427
 20
5.0101695021
 40
0.03
100
AcDbArc
 50
180.0
 51
270.0
  0
ARC
  5
243
100
AcDbEntity
  8
0
100
AcDbCircle
 62
7
  6
CONTINUOUS
 10
9.9201923427
 20
5.0101695021
 40
0.03
100
AcDbArc
 50
270.0
 51
360.0
  0
ARC
  5
244
100
AcDbEntity
  8
0
100
AcDbCircle
 62
7
  6
CONTINUOUS
 10
9.9051923427
 20
4.9501695021
 40
0.03
100
AcDbArc
 50
90.0
 51
180.0
  0
ARC
  5
245
100
AcDbEntity
  8
0
100
AcDbCircle
 62
7
  6
CONTINUOUS
 10
11.9701923427
 20
4.9501695021
 40
0.03
100
AcDbArc
 50
0.0
 51
90.0
  0
ARC
  5
246
100
AcDbEntity
  8
0
100
AcDbCircle
 62
7
  6
CONTINUOUS
 10
8.4376923427
 20
6.9111695021
 40
0.03
100
AcDbArc
 50
90.0
 51
180.0
  0
ARC
  5
247
100
AcDbEntity
  8
0
100
AcDbCircle
 62
7
  6
CONTINUOUS
 10
8.4376923427
 20
6.0211695021
 40
0.03
100
AcDbArc
 50
180.0
 51
270.0
  0
ARC
  5
248
100
AcDbEntity
  8
0
100
AcDbCircle
 62
7
  6
CONTINUOUS
 10
8.3576923427
 20
6.0961695021
 40
0.03
100
AcDbArc
 50
180.0
 51
270.0
  0
ARC
  5
249
100
AcDbEntity
  8
0
100
AcDbCircle
 62
7
  6
CONTINUOUS
 10
8.3576923427
 20
6.8361695021
 40
0.03
100
AcDbArc
 50
90.0
 51
180.0
  0
ARC
  5
24A
100
AcDbEntity
  8
0
100
AcDbCircle
 62
7
  6
CONTINUOUS
 10
8.3776923427
 20
6.8961695021
 40
0.03
100
AcDbArc
 50
270.0
 51
360.0
  0
ARC
  5
24B
100
AcDbEntity
  8
0
100
AcDbCircle
 62
7
  6
CONTINUOUS
 10
8.3776923427
 20
6.0361695021
 40
0.03
100
AcDbArc
 50
0.0
 51
90.0
  0
ARC
  5
24C
100
AcDbEntity
  8
0
100
AcDbCircle
 62
7
  6
CONTINUOUS
 10
13.4376923427
 20
6.9111695021
 40
0.03
100
AcDbArc
 50
0.0
 51
90.0
  0
ARC
  5
24D
100
AcDbEntity
  8
0
100
AcDbCircle
 62
7
  6
CONTINUOUS
 10
13.4376923427
 20
6.0211695021
 40
0.03
100
AcDbArc
 50
270.0
 51
360.0
  0
ARC
  5
24E
100
AcDbEntity
  8
0
100
AcDbCircle
 62
7
  6
CONTINUOUS
 10
13.5176923427
 20
6.0961695021
 40
0.03
100
AcDbArc
 50
270.0
 51
360.0
  0
ARC
  5
24F
100
AcDbEntity
  8
0
100
AcDbCircle
 62
7
  6
CONTINUOUS
 10
13.5176923427
 20
6.8361695021
 40
0.03
100
AcDbArc
 50
0.0
 51
90.0
  0
ARC
  5
250
100
AcDbEntity
  8
0
100
AcDbCircle
 62
7
  6
CONTINUOUS
 10
13.4976923427
 20
6.8961695021
 40
0.03
100
AcDbArc
 50
180.0
 51
270.0
  0
ARC
  5
251
100
AcDbEntity
  8
0
100
AcDbCircle
 62
7
  6
CONTINUOUS
 10
13.4976923427
 20
6.0361695021
 40
0.03
100
AcDbArc
 50
90.0
 51
180.0
  0
ARC
  5
252
100
AcDbEntity
  8
0
100
AcDbCircle
 62
7
  6
CONTINUOUS
 10
11.6430073034
 20
7.9164845077
 40
0.0196850394
100
AcDbArc
 50
0.0
 51
90.0
  0
ARC
  5
253
100
AcDbEntity
  8
0
100
AcDbCircle
 62
7
  6
CONTINUOUS
 10
10.2323773821
 20
7.9164845077
 40
0.0196850394
100
AcDbArc
 50
90.0
 51
180.0
  0
ARC
  5
254
100
AcDbEntity
  8
0
100
AcDbCircle
 62
7
  6
CONTINUOUS
 10
11.6823773821
 20
7.8768151714
 40
0.0196850394
100
AcDbArc
 50
180.0
 51
270.0
  0
ARC
  5
255
100
AcDbEntity
  8
0
100
AcDbCircle
 62
7
  6
CONTINUOUS
 10
10.1930073034
 20
7.8768151714
 40
0.0196850394
100
AcDbArc
 50
270.0
 51
360.0
  0
ARC
  5
256
100
AcDbEntity
  8
0
100
AcDbCircle
 62
7
  6
CONTINUOUS
 10
11.7230073034
 20
7.8374450927
 40
0.0196850394
100
AcDbArc
 50
0.0
 51
90.0
  0
ARC
  5
257
100
AcDbEntity
  8
0
100
AcDbCircle
 62
7
  6
CONTINUOUS
 10
10.1523773821
 20
7.8374450927
 40
0.0196850394
100
AcDbArc
 50
90.0
 51
180.0
  0
SPLINE
  5
258
100
AcDbEntity
  8
0
100
AcDbSpline
 62
7
  6
CONTINUOUS
 70
0
 71
3
 72
39
 73
35
 74
0
 42
0.0000001
 43
0.0000001
 44
0.0000000001
 40
0.0
 40
0.0
 40
0.0
 40
0.0
 40
0.0110990478
 40
0.0431400154
 40
0.093041277
 40
0.1235618757
 40
0.1572254765
 40
0.1936548475
 40
0.232514203
 40
0.2735021702
 40
0.3163389387
 40
0.3607424359
 40
0.3834391837
 40
0.4064088716
 40
0.4296022422
 40
0.4529698871
 40
0.4764548367
 40
0.4999999964
 40
0.5235451559
 40
0.5470301057
 40
0.5703977507
 40
0.5935911216
 40
0.6165608102
 40
0.6392575579
 40
0.6836610556
 40
0.7264978259
 40
0.7674857941
 40
0.8063451507
 40
0.8427745228
 40
0.8764381239
 40
0.9069587228
 40
0.9568599843
 40
0.988900952
 40
1.0
 40
1.0
 40
1.0
 40
1.0
 10
11.7426923427
 20
5.9661695021
 30
0.0
 10
11.7405980248
 20
5.9695413336
 30
0.0
 10
11.7324942012
 20
5.9826696924
 30
0.0
 10
11.7153339936
 20
6.0111789783
 30
0.0
 10
11.6954021003
 20
6.0461207887
 30
0.0
 10
11.6761455371
 20
6.0820936624
 30
0.0
 10
11.6599170883
 20
6.1142128665
 30
0.0
 10
11.643349363
 20
6.1494863869
 30
0.0
 10
11.6269803075
 20
6.1877233918
 30
0.0
 10
11.6113898335
 20
6.2287510813
 30
0.0
 10
11.597210108
 20
6.27238316
 30
0.0
 10
11.5872105909
 20
6.3104351397
 30
0.0
 10
11.5805518045
 20
6.3419561788
 30
0.0
 10
11.5763017204
 20
6.3662181696
 30
0.0
 10
11.5729040218
 20
6.3908567438
 30
0.0
 10
11.5704302705
 20
6.415790825
 30
0.0
 10
11.5689206676
 20
6.4409281958
 30
0.0
 10
11.5684179329
 20
6.4661694982
 30
0.0
 10
11.5689206671
 20
6.4914108007
 30
0.0
 10
11.5704302702
 20
6.5165481715
 30
0.0
 10
11.5729040204
 20
6.5414822531
 30
0.0
 10
11.5763017199
 20
6.5661208276
 30
0.0
 10
11.5805518028
 20
6.5903828189
 30
0.0
 10
11.5872105898
 20
6.6219038582
 30
0.0
 10
11.5972101062
 20
6.6599558389
 30
0.0
 10
11.6113898319
 20
6.7035879188
 30
0.0
 10
11.6269803064
 20
6.7446156096
 30
0.0
 10
11.6433493621
 20
6.7828526156
 30
0.0
 10
11.6599170878
 20
6.8181261369
 30
0.0
 10
11.6761455368
 20
6.8502453415
 30
0.0
 10
11.6954021001
 20
6.8862182153
 30
0.0
 10
11.7153339935
 20
6.9211600258
 30
0.0
 10
11.7324942011
 20
6.9496693117
 30
0.0
 10
11.7405980248
 20
6.9627976706
 30
0.0
 10
11.7426923427
 20
6.9661695021
 30
0.0
  0
SPLINE
  5
259
100
AcDbEntity
  8
0
100
AcDbSpline
 62
7
  6
CONTINUOUS
 70
0
 71
3
 72
39
 73
35
 74
0
 42
0.0000001
 43
0.0000001
 44
0.0000000001
 40
0.0
 40
0.0
 40
0.0
 40
0.0
 40
0.0110990481
 40
0.0431400156
 40
0.0930412767
 40
0.1235618756
 40
0.1572254766
 40
0.1936548489
 40
0.2325142056
 40
0.2735021738
 40
0.3163389445
 40
0.3607424422
 40
0.3834391898
 40
0.4064088783
 40
0.4296022492
 40
0.4529698941
 40
0.4764548441
 40
0.5000000042
 40
0.5235451646
 40
0.5470301148
 40
0.5703977601
 40
0.5935911308
 40
0.6165608184
 40
0.639257566
 40
0.6836610628
 40
0.726497831
 40
0.7674857989
 40
0.8063451545
 40
0.8427745249
 40
0.8764381248
 40
0.9069587232
 40
0.9568599846
 40
0.9889009522
 40
1.0
 40
1.0
 40
1.0
 40
1.0
 10
10.1326923427
 20
6.9661695021
 30
0.0
 10
10.1347866607
 20
6.9627976706
 30
0.0
 10
10.1428904844
 20
6.9496693117
 30
0.0
 10
10.1600506919
 20
6.921160026
 30
0.0
 10
10.1799825852
 20
6.8862182157
 30
0.0
 10
10.1992391484
 20
6.850245342
 30
0.0
 10
10.2154675974
 20
6.8181261374
 30
0.0
 10
10.2320353232
 20
6.7828526161
 30
0.0
 10
10.2484043789
 20
6.74461561
 30
0.0
 10
10.2639948535
 20
6.703587919
 30
0.0
 10
10.2781745792
 20
6.6599558389
 30
0.0
 10
10.2881740957
 20
6.6219038582
 30
0.0
 10
10.2948328827
 20
6.5903828189
 30
0.0
 10
10.2990829656
 20
6.5661208276
 30
0.0
 10
10.302480665
 20
6.5414822532
 30
0.0
 10
10.3049544153
 20
6.5165481716
 30
0.0
 10
10.3064640184
 20
6.4914108006
 30
0.0
 10
10.3069667524
 20
6.4661694975
 30
0.0
 10
10.3064640179
 20
6.4409281944
 30
0.0
 10
10.3049544148
 20
6.4157908231
 30
0.0
 10
10.3024806632
 20
6.3908567414
 30
0.0
 10
10.2990829649
 20
6.3662181671
 30
0.0
 10
10.2948328804
 20
6.3419561766
 30
0.0
 10
10.2881740943
 20
6.3104351378
 30
0.0
 10
10.278174577
 20
6.2723831584
 30
0.0
 10
10.2639948514
 20
6.2287510797
 30
0.0
 10
10.2484043774
 20
6.18772339
 30
0.0
 10
10.2320353217
 20
6.1494863852
 30
0.0
 10
10.2154675965
 20
6.1142128653
 30
0.0
 10
10.1992391481
 20
6.0820936617
 30
0.0
 10
10.1799825851
 20
6.0461207885
 30
0.0
 10
10.1600506918
 20
6.0111789782
 30
0.0
 10
10.1428904843
 20
5.9826696924
 30
0.0
 10
10.1347866606
 20
5.9695413336
 30
0.0
 10
10.1326923427
 20
5.9661695021
 30
0.0
  0
SPLINE
  5
25A
100
AcDbEntity
  8
0
100
AcDbSpline
 62
7
  6
CONTINUOUS
 70
0
 71
3
 72
25
 73
21
 74
0
 42
0.0000001
 43
0.0000001
 44
0.0000000001
 40
0.0
 40
0.0
 40
0.0
 40
0.0
 40
0.0402065928
 40
0.0879596504
 40
0.1509340859
 40
0.2264312164
 40
0.3117511759
 40
0.3572194488
 40
0.4040390901
 40
0.4517840256
 40
0.4999999987
 40
0.5482159751
 40
0.595960911
 40
0.64278055
 40
0.6882488238
 40
0.7735687834
 40
0.8490659153
 40
0.9120403503
 40
0.9597934076
 40
1.0
 40
1.0
 40
1.0
 40
1.0
 10
8.9031923427
 20
6.9411695021
 30
0.0
 10
8.898391211
 20
6.9392742956
 30
0.0
 10
8.887841544
 20
6.9352443111
 30
0.0
 10
8.8695661683
 20
6.9287974855
 30
0.0
 10
8.8467513157
 20
6.9216306222
 30
0.0
 10
8.8189518387
 20
6.9143256998
 30
0.0
 10
8.7929576252
 20
6.9091493183
 30
0.0
 10
8.7703854633
 20
6.9058945759
 30
0.0
 10
8.7525011437
 20
6.9040218648
 30
0.0
 10
8.7342028885
 20
6.9028592228
 30
0.0
 10
8.7156923428
 20
6.902464882
 30
0.0
 10
8.6971817971
 20
6.9028592228
 30
0.0
 10
8.6788835417
 20
6.9040218647
 30
0.0
 10
8.6609992222
 20
6.9058945758
 30
0.0
 10
8.6384270605
 20
6.9091493184
 30
0.0
 10
8.6124328466
 20
6.9143256998
 30
0.0
 10
8.5846333696
 20
6.9216306222
 30
0.0
 10
8.5618185169
 20
6.9287974856
 30
0.0
 10
8.5435431414
 20
6.9352443112
 30
0.0
 10
8.5329934744
 20
6.9392742956
 30
0.0
 10
8.5281923427
 20
6.9411695021
 30
0.0
  0
SPLINE
  5
25B
100
AcDbEntity
  8
0
100
AcDbSpline
 62
7
  6
CONTINUOUS
 70
0
 71
3
 72
25
 73
21
 74
0
 42
0.0000001
 43
0.0000001
 44
0.0000000001
 40
0.0
 40
0.0
 40
0.0
 40
0.0
 40
0.0402065927
 40
0.0879596504
 40
0.1509340859
 40
0.2264312166
 40
0.3117511762
 40
0.3572194492
 40
0.4040390903
 40
0.4517840257
 40
0.499999999
 40
0.5482159749
 40
0.5959609108
 40
0.64278055
 40
0.6882488237
 40
0.7735687835
 40
0.8490659152
 40
0.9120403503
 40
0.9597934077
 40
1.0
 40
1.0
 40
1.0
 40
1.0
 10
13.3471923427
 20
6.9411695021
 30
0.0
 10
13.342391211
 20
6.9392742956
 30
0.0
 10
13.331841544
 20
6.9352443111
 30
0.0
 10
13.3135661683
 20
6.9287974855
 30
0.0
 10
13.2907513156
 20
6.9216306222
 30
0.0
 10
13.2629518387
 20
6.9143256998
 30
0.0
 10
13.2369576251
 20
6.9091493183
 30
0.0
 10
13.2143854632
 20
6.9058945759
 30
0.0
 10
13.1965011436
 20
6.9040218648
 30
0.0
 10
13.1782028884
 20
6.9028592228
 30
0.0
 10
13.1596923428
 20
6.902464882
 30
0.0
 10
13.1411817971
 20
6.9028592228
 30
0.0
 10
13.1228835417
 20
6.9040218647
 30
0.0
 10
13.1049992222
 20
6.9058945758
 30
0.0
 10
13.0824270605
 20
6.9091493184
 30
0.0
 10
13.0564328466
 20
6.9143256998
 30
0.0
 10
13.0286333696
 20
6.9216306222
 30
0.0
 10
13.0058185169
 20
6.9287974856
 30
0.0
 10
12.9875431414
 20
6.9352443112
 30
0.0
 10
12.9769934744
 20
6.9392742956
 30
0.0
 10
12.9721923427
 20
6.9411695021
 30
0.0
  0
ENDSEC
  0
SECTION
  2
OBJECTS
  0
DICTIONARY
  5
C
100
AcDbDictionary
280
0
281
1
  3
ACAD_GROUP
350
D
  3
ACAD_MLINESTYLE
350
17
  3
ACAD_LAYOUT
350
1A
  3
ACAD_PLOTSETTINGS
350
19
  3
ACAD_PLOTSTYLENAME
350
E
  0
DICTIONARY
  5
D
102
{ACAD_REACTORS
330
C
102
}
100
AcDbDictionary
280
0
281
1
  0
ACDBDICTIONARYWDFLT
  5
E
102
{ACAD_REACTORS
330
C
102
}
100
AcDbDictionary
281
1
  3
Normal
350
F
100
AcDbDictionaryWithDefault
340
F
  0
DICTIONARY
  5
17
102
{ACAD_REACTORS
330
C
102
}
100
AcDbDictionary
280
0
281
1
  3
Standard
350
18
  0
DICTIONARY
  5
19
102
{ACAD_REACTORS
330
C
102
}
100
AcDbDictionary
281
1
  0
DICTIONARY
  5
1A
102
{ACAD_REACTORS
330
C
102
}
100
AcDbDictionary
281
1
  3
Model
350
25C
  3
Layout1
350
25D
  0
ACDBPLACEHOLDER
  5
F
102
{ACAD_REACTORS
330
E
102
}
  0
MLINESTYLE
  5
18
102
{ACAD_REACTORS
330
17
102
}
100
AcDbMlineStyle
  2
STANDARD
 70
0
  3

 62
256
 51
90.0
 52
90.0
 71
2
 49
0.5
 62
256
  6
BYLAYER
 49
-0.5
 62
256
  6
BYLAYER
  0
LAYOUT
  5
25C
102
{ACAD_REACTORS
330
1A
102
}
100
AcDbPlotSettings
  1

  2
none_device
  4
ANSI_C_(22.00_x_17.00_Inches)
  6

 40
0.0
 41
0.0
 42
0.0
 43
0.0
 44
558.8
 45
431.8
 46
0.0
 47
0.0
 48
0.0
 49
0.0
140
0.0
141
0.0
142
1.0
143
1.0
 70
1024
 72
0
 73
0
 74
0
  7

 75
0
147
1.0
148
0.0
149
0.0
100
AcDbLayout
  1
Model
 70
0
 71
0
 10
0.0
 20
0.0
 11
22.0
 21
17.0
 12
0.0
 22
0.0
 32
0.0
 14
0.0
 24
0.0
 34
0.0
 15
0.0
 25
0.0
 35
0.0
146
0.0
 13
0.0
 23
0.0
 33
0.0
 16
1.0
 26
0.0
 36
0.0
 17
0.0
 27
1.0
 37
0.0
 76
0
330
205
345
0
346
0
  0
LAYOUT
  5
25D
102
{ACAD_REACTORS
330
1A
102
}
100
AcDbPlotSettings
  1

  2
none_device
  4
ANSI_C_(22.00_x_17.00_Inches)
  6

 40
0.0
 41
0.0
 42
0.0
 43
0.0
 44
558.8
 45
431.8
 46
0.0
 47
0.0
 48
0.0
 49
0.0
140
0.0
141
0.0
142
1.0
143
1.0
 70
0
 72
0
 73
0
 74
0
  7

 75
0
147
1.0
148
0.0
149
0.0
100
AcDbLayout
  1
Layout1
 70
0
 71
1
 10
0.0
 20
0.0
 11
22.0
 21
17.0
 12
0.0
 22
0.0
 32
0.0
 14
0.0
 24
0.0
 34
0.0
 15
0.0
 25
0.0
 35
0.0
146
0.0
 13
0.0
 23
0.0
 33
0.0
 16
1.0
 26
0.0
 36
0.0
 17
0.0
 27
1.0
 37
0.0
 76
0
330
206
345
0
346
0
  0
ENDSEC
  0
EOF
