999
DXF file: C:\Prowork\plots\324_front.dxf
999
Pro/ENGINEER 2018500 by Parametric Technology Corporation
  0
SECTION
  2
HEADER
  9
$ACADVER
  1
AC1032
  9
$DWGCODEPAGE
  3
ANSI_1252
  9
$EXTMAX
 10
11.0
 20
8.5
 30
0.0
  9
$EXTMIN
 10
0.0
 20
0.0
 30
0.0
  9
$LIMMIN
 10
0.0
 20
0.0
  9
$LIMMAX
 10
11.0
 20
8.5
  9
$VIEWCTR
 10
5.5
 20
4.25
  9
$VIEWSIZE
 40
8.5
  9
$CLAYER
  8
0
  9
$LTSCALE
 40
0.605
  9
$CELTYPE
  6
BYLAYER
  9
$DIMSCALE
 40
1.0
  9
$DIMASZ
 40
0.1
  9
$DIMEXO
 40
0.0625
  9
$DIMDLI
 40
0.418
  9
$DIMEXE
 40
0.125
  9
$DIMCEN
 40
0.099
  9
$DIMLFAC
 40
1.0
  9
$DIMBLK
  1
_FILLED
  9
$DIMALT
 70
1
  9
$DIMALTD
 70
2
  9
$DIMALTTD
 70
2
  9
$DIMALTF
 40
25.4
  9
$DIMTXT
 40
0.08
  9
$DIMTOL
 70
1
  9
$DIMLIM
 70
0
  9
$DIMTFAC
 40
1.0
  9
$DIMTP
 40
0.001
  9
$DIMTM
 40
0.001
  9
$DIMGAP
 40
0.09
  9
$DIMDSEP
 70
46
  9
$AUNITS
 70
0
  9
$PDMODE
 70
3
  9
$PDSIZE
 40
0.06
  9
$HANDSEED
  5
510
  9
$TILEMODE
 70
1
  9
$MEASUREMENT
 70
0
  9
$INSUNITS
 70
1
  0
ENDSEC
  0
SECTION
  2
CLASSES
  0
CLASS
  1
ACDBDICTIONARYWDFLT
  2
AcDbDictionaryWithDefault
  3
AutoCAD 2000
 90
0
 91
1
280
0
281
0
  0
CLASS
  1
ACDBPLACEHOLDER
  2
AcDbPlaceHolder
  3
AutoCAD 2000
 90
0
 91
1
280
0
281
0
  0
CLASS
  1
LAYOUT
  2
AcDbLayout
  3
AutoCAD 2000
 90
0
 91
0
280
0
281
0
  0
ENDSEC
  0
SECTION
  2
TABLES
  0
TABLE
  2
VPORT
  5
8
100
AcDbSymbolTable
 70
2
  0
VPORT
  5
1F4
100
AcDbSymbolTableRecord
100
AcDbViewportTableRecord
  2
*ACTIVE
 70
0
 10
0.0
 20
0.0
 11
1.0
 21
1.0
 12
5.5
 22
4.25
 13
0.0
 23
0.0
 14
1.0
 24
1.0
 15
0.0
 25
0.0
 16
0.0
 26
0.0
 36
1.0
 17
0.0
 27
0.0
 37
0.0
 40
8.5
 41
1.2941176471
 42
50.0
 43
0.0
 44
0.0
 50
0.0
 51
0.0
 71
0
 72
100
 73
1
 74
1
 75
0
 76
0
 77
0
 78
0
  0
ENDTAB
  0
TABLE
  2
LTYPE
  5
5
100
AcDbSymbolTable
 70
6
  0
LTYPE
  5
14
100
AcDbSymbolTableRecord
100
AcDbLinetypeTableRecord
  2
BYBLOCK
 70
0
  3

 72
65
 73
0
 40
0.0
  0
LTYPE
  5
15
100
AcDbSymbolTableRecord
100
AcDbLinetypeTableRecord
  2
BYLAYER
 70
0
  3

 72
65
 73
0
 40
0.0
  0
LTYPE
  5
16
100
AcDbSymbolTableRecord
100
AcDbLinetypeTableRecord
  2
CONTINUOUS
 70
64
  3
Solid line
 72
65
 73
0
 40
0.0
  0
LTYPE
  5
1F5
100
AcDbSymbolTableRecord
100
AcDbLinetypeTableRecord
  2
CENTER
 70
64
  3
____ _ ____ _ ____ _ ____ _ ____ _ ____ _ ____
 72
65
 73
4
 40
0.6
 49
0.375
 74
0
 49
-0.075
 74
0
 49
0.075
 74
0
 49
-0.075
 74
0
  0
LTYPE
  5
1F6
100
AcDbSymbolTableRecord
100
AcDbLinetypeTableRecord
  2
HIDDEN
 70
64
  3
- - - - - - - - - - - - - - - - - - - -
 72
65
 73
2
 40
0.2
 49
0.1
 74
0
 49
-0.1
 74
0
  0
LTYPE
  5
1F7
100
AcDbSymbolTableRecord
100
AcDbLinetypeTableRecord
  2
PHANTOM
 70
64
  3
_____ _ _ _____ _ _ _____ _ _ _____
 72
65
 73
6
 40
0.8
 49
0.45
 74
0
 49
-0.05
 74
0
 49
0.1
 74
0
 49
-0.05
 74
0
 49
0.1
 74
0
 49
-0.05
 74
0
  0
LTYPE
  5
1F8
100
AcDbSymbolTableRecord
100
AcDbLinetypeTableRecord
  2
DOT
 70
64
  3
. . . . . . . . . . . . . . . . . . . .
 72
65
 73
2
 40
0.2
 49
0.1
 74
0
 49
-0.1
 74
0
  0
LTYPE
  5
1F9
100
AcDbSymbolTableRecord
100
AcDbLinetypeTableRecord
  2
DASHED
 70
64
  3
- - - - - - - - - - - - - - - - - - - -
 72
65
 73
2
 40
0.2
 49
0.1
 74
0
 49
-0.1
 74
0
  0
ENDTAB
  0
TABLE
  2
LAYER
  5
2
100
AcDbSymbolTable
 70
36
  0
LAYER
  5
10
100
AcDbSymbolTableRecord
100
AcDbLayerTableRecord
  2
0
 70
0
 62
7
  6
CONTINUOUS
370
-3
390
F
  0
LAYER
  5
1FA
100
AcDbSymbolTableRecord
100
AcDbLayerTableRecord
  2
DEFAULT_1
 70
0
 62
7
  6
CENTER
370
-3
390
F
  0
LAYER
  5
1FB
100
AcDbSymbolTableRecord
100
AcDbLayerTableRecord
  2
DEFAULT_2
 70
0
 62
8
  6
HIDDEN
370
-3
390
F
  0
LAYER
  5
1FC
100
AcDbSymbolTableRecord
100
AcDbLayerTableRecord
  2
DEFAULT_3
 70
0
 62
7
  6
PHANTOM
370
-3
390
F
  0
LAYER
  5
1FD
100
AcDbSymbolTableRecord
100
AcDbLayerTableRecord
  2
1-248
 70
0
 62
7
  6
CONTINUOUS
370
-3
390
F
  0
LAYER
  5
1FE
100
AcDbSymbolTableRecord
100
AcDbLayerTableRecord
  2
11901
 70
0
 62
7
  6
CONTINUOUS
370
-3
390
F
  0
LAYER
  5
1FF
100
AcDbSymbolTableRecord
100
AcDbLayerTableRecord
  2
11905
 70
0
 62
7
  6
CONTINUOUS
370
-3
390
F
  0
LAYER
  5
200
100
AcDbSymbolTableRecord
100
AcDbLayerTableRecord
  2
12531
 70
0
 62
7
  6
CONTINUOUS
370
-3
390
F
  0
LAYER
  5
201
100
AcDbSymbolTableRecord
100
AcDbLayerTableRecord
  2
12532
 70
0
 62
7
  6
CONTINUOUS
370
-3
390
F
  0
LAYER
  5
202
100
AcDbSymbolTableRecord
100
AcDbLayerTableRecord
  2
12534
 70
0
 62
7
  6
CONTINUOUS
370
-3
390
F
  0
LAYER
  5
203
100
AcDbSymbolTableRecord
100
AcDbLayerTableRecord
  2
12536
 70
0
 62
7
  6
CONTINUOUS
370
-3
390
F
  0
LAYER
  5
204
100
AcDbSymbolTableRecord
100
AcDbLayerTableRecord
  2
12537
 70
0
 62
7
  6
CONTINUOUS
370
-3
390
F
  0
LAYER
  5
205
100
AcDbSymbolTableRecord
100
AcDbLayerTableRecord
  2
12538
 70
0
 62
7
  6
CONTINUOUS
370
-3
390
F
  0
LAYER
  5
206
100
AcDbSymbolTableRecord
100
AcDbLayerTableRecord
  2
12546
 70
0
 62
7
  6
CONTINUOUS
370
-3
390
F
  0
LAYER
  5
207
100
AcDbSymbolTableRecord
100
AcDbLayerTableRecord
  2
20-174
 70
0
 62
7
  6
CONTINUOUS
370
-3
390
F
  0
LAYER
  5
208
100
AcDbSymbolTableRecord
100
AcDbLayerTableRecord
  2
20-261
 70
0
 62
7
  6
CONTINUOUS
370
-3
390
F
  0
LAYER
  5
209
100
AcDbSymbolTableRecord
100
AcDbLayerTableRecord
  2
91639
 70
0
 62
7
  6
CONTINUOUS
370
-3
390
F
  0
LAYER
  5
20A
100
AcDbSymbolTableRecord
100
AcDbLayerTableRecord
  2
91640
 70
0
 62
7
  6
CONTINUOUS
370
-3
390
F
  0
LAYER
  5
20B
100
AcDbSymbolTableRecord
100
AcDbLayerTableRecord
  2
91641
 70
0
 62
7
  6
CONTINUOUS
370
-3
390
F
  0
LAYER
  5
20C
100
AcDbSymbolTableRecord
100
AcDbLayerTableRecord
  2
91642
 70
0
 62
7
  6
CONTINUOUS
370
-3
390
F
  0
LAYER
  5
20D
100
AcDbSymbolTableRecord
100
AcDbLayerTableRecord
  2
91666
 70
0
 62
7
  6
CONTINUOUS
370
-3
390
F
  0
LAYER
  5
20E
100
AcDbSymbolTableRecord
100
AcDbLayerTableRecord
  2
91692
 70
0
 62
7
  6
CONTINUOUS
370
-3
390
F
  0
LAYER
  5
20F
100
AcDbSymbolTableRecord
100
AcDbLayerTableRecord
  2
91693
 70
0
 62
7
  6
CONTINUOUS
370
-3
390
F
  0
LAYER
  5
210
100
AcDbSymbolTableRecord
100
AcDbLayerTableRecord
  2
91694
 70
0
 62
7
  6
CONTINUOUS
370
-3
390
F
  0
LAYER
  5
211
100
AcDbSymbolTableRecord
100
AcDbLayerTableRecord
  2
92493
 70
0
 62
7
  6
CONTINUOUS
370
-3
390
F
  0
LAYER
  5
212
100
AcDbSymbolTableRecord
100
AcDbLayerTableRecord
  2
92854
 70
0
 62
7
  6
CONTINUOUS
370
-3
390
F
  0
LAYER
  5
213
100
AcDbSymbolTableRecord
100
AcDbLayerTableRecord
  2
92855
 70
0
 62
7
  6
CONTINUOUS
370
-3
390
F
  0
LAYER
  5
214
100
AcDbSymbolTableRecord
100
AcDbLayerTableRecord
  2
ALL_ASSEMBLY_MEMBERS
 70
0
 62
7
  6
CONTINUOUS
370
-3
390
F
  0
LAYER
  5
215
100
AcDbSymbolTableRecord
100
AcDbLayerTableRecord
  2
ALL_FEATURES
 70
0
 62
7
  6
CONTINUOUS
370
-3
390
F
  0
LAYER
  5
216
100
AcDbSymbolTableRecord
100
AcDbLayerTableRecord
  2
COLOR149
 70
0
 62
7
  6
CONTINUOUS
370
-3
390
F
  0
LAYER
  5
217
100
AcDbSymbolTableRecord
100
AcDbLayerTableRecord
  2
COLOR150
 70
0
 62
7
  6
CONTINUOUS
370
-3
390
F
  0
LAYER
  5
218
100
AcDbSymbolTableRecord
100
AcDbLayerTableRecord
  2
COLOR151
 70
0
 62
7
  6
CONTINUOUS
370
-3
390
F
  0
LAYER
  5
219
100
AcDbSymbolTableRecord
100
AcDbLayerTableRecord
  2
COLOR152
 70
0
 62
7
  6
CONTINUOUS
370
-3
390
F
  0
LAYER
  5
21A
100
AcDbSymbolTableRecord
100
AcDbLayerTableRecord
  2
DEFAULT_COORDINATE_SYSTEM
 70
0
 62
7
  6
CONTINUOUS
370
-3
390
F
  0
LAYER
  5
21B
100
AcDbSymbolTableRecord
100
AcDbLayerTableRecord
  2
DEFAULT_DATUM_AXES
 70
0
 62
7
  6
CONTINUOUS
370
-3
390
F
  0
LAYER
  5
21C
100
AcDbSymbolTableRecord
100
AcDbLayerTableRecord
  2
DEFAULT_DATUM_PLANES
 70
0
 62
7
  6
CONTINUOUS
370
-3
390
F
  0
LAYER
  5
21D
100
AcDbSymbolTableRecord
100
AcDbLayerTableRecord
  2
DEFAULT_SURFACES_2
 70
0
 62
7
  6
CONTINUOUS
370
-3
390
F
  0
LAYER
  5
21E
100
AcDbSymbolTableRecord
100
AcDbLayerTableRecord
  2
DEFAULT_SURFACES_3
 70
0
 62
7
  6
CONTINUOUS
370
-3
390
F
  0
LAYER
  5
21F
100
AcDbSymbolTableRecord
100
AcDbLayerTableRecord
  2
DEFAULT_SURFACES_4
 70
0
 62
7
  6
CONTINUOUS
370
-3
390
F
  0
LAYER
  5
220
100
AcDbSymbolTableRecord
100
AcDbLayerTableRecord
  2
DEFAULT_SURFACES_5
 70
0
 62
7
  6
CONTINUOUS
370
-3
390
F
  0
LAYER
  5
221
100
AcDbSymbolTableRecord
100
AcDbLayerTableRecord
  2
INTFCLR_16787
 70
0
 62
7
  6
CONTINUOUS
370
-3
390
F
  0
LAYER
  5
222
100
AcDbSymbolTableRecord
100
AcDbLayerTableRecord
  2
INTFCLR_18119
 70
0
 62
7
  6
CONTINUOUS
370
-3
390
F
  0
LAYER
  5
223
100
AcDbSymbolTableRecord
100
AcDbLayerTableRecord
  2
INTFCLR_18327
 70
0
 62
7
  6
CONTINUOUS
370
-3
390
F
  0
LAYER
  5
224
100
AcDbSymbolTableRecord
100
AcDbLayerTableRecord
  2
INTF_11
 70
0
 62
7
  6
CONTINUOUS
370
-3
390
F
  0
LAYER
  5
225
100
AcDbSymbolTableRecord
100
AcDbLayerTableRecord
  2
INTF_11901
 70
0
 62
7
  6
CONTINUOUS
370
-3
390
F
  0
LAYER
  5
226
100
AcDbSymbolTableRecord
100
AcDbLayerTableRecord
  2
INTF_11905
 70
0
 62
7
  6
CONTINUOUS
370
-3
390
F
  0
LAYER
  5
227
100
AcDbSymbolTableRecord
100
AcDbLayerTableRecord
  2
INTF_12531
 70
0
 62
7
  6
CONTINUOUS
370
-3
390
F
  0
LAYER
  5
228
100
AcDbSymbolTableRecord
100
AcDbLayerTableRecord
  2
INTF_12532
 70
0
 62
7
  6
CONTINUOUS
370
-3
390
F
  0
LAYER
  5
229
100
AcDbSymbolTableRecord
100
AcDbLayerTableRecord
  2
INTF_12534
 70
0
 62
7
  6
CONTINUOUS
370
-3
390
F
  0
LAYER
  5
22A
100
AcDbSymbolTableRecord
100
AcDbLayerTableRecord
  2
INTF_12536
 70
0
 62
7
  6
CONTINUOUS
370
-3
390
F
  0
LAYER
  5
22B
100
AcDbSymbolTableRecord
100
AcDbLayerTableRecord
  2
INTF_12537
 70
0
 62
7
  6
CONTINUOUS
370
-3
390
F
  0
LAYER
  5
22C
100
AcDbSymbolTableRecord
100
AcDbLayerTableRecord
  2
INTF_12538
 70
0
 62
7
  6
CONTINUOUS
370
-3
390
F
  0
LAYER
  5
22D
100
AcDbSymbolTableRecord
100
AcDbLayerTableRecord
  2
INTF_12546
 70
0
 62
7
  6
CONTINUOUS
370
-3
390
F
  0
LAYER
  5
22E
100
AcDbSymbolTableRecord
100
AcDbLayerTableRecord
  2
INTF_13
 70
0
 62
7
  6
CONTINUOUS
370
-3
390
F
  0
LAYER
  5
22F
100
AcDbSymbolTableRecord
100
AcDbLayerTableRecord
  2
INTF_15
 70
0
 62
7
  6
CONTINUOUS
370
-3
390
F
  0
LAYER
  5
230
100
AcDbSymbolTableRecord
100
AcDbLayerTableRecord
  2
INTF_18
 70
0
 62
7
  6
CONTINUOUS
370
-3
390
F
  0
LAYER
  5
231
100
AcDbSymbolTableRecord
100
AcDbLayerTableRecord
  2
INTF_20
 70
0
 62
7
  6
CONTINUOUS
370
-3
390
F
  0
LAYER
  5
232
100
AcDbSymbolTableRecord
100
AcDbLayerTableRecord
  2
INTF_22
 70
0
 62
7
  6
CONTINUOUS
370
-3
390
F
  0
LAYER
  5
233
100
AcDbSymbolTableRecord
100
AcDbLayerTableRecord
  2
INTF_24
 70
0
 62
7
  6
CONTINUOUS
370
-3
390
F
  0
LAYER
  5
234
100
AcDbSymbolTableRecord
100
AcDbLayerTableRecord
  2
INTF_3
 70
0
 62
7
  6
CONTINUOUS
370
-3
390
F
  0
LAYER
  5
235
100
AcDbSymbolTableRecord
100
AcDbLayerTableRecord
  2
INTF_31
 70
0
 62
7
  6
CONTINUOUS
370
-3
390
F
  0
LAYER
  5
236
100
AcDbSymbolTableRecord
100
AcDbLayerTableRecord
  2
INTF_35
 70
0
 62
7
  6
CONTINUOUS
370
-3
390
F
  0
LAYER
  5
237
100
AcDbSymbolTableRecord
100
AcDbLayerTableRecord
  2
INTF_37
 70
0
 62
7
  6
CONTINUOUS
370
-3
390
F
  0
LAYER
  5
238
100
AcDbSymbolTableRecord
100
AcDbLayerTableRecord
  2
INTF_5
 70
0
 62
7
  6
CONTINUOUS
370
-3
390
F
  0
LAYER
  5
239
100
AcDbSymbolTableRecord
100
AcDbLayerTableRecord
  2
INTF_7
 70
0
 62
7
  6
CONTINUOUS
370
-3
390
F
  0
LAYER
  5
23A
100
AcDbSymbolTableRecord
100
AcDbLayerTableRecord
  2
INTF_9
 70
0
 62
7
  6
CONTINUOUS
370
-3
390
F
  0
LAYER
  5
23B
100
AcDbSymbolTableRecord
100
AcDbLayerTableRecord
  2
INTF_91639
 70
0
 62
7
  6
CONTINUOUS
370
-3
390
F
  0
LAYER
  5
23C
100
AcDbSymbolTableRecord
100
AcDbLayerTableRecord
  2
INTF_91640
 70
0
 62
7
  6
CONTINUOUS
370
-3
390
F
  0
LAYER
  5
23D
100
AcDbSymbolTableRecord
100
AcDbLayerTableRecord
  2
INTF_91641
 70
0
 62
7
  6
CONTINUOUS
370
-3
390
F
  0
LAYER
  5
23E
100
AcDbSymbolTableRecord
100
AcDbLayerTableRecord
  2
INTF_91642
 70
0
 62
7
  6
CONTINUOUS
370
-3
390
F
  0
LAYER
  5
23F
100
AcDbSymbolTableRecord
100
AcDbLayerTableRecord
  2
INTF_91666
 70
0
 62
7
  6
CONTINUOUS
370
-3
390
F
  0
LAYER
  5
240
100
AcDbSymbolTableRecord
100
AcDbLayerTableRecord
  2
INTF_91692
 70
0
 62
7
  6
CONTINUOUS
370
-3
390
F
  0
LAYER
  5
241
100
AcDbSymbolTableRecord
100
AcDbLayerTableRecord
  2
INTF_91693
 70
0
 62
7
  6
CONTINUOUS
370
-3
390
F
  0
LAYER
  5
242
100
AcDbSymbolTableRecord
100
AcDbLayerTableRecord
  2
INTF_91694
 70
0
 62
7
  6
CONTINUOUS
370
-3
390
F
  0
LAYER
  5
243
100
AcDbSymbolTableRecord
100
AcDbLayerTableRecord
  2
INTF_92493
 70
0
 62
7
  6
CONTINUOUS
370
-3
390
F
  0
LAYER
  5
244
100
AcDbSymbolTableRecord
100
AcDbLayerTableRecord
  2
INTF_92854
 70
0
 62
7
  6
CONTINUOUS
370
-3
390
F
  0
LAYER
  5
245
100
AcDbSymbolTableRecord
100
AcDbLayerTableRecord
  2
INTF_92855
 70
0
 62
7
  6
CONTINUOUS
370
-3
390
F
  0
LAYER
  5
246
100
AcDbSymbolTableRecord
100
AcDbLayerTableRecord
  2
INTF_BLANK
 70
0
 62
7
  6
CONTINUOUS
370
-3
390
F
  0
LAYER
  5
247
100
AcDbSymbolTableRecord
100
AcDbLayerTableRecord
  2
PLATED_SURFACE_AREA
 70
0
 62
7
  6
CONTINUOUS
370
-3
390
F
  0
LAYER
  5
248
100
AcDbSymbolTableRecord
100
AcDbLayerTableRecord
  2
PLATED_SURFACE_AREA_1
 70
0
 62
7
  6
CONTINUOUS
370
-3
390
F
  0
LAYER
  5
249
100
AcDbSymbolTableRecord
100
AcDbLayerTableRecord
  2
QUILT
 70
0
 62
7
  6
CONTINUOUS
370
-3
390
F
  0
LAYER
  5
24A
100
AcDbSymbolTableRecord
100
AcDbLayerTableRecord
  2
_BLACK_HOLE
 70
0
 62
7
  6
CONTINUOUS
370
-3
390
F
  0
ENDTAB
  0
TABLE
  2
STYLE
  5
3
100
AcDbSymbolTable
 70
1
  0
STYLE
  5
11
100
AcDbSymbolTableRecord
100
AcDbTextStyleTableRecord
  2
STANDARD
 70
0
 40
0.0
 41
0.8
 50
0.0
 71
0
 42
0.2
  3
txt
  4

  0
STYLE
  5
24B
100
AcDbSymbolTableRecord
100
AcDbTextStyleTableRecord
  2
TEXTSTYLE_1
 70
0
 40
0.0
 41
0.8
 50
0.0
 71
0
 42
0.2
  3
gdt
  4

  0
ENDTAB
  0
TABLE
  2
VIEW
  5
6
100
AcDbSymbolTable
 70
0
  0
ENDTAB
  0
TABLE
  2
UCS
  5
7
100
AcDbSymbolTable
 70
0
  0
ENDTAB
  0
TABLE
  2
APPID
  5
9
100
AcDbSymbolTable
 70
1
  0
APPID
  5
24C
100
AcDbSymbolTableRecord
100
AcDbRegAppTableRecord
  2
ACAD
 70
0
  0
ENDTAB
  0
TABLE
  2
BLOCK_RECORD
  5
1
100
AcDbSymbolTable
 70
0
  0
BLOCK_RECORD
  5
24D
100
AcDbSymbolTableRecord
100
AcDbBlockTableRecord
  2
*Model_Space
  0
BLOCK_RECORD
  5
24E
100
AcDbSymbolTableRecord
100
AcDbBlockTableRecord
  2
*Paper_Space
  0
BLOCK_RECORD
  5
24F
100
AcDbSymbolTableRecord
100
AcDbBlockTableRecord
  2
_FILLED
  0
ENDTAB
  0
TABLE
  2
DIMSTYLE
  5
A
100
AcDbSymbolTable
 70
1
100
AcDbDimStyleTable
 71
0
  0
DIMSTYLE
105
250
100
AcDbSymbolTableRecord
100
AcDbDimStyleTableRecord
  2
STANDARD
 70
0
  3

  4

 40
1.0
 41
0.1
 42
0.0625
 43
0.38
 44
0.125
 45
0.0
 46
0.0
 47
0.001
 48
0.001
140
0.08
141
0.09
142
0.0
143
25.4
144
1.0
145
0.0
146
1.0
147
0.09
 71
1.0
 72
0.0
 73
1
 74
1
 75
0
 76
0
 77
0
 78
4
 79
1
170
1
171
2
172
0
173
0
174
0
175
0
176
0
177
0
178
0
270
2
179
3
271
3
272
3
273
2
274
2
275
0
280
0
281
0
282
0
283
1
284
4
285
0
286
0
287
3
288
0
340
11
278
46
341
24F
342
24F
343
24F
344
24F
  0
ENDTAB
  0
ENDSEC
  0
SECTION
  2
BLOCKS
  0
BLOCK
  5
20
100
AcDbEntity
  8
0
100
AcDbBlockBegin
  2
*Model_Space
 70
0
 10
0.0
 20
0.0
 30
0.0
  3
*Model_Space
  1

  0
ENDBLK
  5
21
100
AcDbEntity
  8
0
100
AcDbBlockEnd
  0
BLOCK
  5
1C
100
AcDbEntity
  8
0
100
AcDbBlockBegin
  2
*Paper_Space
 70
0
 10
0.0
 20
0.0
 30
0.0
  3
*Paper_Space
  1

  0
ENDBLK
  5
1D
100
AcDbEntity
  8
0
100
AcDbBlockEnd
  0
BLOCK
  5
251
100
AcDbEntity
  8
0
100
AcDbBlockBegin
  2
_FILLED
 70
64
 10
0.0
 20
0.0
  3
_FILLED
  1

  0
SOLID
  5
252
100
AcDbEntity
  8
0
  6
BYBLOCK
 62
0
100
AcDbTrace
 10
0.0
 20
0.0
 11
-1.0
 21
0.2
 12
-1.0
 22
-0.2
 13
-1.0
 23
-0.2
  0
ENDBLK
  5
253
100
AcDbEntity
  8
0
  6
BYBLOCK
 62
0
100
AcDbBlockEnd
  0
ENDSEC
  0
SECTION
  2
ENTITIES
  0
MTEXT
  5
254
100
AcDbEntity
  8
0
100
AcDbMText
 62
7
  6
CONTINUOUS
  7
STANDARD
 71
1
 72
1
 10
9.7381732822
 20
0.3193472195
 30
0.0
 11
1.0
 21
0.0
 31
0.0
 73
2
 44
0.9
  1
SCALE: .813
 40
0.08
 41
0.704
  0
LINE
  5
255
100
AcDbEntity
  8
0
100
AcDbLine
 62
7
  6
CONTINUOUS
 10
0.0
 20
0.0
 11
0.0
 21
8.5
  0
LINE
  5
256
100
AcDbEntity
  8
0
100
AcDbLine
 62
7
  6
CONTINUOUS
 10
0.0
 20
0.0
 11
11.0
 21
0.0
  0
LINE
  5
257
100
AcDbEntity
  8
0
100
AcDbLine
 62
7
  6
CONTINUOUS
 10
0.0
 20
8.5
 11
11.0
 21
8.5
  0
LINE
  5
258
100
AcDbEntity
  8
0
100
AcDbLine
 62
7
  6
CONTINUOUS
 10
11.0
 20
0.0
 11
11.0
 21
8.5
  0
LINE
  5
259
100
AcDbEntity
  8
0
100
AcDbLine
 62
7
  6
CONTINUOUS
 10
4.7939713899
 20
0.1677307522
 11
5.790966405
 21
0.1677307522
  0
LINE
  5
25A
100
AcDbEntity
  8
0
100
AcDbLine
 62
9
  6
CONTINUOUS
 10
4.7843439441
 20
0.1773331145
 11
5.8005939441
 21
0.1773331145
  0
LINE
  5
25B
100
AcDbEntity
  8
0
100
AcDbLine
 62
7
  6
CONTINUOUS
 10
5.8526067394
 20
7.4921307633
 11
5.8846146134
 21
7.5222181649
  0
LINE
  5
25C
100
AcDbEntity
  8
0
100
AcDbLine
 62
7
  6
CONTINUOUS
 10
4.7305564993
 20
6.2235327282
 11
4.7253474814
 21
6.2205246348
  0
LINE
  5
25D
100
AcDbEntity
  8
0
100
AcDbLine
 62
7
  6
CONTINUOUS
 10
4.7305315806
 20
6.2235183382
 11
4.7304241202
 21
6.2233939503
  0
LINE
  5
25E
100
AcDbEntity
  8
0
100
AcDbLine
 62
7
  6
CONTINUOUS
 10
4.7304354691
 20
6.1834071422
 11
4.7305427544
 21
6.1835311109
  0
LINE
  5
25F
100
AcDbEntity
  8
0
100
AcDbLine
 62
7
  6
CONTINUOUS
 10
4.7088053614
 20
6.1709165705
 11
4.7089118713
 21
6.1710388262
  0
LINE
  5
260
100
AcDbEntity
  8
0
100
AcDbLine
 62
7
  6
CONTINUOUS
 10
4.7088053614
 20
6.1309019799
 11
4.7089138336
 21
6.1310256815
  0
LINE
  5
261
100
AcDbEntity
  8
0
100
AcDbLine
 62
7
  6
CONTINUOUS
 10
4.7249415335
 20
6.220231885
 11
4.7099431629
 21
6.2052335143
  0
LINE
  5
262
100
AcDbEntity
  8
0
100
AcDbLine
 62
7
  6
CONTINUOUS
 10
4.7304399496
 20
6.225730301
 11
4.7355319362
 21
6.2308222877
  0
LINE
  5
263
100
AcDbEntity
  8
0
100
AcDbLine
 62
7
  6
CONTINUOUS
 10
4.7249415335
 20
6.2202318849
 11
4.7253573583
 21
6.2205345243
  0
LINE
  5
264
100
AcDbEntity
  8
0
100
AcDbLine
 62
9
  6
CONTINUOUS
 10
4.7619216914
 20
6.1855325309
 11
4.7415075658
 21
6.1730463606
  0
LINE
  5
265
100
AcDbEntity
  8
0
100
AcDbLine
 62
7
  6
CONTINUOUS
 10
4.7305427544
 20
6.1835310547
 11
4.708911871
 21
6.1710400665
  0
LINE
  5
266
100
AcDbEntity
  8
0
100
AcDbLine
 62
7
  6
CONTINUOUS
 10
4.7305690574
 20
6.1435326086
 11
4.7089138333
 21
6.1310269804
  0
LINE
  5
267
100
AcDbEntity
  8
0
100
AcDbLine
 62
7
  6
CONTINUOUS
 10
4.7305686751
 20
6.1035291989
 11
4.7089070787
 21
6.0910198995
  0
LINE
  5
268
100
AcDbEntity
  8
0
100
AcDbLine
 62
7
  6
CONTINUOUS
 10
4.7305426887
 20
6.0635282174
 11
4.7089047841
 21
6.0510331767
  0
LINE
  5
269
100
AcDbEntity
  8
0
100
AcDbLine
 62
7
  6
CONTINUOUS
 10
4.7305688254
 20
6.0235300282
 11
4.7089071293
 21
6.0110206679
  0
LINE
  5
26A
100
AcDbEntity
  8
0
100
AcDbLine
 62
7
  6
CONTINUOUS
 10
4.7305727281
 20
5.9035341856
 11
4.7089123468
 21
5.8910254976
  0
LINE
  5
26B
100
AcDbEntity
  8
0
100
AcDbLine
 62
7
  6
CONTINUOUS
 10
4.7305495531
 20
5.8635354345
 11
4.7089139423
 21
5.8510415656
  0
LINE
  5
26C
100
AcDbEntity
  8
0
100
AcDbLine
 62
7
  6
CONTINUOUS
 10
4.7088053614
 20
5.7709093351
 11
4.70890557
 21
5.7710280744
  0
LINE
  5
26D
100
AcDbEntity
  8
0
100
AcDbLine
 62
7
  6
CONTINUOUS
 10
4.7088053614
 20
6.0109034644
 11
4.7089071287
 21
6.0110238774
  0
LINE
  5
26E
100
AcDbEntity
  8
0
100
AcDbLine
 62
7
  6
CONTINUOUS
 10
4.7088053614
 20
6.0909027523
 11
4.708907078
 21
6.091022973
  0
LINE
  5
26F
100
AcDbEntity
  8
0
100
AcDbLine
 62
7
  6
CONTINUOUS
 10
4.7088053614
 20
6.0509180989
 11
4.7089047839
 21
6.0510344221
  0
LINE
  5
270
100
AcDbEntity
  8
0
100
AcDbLine
 62
7
  6
CONTINUOUS
 10
4.7088053614
 20
5.7309234148
 11
4.7089063694
 21
5.7310401611
  0
LINE
  5
271
100
AcDbEntity
  8
0
100
AcDbLine
 62
7
  6
CONTINUOUS
 10
4.7304604745
 20
6.1434072323
 11
4.7305690574
 21
6.1435326647
  0
LINE
  5
272
100
AcDbEntity
  8
0
100
AcDbLine
 62
7
  6
CONTINUOUS
 10
4.7304418271
 20
5.8634110214
 11
4.7305495531
 21
5.8635354906
  0
LINE
  5
273
100
AcDbEntity
  8
0
100
AcDbLine
 62
7
  6
CONTINUOUS
 10
4.7304599596
 20
6.1034037127
 11
4.7305686751
 21
6.1035292551
  0
LINE
  5
274
100
AcDbEntity
  8
0
100
AcDbLine
 62
7
  6
CONTINUOUS
 10
4.7305556978
 20
6.0235224471
 11
4.7304469744
 21
6.0233969003
  0
LINE
  5
275
100
AcDbEntity
  8
0
100
AcDbLine
 62
7
  6
CONTINUOUS
 10
4.7305596005
 20
5.9035266044
 11
4.7304508628
 21
5.9034010085
  0
LINE
  5
276
100
AcDbEntity
  8
0
100
AcDbLine
 62
7
  6
CONTINUOUS
 10
4.7304639271
 20
5.8234094769
 11
4.7305726574
 21
5.8235350694
  0
LINE
  5
277
100
AcDbEntity
  8
0
100
AcDbLine
 62
7
  6
CONTINUOUS
 10
4.7304350139
 20
6.06340398
 11
4.7305426886
 21
6.0635282735
  0
LINE
  5
278
100
AcDbEntity
  8
0
100
AcDbLine
 62
7
  6
CONTINUOUS
 10
4.7304543105
 20
5.783406229
 11
4.7305628688
 21
5.7835315776
  0
LINE
  5
279
100
AcDbEntity
  8
0
100
AcDbLine
 62
7
  6
CONTINUOUS
 10
4.7088053614
 20
5.8909022958
 11
4.7089123467
 21
5.891025783
  0
LINE
  5
27A
100
AcDbEntity
  8
0
100
AcDbLine
 62
7
  6
CONTINUOUS
 10
4.7304314818
 20
5.7434086008
 11
4.7305387134
 21
5.7435323719
  0
LINE
  5
27B
100
AcDbEntity
  8
0
100
AcDbLine
 62
7
  6
CONTINUOUS
 10
4.7088053614
 20
5.8109031372
 11
4.7089123965
 21
5.8110266371
  0
LINE
  5
27C
100
AcDbEntity
  8
0
100
AcDbLine
 62
7
  6
CONTINUOUS
 10
4.7088053614
 20
5.8509159302
 11
4.7089139431
 21
5.8510374104
  0
LINE
  5
27D
100
AcDbEntity
  8
0
100
AcDbLine
 62
7
  6
CONTINUOUS
 10
5.8544105637
 20
6.213389029
 11
5.855710766
 21
6.2141400584
  0
LINE
  5
27E
100
AcDbEntity
  8
0
100
AcDbLine
 62
7
  6
CONTINUOUS
 10
4.7305726574
 20
5.8235350133
 11
4.7089123966
 21
5.8110263965
  0
LINE
  5
27F
100
AcDbEntity
  8
0
100
AcDbLine
 62
7
  6
CONTINUOUS
 10
4.7305628688
 20
5.7835315214
 11
4.7089055707
 21
5.7710248334
  0
LINE
  5
280
100
AcDbEntity
  8
0
100
AcDbLine
 62
7
  6
CONTINUOUS
 10
4.7305387134
 20
5.7435323158
 11
4.7089063693
 21
5.7310405741
  0
LINE
  5
281
100
AcDbEntity
  8
0
100
AcDbLine
 62
7
  6
CONTINUOUS
 10
4.7305630667
 20
5.7035323443
 11
4.7089056096
 21
5.6910255601
  0
LINE
  5
282
100
AcDbEntity
  8
0
100
AcDbLine
 62
7
  6
CONTINUOUS
 10
4.730538781
 20
5.6635330786
 11
4.7089063038
 21
5.6510412585
  0
LINE
  5
283
100
AcDbEntity
  8
0
100
AcDbLine
 62
7
  6
CONTINUOUS
 10
4.7305572229
 20
5.6235383236
 11
4.7089147951
 21
5.6110403479
  0
LINE
  5
284
100
AcDbEntity
  8
0
100
AcDbLine
 62
7
  6
CONTINUOUS
 10
4.7305734776
 20
5.5835363714
 11
4.7089105408
 21
5.571026191
  0
LINE
  5
285
100
AcDbEntity
  8
0
100
AcDbLine
 62
7
  6
CONTINUOUS
 10
4.7305570005
 20
5.5435391182
 11
4.708914786
 21
5.5310412705
  0
LINE
  5
286
100
AcDbEntity
  8
0
100
AcDbLine
 62
7
  6
CONTINUOUS
 10
5.8544869183
 20
5.8833991411
 11
5.8529137549
 21
5.8829215713
  0
LINE
  5
287
100
AcDbEntity
  8
0
100
AcDbLine
 62
7
  6
CONTINUOUS
 10
4.6443094953
 20
5.5153353605
 11
4.4306569362
 21
5.2272644944
  0
LINE
  5
288
100
AcDbEntity
  8
0
100
AcDbLine
 62
7
  6
CONTINUOUS
 10
4.7088053614
 20
5.6909100202
 11
4.708905609
 21
5.6910287971
  0
LINE
  5
289
100
AcDbEntity
  8
0
100
AcDbLine
 62
7
  6
CONTINUOUS
 10
4.7088053614
 20
5.6509241833
 11
4.7089063039
 21
5.6510408963
  0
LINE
  5
28A
100
AcDbEntity
  8
0
100
AcDbLine
 62
7
  6
CONTINUOUS
 10
4.730449122
 20
5.6234134865
 11
4.7305572229
 21
5.6235383797
  0
LINE
  5
28B
100
AcDbEntity
  8
0
100
AcDbLine
 62
7
  6
CONTINUOUS
 10
4.7304489095
 20
5.5434142922
 11
4.7305570005
 21
5.5435391743
  0
LINE
  5
28C
100
AcDbEntity
  8
0
100
AcDbLine
 62
7
  6
CONTINUOUS
 10
4.7304646793
 20
5.5834107678
 11
4.7305734776
 21
5.5835364276
  0
LINE
  5
28D
100
AcDbEntity
  8
0
100
AcDbLine
 62
7
  6
CONTINUOUS
 10
4.7304545026
 20
5.7034070448
 11
4.7305630667
 21
5.7035324005
  0
LINE
  5
28E
100
AcDbEntity
  8
0
100
AcDbLine
 62
7
  6
CONTINUOUS
 10
4.7304315352
 20
5.6634094617
 11
4.730538781
 21
5.6635331347
  0
LINE
  5
28F
100
AcDbEntity
  8
0
100
AcDbLine
 62
7
  6
CONTINUOUS
 10
4.7088053614
 20
5.5709157321
 11
4.7089105386
 21
5.5710369895
  0
LINE
  5
290
100
AcDbEntity
  8
0
100
AcDbLine
 62
7
  6
CONTINUOUS
 10
4.7088053614
 20
5.6109139507
 11
4.7089147959
 21
5.6110367785
  0
LINE
  5
291
100
AcDbEntity
  8
0
100
AcDbLine
 62
7
  6
CONTINUOUS
 10
4.7088053614
 20
5.530914878
 11
4.7089147868
 21
5.5310376853
  0
LINE
  5
292
100
AcDbEntity
  8
0
100
AcDbLine
 62
7
  6
CONTINUOUS
 10
5.849405952
 20
6.7727155948
 11
5.8578880386
 21
6.7811976814
  0
LINE
  5
293
100
AcDbEntity
  8
0
100
AcDbLine
 62
9
  6
CONTINUOUS
 10
5.8529137424
 20
5.8929365211
 11
5.8744827474
 21
5.9054250793
  0
LINE
  5
294
100
AcDbEntity
  8
0
100
AcDbLine
 62
7
  6
CONTINUOUS
 10
5.8543818312
 20
6.0132787361
 11
5.8760231506
 21
6.0257760459
  0
LINE
  5
295
100
AcDbEntity
  8
0
100
AcDbLine
 62
7
  6
CONTINUOUS
 10
5.8543650695
 20
5.893281043
 11
5.8747095509
 21
5.9050298165
  0
LINE
  5
296
100
AcDbEntity
  8
0
100
AcDbLine
 62
7
  6
CONTINUOUS
 10
5.8543979296
 20
6.0533192798
 11
5.8760321049
 21
6.0657848414
  0
LINE
  5
297
100
AcDbEntity
  8
0
100
AcDbLine
 62
7
  6
CONTINUOUS
 10
5.8543805427
 20
6.0933199382
 11
5.8760225645
 21
6.1057768602
  0
LINE
  5
298
100
AcDbEntity
  8
0
100
AcDbLine
 62
7
  6
CONTINUOUS
 10
5.8543674542
 20
6.1333395374
 11
5.8760312928
 21
6.145799465
  0
LINE
  5
299
100
AcDbEntity
  8
0
100
AcDbLine
 62
7
  6
CONTINUOUS
 10
5.8543762379
 20
6.1733425877
 11
5.8760291238
 21
6.1857863127
  0
LINE
  5
29A
100
AcDbEntity
  8
0
100
AcDbLine
 62
7
  6
CONTINUOUS
 10
4.4306569362
 20
5.2272644944
 11
4.2762189441
 21
5.1494853605
  0
LINE
  5
29B
100
AcDbEntity
  8
0
100
AcDbLine
 62
7
  6
CONTINUOUS
 10
4.2746185504
 20
4.9770653877
 11
4.2746185504
 21
4.9386559389
  0
LINE
  5
29C
100
AcDbEntity
  8
0
100
AcDbLine
 62
7
  6
CONTINUOUS
 10
4.2762189441
 20
5.1494853605
 11
4.2762189441
 21
5.1088353605
  0
LINE
  5
29D
100
AcDbEntity
  8
0
100
AcDbLine
 62
7
  6
CONTINUOUS
 10
4.3981689441
 20
7.4315976814
 11
4.3981689441
 21
7.3096476814
  0
LINE
  5
29E
100
AcDbEntity
  8
0
100
AcDbLine
 62
7
  6
CONTINUOUS
 10
4.4282563457
 20
5.9858511085
 11
4.4282563457
 21
5.9218353605
  0
LINE
  5
29F
100
AcDbEntity
  8
0
100
AcDbLine
 62
7
  6
CONTINUOUS
 10
5.854475099
 20
6.1734637797
 11
5.8543651085
 21
6.1733361991
  0
LINE
  5
2A0
100
AcDbEntity
  8
0
100
AcDbLine
 62
7
  6
CONTINUOUS
 10
5.8543661389
 20
6.2133633682
 11
5.8544581115
 21
6.2134651718
  0
LINE
  5
2A1
100
AcDbEntity
  8
0
100
AcDbLine
 62
7
  6
CONTINUOUS
 10
5.8760511135
 20
5.9057994998
 11
5.8760251675
 21
5.9057822737
  0
LINE
  5
2A2
100
AcDbEntity
  8
0
100
AcDbLine
 62
7
  6
CONTINUOUS
 10
5.8760511149
 20
5.9057978234
 11
5.8760251685
 21
5.9057811425
  0
LINE
  5
2A3
100
AcDbEntity
  8
0
100
AcDbLine
 62
7
  6
CONTINUOUS
 10
5.8543739996
 20
5.8532853821
 11
5.8760321091
 21
5.8657925614
  0
LINE
  5
2A4
100
AcDbEntity
  8
0
100
AcDbLine
 62
7
  6
CONTINUOUS
 10
5.8543656376
 20
5.8132818708
 11
5.8760252369
 21
5.8257900965
  0
LINE
  5
2A5
100
AcDbEntity
  8
0
100
AcDbLine
 62
7
  6
CONTINUOUS
 10
5.8543894709
 20
5.7732817248
 11
5.8760241805
 21
5.7857750481
  0
LINE
  5
2A6
100
AcDbEntity
  8
0
100
AcDbLine
 62
7
  6
CONTINUOUS
 10
5.8543655747
 20
5.7332826987
 11
5.8760252872
 21
5.7457909912
  0
LINE
  5
2A7
100
AcDbEntity
  8
0
100
AcDbLine
 62
7
  6
CONTINUOUS
 10
5.8543892551
 20
5.6932824979
 11
5.8760241333
 21
5.7057759234
  0
LINE
  5
2A8
100
AcDbEntity
  8
0
100
AcDbLine
 62
7
  6
CONTINUOUS
 10
5.8543941325
 20
5.6532881045
 11
5.8760332759
 21
5.6657838843
  0
LINE
  5
2A9
100
AcDbEntity
  8
0
100
AcDbLine
 62
7
  6
CONTINUOUS
 10
4.6203035898
 20
4.9230173313
 11
4.5642898102
 21
4.8906777606
  0
LINE
  5
2AA
100
AcDbEntity
  8
0
100
AcDbLine
 62
7
  6
CONTINUOUS
 10
5.854368333
 20
5.6132868408
 11
5.876030487
 21
5.6257964817
  0
LINE
  5
2AB
100
AcDbEntity
  8
0
100
AcDbLine
 62
7
  6
CONTINUOUS
 10
5.8543943093
 20
5.5732888905
 11
5.8760332508
 21
5.5857845497
  0
LINE
  5
2AC
100
AcDbEntity
  8
0
100
AcDbLine
 62
9
  6
CONTINUOUS
 10
5.8005939441
 20
3.2164807522
 11
4.7843439441
 21
3.2164807522
  0
LINE
  5
2AD
100
AcDbEntity
  8
0
100
AcDbLine
 62
7
  6
CONTINUOUS
 10
4.7098178883
 20
3.2529697286
 11
5.8751199999
 21
3.2529697286
  0
LINE
  5
2AE
100
AcDbEntity
  8
0
100
AcDbLine
 62
7
  6
CONTINUOUS
 10
4.5642898102
 20
4.8906777606
 11
4.5642898102
 21
4.6512820989
  0
LINE
  5
2AF
100
AcDbEntity
  8
0
100
AcDbLine
 62
7
  6
CONTINUOUS
 10
4.5778991359
 20
4.8906777607
 11
4.5778991359
 21
4.6512820988
  0
LINE
  5
2B0
100
AcDbEntity
  8
0
100
AcDbLine
 62
7
  6
CONTINUOUS
 10
4.7003232748
 20
7.5382221019
 11
4.7003232748
 21
7.5222181649
  0
LINE
  5
2B1
100
AcDbEntity
  8
0
100
AcDbLine
 62
7
  6
CONTINUOUS
 10
4.7088053614
 20
6.1709165705
 11
4.7088053614
 21
6.1659083835
  0
LINE
  5
2B2
100
AcDbEntity
  8
0
100
AcDbLine
 62
7
  6
CONTINUOUS
 10
4.7088053614
 20
5.5259174821
 11
4.7088053614
 21
5.530914878
  0
LINE
  5
2B3
100
AcDbEntity
  8
0
100
AcDbLine
 62
7
  6
CONTINUOUS
 10
4.7088053614
 20
5.5659074579
 11
4.7088053614
 21
5.5709157321
  0
LINE
  5
2B4
100
AcDbEntity
  8
0
100
AcDbLine
 62
7
  6
CONTINUOUS
 10
4.7088053614
 20
5.6059059526
 11
4.7088053614
 21
5.6109139507
  0
LINE
  5
2B5
100
AcDbEntity
  8
0
100
AcDbLine
 62
7
  6
CONTINUOUS
 10
4.7088053614
 20
5.6459067852
 11
4.7088053614
 21
5.6509241833
  0
LINE
  5
2B6
100
AcDbEntity
  8
0
100
AcDbLine
 62
7
  6
CONTINUOUS
 10
4.7088053614
 20
5.6858958601
 11
4.7088053614
 21
5.6909100202
  0
LINE
  5
2B7
100
AcDbEntity
  8
0
100
AcDbLine
 62
7
  6
CONTINUOUS
 10
4.7088053614
 20
5.7259092924
 11
4.7088053614
 21
5.7309234148
  0
LINE
  5
2B8
100
AcDbEntity
  8
0
100
AcDbLine
 62
7
  6
CONTINUOUS
 10
4.7088053614
 20
5.7658950265
 11
4.7088053614
 21
5.7709093351
  0
LINE
  5
2B9
100
AcDbEntity
  8
0
100
AcDbLine
 62
7
  6
CONTINUOUS
 10
4.7088053614
 20
5.8059083776
 11
4.7088053614
 21
5.8109031372
  0
LINE
  5
2BA
100
AcDbEntity
  8
0
100
AcDbLine
 62
7
  6
CONTINUOUS
 10
4.7088053614
 20
5.8459136576
 11
4.7088053614
 21
5.8509159302
  0
LINE
  5
2BB
100
AcDbEntity
  8
0
100
AcDbLine
 62
7
  6
CONTINUOUS
 10
4.7088053614
 20
5.8859000145
 11
4.7088053614
 21
5.8909022958
  0
LINE
  5
2BC
100
AcDbEntity
  8
0
100
AcDbLine
 62
7
  6
CONTINUOUS
 10
4.7088053614
 20
6.0058948739
 11
4.7088053614
 21
6.0109034644
  0
LINE
  5
2BD
100
AcDbEntity
  8
0
100
AcDbLine
 62
7
  6
CONTINUOUS
 10
4.7088053614
 20
6.0459094289
 11
4.7088053614
 21
6.0509180989
  0
LINE
  5
2BE
100
AcDbEntity
  8
0
100
AcDbLine
 62
7
  6
CONTINUOUS
 10
4.7088053614
 20
6.0858939806
 11
4.7088053614
 21
6.0909027523
  0
LINE
  5
2BF
100
AcDbEntity
  8
0
100
AcDbLine
 62
7
  6
CONTINUOUS
 10
4.7088053614
 20
6.1259085465
 11
4.7088053614
 21
6.1309019799
  0
LINE
  5
2C0
100
AcDbEntity
  8
0
100
AcDbLine
 62
7
  6
CONTINUOUS
 10
4.7098178878
 20
3.2529697286
 11
4.7098178878
 21
3.4968697286
  0
LINE
  5
2C1
100
AcDbEntity
  8
0
100
AcDbLine
 62
7
  6
CONTINUOUS
 10
4.7304315359
 20
5.6734095343
 11
4.7304315352
 21
5.6634094055
  0
LINE
  5
2C2
100
AcDbEntity
  8
0
100
AcDbLine
 62
7
  6
CONTINUOUS
 10
4.7304314818
 20
5.7534084447
 11
4.7304314818
 21
5.7434085447
  0
LINE
  5
2C3
100
AcDbEntity
  8
0
100
AcDbLine
 62
7
  6
CONTINUOUS
 10
4.7304350139
 20
6.0734429208
 11
4.7304350139
 21
6.0634039238
  0
LINE
  5
2C4
100
AcDbEntity
  8
0
100
AcDbLine
 62
7
  6
CONTINUOUS
 10
4.7304351676
 20
5.9934045924
 11
4.7304351676
 21
5.9858511085
  0
LINE
  5
2C5
100
AcDbEntity
  8
0
100
AcDbLine
 62
7
  6
CONTINUOUS
 10
4.7304354691
 20
6.193416155
 11
4.7304354691
 21
6.1834070861
  0
LINE
  5
2C6
100
AcDbEntity
  8
0
100
AcDbLine
 62
7
  6
CONTINUOUS
 10
4.7304418271
 20
5.8734108652
 11
4.7304418271
 21
5.8634109652
  0
LINE
  5
2C7
100
AcDbEntity
  8
0
100
AcDbLine
 62
7
  6
CONTINUOUS
 10
4.7304486419
 20
6.2257388976
 11
4.7304486419
 21
6.2234081067
  0
LINE
  5
2C8
100
AcDbEntity
  8
0
100
AcDbLine
 62
7
  6
CONTINUOUS
 10
4.7304489095
 20
5.5534141361
 11
4.7304489095
 21
5.5434142361
  0
LINE
  5
2C9
100
AcDbEntity
  8
0
100
AcDbLine
 62
7
  6
CONTINUOUS
 10
4.730449122
 20
5.6334133303
 11
4.730449122
 21
5.6234134304
  0
LINE
  5
2CA
100
AcDbEntity
  8
0
100
AcDbLine
 62
7
  6
CONTINUOUS
 10
4.7304543107
 20
5.7934062432
 11
4.7304543105
 21
5.7834061729
  0
LINE
  5
2CB
100
AcDbEntity
  8
0
100
AcDbLine
 62
7
  6
CONTINUOUS
 10
4.7304545026
 20
5.7134068886
 11
4.7304545026
 21
5.7034069886
  0
LINE
  5
2CC
100
AcDbEntity
  8
0
100
AcDbLine
 62
7
  6
CONTINUOUS
 10
4.7304599596
 20
6.1134219881
 11
4.7304599596
 21
6.1034036565
  0
LINE
  5
2CD
100
AcDbEntity
  8
0
100
AcDbLine
 62
7
  6
CONTINUOUS
 10
4.7304601063
 20
6.0334043813
 11
4.7304601063
 21
6.0234044814
  0
LINE
  5
2CE
100
AcDbEntity
  8
0
100
AcDbLine
 62
7
  6
CONTINUOUS
 10
4.7304604746
 20
6.1534195244
 11
4.7304604745
 21
6.1434071761
  0
LINE
  5
2CF
100
AcDbEntity
  8
0
100
AcDbLine
 62
7
  6
CONTINUOUS
 10
4.7304639271
 20
5.8334093208
 11
4.7304639271
 21
5.8234094208
  0
LINE
  5
2D0
100
AcDbEntity
  8
0
100
AcDbLine
 62
7
  6
CONTINUOUS
 10
4.7304639947
 20
5.9134084396
 11
4.7304639946
 21
5.9034085897
  0
LINE
  5
2D1
100
AcDbEntity
  8
0
100
AcDbLine
 62
7
  6
CONTINUOUS
 10
4.7304646793
 20
5.59341061
 11
4.7304646793
 21
5.5834107116
  0
LINE
  5
2D2
100
AcDbEntity
  8
0
100
AcDbLine
 62
7
  6
CONTINUOUS
 10
4.7355319362
 20
6.2308222877
 11
4.7355319362
 21
6.7727155948
  0
LINE
  5
2D3
100
AcDbEntity
  8
0
100
AcDbLine
 62
7
  6
CONTINUOUS
 10
4.7403331173
 20
5.1088353605
 11
4.7403331173
 21
4.9770653877
  0
LINE
  5
2D4
100
AcDbEntity
  8
0
100
AcDbLine
 62
7
  6
CONTINUOUS
 10
4.7403331173
 20
4.9386559389
 11
4.7403331173
 21
4.9230173313
  0
LINE
  5
2D5
100
AcDbEntity
  8
0
100
AcDbLine
 62
7
  6
CONTINUOUS
 10
4.7403331173
 20
4.6189425282
 11
4.7403331173
 21
4.343317957
  0
LINE
  5
2D6
100
AcDbEntity
  8
0
100
AcDbLine
 62
7
  6
CONTINUOUS
 10
4.750575637
 20
7.6220827318
 11
4.750575637
 21
7.5382221019
  0
LINE
  5
2D7
100
AcDbEntity
  8
0
100
AcDbLine
 62
9
  6
CONTINUOUS
 10
4.7619309324
 20
6.1855457629
 11
4.7619309324
 21
6.1955455506
  0
LINE
  5
2D8
100
AcDbEntity
  8
0
100
AcDbLine
 62
7
  6
CONTINUOUS
 10
5.8761325268
 20
6.1459112884
 11
5.8760312946
 21
6.1457909589
  0
LINE
  5
2D9
100
AcDbEntity
  8
0
100
AcDbLine
 62
7
  6
CONTINUOUS
 10
5.8761325268
 20
5.865908285
 11
5.8760321097
 21
5.8657893085
  0
LINE
  5
2DA
100
AcDbEntity
  8
0
100
AcDbLine
 62
7
  6
CONTINUOUS
 10
5.8761325268
 20
6.1859010595
 11
5.8760291249
 21
6.1857809567
  0
LINE
  5
2DB
100
AcDbEntity
  8
0
100
AcDbLine
 62
7
  6
CONTINUOUS
 10
5.8543949593
 20
6.0132863173
 11
5.854503012
 21
6.0134111516
  0
LINE
  5
2DC
100
AcDbEntity
  8
0
100
AcDbLine
 62
7
  6
CONTINUOUS
 10
5.8543787653
 20
5.813289452
 11
5.8544874817
 21
5.8134150465
  0
LINE
  5
2DD
100
AcDbEntity
  8
0
100
AcDbLine
 62
7
  6
CONTINUOUS
 10
5.8544025992
 20
5.773289306
 11
5.8545102655
 21
5.7734137028
  0
LINE
  5
2DE
100
AcDbEntity
  8
0
100
AcDbLine
 62
7
  6
CONTINUOUS
 10
5.8543781972
 20
5.8932886242
 11
5.8544869184
 21
5.8934142032
  0
LINE
  5
2DF
100
AcDbEntity
  8
0
100
AcDbLine
 62
7
  6
CONTINUOUS
 10
5.8543787024
 20
5.7332902799
 11
5.8544874223
 21
5.7334158569
  0
LINE
  5
2E0
100
AcDbEntity
  8
0
100
AcDbLine
 62
7
  6
CONTINUOUS
 10
5.8543871273
 20
5.8532929632
 11
5.8544957197
 21
5.8534183481
  0
LINE
  5
2E1
100
AcDbEntity
  8
0
100
AcDbLine
 62
7
  6
CONTINUOUS
 10
5.8761325268
 20
6.0658922886
 11
5.8760321066
 21
6.0657764507
  0
LINE
  5
2E2
100
AcDbEntity
  8
0
100
AcDbLine
 62
7
  6
CONTINUOUS
 10
5.8761325268
 20
5.8259136619
 11
5.8760252369
 21
5.8257901015
  0
LINE
  5
2E3
100
AcDbEntity
  8
0
100
AcDbLine
 62
7
  6
CONTINUOUS
 10
5.8544874416
 20
6.0934443144
 11
5.8543767455
 21
6.0933177544
  0
LINE
  5
2E4
100
AcDbEntity
  8
0
100
AcDbLine
 62
7
  6
CONTINUOUS
 10
5.8545054812
 20
6.053443015
 11
5.8543965303
 21
6.0533184741
  0
LINE
  5
2E5
100
AcDbEntity
  8
0
100
AcDbLine
 62
7
  6
CONTINUOUS
 10
5.8544858468
 20
6.1334682207
 11
5.854378879
 21
6.1333461018
  0
LINE
  5
2E6
100
AcDbEntity
  8
0
100
AcDbLine
 62
7
  6
CONTINUOUS
 10
5.8761325268
 20
5.7458950243
 11
5.8760252907
 21
5.7457740461
  0
LINE
  5
2E7
100
AcDbEntity
  8
0
100
AcDbLine
 62
7
  6
CONTINUOUS
 10
5.8761325268
 20
6.0259024092
 11
5.8760231498
 21
6.0257797881
  0
LINE
  5
2E8
100
AcDbEntity
  8
0
100
AcDbLine
 62
7
  6
CONTINUOUS
 10
5.8761325268
 20
5.7859004506
 11
5.8760241797
 21
5.7857790709
  0
LINE
  5
2E9
100
AcDbEntity
  8
0
100
AcDbLine
 62
7
  6
CONTINUOUS
 10
5.8761325268
 20
6.1059014808
 11
5.8760225642
 21
6.105778565
  0
LINE
  5
2EA
100
AcDbEntity
  8
0
100
AcDbLine
 62
7
  6
CONTINUOUS
 10
5.8543684695
 20
5.533287671
 11
5.8760305395
 21
5.5457972604
  0
LINE
  5
2EB
100
AcDbEntity
  8
0
100
AcDbLine
 62
7
  6
CONTINUOUS
 10
5.8751200004
 20
3.4968697286
 11
4.7098178878
 21
3.4968697286
  0
LINE
  5
2EC
100
AcDbEntity
  8
0
100
AcDbLine
 62
7
  6
CONTINUOUS
 10
5.2924689441
 20
3.5632337771
 11
5.808755952
 21
3.5632337771
  0
LINE
  5
2ED
100
AcDbEntity
  8
0
100
AcDbLine
 62
7
  6
CONTINUOUS
 10
4.6827189441
 20
6.7811976814
 11
4.6411087079
 21
7.2702919328
  0
LINE
  5
2EE
100
AcDbEntity
  8
0
100
AcDbLine
 62
7
  6
CONTINUOUS
 10
4.7741014244
 20
3.5611532653
 11
4.7741014244
 21
4.3095496499
  0
LINE
  5
2EF
100
AcDbEntity
  8
0
100
AcDbLine
 62
7
  6
CONTINUOUS
 10
4.7843439441
 20
0.1773331147
 11
4.7843439441
 21
3.2164807522
  0
LINE
  5
2F0
100
AcDbEntity
  8
0
100
AcDbLine
 62
7
  6
CONTINUOUS
 10
4.7848240622
 20
3.2164807522
 11
4.7848240622
 21
3.2529697286
  0
LINE
  5
2F1
100
AcDbEntity
  8
0
100
AcDbLine
 62
7
  6
CONTINUOUS
 10
4.8888069188
 20
4.6512820988
 11
4.8888069188
 21
4.8906777607
  0
LINE
  5
2F2
100
AcDbEntity
  8
0
100
AcDbLine
 62
9
  6
CONTINUOUS
 10
5.3656312703
 20
6.0442448545
 11
5.3684469599
 21
6.0567334126
  0
LINE
  5
2F3
100
AcDbEntity
  8
0
100
AcDbLine
 62
7
  6
CONTINUOUS
 10
5.9113945149
 20
7.6220827318
 11
5.9225439441
 21
7.663692968
  0
LINE
  5
2F4
100
AcDbEntity
  8
0
100
AcDbLine
 62
7
  6
CONTINUOUS
 10
5.8761325268
 20
5.6259139904
 11
5.8760304876
 21
5.6257935334
  0
LINE
  5
2F5
100
AcDbEntity
  8
0
100
AcDbLine
 62
7
  6
CONTINUOUS
 10
5.8761325268
 20
5.5459147105
 11
5.8760305401
 21
5.5457943
  0
LINE
  5
2F6
100
AcDbEntity
  8
0
100
AcDbLine
 62
7
  6
CONTINUOUS
 10
5.8761325268
 20
5.665898722
 11
5.8760332762
 21
5.6657824118
  0
LINE
  5
2F7
100
AcDbEntity
  8
0
100
AcDbLine
 62
7
  6
CONTINUOUS
 10
5.8761325268
 20
5.5858994231
 11
5.8760332511
 21
5.5857831243
  0
LINE
  5
2F8
100
AcDbEntity
  8
0
100
AcDbLine
 62
7
  6
CONTINUOUS
 10
5.8544023834
 20
5.6932900791
 11
5.854510062
 21
5.69341449
  0
LINE
  5
2F9
100
AcDbEntity
  8
0
100
AcDbLine
 62
7
  6
CONTINUOUS
 10
5.8543814607
 20
5.6132944219
 11
5.8544902013
 21
5.6134199906
  0
LINE
  5
2FA
100
AcDbEntity
  8
0
100
AcDbLine
 62
7
  6
CONTINUOUS
 10
5.8543815971
 20
5.5332952521
 11
5.8544903346
 21
5.5334208168
  0
LINE
  5
2FB
100
AcDbEntity
  8
0
100
AcDbLine
 62
7
  6
CONTINUOUS
 10
5.8544072606
 20
5.6532956856
 11
5.8545150151
 21
5.6534200683
  0
LINE
  5
2FC
100
AcDbEntity
  8
0
100
AcDbLine
 62
7
  6
CONTINUOUS
 10
5.8544074374
 20
5.5732964716
 11
5.85451518
 21
5.5734208401
  0
LINE
  5
2FD
100
AcDbEntity
  8
0
100
AcDbLine
 62
7
  6
CONTINUOUS
 10
5.8761325268
 20
5.7059013732
 11
5.8760241325
 21
5.7057799374
  0
LINE
  5
2FE
100
AcDbEntity
  8
0
100
AcDbLine
 62
7
  6
CONTINUOUS
 10
4.7741014244
 20
4.3095496499
 11
4.7403331173
 21
4.343317957
  0
LINE
  5
2FF
100
AcDbEntity
  8
0
100
AcDbLine
 62
7
  6
CONTINUOUS
 10
5.0565353077
 20
4.8906777607
 11
5.0565353077
 21
4.6512820988
  0
LINE
  5
300
100
AcDbEntity
  8
0
100
AcDbLine
 62
7
  6
CONTINUOUS
 10
5.1036496941
 20
7.4397276814
 11
5.1036496941
 21
7.4921307634
  0
LINE
  5
301
100
AcDbEntity
  8
0
100
AcDbLine
 62
7
  6
CONTINUOUS
 10
5.1036496941
 20
7.7389347506
 11
5.1036496941
 21
8.3841520121
  0
LINE
  5
302
100
AcDbEntity
  8
0
100
AcDbLine
 62
7
  6
CONTINUOUS
 10
5.164437448
 20
7.4921307633
 11
5.164437448
 21
7.4397276814
  0
LINE
  5
303
100
AcDbEntity
  8
0
100
AcDbLine
 62
7
  6
CONTINUOUS
 10
5.2924689441
 20
7.9926599921
 11
5.2924689441
 21
8.0143183121
  0
LINE
  5
304
100
AcDbEntity
  8
0
100
AcDbLine
 62
7
  6
CONTINUOUS
 10
5.8622564412
 20
6.2179717985
 11
5.8622368714
 21
6.2179025313
  0
LINE
  5
305
100
AcDbEntity
  8
0
100
AcDbLine
 62
7
  6
CONTINUOUS
 10
5.2924689443
 20
4.3074691381
 11
4.7761819362
 21
4.3074691381
  0
LINE
  5
306
100
AcDbEntity
  8
0
100
AcDbLine
 62
7
  6
CONTINUOUS
 10
4.6203035898
 20
4.6189425282
 11
4.5642898102
 21
4.6512820989
  0
LINE
  5
307
100
AcDbEntity
  8
0
100
AcDbLine
 62
7
  6
CONTINUOUS
 10
5.8108364638
 20
3.5611532652
 11
5.8751200004
 21
3.4968697286
  0
LINE
  5
308
100
AcDbEntity
  8
0
100
AcDbLine
 62
9
  6
CONTINUOUS
 10
5.3656296536
 20
6.0342374296
 11
5.3656296536
 21
6.0442372173
  0
LINE
  5
309
100
AcDbEntity
  8
0
100
AcDbLine
 62
7
  6
CONTINUOUS
 10
5.4205004402
 20
7.4921307633
 11
5.4205004402
 21
7.4397276814
  0
LINE
  5
30A
100
AcDbEntity
  8
0
100
AcDbLine
 62
7
  6
CONTINUOUS
 10
5.4812881941
 20
7.4397276814
 11
5.4812881941
 21
7.4921307633
  0
LINE
  5
30B
100
AcDbEntity
  8
0
100
AcDbLine
 62
7
  6
CONTINUOUS
 10
5.4812881941
 20
7.7389347506
 11
5.4812881941
 21
8.3841520121
  0
LINE
  5
30C
100
AcDbEntity
  8
0
100
AcDbLine
 62
7
  6
CONTINUOUS
 10
4.7741014244
 20
3.5611532653
 11
4.7098178878
 21
3.4968697286
  0
LINE
  5
30D
100
AcDbEntity
  8
0
100
AcDbLine
 62
7
  6
CONTINUOUS
 10
5.9646342984
 20
4.6189425282
 11
6.020648078
 21
4.6512820989
  0
LINE
  5
30E
100
AcDbEntity
  8
0
100
AcDbLine
 62
7
  6
CONTINUOUS
 10
4.7403331173
 20
4.343317957
 11
5.8446047709
 21
4.343317957
  0
LINE
  5
30F
100
AcDbEntity
  8
0
100
AcDbLine
 62
7
  6
CONTINUOUS
 10
4.6735433733
 20
7.6220827318
 11
4.6623939441
 21
7.663692968
  0
LINE
  5
310
100
AcDbEntity
  8
0
100
AcDbLine
 62
7
  6
CONTINUOUS
 10
5.6154963554
 20
4.6512820988
 11
5.6154963554
 21
4.8906777607
  0
LINE
  5
311
100
AcDbEntity
  8
0
100
AcDbLine
 62
7
  6
CONTINUOUS
 10
5.7711051158
 20
4.8906777607
 11
5.7711051158
 21
4.6512820988
  0
LINE
  5
312
100
AcDbEntity
  8
0
100
AcDbLine
 62
7
  6
CONTINUOUS
 10
5.800113826
 20
3.2164807522
 11
5.800113826
 21
3.2529697286
  0
LINE
  5
313
100
AcDbEntity
  8
0
100
AcDbLine
 62
7
  6
CONTINUOUS
 10
5.8005939441
 20
0.1773331147
 11
5.8005939441
 21
3.2164807522
  0
LINE
  5
314
100
AcDbEntity
  8
0
100
AcDbLine
 62
7
  6
CONTINUOUS
 10
5.8108364638
 20
3.5611532652
 11
5.8108364638
 21
4.3095496499
  0
LINE
  5
315
100
AcDbEntity
  8
0
100
AcDbLine
 62
7
  6
CONTINUOUS
 10
5.8343622512
 20
7.6220827318
 11
5.8343622512
 21
7.5382221019
  0
LINE
  5
316
100
AcDbEntity
  8
0
100
AcDbLine
 62
7
  6
CONTINUOUS
 10
5.8446047709
 20
4.343317957
 11
5.8446047709
 21
4.6189425282
  0
LINE
  5
317
100
AcDbEntity
  8
0
100
AcDbLine
 62
7
  6
CONTINUOUS
 10
5.8446047709
 20
4.9230173313
 11
5.8446047709
 21
4.9386559389
  0
LINE
  5
318
100
AcDbEntity
  8
0
100
AcDbLine
 62
7
  6
CONTINUOUS
 10
5.8446047709
 20
4.9770653877
 11
5.8446047709
 21
5.1088353605
  0
LINE
  5
319
100
AcDbEntity
  8
0
100
AcDbLine
 62
7
  6
CONTINUOUS
 10
5.849405952
 20
6.2308222877
 11
5.849405952
 21
6.7727155948
  0
LINE
  5
31A
100
AcDbEntity
  8
0
100
AcDbLine
 62
9
  6
CONTINUOUS
 10
5.8529006544
 20
5.8829290962
 11
5.8529006544
 21
5.8929288839
  0
LINE
  5
31B
100
AcDbEntity
  8
0
100
AcDbLine
 62
7
  6
CONTINUOUS
 10
5.8544729327
 20
6.1234054031
 11
5.8544729327
 21
6.1334608033
  0
LINE
  5
31C
100
AcDbEntity
  8
0
100
AcDbLine
 62
7
  6
CONTINUOUS
 10
5.8544737864
 20
5.8834067222
 11
5.8544737864
 21
5.893406622
  0
LINE
  5
31D
100
AcDbEntity
  8
0
100
AcDbLine
 62
7
  6
CONTINUOUS
 10
5.8544742904
 20
5.7234083757
 11
5.8544742904
 21
5.7334082757
  0
LINE
  5
31E
100
AcDbEntity
  8
0
100
AcDbLine
 62
7
  6
CONTINUOUS
 10
5.8544743498
 20
5.8034075774
 11
5.8544743498
 21
5.8134074654
  0
LINE
  5
31F
100
AcDbEntity
  8
0
100
AcDbLine
 62
7
  6
CONTINUOUS
 10
5.8544770694
 20
5.6034125095
 11
5.8544770694
 21
5.6134124095
  0
LINE
  5
320
100
AcDbEntity
  8
0
100
AcDbLine
 62
7
  6
CONTINUOUS
 10
5.8544772027
 20
5.5234133357
 11
5.8544772027
 21
5.5334132357
  0
LINE
  5
321
100
AcDbEntity
  8
0
100
AcDbLine
 62
7
  6
CONTINUOUS
 10
5.8544825876
 20
5.843410867
 11
5.8544825876
 21
5.853410767
  0
LINE
  5
322
100
AcDbEntity
  8
0
100
AcDbLine
 62
7
  6
CONTINUOUS
 10
5.85448931
 20
6.1634080441
 11
5.8544893096
 21
6.1734719342
  0
LINE
  5
323
100
AcDbEntity
  8
0
100
AcDbLine
 62
7
  6
CONTINUOUS
 10
5.8544898799
 20
6.0034036704
 11
5.8544898799
 21
6.0134035704
  0
LINE
  5
324
100
AcDbEntity
  8
0
100
AcDbLine
 62
7
  6
CONTINUOUS
 10
5.854490094
 20
6.0834028669
 11
5.854490094
 21
6.0934458392
  0
LINE
  5
325
100
AcDbEntity
  8
0
100
AcDbLine
 62
7
  6
CONTINUOUS
 10
5.8544960733
 20
6.2034013624
 11
5.8544960733
 21
6.2134870929
  0
LINE
  5
326
100
AcDbEntity
  8
0
100
AcDbLine
 62
7
  6
CONTINUOUS
 10
5.8544969297
 20
5.6834070088
 11
5.8544969297
 21
5.6934069088
  0
LINE
  5
327
100
AcDbEntity
  8
0
100
AcDbLine
 62
7
  6
CONTINUOUS
 10
5.8544971331
 20
5.7634062216
 11
5.8544971331
 21
5.7734061216
  0
LINE
  5
328
100
AcDbEntity
  8
0
100
AcDbLine
 62
7
  6
CONTINUOUS
 10
5.8545018826
 20
5.6434125872
 11
5.8545018826
 21
5.6534124872
  0
LINE
  5
329
100
AcDbEntity
  8
0
100
AcDbLine
 62
7
  6
CONTINUOUS
 10
5.8545020475
 20
5.5634133591
 11
5.8545020475
 21
5.5734132591
  0
LINE
  5
32A
100
AcDbEntity
  8
0
100
AcDbLine
 62
7
  6
CONTINUOUS
 10
5.8545059405
 20
6.0434073535
 11
5.8545059405
 21
6.0534432794
  0
LINE
  5
32B
100
AcDbEntity
  8
0
100
AcDbLine
 62
7
  6
CONTINUOUS
 10
5.8751200004
 20
3.2529697286
 11
5.8751200004
 21
3.4968697286
  0
LINE
  5
32C
100
AcDbEntity
  8
0
100
AcDbLine
 62
7
  6
CONTINUOUS
 10
5.8761325268
 20
6.1509088752
 11
5.8761325268
 21
6.1459112884
  0
LINE
  5
32D
100
AcDbEntity
  8
0
100
AcDbLine
 62
7
  6
CONTINUOUS
 10
5.8761325268
 20
6.1108995395
 11
5.8761325268
 21
6.1059014808
  0
LINE
  5
32E
100
AcDbEntity
  8
0
100
AcDbLine
 62
7
  6
CONTINUOUS
 10
5.8761325268
 20
6.0709102359
 11
5.8761325268
 21
6.0658922886
  0
LINE
  5
32F
100
AcDbEntity
  8
0
100
AcDbLine
 62
7
  6
CONTINUOUS
 10
5.8761325268
 20
6.0309201126
 11
5.8761325268
 21
6.0259024092
  0
LINE
  5
330
100
AcDbEntity
  8
0
100
AcDbLine
 62
7
  6
CONTINUOUS
 10
5.8761325268
 20
5.9909109076
 11
5.8761325268
 21
5.9858930441
  0
LINE
  5
331
100
AcDbEntity
  8
0
100
AcDbLine
 62
7
  6
CONTINUOUS
 10
5.8761325268
 20
5.9109071459
 11
5.8761325268
 21
5.9059132125
  0
LINE
  5
332
100
AcDbEntity
  8
0
100
AcDbLine
 62
7
  6
CONTINUOUS
 10
5.8761325268
 20
5.8709024758
 11
5.8761325268
 21
5.865908285
  0
LINE
  5
333
100
AcDbEntity
  8
0
100
AcDbLine
 62
7
  6
CONTINUOUS
 10
5.8761325268
 20
5.8309080566
 11
5.8761325268
 21
5.8259136619
  0
LINE
  5
334
100
AcDbEntity
  8
0
100
AcDbLine
 62
7
  6
CONTINUOUS
 10
5.8761325268
 20
5.7909036019
 11
5.8761325268
 21
5.7859004506
  0
LINE
  5
335
100
AcDbEntity
  8
0
100
AcDbLine
 62
7
  6
CONTINUOUS
 10
5.8761325268
 20
5.7509176546
 11
5.8761325268
 21
5.7458950243
  0
LINE
  5
336
100
AcDbEntity
  8
0
100
AcDbLine
 62
7
  6
CONTINUOUS
 10
5.8761325268
 20
5.7109238014
 11
5.8761325268
 21
5.7059013732
  0
LINE
  5
337
100
AcDbEntity
  8
0
100
AcDbLine
 62
7
  6
CONTINUOUS
 10
5.8761325268
 20
5.6709183326
 11
5.8761325268
 21
5.665898722
  0
LINE
  5
338
100
AcDbEntity
  8
0
100
AcDbLine
 62
7
  6
CONTINUOUS
 10
5.8761325268
 20
5.630921644
 11
5.8761325268
 21
5.6259139904
  0
LINE
  5
339
100
AcDbEntity
  8
0
100
AcDbLine
 62
7
  6
CONTINUOUS
 10
5.8761325268
 20
5.5909071734
 11
5.8761325268
 21
5.5858994231
  0
LINE
  5
33A
100
AcDbEntity
  8
0
100
AcDbLine
 62
7
  6
CONTINUOUS
 10
5.8761325268
 20
5.5509225438
 11
5.8761325268
 21
5.5459147105
  0
LINE
  5
33B
100
AcDbEntity
  8
0
100
AcDbLine
 62
7
  6
CONTINUOUS
 10
5.8761325268
 20
6.1859010595
 11
5.8761325268
 21
6.190912618
  0
LINE
  5
33C
100
AcDbEntity
  8
0
100
AcDbLine
 62
7
  6
CONTINUOUS
 10
5.8846146134
 20
7.5382221019
 11
5.8846146134
 21
7.5222181649
  0
LINE
  5
33D
100
AcDbEntity
  8
0
100
AcDbLine
 62
7
  6
CONTINUOUS
 10
5.9022189441
 20
6.7811976814
 11
5.9438291803
 21
7.2702919328
  0
LINE
  5
33E
100
AcDbEntity
  8
0
100
AcDbLine
 62
7
  6
CONTINUOUS
 10
5.8108364638
 20
4.3095496499
 11
5.8446047709
 21
4.343317957
  0
LINE
  5
33F
100
AcDbEntity
  8
0
100
AcDbLine
 62
7
  6
CONTINUOUS
 10
4.6203089091
 20
4.6189425282
 11
5.9646229107
 21
4.6189425282
  0
LINE
  5
340
100
AcDbEntity
  8
0
100
AcDbLine
 62
7
  6
CONTINUOUS
 10
4.5642898102
 20
4.6512820989
 11
4.5778991359
 21
4.6512820989
  0
LINE
  5
341
100
AcDbEntity
  8
0
100
AcDbLine
 62
7
  6
CONTINUOUS
 10
4.8888069189
 20
4.6512820989
 11
5.056535308
 21
4.6512820989
  0
LINE
  5
342
100
AcDbEntity
  8
0
100
AcDbLine
 62
7
  6
CONTINUOUS
 10
5.6154963555
 20
4.6512820989
 11
5.771105116
 21
4.6512820989
  0
LINE
  5
343
100
AcDbEntity
  8
0
100
AcDbLine
 62
7
  6
CONTINUOUS
 10
6.0191583807
 20
4.6512820989
 11
6.020648078
 21
4.6512820989
  0
LINE
  5
344
100
AcDbEntity
  8
0
100
AcDbLine
 62
7
  6
CONTINUOUS
 10
4.73054416
 20
5.5532965861
 11
4.7304357773
 21
5.5534217171
  0
LINE
  5
345
100
AcDbEntity
  8
0
100
AcDbLine
 62
7
  6
CONTINUOUS
 10
4.7305443802
 20
5.6332957711
 11
4.7304359898
 21
5.6334209114
  0
LINE
  5
346
100
AcDbEntity
  8
0
100
AcDbLine
 62
7
  6
CONTINUOUS
 10
4.7305603395
 20
5.5932925423
 11
4.7304515477
 21
5.593418191
  0
LINE
  5
347
100
AcDbEntity
  8
0
100
AcDbLine
 62
7
  6
CONTINUOUS
 10
4.7305252487
 20
5.7532925748
 11
4.7304183493
 21
5.7534160259
  0
LINE
  5
348
100
AcDbEntity
  8
0
100
AcDbLine
 62
7
  6
CONTINUOUS
 10
4.7305595987
 20
5.8332912497
 11
4.7304507953
 21
5.8334169019
  0
LINE
  5
349
100
AcDbEntity
  8
0
100
AcDbLine
 62
7
  6
CONTINUOUS
 10
4.7305497122
 20
5.7132893104
 11
4.7304413705
 21
5.7134144698
  0
LINE
  5
34A
100
AcDbEntity
  8
0
100
AcDbLine
 62
7
  6
CONTINUOUS
 10
4.7305495121
 20
5.7932885037
 11
4.7304411787
 21
5.7934138244
  0
LINE
  5
34B
100
AcDbEntity
  8
0
100
AcDbLine
 62
7
  6
CONTINUOUS
 10
4.7305252947
 20
5.6732933199
 11
4.7304184033
 21
5.6734171155
  0
LINE
  5
34C
100
AcDbEntity
  8
0
100
AcDbLine
 62
9
  6
CONTINUOUS
 10
5.3684471387
 20
6.0217412341
 11
5.3656314425
 21
6.0342297922
  0
LINE
  5
34D
100
AcDbEntity
  8
0
100
AcDbLine
 62
7
  6
CONTINUOUS
 10
6.0191583807
 20
4.6512820988
 11
6.0191583807
 21
4.8906777607
  0
LINE
  5
34E
100
AcDbEntity
  8
0
100
AcDbLine
 62
7
  6
CONTINUOUS
 10
6.020648078
 20
4.8906777606
 11
6.020648078
 21
4.6512820989
  0
LINE
  5
34F
100
AcDbEntity
  8
0
100
AcDbLine
 62
7
  6
CONTINUOUS
 10
6.1566815425
 20
5.9858511085
 11
6.1566815425
 21
5.9218353605
  0
LINE
  5
350
100
AcDbEntity
  8
0
100
AcDbLine
 62
7
  6
CONTINUOUS
 10
6.020648078
 20
4.8906777606
 11
6.0191583807
 21
4.8906777606
  0
LINE
  5
351
100
AcDbEntity
  8
0
100
AcDbLine
 62
7
  6
CONTINUOUS
 10
5.771105116
 20
4.8906777606
 11
5.6154963555
 21
4.8906777606
  0
LINE
  5
352
100
AcDbEntity
  8
0
100
AcDbLine
 62
7
  6
CONTINUOUS
 10
5.056535308
 20
4.8906777606
 11
4.8888069189
 21
4.8906777606
  0
LINE
  5
353
100
AcDbEntity
  8
0
100
AcDbLine
 62
7
  6
CONTINUOUS
 10
4.5778991359
 20
4.8906777606
 11
4.5642898102
 21
4.8906777606
  0
LINE
  5
354
100
AcDbEntity
  8
0
100
AcDbLine
 62
7
  6
CONTINUOUS
 10
4.6203149775
 20
4.9230173313
 11
5.9646289791
 21
4.9230173313
  0
LINE
  5
355
100
AcDbEntity
  8
0
100
AcDbLine
 62
7
  6
CONTINUOUS
 10
4.2746203452
 20
4.9386559389
 11
6.310317543
 21
4.9386559389
  0
LINE
  5
356
100
AcDbEntity
  8
0
100
AcDbLine
 62
7
  6
CONTINUOUS
 10
4.2746205653
 20
4.9770653877
 11
6.3103173229
 21
4.9770653877
  0
LINE
  5
357
100
AcDbEntity
  8
0
100
AcDbLine
 62
7
  6
CONTINUOUS
 10
4.2762375445
 20
5.1088353605
 11
6.308700343
 21
5.1088353605
  0
LINE
  5
358
100
AcDbEntity
  8
0
100
AcDbLine
 62
7
  6
CONTINUOUS
 10
6.3087189441
 20
5.1494853605
 11
4.2762189441
 21
5.1494853605
  0
LINE
  5
359
100
AcDbEntity
  8
0
100
AcDbLine
 62
7
  6
CONTINUOUS
 10
4.7089109939
 20
5.525795872
 11
4.7270246845
 21
5.5153353605
  0
LINE
  5
35A
100
AcDbEntity
  8
0
100
AcDbLine
 62
7
  6
CONTINUOUS
 10
4.7089047245
 20
5.5657928348
 11
4.7305572879
 21
5.553289005
  0
LINE
  5
35B
100
AcDbEntity
  8
0
100
AcDbLine
 62
7
  6
CONTINUOUS
 10
4.7089110544
 20
5.6057948386
 11
4.7305734669
 21
5.5932849612
  0
LINE
  5
35C
100
AcDbEntity
  8
0
100
AcDbLine
 62
7
  6
CONTINUOUS
 10
4.7304468812
 20
6.0734360915
 11
4.7305530793
 21
6.0733149119
  0
LINE
  5
35D
100
AcDbEntity
  8
0
100
AcDbLine
 62
7
  6
CONTINUOUS
 10
4.7304571121
 20
6.1534214643
 11
4.7305652823
 21
6.1532971423
  0
LINE
  5
35E
100
AcDbEntity
  8
0
100
AcDbLine
 62
7
  6
CONTINUOUS
 10
4.7305367844
 20
5.8732936659
 11
4.7304286947
 21
5.8734184463
  0
LINE
  5
35F
100
AcDbEntity
  8
0
100
AcDbLine
 62
7
  6
CONTINUOUS
 10
4.7305596672
 20
5.9132904172
 11
4.7304508628
 21
5.9134160207
  0
LINE
  5
360
100
AcDbEntity
  8
0
100
AcDbLine
 62
7
  6
CONTINUOUS
 10
4.7305555463
 20
6.0332865468
 11
4.7304469744
 21
6.0334119625
  0
LINE
  5
361
100
AcDbEntity
  8
0
100
AcDbLine
 62
7
  6
CONTINUOUS
 10
4.7305292922
 20
5.9932882416
 11
4.7304220351
 21
5.9934121736
  0
LINE
  5
362
100
AcDbEntity
  8
0
100
AcDbLine
 62
7
  6
CONTINUOUS
 10
4.7304585161
 20
6.1134228203
 11
4.7305665373
 21
6.113297924
  0
LINE
  5
363
100
AcDbEntity
  8
0
100
AcDbLine
 62
7
  6
CONTINUOUS
 10
4.7304348702
 20
6.193416501
 11
4.7305430946
 21
6.1932899996
  0
LINE
  5
364
100
AcDbEntity
  8
0
100
AcDbLine
 62
7
  6
CONTINUOUS
 10
6.1867689441
 20
7.4315976814
 11
6.1867689441
 21
7.3096476814
  0
LINE
  5
365
100
AcDbEntity
  8
0
100
AcDbLine
 62
7
  6
CONTINUOUS
 10
6.3087189441
 20
5.1494853605
 11
6.3087189441
 21
5.1088353605
  0
LINE
  5
366
100
AcDbEntity
  8
0
100
AcDbLine
 62
7
  6
CONTINUOUS
 10
6.3103193378
 20
4.9770653877
 11
6.3103193378
 21
4.9386559389
  0
LINE
  5
367
100
AcDbEntity
  8
0
100
AcDbLine
 62
7
  6
CONTINUOUS
 10
6.154280952
 20
5.2272644944
 11
4.4306569362
 21
5.2272644944
  0
LINE
  5
368
100
AcDbEntity
  8
0
100
AcDbLine
 62
7
  6
CONTINUOUS
 10
5.9646342984
 20
4.9230173313
 11
6.020648078
 21
4.8906777606
  0
LINE
  5
369
100
AcDbEntity
  8
0
100
AcDbLine
 62
7
  6
CONTINUOUS
 10
4.7089047494
 20
5.6457921375
 11
4.7305575081
 21
5.6332881901
  0
LINE
  5
36A
100
AcDbEntity
  8
0
100
AcDbLine
 62
7
  6
CONTINUOUS
 10
4.7089084309
 20
5.6857761163
 11
4.7305384231
 21
5.6732857388
  0
LINE
  5
36B
100
AcDbEntity
  8
0
100
AcDbLine
 62
7
  6
CONTINUOUS
 10
4.7089147298
 20
5.7257831112
 11
4.7305628402
 21
5.7132817292
  0
LINE
  5
36C
100
AcDbEntity
  8
0
100
AcDbLine
 62
7
  6
CONTINUOUS
 10
4.7089083343
 20
5.7657753993
 11
4.730538377
 21
5.7532849936
  0
LINE
  5
36D
100
AcDbEntity
  8
0
100
AcDbLine
 62
7
  6
CONTINUOUS
 10
4.7089147424
 20
5.8057821772
 11
4.7305626401
 21
5.7932809225
  0
LINE
  5
36E
100
AcDbEntity
  8
0
100
AcDbLine
 62
7
  6
CONTINUOUS
 10
4.7089090993
 20
5.8457942308
 11
4.7305727263
 21
5.8332836686
  0
LINE
  5
36F
100
AcDbEntity
  8
0
100
AcDbLine
 62
7
  6
CONTINUOUS
 10
4.7089042719
 20
5.885785753
 11
4.7305499124
 21
5.8732860848
  0
LINE
  5
370
100
AcDbEntity
  8
0
100
AcDbLine
 62
7
  6
CONTINUOUS
 10
4.716767461
 20
5.9212553213
 11
4.7305727948
 21
5.913282836
  0
LINE
  5
371
100
AcDbEntity
  8
0
100
AcDbLine
 62
7
  6
CONTINUOUS
 10
5.8529137429
 20
5.8929366337
 11
5.8543781972
 21
5.8932886242
  0
LINE
  5
372
100
AcDbEntity
  8
0
100
AcDbLine
 62
7
  6
CONTINUOUS
 10
5.8525364338
 20
5.6129347037
 11
5.8526174915
 21
5.6129505072
  0
LINE
  5
373
100
AcDbEntity
  8
0
100
AcDbLine
 62
7
  6
CONTINUOUS
 10
5.8528716419
 20
5.6129346705
 11
5.8529759957
 21
5.6129504789
  0
LINE
  5
374
100
AcDbEntity
  8
0
100
AcDbLine
 62
7
  6
CONTINUOUS
 10
5.2466349507
 20
5.5228993339
 11
5.3348161081
 21
5.5238991455
  0
LINE
  5
375
100
AcDbEntity
  8
0
100
AcDbLine
 62
7
  6
CONTINUOUS
 10
4.644325586
 20
5.5153353605
 11
5.9406123022
 21
5.5153353605
  0
LINE
  5
376
100
AcDbEntity
  8
0
100
AcDbLine
 62
7
  6
CONTINUOUS
 10
6.154280952
 20
5.2272644944
 11
6.3087189441
 21
5.1494853605
  0
LINE
  5
377
100
AcDbEntity
  8
0
100
AcDbLine
 62
7
  6
CONTINUOUS
 10
4.7089090498
 20
6.0857798901
 11
4.7305401477
 21
6.073322356
  0
LINE
  5
378
100
AcDbEntity
  8
0
100
AcDbLine
 62
7
  6
CONTINUOUS
 10
4.7089142539
 20
6.1257816597
 11
4.7305680713
 21
6.1132970395
  0
LINE
  5
379
100
AcDbEntity
  8
0
100
AcDbLine
 62
7
  6
CONTINUOUS
 10
4.7089088202
 20
6.16578378
 11
4.7305679176
 21
6.1532956217
  0
LINE
  5
37A
100
AcDbEntity
  8
0
100
AcDbLine
 62
7
  6
CONTINUOUS
 10
4.7099710969
 20
6.205158619
 11
4.7305460014
 21
6.1932883202
  0
LINE
  5
37B
100
AcDbEntity
  8
0
100
AcDbLine
 62
7
  6
CONTINUOUS
 10
4.7089117156
 20
6.0057715382
 11
4.7305424206
 21
5.9932806604
  0
LINE
  5
37C
100
AcDbEntity
  8
0
100
AcDbLine
 62
7
  6
CONTINUOUS
 10
4.7089139272
 20
6.0457843096
 11
4.7305686741
 21
6.0332789656
  0
LINE
  5
37D
100
AcDbEntity
  8
0
100
AcDbLine
 62
7
  6
CONTINUOUS
 10
5.8668605373
 20
5.5163248183
 11
5.8543686112
 21
5.5235387777
  0
LINE
  5
37E
100
AcDbEntity
  8
0
100
AcDbLine
 62
7
  6
CONTINUOUS
 10
5.8760258338
 20
5.5510462374
 11
5.8543947347
 21
5.5635373591
  0
LINE
  5
37F
100
AcDbEntity
  8
0
100
AcDbLine
 62
7
  6
CONTINUOUS
 10
5.8760241478
 20
5.5910320607
 11
5.8543684724
 21
5.6035379575
  0
LINE
  5
380
100
AcDbEntity
  8
0
100
AcDbLine
 62
9
  6
CONTINUOUS
 10
4.7438574477
 20
6.2065946818
 11
4.7619922084
 21
6.1955119153
  0
LINE
  5
381
100
AcDbEntity
  8
0
100
AcDbLine
 62
7
  6
CONTINUOUS
 10
4.7355319362
 20
6.7727155948
 11
4.7269202098
 21
6.7813273212
  0
LINE
  5
382
100
AcDbEntity
  8
0
100
AcDbLine
 62
7
  6
CONTINUOUS
 10
5.8544969297
 20
5.6834070649
 11
5.8543888869
 21
5.6835317948
  0
LINE
  5
383
100
AcDbEntity
  8
0
100
AcDbLine
 62
7
  6
CONTINUOUS
 10
5.8544971331
 20
5.7634062778
 11
5.8543891006
 21
5.7635309954
  0
LINE
  5
384
100
AcDbEntity
  8
0
100
AcDbLine
 62
7
  6
CONTINUOUS
 10
5.8544742904
 20
5.7234084319
 11
5.8543654961
 21
5.723534077
  0
LINE
  5
385
100
AcDbEntity
  8
0
100
AcDbLine
 62
7
  6
CONTINUOUS
 10
5.8544743498
 20
5.8034076336
 11
5.8543655566
 21
5.8035332437
  0
LINE
  5
386
100
AcDbEntity
  8
0
100
AcDbLine
 62
7
  6
CONTINUOUS
 10
5.8544772027
 20
5.5234133919
 11
5.8543686112
 21
5.5235388338
  0
LINE
  5
387
100
AcDbEntity
  8
0
100
AcDbLine
 62
7
  6
CONTINUOUS
 10
5.8544770694
 20
5.6034125656
 11
5.8543684724
 21
5.6035380136
  0
LINE
  5
388
100
AcDbEntity
  8
0
100
AcDbLine
 62
7
  6
CONTINUOUS
 10
5.8545020475
 20
5.5634134152
 11
5.8543947347
 21
5.5635374152
  0
LINE
  5
389
100
AcDbEntity
  8
0
100
AcDbLine
 62
7
  6
CONTINUOUS
 10
5.8545018826
 20
5.6434126433
 11
5.8543945558
 21
5.6435366592
  0
LINE
  5
38A
100
AcDbEntity
  8
0
100
AcDbLine
 62
7
  6
CONTINUOUS
 10
5.9406283929
 20
5.5153353605
 11
6.154280952
 21
5.2272644944
  0
LINE
  5
38B
100
AcDbEntity
  8
0
100
AcDbLine
 62
7
  6
CONTINUOUS
 10
5.2925645581
 20
5.9134010596
 11
5.2898562489
 21
5.9133703573
  0
LINE
  5
38C
100
AcDbEntity
  8
0
100
AcDbLine
 62
7
  6
CONTINUOUS
 10
5.2923832961
 20
5.9933982361
 11
5.2792203745
 21
5.993249112
  0
LINE
  5
38D
100
AcDbEntity
  8
0
100
AcDbLine
 62
7
  6
CONTINUOUS
 10
4.4282958557
 20
5.9218353605
 11
6.1566420325
 21
5.9218353605
  0
LINE
  5
38E
100
AcDbEntity
  8
0
100
AcDbLine
 62
7
  6
CONTINUOUS
 10
4.4282958557
 20
5.9858511085
 11
6.1566420325
 21
5.9858511085
  0
LINE
  5
38F
100
AcDbEntity
  8
0
100
AcDbLine
 62
7
  6
CONTINUOUS
 10
5.8760257566
 20
5.6310454188
 11
5.8543945558
 21
5.6435366031
  0
LINE
  5
390
100
AcDbEntity
  8
0
100
AcDbLine
 62
7
  6
CONTINUOUS
 10
5.8760336162
 20
5.6710326168
 11
5.8543888869
 21
5.6835317386
  0
LINE
  5
391
100
AcDbEntity
  8
0
100
AcDbLine
 62
7
  6
CONTINUOUS
 10
5.8760290283
 20
5.7110235208
 11
5.8543654961
 21
5.7235340208
  0
LINE
  5
392
100
AcDbEntity
  8
0
100
AcDbLine
 62
7
  6
CONTINUOUS
 10
5.8760336142
 20
5.7510319468
 11
5.8543891006
 21
5.7635309393
  0
LINE
  5
393
100
AcDbEntity
  8
0
100
AcDbLine
 62
7
  6
CONTINUOUS
 10
5.8760290867
 20
5.7910226901
 11
5.8543655566
 21
5.8035331875
  0
LINE
  5
394
100
AcDbEntity
  8
0
100
AcDbLine
 62
7
  6
CONTINUOUS
 10
5.8760232196
 20
5.831034148
 11
5.8543742166
 21
5.843536064
  0
LINE
  5
395
100
AcDbEntity
  8
0
100
AcDbLine
 62
7
  6
CONTINUOUS
 10
5.8760291345
 20
5.8710215059
 11
5.8543649875
 21
5.8835323722
  0
LINE
  5
396
100
AcDbEntity
  8
0
100
AcDbLine
 62
7
  6
CONTINUOUS
 10
5.876023236
 20
5.9110332136
 11
5.8573176372
 21
5.9218353605
  0
LINE
  5
397
100
AcDbEntity
  8
0
100
AcDbLine
 62
9
  6
CONTINUOUS
 10
5.874482761
 20
5.8704329008
 11
5.8529137555
 21
5.8829214589
  0
LINE
  5
398
100
AcDbEntity
  8
0
100
AcDbLine
 62
7
  6
CONTINUOUS
 10
5.8543946624
 20
6.0035211806
 11
5.854503012
 21
6.0033960893
  0
LINE
  5
399
100
AcDbEntity
  8
0
100
AcDbLine
 62
7
  6
CONTINUOUS
 10
5.8544110322
 20
6.2035127406
 11
5.8545189729
 21
6.2033881429
  0
LINE
  5
39A
100
AcDbEntity
  8
0
100
AcDbLine
 62
7
  6
CONTINUOUS
 10
5.8543781152
 20
5.883524791
 11
5.8544869183
 21
5.8833991411
  0
LINE
  5
39B
100
AcDbEntity
  8
0
100
AcDbLine
 62
7
  6
CONTINUOUS
 10
5.854490094
 20
6.0834029231
 11
5.8543817568
 21
6.0835280047
  0
LINE
  5
39C
100
AcDbEntity
  8
0
100
AcDbLine
 62
7
  6
CONTINUOUS
 10
5.8544825876
 20
5.8434109232
 11
5.8543742166
 21
5.8435361201
  0
LINE
  5
39D
100
AcDbEntity
  8
0
100
AcDbLine
 62
7
  6
CONTINUOUS
 10
5.8544729327
 20
6.1234054592
 11
5.8543641344
 21
6.12353112
  0
LINE
  5
39E
100
AcDbEntity
  8
0
100
AcDbLine
 62
7
  6
CONTINUOUS
 10
5.85448931
 20
6.1634081002
 11
5.8543812345
 21
6.1635329648
  0
LINE
  5
39F
100
AcDbEntity
  8
0
100
AcDbLine
 62
7
  6
CONTINUOUS
 10
5.8545059405
 20
6.0434074096
 11
5.8543990628
 21
6.043530898
  0
LINE
  5
3A0
100
AcDbEntity
  8
0
100
AcDbLine
 62
7
  6
CONTINUOUS
 10
5.8526091932
 20
6.2130346681
 11
5.8526909541
 21
6.2130499644
  0
LINE
  5
3A1
100
AcDbEntity
  8
0
100
AcDbLine
 62
7
  6
CONTINUOUS
 10
5.8529842439
 20
6.2130376176
 11
5.8530854329
 21
6.2130530338
  0
LINE
  5
3A2
100
AcDbEntity
  8
0
100
AcDbLine
 62
7
  6
CONTINUOUS
 10
5.2239561164
 20
6.1126276178
 11
5.3644711794
 21
6.1142238605
  0
LINE
  5
3A3
100
AcDbEntity
  8
0
100
AcDbLine
 62
7
  6
CONTINUOUS
 10
5.3570906858
 20
6.1241537317
 11
5.2203395217
 21
6.1225960421
  0
LINE
  5
3A4
100
AcDbEntity
  8
0
100
AcDbLine
 62
7
  6
CONTINUOUS
 10
5.3646561586
 20
6.1016976874
 11
5.3926152407
 21
6.1020106207
  0
LINE
  5
3A5
100
AcDbEntity
  8
0
100
AcDbLine
 62
7
  6
CONTINUOUS
 10
5.3646656058
 20
6.0966914069
 11
5.2206444502
 21
6.0951167935
  0
LINE
  5
3A6
100
AcDbEntity
  8
0
100
AcDbLine
 62
7
  6
CONTINUOUS
 10
4.7672630116
 20
6.2257367822
 11
4.7308900582
 21
6.2257263958
  0
LINE
  5
3A7
100
AcDbEntity
  8
0
100
AcDbLine
 62
7
  6
CONTINUOUS
 10
4.7355319362
 20
6.2308222877
 11
5.849405952
 21
6.2308222877
  0
LINE
  5
3A8
100
AcDbEntity
  8
0
100
AcDbLine
 62
7
  6
CONTINUOUS
 10
4.7308900582
 20
6.2257263958
 11
4.7305504515
 21
6.2257292944
  0
LINE
  5
3A9
100
AcDbEntity
  8
0
100
AcDbLine
 62
7
  6
CONTINUOUS
 10
5.8760332622
 20
5.9910254352
 11
5.8543815346
 21
6.0035287616
  0
LINE
  5
3AA
100
AcDbEntity
  8
0
100
AcDbLine
 62
7
  6
CONTINUOUS
 10
5.8760288309
 20
6.0310405847
 11
5.8543990628
 21
6.0435308418
  0
LINE
  5
3AB
100
AcDbEntity
  8
0
100
AcDbLine
 62
7
  6
CONTINUOUS
 10
5.876033284
 20
6.0710247428
 11
5.8543817568
 21
6.0835279485
  0
LINE
  5
3AC
100
AcDbEntity
  8
0
100
AcDbLine
 62
7
  6
CONTINUOUS
 10
5.8760271872
 20
6.1110208103
 11
5.8543641344
 21
6.1235310638
  0
LINE
  5
3AD
100
AcDbEntity
  8
0
100
AcDbLine
 62
7
  6
CONTINUOUS
 10
5.8760231181
 20
6.1510352599
 11
5.8543812345
 21
6.1635329087
  0
LINE
  5
3AE
100
AcDbEntity
  8
0
100
AcDbLine
 62
7
  6
CONTINUOUS
 10
5.8760346073
 20
6.1910258181
 11
5.8543881402
 21
6.2035259601
  0
LINE
  5
3AF
100
AcDbEntity
  8
0
100
AcDbLine
 62
7
  6
CONTINUOUS
 10
4.7323311488
 20
7.4921307633
 11
4.7003232748
 21
7.5222181649
  0
LINE
  5
3B0
100
AcDbEntity
  8
0
100
AcDbLine
 62
7
  6
CONTINUOUS
 10
5.849405952
 20
6.2308222877
 11
5.8622564412
 21
6.2179717985
  0
LINE
  5
3B1
100
AcDbEntity
  8
0
100
AcDbLine
 62
7
  6
CONTINUOUS
 10
5.2924691797
 20
6.6918957129
 11
5.3030978971
 21
6.6918957129
  0
LINE
  5
3B2
100
AcDbEntity
  8
0
100
AcDbLine
 62
7
  6
CONTINUOUS
 10
5.849405952
 20
6.7727155948
 11
4.7355319362
 21
6.7727155948
  0
LINE
  5
3B3
100
AcDbEntity
  8
0
100
AcDbLine
 62
7
  6
CONTINUOUS
 10
4.682719814
 20
6.7811976814
 11
5.9022180742
 21
6.7811976814
  0
LINE
  5
3B4
100
AcDbEntity
  8
0
100
AcDbLine
 62
7
  6
CONTINUOUS
 10
4.6411087079
 20
7.2702919329
 11
5.9438291803
 21
7.2702919329
  0
LINE
  5
3B5
100
AcDbEntity
  8
0
100
AcDbLine
 62
7
  6
CONTINUOUS
 10
6.1867286101
 20
7.3096476814
 11
4.3982092781
 21
7.3096476814
  0
LINE
  5
3B6
100
AcDbEntity
  8
0
100
AcDbLine
 62
9
  6
CONTINUOUS
 10
6.1867689441
 20
7.4315976814
 11
4.3981689441
 21
7.4315976814
  0
LINE
  5
3B7
100
AcDbEntity
  8
0
100
AcDbLine
 62
7
  6
CONTINUOUS
 10
6.1786389441
 20
7.4397276814
 11
4.4063393288
 21
7.4397276814
  0
LINE
  5
3B8
100
AcDbEntity
  8
0
100
AcDbLine
 62
7
  6
CONTINUOUS
 10
4.732331948
 20
7.4921307633
 11
5.8526059402
 21
7.4921307633
  0
LINE
  5
3B9
100
AcDbEntity
  8
0
100
AcDbLine
 62
7
  6
CONTINUOUS
 10
4.7003232748
 20
7.5222181649
 11
5.8846146134
 21
7.5222181649
  0
LINE
  5
3BA
100
AcDbEntity
  8
0
100
AcDbLine
 62
7
  6
CONTINUOUS
 10
4.7003232751
 20
7.5382221019
 11
5.8846146131
 21
7.5382221019
  0
LINE
  5
3BB
100
AcDbEntity
  8
0
100
AcDbLine
 62
7
  6
CONTINUOUS
 10
4.6735433736
 20
7.6220827318
 11
5.9113945146
 21
7.6220827318
  0
LINE
  5
3BC
100
AcDbEntity
  8
0
100
AcDbLine
 62
7
  6
CONTINUOUS
 10
5.9225439441
 20
7.663692968
 11
4.6623939441
 21
7.663692968
  0
LINE
  5
3BD
100
AcDbEntity
  8
0
100
AcDbLine
 62
9
  6
CONTINUOUS
 10
5.4812881941
 20
7.7979790121
 11
5.1036496941
 21
7.7979790121
  0
LINE
  5
3BE
100
AcDbEntity
  8
0
100
AcDbLine
 62
7
  6
CONTINUOUS
 10
5.1036496941
 20
7.8996040121
 11
5.4812881941
 21
7.8996040121
  0
LINE
  5
3BF
100
AcDbEntity
  8
0
100
AcDbLine
 62
9
  6
CONTINUOUS
 10
5.4812881941
 20
7.9516360121
 11
5.1036496941
 21
7.9516360121
  0
LINE
  5
3C0
100
AcDbEntity
  8
0
100
AcDbLine
 62
9
  6
CONTINUOUS
 10
5.1036496941
 20
8.2825270121
 11
5.4812881941
 21
8.2825270121
  0
LINE
  5
3C1
100
AcDbEntity
  8
0
100
AcDbLine
 62
7
  6
CONTINUOUS
 10
5.4812881941
 20
8.3345590121
 11
5.1036496941
 21
8.3345590121
  0
LINE
  5
3C2
100
AcDbEntity
  8
0
100
AcDbLine
 62
7
  6
CONTINUOUS
 10
5.1036496941
 20
8.3841520121
 11
5.4812881941
 21
8.3841520121
  0
ARC
  5
3C3
100
AcDbEntity
  8
0
100
AcDbCircle
 62
7
  6
CONTINUOUS
 10
4.7939463063
 20
0.1773331147
 40
0.0096023622
100
AcDbArc
 50
180.0
 51
269.9999999162
  0
ARC
  5
3C4
100
AcDbEntity
  8
0
100
AcDbCircle
 62
7
  6
CONTINUOUS
 10
4.8097124408
 20
4.1496754899
 40
2.0245340747
100
AcDbArc
 50
91.9308260752
 51
92.1236468709
  0
ARC
  5
3C5
100
AcDbEntity
  8
0
100
AcDbCircle
 62
7
  6
CONTINUOUS
 10
4.7769071956
 20
5.9044543501
 40
0.3210173095
100
AcDbArc
 50
95.6779489009
 51
96.6885627151
  0
ARC
  5
3C6
100
AcDbEntity
  8
0
100
AcDbCircle
 62
7
  6
CONTINUOUS
 10
5.2922832869
 20
8.115359138
 40
0.1226582707
100
AcDbArc
 50
270.0889626278
 51
277.2150877611
  0
ARC
  5
3C7
100
AcDbEntity
  8
0
100
AcDbCircle
 62
7
  6
CONTINUOUS
 10
5.2922910634
 20
8.1148194368
 40
0.1221185582
100
AcDbArc
 50
267.8094180626
 51
270.0857072126
  0
ARC
  5
3C8
100
AcDbEntity
  8
0
100
AcDbCircle
 62
7
  6
CONTINUOUS
 10
5.292068665
 20
8.1133048236
 40
0.1217647119
100
AcDbArc
 50
68.0983238225
 51
74.6441511731
  0
ARC
  5
3C9
100
AcDbEntity
  8
0
100
AcDbCircle
 62
7
  6
CONTINUOUS
 10
5.2922424165
 20
8.1142931052
 40
0.1216236239
100
AcDbArc
 50
271.5927055235
 51
278.1296071204
  0
ARC
  5
3CA
100
AcDbEntity
  8
0
100
AcDbCircle
 62
7
  6
CONTINUOUS
 10
5.292260125
 20
8.1140846374
 40
0.1213831133
100
AcDbArc
 50
264.3389872337
 51
267.8107535122
  0
ARC
  5
3CB
100
AcDbEntity
  8
0
100
AcDbCircle
 62
7
  6
CONTINUOUS
 10
5.2924655529
 20
8.1138321344
 40
0.1211420497
100
AcDbArc
 50
277.2202726157
 51
74.1379897735
  0
ARC
  5
3CC
100
AcDbEntity
  8
0
100
AcDbCircle
 62
7
  6
CONTINUOUS
 10
5.2923784112
 20
8.1135734762
 40
0.1208700846
100
AcDbArc
 50
256.7755963893
 51
270.0362195856
  0
ARC
  5
3CD
100
AcDbEntity
  8
0
100
AcDbCircle
 62
7
  6
CONTINUOUS
 10
5.2922941102
 20
8.1130805718
 40
0.1204101234
100
AcDbArc
 50
270.0832938996
 51
271.5841537274
  0
ARC
  5
3CE
100
AcDbEntity
  8
0
100
AcDbCircle
 62
7
  6
CONTINUOUS
 10
5.2916739581
 20
8.1151869016
 40
0.1195901836
100
AcDbArc
 50
120.4563074045
 51
127.0034454818
  0
ARC
  5
3CF
100
AcDbEntity
  8
0
100
AcDbCircle
 62
7
  6
CONTINUOUS
 10
5.2921114686
 20
8.1121159862
 40
0.1194170448
100
AcDbArc
 50
251.0807575798
 51
264.3472646778
  0
ARC
  5
3D0
100
AcDbEntity
  8
0
100
AcDbCircle
 62
7
  6
CONTINUOUS
 10
4.5930968969
 20
7.270291933
 40
0.048011811
100
AcDbArc
 50
0.0
 51
55.1581713861
  0
ARC
  5
3D1
100
AcDbEntity
  8
0
100
AcDbCircle
 62
7
  6
CONTINUOUS
 10
4.4062989441
 20
7.4315976814
 40
0.00813
100
AcDbArc
 50
90.0
 51
170.0
  0
ARC
  5
3D2
100
AcDbEntity
  8
0
100
AcDbCircle
 62
7
  6
CONTINUOUS
 10
5.7909915819
 20
0.1773331147
 40
0.0096023622
100
AcDbArc
 50
270.0000000838
 51
360.0
  0
ARC
  5
3D3
100
AcDbEntity
  8
0
100
AcDbCircle
 62
7
  6
CONTINUOUS
 10
5.2924689441
 20
5.3074827706
 40
2.439
100
AcDbArc
 50
75.0288095669
 51
104.9711904331
  0
ARC
  5
3D4
100
AcDbEntity
  8
0
100
AcDbCircle
 62
7
  6
CONTINUOUS
 10
5.2977835383
 20
6.2980084862
 40
0.3939230759
100
AcDbArc
 50
89.2270075486
 51
90.7729931952
  0
CIRCLE
  5
3D5
100
AcDbEntity
  8
0
100
AcDbCircle
 62
9
  6
CONTINUOUS
 10
5.2924689441
 20
8.1138295121
 40
0.144306871
  0
ARC
  5
3D6
100
AcDbEntity
  8
0
100
AcDbCircle
 62
7
  6
CONTINUOUS
 10
5.2926932933
 20
8.1131933199
 40
0.1217806709
100
AcDbArc
 50
87.578224339
 51
94.5745697336
  0
ARC
  5
3D7
100
AcDbEntity
  8
0
100
AcDbCircle
 62
7
  6
CONTINUOUS
 10
5.2929944241
 20
8.1134191059
 40
0.1217711362
100
AcDbArc
 50
120.1070846809
 51
126.6254120062
  0
ARC
  5
3D8
100
AcDbEntity
  8
0
100
AcDbCircle
 62
7
  6
CONTINUOUS
 10
5.2926798841
 20
8.1141064937
 40
0.120837988
100
AcDbArc
 50
74.2001901415
 51
87.2278620266
  0
ARC
  5
3D9
100
AcDbEntity
  8
0
100
AcDbCircle
 62
7
  6
CONTINUOUS
 10
5.2927477514
 20
8.1150607255
 40
0.1199126345
100
AcDbArc
 50
84.5547654866
 51
87.5665186526
  0
ARC
  5
3DA
100
AcDbEntity
  8
0
100
AcDbCircle
 62
7
  6
CONTINUOUS
 10
5.2927097871
 20
8.1156520583
 40
0.1193314966
100
AcDbArc
 50
74.6425452818
 51
81.318214534
  0
ARC
  5
3DB
100
AcDbEntity
  8
0
100
AcDbCircle
 62
7
  6
CONTINUOUS
 10
5.2928884283
 20
8.1165276129
 40
0.1184390172
100
AcDbArc
 50
81.3397090416
 51
84.5551732508
  0
ARC
  5
3DC
100
AcDbEntity
  8
0
100
AcDbCircle
 62
7
  6
CONTINUOUS
 10
5.2924689441
 20
8.1138295121
 40
0.0995112
100
AcDbArc
 50
270.0
 51
123.688274741
  0
CIRCLE
  5
3DD
100
AcDbEntity
  8
0
100
AcDbCircle
 62
7
  6
CONTINUOUS
 10
5.2924689441
 20
8.1138295121
 40
0.0832512
  0
ARC
  5
3DE
100
AcDbEntity
  8
0
100
AcDbCircle
 62
7
  6
CONTINUOUS
 10
5.9918409913
 20
7.270291933
 40
0.048011811
100
AcDbArc
 50
124.8418286139
 51
180.0000000175
  0
ARC
  5
3DF
100
AcDbEntity
  8
0
100
AcDbCircle
 62
7
  6
CONTINUOUS
 10
6.1786389441
 20
7.4315976814
 40
0.00813
100
AcDbArc
 50
10.0
 51
90.0
  0
SPLINE
  5
3E0
100
AcDbEntity
  8
0
100
AcDbSpline
 62
7
  6
CONTINUOUS
 70
0
 71
3
 72
9
 73
5
 74
0
 42
0.0000001
 43
0.0000001
 44
0.0000000001
 40
0.0
 40
0.0
 40
0.0
 40
0.0
 40
0.8461930943
 40
1.0
 40
1.0
 40
1.0
 40
1.0
 10
5.2372753419
 20
8.1966263539
 30
0.0
 10
5.2203799038
 20
8.1853267594
 30
0.0
 10
5.2046005884
 20
8.1657241988
 30
0.0
 10
5.1972217988
 20
8.1428516502
 30
0.0
 10
5.1962865831
 20
8.1392797038
 30
0.0
  0
SPLINE
  5
3E1
100
AcDbEntity
  8
0
100
AcDbSpline
 62
7
  6
CONTINUOUS
 70
0
 71
3
 72
8
 73
4
 74
0
 42
0.0000001
 43
0.0000001
 44
0.0000000001
 40
0.0
 40
0.0
 40
0.0
 40
0.0
 40
1.0
 40
1.0
 40
1.0
 40
1.0
 10
5.1962865831
 20
8.1392797038
 30
0.0
 10
5.192164394
 20
8.1235354869
 30
0.0
 10
5.1919218795
 20
8.1067423323
 30
0.0
 10
5.1956417213
 20
8.0909011885
 30
0.0
  0
SPLINE
  5
3E2
100
AcDbEntity
  8
0
100
AcDbSpline
 62
7
  6
CONTINUOUS
 70
0
 71
3
 72
10
 73
6
 74
0
 42
0.0000001
 43
0.0000001
 44
0.0000000001
 40
0.0
 40
0.0
 40
0.0
 40
0.0
 40
0.0459780643
 40
0.5420694709
 40
1.0
 40
1.0
 40
1.0
 40
1.0
 10
5.1956417213
 20
8.0909011885
 30
0.0
 10
5.1961079007
 20
8.0889159388
 30
0.0
 10
5.202337729
 20
8.0656866391
 30
0.0
 10
5.229829614
 20
8.027677543
 30
0.0
 10
5.2721436614
 20
8.0143530376
 30
0.0
 10
5.292469402
 20
8.0143224735
 30
0.0
  0
SPLINE
  5
3E3
100
AcDbEntity
  8
0
100
AcDbSpline
 62
7
  6
CONTINUOUS
 70
0
 71
3
 72
24
 73
20
 74
0
 42
0.0000001
 43
0.0000001
 44
0.0000000001
 40
0.0
 40
0.0
 40
0.0
 40
0.0
 40
0.0625879161
 40
0.12509507
 40
0.1875647372
 40
0.250038158
 40
0.3125267546
 40
0.375018522
 40
0.4375181035
 40
0.5000059904
 40
0.5624906156
 40
0.6249949175
 40
0.6875074312
 40
0.7500067787
 40
0.8124703753
 40
0.8437203427
 40
0.8749786127
 40
0.9374825217
 40
1.0
 40
1.0
 40
1.0
 40
1.0
 10
5.2647275035
 20
7.9959086783
 30
0.0
 10
5.2591395726
 20
7.9972181048
 30
0.0
 10
5.2481395871
 20
8.000632967
 30
0.0
 10
5.23256681
 20
8.0080652412
 30
0.0
 10
5.2182029425
 20
8.0176127736
 30
0.0
 10
5.2053420497
 20
8.029101291
 30
0.0
 10
5.1942197217
 20
8.0422821232
 30
0.0
 10
5.1850702252
 20
8.0569060721
 30
0.0
 10
5.178092309
 20
8.0726810297
 30
0.0
 10
5.1734083918
 20
8.0892829361
 30
0.0
 10
5.1711605282
 20
8.1063861478
 30
0.0
 10
5.1713371269
 20
8.123635648
 30
0.0
 10
5.1739384126
 20
8.1406911911
 30
0.0
 10
5.1789095843
 20
8.1572066013
 30
0.0
 10
5.1849667997
 20
8.1702473151
 30
0.0
 10
5.1909026539
 20
8.1800601642
 30
0.0
 10
5.1975232421
 20
8.1894291615
 30
0.0
 10
5.2070149187
 20
8.2002314086
 30
0.0
 10
5.215746892
 20
8.2077271795
 30
0.0
 10
5.2203480919
 20
8.2111468913
 30
0.0
  0
SPLINE
  5
3E4
100
AcDbEntity
  8
0
100
AcDbSpline
 62
7
  6
CONTINUOUS
 70
0
 71
3
 72
12
 73
8
 74
0
 42
0.0000001
 43
0.0000001
 44
0.0000000001
 40
0.0
 40
0.0
 40
0.0
 40
0.0
 40
0.2498410183
 40
0.374853574
 40
0.4999075549
 40
0.7499547024
 40
1.0
 40
1.0
 40
1.0
 40
1.0
 10
5.2319118655
 20
8.2187620253
 30
0.0
 10
5.2369135841
 20
8.2216610616
 30
0.0
 10
5.2447484444
 20
8.2254763943
 30
0.0
 10
5.2556504374
 20
8.2293653459
 30
0.0
 10
5.2668100353
 20
8.2324627202
 30
0.0
 10
5.2811312918
 20
8.2348313532
 30
0.0
 10
5.2927451605
 20
8.2350861549
 30
0.0
 10
5.2985240999
 20
8.2348030739
 30
0.0
  0
LINE
  5
3E5
100
AcDbEntity
  8
0
100
AcDbLine
 62
7
  6
CONTINUOUS
 10
5.2310559477
 20
8.2182755471
 11
5.2319068039
 21
8.2187708051
  0
SPLINE
  5
3E6
100
AcDbEntity
  8
0
100
AcDbSpline
 62
7
  6
CONTINUOUS
 70
0
 71
3
 72
25
 73
21
 74
0
 42
0.0000001
 43
0.0000001
 44
0.0000000001
 40
0.0
 40
0.0
 40
0.0
 40
0.0
 40
0.0625179296
 40
0.1250139272
 40
0.1562720263
 40
0.1875258079
 40
0.2500056117
 40
0.3125126698
 40
0.3750151611
 40
0.4374996564
 40
0.4999936459
 40
0.5624922224
 40
0.6249766903
 40
0.6874640488
 40
0.7499609731
 40
0.8124489834
 40
0.8437113618
 40
0.8749777331
 40
0.9374820646
 40
1.0
 40
1.0
 40
1.0
 40
1.0
 10
5.33748872
 20
8.2262812091
 30
0.0
 10
5.3436198427
 20
8.2238169057
 30
0.0
 10
5.3555009202
 20
8.2178839101
 30
0.0
 10
5.3689551759
 20
8.2081733373
 30
0.0
 10
5.3786548118
 20
8.1991817159
 30
0.0
 10
5.387571364
 20
8.1894154343
 30
0.0
 10
5.3971465549
 20
8.1758616785
 30
0.0
 10
5.4058465388
 20
8.1579618937
 30
0.0
 10
5.4115296638
 20
8.1388856696
 30
0.0
 10
5.414053148
 20
8.1191407792
 30
0.0
 10
5.4132761337
 20
8.0992508557
 30
0.0
 10
5.409286344
 20
8.0797507182
 30
0.0
 10
5.4021495385
 20
8.0611709843
 30
0.0
 10
5.392105101
 20
8.0439886209
 30
0.0
 10
5.3793916232
 20
8.0286776577
 30
0.0
 10
5.366860022
 20
8.0177981754
 30
0.0
 10
5.3558722902
 20
8.0104346714
 30
0.0
 10
5.344311542
 20
8.0040045027
 30
0.0
 10
5.3289355719
 20
7.9977634175
 30
0.0
 10
5.3159830446
 20
7.9948257144
 30
0.0
 10
5.3094415537
 20
7.9938917117
 30
0.0
  0
SPLINE
  5
3E7
100
AcDbEntity
  8
0
100
AcDbSpline
 62
7
  6
CONTINUOUS
 70
0
 71
3
 72
11
 73
7
 74
0
 42
0.0000001
 43
0.0000001
 44
0.0000000001
 40
0.0
 40
0.0
 40
0.0
 40
0.0
 40
0.2499851372
 40
0.4999845015
 40
0.7499923494
 40
1.0
 40
1.0
 40
1.0
 40
1.0
 10
5.3360158315
 20
4.9230173312
 30
0.0
 10
5.3125270476
 20
4.9230173312
 30
0.0
 10
5.2655360328
 20
4.9215808469
 30
0.0
 10
5.1953149512
 20
4.9152303711
 30
0.0
 10
5.1255610314
 20
4.9049672882
 30
0.0
 10
5.079465347
 20
4.8957802741
 30
0.0
 10
5.0565353077
 20
4.8906777607
 30
0.0
  0
SPLINE
  5
3E8
100
AcDbEntity
  8
0
100
AcDbSpline
 62
7
  6
CONTINUOUS
 70
0
 71
3
 72
11
 73
7
 74
0
 42
0.0000001
 43
0.0000001
 44
0.0000000001
 40
0.0
 40
0.0
 40
0.0
 40
0.0
 40
0.2500076575
 40
0.5000155151
 40
0.750014877
 40
1.0
 40
1.0
 40
1.0
 40
1.0
 10
5.6154963554
 20
4.8906777607
 30
0.0
 10
5.5925663152
 20
4.8957802743
 30
0.0
 10
5.5464706369
 20
4.9049673281
 30
0.0
 10
5.4767167121
 20
4.915230402
 30
0.0
 10
5.4064956274
 20
4.9215808371
 30
0.0
 10
5.3595046144
 20
4.9230173312
 30
0.0
 10
5.3360158315
 20
4.9230173312
 30
0.0
  0
SPLINE
  5
3E9
100
AcDbEntity
  8
0
100
AcDbSpline
 62
7
  6
CONTINUOUS
 70
0
 71
3
 72
11
 73
7
 74
0
 42
0.0000001
 43
0.0000001
 44
0.0000000001
 40
0.0
 40
0.0
 40
0.0
 40
0.0
 40
0.2598716376
 40
0.5118788829
 40
0.7576770335
 40
1.0
 40
1.0
 40
1.0
 40
1.0
 10
6.0191583807
 20
4.6512820988
 30
0.0
 10
6.0091469694
 20
4.6462620116
 30
0.0
 10
5.9890039863
 20
4.6371789255
 30
0.0
 10
5.9579638443
 20
4.6268320919
 30
0.0
 10
5.9266379814
 20
4.6204039651
 30
0.0
 10
5.9055750005
 20
4.6189425282
 30
0.0
 10
5.8951317483
 20
4.6189425282
 30
0.0
  0
SPLINE
  5
3EA
100
AcDbEntity
  8
0
100
AcDbSpline
 62
7
  6
CONTINUOUS
 70
0
 71
3
 72
11
 73
7
 74
0
 42
0.0000001
 43
0.0000001
 44
0.0000000001
 40
0.0
 40
0.0
 40
0.0
 40
0.0
 40
0.2423229555
 40
0.4881210703
 40
0.740128303
 40
1.0
 40
1.0
 40
1.0
 40
1.0
 10
5.8951317483
 20
4.9230173312
 30
0.0
 10
5.9055750004
 20
4.9230173312
 30
0.0
 10
5.9266379784
 20
4.9215558836
 30
0.0
 10
5.9579638469
 20
4.9151277961
 30
0.0
 10
5.9890039951
 20
4.9047809666
 30
0.0
 10
6.0091469667
 20
4.8956978492
 30
0.0
 10
6.0191583807
 20
4.8906777607
 30
0.0
  0
SPLINE
  5
3EB
100
AcDbEntity
  8
0
100
AcDbSpline
 62
7
  6
CONTINUOUS
 70
0
 71
3
 72
12
 73
8
 74
0
 42
0.0000001
 43
0.0000001
 44
0.0000000001
 40
0.0
 40
0.0
 40
0.0
 40
0.0
 40
0.2422961126
 40
0.3646215194
 40
0.4881900594
 40
0.7401639968
 40
1.0
 40
1.0
 40
1.0
 40
1.0
 10
5.8951317483
 20
4.9230173312
 30
0.0
 10
5.8846883833
 20
4.9230173312
 30
0.0
 10
5.868947441
 20
4.921922686
 30
0.0
 10
5.8481943498
 20
4.9183915453
 30
0.0
 10
5.8272962961
 20
4.9134575309
 30
0.0
 10
5.8012578001
 20
4.9047804824
 30
0.0
 10
5.7811163719
 20
4.89569777
 30
0.0
 10
5.7711051158
 20
4.8906777607
 30
0.0
  0
SPLINE
  5
3EC
100
AcDbEntity
  8
0
100
AcDbSpline
 62
7
  6
CONTINUOUS
 70
0
 71
3
 72
11
 73
7
 74
0
 42
0.0000001
 43
0.0000001
 44
0.0000000001
 40
0.0
 40
0.0
 40
0.0
 40
0.0
 40
0.2555926569
 40
0.5067077015
 40
0.7543260437
 40
1.0
 40
1.0
 40
1.0
 40
1.0
 10
4.5778991359
 20
4.6512820988
 30
0.0
 10
4.5905321228
 20
4.6462280975
 30
0.0
 10
4.6159490101
 20
4.6370993017
 30
0.0
 10
4.6548161871
 20
4.6267867078
 30
0.0
 10
4.6939927194
 20
4.6203926544
 30
0.0
 10
4.7202746053
 20
4.6189425282
 30
0.0
 10
4.7333530274
 20
4.6189425282
 30
0.0
  0
SPLINE
  5
3ED
100
AcDbEntity
  8
0
100
AcDbSpline
 62
7
  6
CONTINUOUS
 70
0
 71
3
 72
11
 73
7
 74
0
 42
0.0000001
 43
0.0000001
 44
0.0000000001
 40
0.0
 40
0.0
 40
0.0
 40
0.0
 40
0.2456739745
 40
0.4932923401
 40
0.7444073822
 40
1.0
 40
1.0
 40
1.0
 40
1.0
 10
4.7333530274
 20
4.9230173312
 30
0.0
 10
4.7202746047
 20
4.9230173312
 30
0.0
 10
4.6939927161
 20
4.9215672138
 30
0.0
 10
4.6548161877
 20
4.915173124
 30
0.0
 10
4.6159490171
 20
4.9048605233
 30
0.0
 10
4.5905321205
 20
4.8957317611
 30
0.0
 10
4.5778991359
 20
4.8906777607
 30
0.0
  0
SPLINE
  5
3EE
100
AcDbEntity
  8
0
100
AcDbSpline
 62
7
  6
CONTINUOUS
 70
0
 71
3
 72
11
 73
7
 74
0
 42
0.0000001
 43
0.0000001
 44
0.0000000001
 40
0.0
 40
0.0
 40
0.0
 40
0.0
 40
0.2555926565
 40
0.5067077037
 40
0.754326045
 40
1.0
 40
1.0
 40
1.0
 40
1.0
 10
4.8888069188
 20
4.8906777607
 30
0.0
 10
4.8761739319
 20
4.895731762
 30
0.0
 10
4.8507570443
 20
4.9048605574
 30
0.0
 10
4.8118898681
 20
4.9151731547
 30
0.0
 10
4.7727133355
 20
4.9215672095
 30
0.0
 10
4.7464314494
 20
4.9230173312
 30
0.0
 10
4.7333530274
 20
4.9230173312
 30
0.0
  0
SPLINE
  5
3EF
100
AcDbEntity
  8
0
100
AcDbSpline
 62
7
  6
CONTINUOUS
 70
0
 71
3
 72
12
 73
8
 74
0
 42
0.0000001
 43
0.0000001
 44
0.0000000001
 40
0.0
 40
0.0
 40
0.0
 40
0.0
 40
0.2456568335
 40
0.3691520765
 40
0.4933392094
 40
0.7444314467
 40
1.0
 40
1.0
 40
1.0
 40
1.0
 10
4.7333530274
 20
4.6189425282
 30
0.0
 10
4.7464315873
 20
4.6189425282
 30
0.0
 10
4.7661054049
 20
4.6200302869
 30
0.0
 10
4.7921398854
 20
4.6235611875
 30
0.0
 10
4.8182467195
 20
4.6284756169
 30
0.0
 10
4.8507585196
 20
4.6370997057
 30
0.0
 10
4.8761741096
 20
4.6462281686
 30
0.0
 10
4.8888069188
 20
4.6512820988
 30
0.0
  0
SPLINE
  5
3F0
100
AcDbEntity
  8
0
100
AcDbSpline
 62
7
  6
CONTINUOUS
 70
0
 71
3
 72
11
 73
7
 74
0
 42
0.0000001
 43
0.0000001
 44
0.0000000001
 40
0.0
 40
0.0
 40
0.0
 40
0.0
 40
0.2499877388
 40
0.4999899453
 40
0.7499951982
 40
1.0
 40
1.0
 40
1.0
 40
1.0
 10
5.3360158315
 20
4.6189425282
 30
0.0
 10
5.3595048543
 20
4.6189425282
 30
0.0
 10
5.4064963585
 20
4.6203794685
 30
0.0
 10
5.4767176773
 20
4.6267300588
 30
0.0
 10
5.5464712979
 20
4.6369933029
 30
0.0
 10
5.5925665827
 20
4.6461796447
 30
0.0
 10
5.6154963554
 20
4.6512820988
 30
0.0
  0
SPLINE
  5
3F1
100
AcDbEntity
  8
0
100
AcDbSpline
 62
7
  6
CONTINUOUS
 70
0
 71
3
 72
12
 73
8
 74
0
 42
0.0000001
 43
0.0000001
 44
0.0000000001
 40
0.0
 40
0.0
 40
0.0
 40
0.0
 40
0.2598360874
 40
0.5118100077
 40
0.6353785211
 40
0.7577039103
 40
1.0
 40
1.0
 40
1.0
 40
1.0
 10
5.7711051158
 20
4.6512820988
 30
0.0
 10
5.7811163754
 20
4.6462620877
 30
0.0
 10
5.8012577862
 20
4.6371793286
 30
0.0
 10
5.8272962936
 20
4.6285022947
 30
0.0
 10
5.8481943547
 20
4.6235683215
 30
0.0
 10
5.8689474437
 20
4.620037186
 30
0.0
 10
5.884688384
 20
4.6189425282
 30
0.0
 10
5.8951317483
 20
4.6189425282
 30
0.0
  0
SPLINE
  5
3F2
100
AcDbEntity
  8
0
100
AcDbSpline
 62
7
  6
CONTINUOUS
 70
0
 71
3
 72
11
 73
7
 74
0
 42
0.0000001
 43
0.0000001
 44
0.0000000001
 40
0.0
 40
0.0
 40
0.0
 40
0.0
 40
0.2500076574
 40
0.5000155156
 40
0.7500148771
 40
1.0
 40
1.0
 40
1.0
 40
1.0
 10
5.0565353077
 20
4.6512820988
 30
0.0
 10
5.0794653479
 20
4.6461795852
 30
0.0
 10
5.1255610269
 20
4.636992535
 30
0.0
 10
5.1953149515
 20
4.6267294608
 30
0.0
 10
5.2655360358
 20
4.6203790214
 30
0.0
 10
5.3125270488
 20
4.6189425282
 30
0.0
 10
5.3360158315
 20
4.6189425282
 30
0.0
  0
SPLINE
  5
3F3
100
AcDbEntity
  8
0
100
AcDbSpline
 62
7
  6
CONTINUOUS
 70
0
 71
3
 72
14
 73
10
 74
0
 42
0.0000001
 43
0.0000001
 44
0.0000000001
 40
0.0
 40
0.0
 40
0.0
 40
0.0
 40
0.0434580107
 40
0.1096745066
 40
0.19920272
 40
0.3122264508
 40
0.4488118093
 40
0.6089762578
 40
1.0
 40
1.0
 40
1.0
 40
1.0
 10
5.876023359
 20
5.7057763053
 30
0.0
 10
5.875941689
 20
5.7057297036
 30
0.0
 10
5.8757150215
 20
5.7056516757
 30
0.0
 10
5.8752963625
 20
5.7055521019
 30
0.0
 10
5.8747228392
 20
5.7054520456
 30
0.0
 10
5.8739961366
 20
5.7053509146
 30
0.0
 10
5.8731151854
 20
5.705249648
 30
0.0
 10
5.8716341175
 20
5.705104569
 30
0.0
 10
5.8704450214
 20
5.7050114632
 30
0.0
 10
5.8696011498
 20
5.7049506423
 30
0.0
  0
LINE
  5
3F4
100
AcDbEntity
  8
0
100
AcDbLine
 62
7
  6
CONTINUOUS
 10
5.8696011498
 20
5.7049506423
 11
5.8501891724
 21
5.7040041011
  0
SPLINE
  5
3F5
100
AcDbEntity
  8
0
100
AcDbSpline
 62
7
  6
CONTINUOUS
 70
0
 71
3
 72
27
 73
23
 74
0
 42
0.0000001
 43
0.0000001
 44
0.0000000001
 40
0.0
 40
0.0
 40
0.0
 40
0.0
 40
0.0138308916
 40
0.0307268441
 40
0.0505890108
 40
0.073283778
 40
0.1265951032
 40
0.1893160817
 40
0.259870413
 40
0.3364785015
 40
0.4172069009
 40
0.5000230334
 40
0.5828383465
 40
0.6635643053
 40
0.7401684123
 40
0.8107172958
 40
0.8734314621
 40
0.9267348805
 40
0.9494253648
 40
0.9692829987
 40
0.9861741248
 40
1.0
 40
1.0
 40
1.0
 40
1.0
 10
5.8501891724
 20
5.7040041011
 30
0.0
 10
5.8450495133
 20
5.7038128758
 30
0.0
 10
5.8336291187
 20
5.703444169
 30
0.0
 10
5.8148234394
 20
5.7029450513
 30
0.0
 10
5.7927205112
 20
5.7024506139
 30
0.0
 10
5.7570773381
 20
5.7017524716
 30
0.0
 10
5.7054968626
 20
5.7008869575
 30
0.0
 10
5.6361191646
 20
5.6998835338
 30
0.0
 10
5.5580771735
 20
5.6989007492
 30
0.0
 10
5.4733384676
 20
5.6979124996
 30
0.0
 10
5.3840399372
 20
5.6969067405
 30
0.0
 10
5.2924331246
 20
5.6958913309
 30
0.0
 10
5.2008268227
 20
5.6949124919
 30
0.0
 10
5.1115308901
 20
5.6939146008
 30
0.0
 10
5.0267968576
 20
5.692904313
 30
0.0
 10
4.9487609062
 20
5.6919222357
 30
0.0
 10
4.8793905811
 20
5.6909277954
 30
0.0
 10
4.8278171433
 20
5.6900632696
 30
0.0
 10
4.7921803085
 20
5.6893589896
 30
0.0
 10
4.7700825061
 20
5.688862497
 30
0.0
 10
4.7512820565
 20
5.6883683204
 30
0.0
 10
4.7398651605
 20
5.6880045585
 30
0.0
 10
4.7347273237
 20
5.687814529
 30
0.0
  0
SPLINE
  5
3F6
100
AcDbEntity
  8
0
100
AcDbSpline
 62
7
  6
CONTINUOUS
 70
0
 71
3
 72
12
 73
8
 74
0
 42
0.0000001
 43
0.0000001
 44
0.0000000001
 40
0.0
 40
0.0
 40
0.0
 40
0.0
 40
0.3605033104
 40
0.6477750709
 40
0.8610482385
 40
0.9398262554
 40
1.0
 40
1.0
 40
1.0
 40
1.0
 10
4.7347273237
 20
5.687814529
 30
0.0
 10
4.7318052832
 20
5.6877064535
 30
0.0
 10
4.7265552376
 20
5.6874971856
 30
0.0
 10
4.7195800257
 20
5.6871480895
 30
0.0
 10
4.7148904985
 20
5.6868415342
 30
0.0
 10
4.712045531
 20
5.686579847
 30
0.0
 10
4.7109259652
 20
5.6864472822
 30
0.0
 10
4.7104431005
 20
5.6863762004
 30
0.0
  0
LINE
  5
3F7
100
AcDbEntity
  8
0
100
AcDbLine
 62
7
  6
CONTINUOUS
 10
4.709949978
 20
5.6862971643
 11
4.7088053614
 21
5.6858958601
  0
SPLINE
  5
3F8
100
AcDbEntity
  8
0
100
AcDbSpline
 62
7
  6
CONTINUOUS
 70
0
 71
3
 72
14
 73
10
 74
0
 42
0.0000001
 43
0.0000001
 44
0.0000000001
 40
0.0
 40
0.0
 40
0.0
 40
0.0
 40
0.0433023022
 40
0.1094209844
 40
0.1988972431
 40
0.311909498
 40
0.4485210519
 40
0.6087477143
 40
1.0
 40
1.0
 40
1.0
 40
1.0
 10
5.8760245249
 20
5.7457721862
 30
0.0
 10
5.8759430365
 20
5.7457259231
 30
0.0
 10
5.8757167379
 20
5.7456484889
 30
0.0
 10
5.8752986046
 20
5.7455493585
 30
0.0
 10
5.8747253314
 20
5.7454494992
 30
0.0
 10
5.8739986275
 20
5.7453483194
 30
0.0
 10
5.8731174262
 20
5.7452468185
 30
0.0
 10
5.8716355406
 20
5.7451011771
 30
0.0
 10
5.8704457053
 20
5.7450075693
 30
0.0
 10
5.8696012571
 20
5.7449464186
 30
0.0
  0
LINE
  5
3F9
100
AcDbEntity
  8
0
100
AcDbLine
 62
7
  6
CONTINUOUS
 10
5.8696012571
 20
5.7449464186
 11
5.8501894793
 21
5.7439992543
  0
SPLINE
  5
3FA
100
AcDbEntity
  8
0
100
AcDbSpline
 62
7
  6
CONTINUOUS
 70
0
 71
3
 72
27
 73
23
 74
0
 42
0.0000001
 43
0.0000001
 44
0.0000000001
 40
0.0
 40
0.0
 40
0.0
 40
0.0
 40
0.01383074
 40
0.0307265709
 40
0.0505886666
 40
0.0732833838
 40
0.1265945916
 40
0.1893154383
 40
0.2598696737
 40
0.3364777015
 40
0.4172060497
 40
0.5000221546
 40
0.5828374686
 40
0.6635634603
 40
0.7401676085
 40
0.8107165601
 40
0.873430882
 40
0.9267344267
 40
0.9494249249
 40
0.9692826091
 40
0.986173902
 40
1.0
 40
1.0
 40
1.0
 40
1.0
 10
5.8501894793
 20
5.7439992543
 30
0.0
 10
5.8450498429
 20
5.743808947
 30
0.0
 10
5.8336294691
 20
5.7434427666
 30
0.0
 10
5.8148238596
 20
5.7429460929
 30
0.0
 10
5.7927210342
 20
5.7424512723
 30
0.0
 10
5.7570779924
 20
5.7417510636
 30
0.0
 10
5.7054976367
 20
5.7408850004
 30
0.0
 10
5.6361199992
 20
5.7398863979
 30
0.0
 10
5.5580780582
 20
5.7389091089
 30
0.0
 10
5.4733396791
 20
5.7379002742
 30
0.0
 10
5.3840411417
 20
5.7368997205
 30
0.0
 10
5.2924340113
 20
5.7359168252
 30
0.0
 10
5.2008280654
 20
5.7349055402
 30
0.0
 10
5.1115322158
 20
5.7338988464
 30
0.0
 10
5.0267979192
 20
5.7329071557
 30
0.0
 10
4.9487618123
 20
5.7319293789
 30
0.0
 10
4.8793915055
 20
5.7309244778
 30
0.0
 10
4.8278180275
 20
5.7300570015
 30
0.0
 10
4.7921809734
 20
5.729360576
 30
0.0
 10
4.770083002
 20
5.7288676149
 30
0.0
 10
4.7512824794
 20
5.7283695693
 30
0.0
 10
4.7398655924
 20
5.7280011175
 30
0.0
 10
4.7347277211
 20
5.7278097943
 30
0.0
  0
SPLINE
  5
3FB
100
AcDbEntity
  8
0
100
AcDbSpline
 62
7
  6
CONTINUOUS
 70
0
 71
3
 72
12
 73
8
 74
0
 42
0.0000001
 43
0.0000001
 44
0.0000000001
 40
0.0
 40
0.0
 40
0.0
 40
0.0
 40
0.3605246901
 40
0.6478040445
 40
0.8610686565
 40
0.9398373442
 40
1.0
 40
1.0
 40
1.0
 40
1.0
 10
4.7347277211
 20
5.7278097943
 30
0.0
 10
4.7318056623
 20
5.7277009831
 30
0.0
 10
4.7265556579
 20
5.7274907437
 30
0.0
 10
4.7195804181
 20
5.7271454593
 30
0.0
 10
4.7148907658
 20
5.7268458027
 30
0.0
 10
4.7120456593
 20
5.7265896795
 30
0.0
 10
4.7109260323
 20
5.7264594664
 30
0.0
 10
4.710443141
 20
5.7263893358
 30
0.0
  0
LINE
  5
3FC
100
AcDbEntity
  8
0
100
AcDbLine
 62
7
  6
CONTINUOUS
 10
4.7099146083
 20
5.7263050184
 11
4.7088053614
 21
5.7259092924
  0
SPLINE
  5
3FD
100
AcDbEntity
  8
0
100
AcDbSpline
 62
7
  6
CONTINUOUS
 70
0
 71
3
 72
17
 73
13
 74
0
 42
0.0000001
 43
0.0000001
 44
0.0000000001
 40
0.0
 40
0.0
 40
0.0
 40
0.0
 40
0.0242141478
 40
0.0551116881
 40
0.0924661701
 40
0.1360266866
 40
0.2405380566
 40
0.3658768199
 40
0.5085797851
 40
0.6647158513
 40
0.83002562
 40
1.0
 40
1.0
 40
1.0
 40
1.0
 10
5.8376302351
 20
5.9218353715
 30
0.0
 10
5.8332349526
 20
5.9216308039
 30
0.0
 10
5.8232275093
 20
5.9212467475
 30
0.0
 10
5.8064329833
 20
5.9207321413
 30
0.0
 10
5.786121647
 20
5.9202140926
 30
0.0
 10
5.7524352289
 20
5.9194744823
 30
0.0
 10
5.702760679
 20
5.9185802036
 30
0.0
 10
5.6350704937
 20
5.9175514301
 30
0.0
 10
5.557998512
 20
5.9165175148
 30
0.0
 10
5.4736627265
 20
5.9154799557
 30
0.0
 10
5.3843710204
 20
5.9144408926
 30
0.0
 10
5.3234492304
 20
5.9137508951
 30
0.0
 10
5.292564551
 20
5.9134010747
 30
0.0
  0
SPLINE
  5
3FE
100
AcDbEntity
  8
0
100
AcDbSpline
 62
7
  6
CONTINUOUS
 70
0
 71
3
 72
25
 73
21
 74
0
 42
0.0000001
 43
0.0000001
 44
0.0000000001
 40
0.0
 40
0.0
 40
0.0
 40
0.0
 40
0.1868327806
 40
0.3670141882
 40
0.4526379607
 40
0.5342769134
 40
0.6112103611
 40
0.6827973743
 40
0.7484145959
 40
0.8074917989
 40
0.8594973656
 40
0.9039492441
 40
0.9405009746
 40
0.9557135735
 40
0.9688350393
 40
0.9798431478
 40
0.9887184256
 40
0.995442402
 40
0.9979926991
 40
1.0
 40
1.0
 40
1.0
 40
1.0
 10
5.2898562247
 20
5.9133703982
 30
0.0
 10
5.2551046758
 20
5.9129767738
 30
0.0
 10
5.1868387615
 20
5.9122031438
 30
0.0
 10
5.1026469086
 20
5.9112153656
 30
0.0
 10
5.0380219109
 20
5.9104137623
 30
0.0
 10
4.9926014938
 20
5.9098231279
 30
0.0
 10
4.9497923602
 20
5.909232661
 30
0.0
 10
4.909963807
 20
5.908642903
 30
0.0
 10
4.8734571681
 20
5.9080539941
 30
0.0
 10
4.8405934794
 20
5.9074663236
 30
0.0
 10
4.8116675179
 20
5.9068808537
 30
0.0
 10
4.7869326004
 20
5.90629715
 30
0.0
 10
4.7690419695
 20
5.9057892756
 30
0.0
 10
4.7569794032
 20
5.9053712234
 30
0.0
 10
4.7496670021
 20
5.9050778988
 30
0.0
 10
4.7435343817
 20
5.9047865963
 30
0.0
 10
4.7385934499
 20
5.9044970816
 30
0.0
 10
4.7352263822
 20
5.9042437432
 30
0.0
 10
4.7331386958
 20
5.9040296676
 30
0.0
 10
4.7322976467
 20
5.9039211883
 30
0.0
 10
4.731928674
 20
5.9038639306
 30
0.0
  0
LINE
  5
3FF
100
AcDbEntity
  8
0
100
AcDbLine
 62
7
  6
CONTINUOUS
 10
4.731928674
 20
5.9038639306
 11
4.7305448906
 21
5.9035265962
  0
SPLINE
  5
400
100
AcDbEntity
  8
0
100
AcDbSpline
 62
7
  6
CONTINUOUS
 70
0
 71
3
 72
14
 73
10
 74
0
 42
0.0000001
 43
0.0000001
 44
0.0000000001
 40
0.0
 40
0.0
 40
0.0
 40
0.0
 40
0.043453035
 40
0.1096659035
 40
0.1991919343
 40
0.3122149365
 40
0.4488010158
 40
0.6089676275
 40
1.0
 40
1.0
 40
1.0
 40
1.0
 10
5.8760234065
 20
5.7857754246
 30
0.0
 10
5.8759417475
 20
5.7857288253
 30
0.0
 10
5.8757150953
 20
5.7856508069
 30
0.0
 10
5.8752964575
 20
5.7855512469
 30
0.0
 10
5.8747229454
 20
5.7854512057
 30
0.0
 10
5.8739962454
 20
5.78535009
 30
0.0
 10
5.8731152874
 20
5.7852488389
 30
0.0
 10
5.8716341919
 20
5.7851037807
 30
0.0
 10
5.870445071
 20
5.7850106873
 30
0.0
 10
5.8696011798
 20
5.7849498732
 30
0.0
  0
LINE
  5
401
100
AcDbEntity
  8
0
100
AcDbLine
 62
7
  6
CONTINUOUS
 10
5.8696011798
 20
5.7849498732
 11
5.8501892767
 21
5.7840033213
  0
SPLINE
  5
402
100
AcDbEntity
  8
0
100
AcDbSpline
 62
7
  6
CONTINUOUS
 70
0
 71
3
 72
27
 73
23
 74
0
 42
0.0000001
 43
0.0000001
 44
0.0000000001
 40
0.0
 40
0.0
 40
0.0
 40
0.0
 40
0.0138308716
 40
0.0307268045
 40
0.0505889516
 40
0.0732837005
 40
0.1265949966
 40
0.1893159546
 40
0.2598702723
 40
0.3364783544
 40
0.4172067542
 40
0.5000228928
 40
0.5828382168
 40
0.6635641908
 40
0.7401683158
 40
0.8107172194
 40
0.8734314057
 40
0.926734844
 40
0.9494253387
 40
0.9692829826
 40
0.9861741173
 40
1.0
 40
1.0
 40
1.0
 40
1.0
 10
5.8501892767
 20
5.7840033213
 30
0.0
 10
5.8450496258
 20
5.7838120667
 30
0.0
 10
5.8336292473
 20
5.7834432907
 30
0.0
 10
5.8148235896
 20
5.7829441348
 30
0.0
 10
5.7927206796
 20
5.7824497697
 30
0.0
 10
5.757077526
 20
5.7817517773
 30
0.0
 10
5.7054970719
 20
5.780886287
 30
0.0
 10
5.6361193948
 20
5.7798827127
 30
0.0
 10
5.5580774141
 20
5.7788998528
 30
0.0
 10
5.4733387081
 20
5.7779117321
 30
0.0
 10
5.3840401712
 20
5.7769059943
 30
0.0
 10
5.2924333475
 20
5.7758904255
 30
0.0
 10
5.2008270266
 20
5.7749116411
 30
0.0
 10
5.1115310699
 20
5.7739138811
 30
0.0
 10
5.0267970114
 20
5.7729036079
 30
0.0
 10
4.948761037
 20
5.7719212141
 30
0.0
 10
4.8793906815
 20
5.7709270244
 30
0.0
 10
4.8278172174
 20
5.7700627095
 30
0.0
 10
4.7921803677
 20
5.7693582943
 30
0.0
 10
4.7700825552
 20
5.7688617038
 30
0.0
 10
4.751282095
 20
5.7683675174
 30
0.0
 10
4.7398651914
 20
5.7680037799
 30
0.0
 10
4.7347273513
 20
5.767813755
 30
0.0
  0
SPLINE
  5
403
100
AcDbEntity
  8
0
100
AcDbSpline
 62
7
  6
CONTINUOUS
 70
0
 71
3
 72
12
 73
8
 74
0
 42
0.0000001
 43
0.0000001
 44
0.0000000001
 40
0.0
 40
0.0
 40
0.0
 40
0.0
 40
0.3605031835
 40
0.6477749263
 40
0.8610481828
 40
0.9398262487
 40
1.0
 40
1.0
 40
1.0
 40
1.0
 10
4.7347273513
 20
5.767813755
 30
0.0
 10
4.7318053072
 20
5.7677056821
 30
0.0
 10
4.7265552544
 20
5.7674964163
 30
0.0
 10
4.719580034
 20
5.7671472747
 30
0.0
 10
4.7148905027
 20
5.766840652
 30
0.0
 10
4.7120455331
 20
5.7665789255
 30
0.0
 10
4.7109259664
 20
5.7664463507
 30
0.0
 10
4.7104431009
 20
5.7663752688
 30
0.0
  0
LINE
  5
404
100
AcDbEntity
  8
0
100
AcDbLine
 62
7
  6
CONTINUOUS
 10
4.7099501181
 20
5.7662962596
 11
4.7088053614
 21
5.7658950265
  0
LINE
  5
405
100
AcDbEntity
  8
0
100
AcDbLine
 62
7
  6
CONTINUOUS
 10
4.7323756461
 20
5.9928847993
 11
4.7305317607
 21
5.9932882481
  0
SPLINE
  5
406
100
AcDbEntity
  8
0
100
AcDbSpline
 62
7
  6
CONTINUOUS
 70
0
 71
3
 72
14
 73
10
 74
0
 42
0.0000001
 43
0.0000001
 44
0.0000000001
 40
0.0
 40
0.0
 40
0.0
 40
0.0
 40
0.0433377213
 40
0.1094829475
 40
0.1989755025
 40
0.3119934817
 40
0.4486000968
 40
0.6088111379
 40
1.0
 40
1.0
 40
1.0
 40
1.0
 10
5.8760244708
 20
5.8257904516
 30
0.0
 10
5.8759429945
 20
5.8257439674
 30
0.0
 10
5.8757167155
 20
5.8256659081
 30
0.0
 10
5.8752985533
 20
5.8255657034
 30
0.0
 10
5.8747252735
 20
5.8254644794
 30
0.0
 10
5.8739985777
 20
5.8253617093
 30
0.0
 10
5.8731174016
 20
5.8252584414
 30
0.0
 10
5.8716356099
 20
5.8251101044
 30
0.0
 10
5.8704458035
 20
5.8250146707
 30
0.0
 10
5.8696013765
 20
5.8249523602
 30
0.0
  0
LINE
  5
407
100
AcDbEntity
  8
0
100
AcDbLine
 62
7
  6
CONTINUOUS
 10
5.8696013765
 20
5.8249523602
 11
5.8501898198
 21
5.8239952194
  0
SPLINE
  5
408
100
AcDbEntity
  8
0
100
AcDbSpline
 62
7
  6
CONTINUOUS
 70
0
 71
3
 72
27
 73
23
 74
0
 42
0.0000001
 43
0.0000001
 44
0.0000000001
 40
0.0
 40
0.0
 40
0.0
 40
0.0
 40
0.0138306332
 40
0.0307263518
 40
0.0505883789
 40
0.0732830531
 40
0.1265941888
 40
0.1893149779
 40
0.2598691851
 40
0.3364772083
 40
0.4172055725
 40
0.5000217114
 40
0.5828370736
 40
0.6635631242
 40
0.740167337
 40
0.8107163539
 40
0.8734307407
 40
0.9267343444
 40
0.9494248673
 40
0.9692825733
 40
0.9861738853
 40
1.0
 40
1.0
 40
1.0
 40
1.0
 10
5.8501898198
 20
5.8239952194
 30
0.0
 10
5.8450502245
 20
5.8238048498
 30
0.0
 10
5.8336298742
 20
5.8234402546
 30
0.0
 10
5.8148243081
 20
5.8229460383
 30
0.0
 10
5.7927215575
 20
5.8224514929
 30
0.0
 10
5.7570785955
 20
5.8217503752
 30
0.0
 10
5.7054982994
 20
5.8208839288
 30
0.0
 10
5.6361206987
 20
5.8198859973
 30
0.0
 10
5.5580787847
 20
5.8189081331
 30
0.0
 10
5.4733403951
 20
5.8178993928
 30
0.0
 10
5.3840418235
 20
5.81689894
 30
0.0
 10
5.2924346407
 20
5.8159159731
 30
0.0
 10
5.2008286226
 20
5.8149049732
 30
0.0
 10
5.1115326952
 20
5.8138980569
 30
0.0
 10
5.0267983173
 20
5.8129060112
 30
0.0
 10
4.9487621176
 20
5.8119287314
 30
0.0
 10
4.8793917289
 20
5.8109237252
 30
0.0
 10
4.8278181897
 20
5.8100560526
 30
0.0
 10
4.792181088
 20
5.809359731
 30
0.0
 10
4.7700830863
 20
5.8088668531
 30
0.0
 10
4.751282538
 20
5.8083688376
 30
0.0
 10
4.7398656359
 20
5.8080003747
 30
0.0
 10
4.7347277578
 20
5.807809041
 30
0.0
  0
SPLINE
  5
409
100
AcDbEntity
  8
0
100
AcDbSpline
 62
7
  6
CONTINUOUS
 70
0
 71
3
 72
12
 73
8
 74
0
 42
0.0000001
 43
0.0000001
 44
0.0000000001
 40
0.0
 40
0.0
 40
0.0
 40
0.0
 40
0.3605246138
 40
0.6478039324
 40
0.8610685564
 40
0.9398372784
 40
1.0
 40
1.0
 40
1.0
 40
1.0
 10
4.7347277578
 20
5.807809041
 30
0.0
 10
4.7318056949
 20
5.8077002238
 30
0.0
 10
4.7265556829
 20
5.8074899702
 30
0.0
 10
4.7195804333
 20
5.807144661
 30
0.0
 10
4.7148907741
 20
5.8068449827
 30
0.0
 10
4.7120456638
 20
5.8065888383
 30
0.0
 10
4.7109260353
 20
5.8064586134
 30
0.0
 10
4.7104431436
 20
5.8063884759
 30
0.0
  0
LINE
  5
40A
100
AcDbEntity
  8
0
100
AcDbLine
 62
7
  6
CONTINUOUS
 10
4.7099062874
 20
5.8063026747
 11
4.7088053614
 21
5.8059083776
  0
SPLINE
  5
40B
100
AcDbEntity
  8
0
100
AcDbSpline
 62
7
  6
CONTINUOUS
 70
0
 71
3
 72
16
 73
12
 74
0
 42
0.0000001
 43
0.0000001
 44
0.0000000001
 40
0.0
 40
0.0
 40
0.0
 40
0.0
 40
0.0236971319
 40
0.0448505202
 40
0.0731488223
 40
0.1088207688
 40
0.1519727355
 40
0.2609030762
 40
0.4001514195
 40
0.5697636088
 40
1.0
 40
1.0
 40
1.0
 40
1.0
 10
4.7304205276
 20
5.9934121698
 30
0.0
 10
4.7304189099
 20
5.9934637045
 30
0.0
 10
4.7305156929
 20
5.9935387057
 30
0.0
 10
4.7306536051
 20
5.9935996918
 30
0.0
 10
4.7308321915
 20
5.9936600398
 30
0.0
 10
4.7310567901
 20
5.9937183419
 30
0.0
 10
4.7314567352
 20
5.9938045319
 30
0.0
 10
4.7320821538
 20
5.993907437
 30
0.0
 10
4.7329837101
 20
5.99402531
 30
0.0
 10
4.7345826796
 20
5.9941970389
 30
0.0
 10
4.7358836299
 20
5.9943041947
 30
0.0
 10
4.736817092
 20
5.9943744868
 30
0.0
  0
SPLINE
  5
40C
100
AcDbEntity
  8
0
100
AcDbSpline
 62
7
  6
CONTINUOUS
 70
0
 71
3
 72
37
 73
33
 74
0
 42
0.0000001
 43
0.0000001
 44
0.0000000001
 40
0.0
 40
0.0
 40
0.0
 40
0.0
 40
0.0039757536
 40
0.0089759787
 40
0.0220073349
 40
0.0389754876
 40
0.0597497368
 40
0.084161012
 40
0.1120079383
 40
0.1430727176
 40
0.1770821245
 40
0.2527713954
 40
0.3365804383
 40
0.4257469868
 40
0.5172967243
 40
0.6082027671
 40
0.6954367665
 40
0.7761216701
 40
0.8131676631
 40
0.8475968963
 40
0.8791112353
 40
0.9074592091
 40
0.9324018021
 40
0.9537353545
 40
0.971295697
 40
0.9786109339
 40
0.984928589
 40
0.9902371761
 40
0.9945254486
 40
0.9977826463
 40
0.9990216242
 40
1.0
 40
1.0
 40
1.0
 40
1.0
 10
4.736817092
 20
5.9943744868
 30
0.0
 10
4.7382924266
 20
5.9944855832
 30
0.0
 10
4.7416261976
 20
5.9946969294
 30
0.0
 10
4.7498053406
 20
5.9951136592
 30
0.0
 10
4.7628209731
 20
5.9956077951
 30
0.0
 10
4.7817071597
 20
5.9961733665
 30
0.0
 10
4.8048297508
 20
5.9967419696
 30
0.0
 10
4.8320015844
 20
5.9973141668
 30
0.0
 10
4.8630035846
 20
5.9978881593
 30
0.0
 10
4.8975778894
 20
5.9984631864
 30
0.0
 10
4.9499546618
 20
5.9992599515
 30
0.0
 10
5.0219588204
 20
6.0002360943
 30
0.0
 10
5.1144883885
 20
6.0013745689
 30
0.0
 10
5.2129205635
 20
6.0025149348
 30
0.0
 10
5.3139939196
 20
6.0036569255
 30
0.0
 10
5.4143480748
 20
6.004798073
 30
0.0
 10
5.510658804
 20
6.0059380529
 30
0.0
 10
5.5869269593
 20
6.006910804
 30
0.0
 10
5.6435453365
 20
6.0077024991
 30
0.0
 10
5.6818668989
 20
6.0082785321
 30
0.0
 10
5.7169512526
 20
6.0088539262
 30
0.0
 10
5.7485048091
 20
6.0094280351
 30
0.0
 10
5.7762690997
 20
6.010000352
 30
0.0
 10
5.8000180018
 20
6.010570723
 30
0.0
 10
5.817206956
 20
6.0110667805
 30
0.0
 10
5.8288078719
 20
6.0114751347
 30
0.0
 10
5.8358508374
 20
6.0117616817
 30
0.0
 10
5.8417664418
 20
6.0120462543
 30
0.0
 10
5.8465415304
 20
6.0123290729
 30
0.0
 10
5.8498016074
 20
6.0125765498
 30
0.0
 10
5.8518282167
 20
6.0127854906
 30
0.0
 10
5.8526467628
 20
6.0128914127
 30
0.0
 10
5.8530065527
 20
6.0129471823
 30
0.0
  0
LINE
  5
40D
100
AcDbEntity
  8
0
100
AcDbLine
 62
7
  6
CONTINUOUS
 10
5.8530065527
 20
6.0129471823
 11
5.8543951546
 21
6.0132862778
  0
SPLINE
  5
40E
100
AcDbEntity
  8
0
100
AcDbSpline
 62
7
  6
CONTINUOUS
 70
0
 71
3
 72
14
 73
10
 74
0
 42
0.0000001
 43
0.0000001
 44
0.0000000001
 40
0.0
 40
0.0
 40
0.0
 40
0.0
 40
0.0425776345
 40
0.1081903876
 40
0.1973720313
 40
0.3102942754
 40
0.447016003
 40
0.6075500051
 40
1.0
 40
1.0
 40
1.0
 40
1.0
 10
5.8760313889
 20
5.8657923108
 30
0.0
 10
5.8759514465
 20
5.8657462669
 30
0.0
 10
5.8757273688
 20
5.8656693968
 30
0.0
 10
5.8753121705
 20
5.8655701663
 30
0.0
 10
5.8747402158
 20
5.8654694876
 30
0.0
 10
5.8740134016
 20
5.8653667618
 30
0.0
 10
5.8731305843
 20
5.8652631938
 30
0.0
 10
5.8716436384
 20
5.8651139375
 30
0.0
 10
5.8704492121
 20
5.8650177034
 30
0.0
 10
5.8696012062
 20
5.86495485
 30
0.0
  0
LINE
  5
40F
100
AcDbEntity
  8
0
100
AcDbLine
 62
7
  6
CONTINUOUS
 10
5.8696012062
 20
5.86495485
 11
5.850189325
 21
5.8639985503
  0
SPLINE
  5
410
100
AcDbEntity
  8
0
100
AcDbSpline
 62
7
  6
CONTINUOUS
 70
0
 71
3
 72
25
 73
21
 74
0
 42
0.0000001
 43
0.0000001
 44
0.0000000001
 40
0.0
 40
0.0
 40
0.0
 40
0.0
 40
0.0138306544
 40
0.0307264962
 40
0.0732835983
 40
0.1265948608
 40
0.1893157232
 40
0.259870131
 40
0.336478271
 40
0.500022868
 40
0.5828382235
 40
0.6635642076
 40
0.7401683295
 40
0.8107172654
 40
0.8734313782
 40
0.9267346975
 40
0.9494252052
 40
0.9692829039
 40
0.9861741033
 40
1.0
 40
1.0
 40
1.0
 40
1.0
 10
5.850189325
 20
5.8639985503
 30
0.0
 10
5.8450496654
 20
5.863809675
 30
0.0
 10
5.8336291657
 20
5.863448163
 30
0.0
 10
5.8063869898
 20
5.8627311374
 30
0.0
 10
5.7644628584
 20
5.8618550347
 30
0.0
 10
5.7054971154
 20
5.8608820939
 30
0.0
 10
5.636119039
 20
5.8599063619
 30
0.0
 10
5.5580773909
 20
5.8588958559
 30
0.0
 10
5.4425445269
 20
5.8575274692
 30
0.0
 10
5.3224509708
 20
5.856248145
 30
0.0
 10
5.200826803
 20
5.8549004426
 30
0.0
 10
5.1115308091
 20
5.8539033208
 30
0.0
 10
5.026796408
 20
5.8529180605
 30
0.0
 10
4.9487607762
 20
5.8519079917
 30
0.0
 10
4.879390348
 20
5.8509237066
 30
0.0
 10
4.8278166757
 20
5.8500737726
 30
0.0
 10
4.7921799526
 20
5.8493630339
 30
0.0
 10
4.7700822308
 20
5.84885996
 30
0.0
 10
4.7512818611
 20
5.8483602556
 30
0.0
 10
4.7398649963
 20
5.8479945411
 30
0.0
 10
4.7347271484
 20
5.8478045472
 30
0.0
  0
SPLINE
  5
411
100
AcDbEntity
  8
0
100
AcDbSpline
 62
7
  6
CONTINUOUS
 70
0
 71
3
 72
12
 73
8
 74
0
 42
0.0000001
 43
0.0000001
 44
0.0000000001
 40
0.0
 40
0.0
 40
0.0
 40
0.0
 40
0.3605230658
 40
0.6478036758
 40
0.8610718565
 40
0.9398408884
 40
1.0
 40
1.0
 40
1.0
 40
1.0
 10
4.7347271484
 20
5.8478045472
 30
0.0
 10
4.7318051439
 20
5.8476964937
 30
0.0
 10
4.7265552063
 20
5.8474877651
 30
0.0
 10
4.7195800889
 20
5.8471425173
 30
0.0
 10
4.7148906051
 20
5.8468413781
 30
0.0
 10
4.7120455929
 20
5.8465849214
 30
0.0
 10
4.7109259931
 20
5.8464550554
 30
0.0
 10
4.7104430758
 20
5.8463853855
 30
0.0
  0
LINE
  5
412
100
AcDbEntity
  8
0
100
AcDbLine
 62
7
  6
CONTINUOUS
 10
4.7098984444
 20
5.8462989279
 11
4.7088053614
 21
5.8459136576
  0
LINE
  5
413
100
AcDbEntity
  8
0
100
AcDbLine
 62
7
  6
CONTINUOUS
 10
4.7319010222
 20
6.0329549023
 11
4.7305610273
 21
6.0332865042
  0
SPLINE
  5
414
100
AcDbEntity
  8
0
100
AcDbSpline
 62
7
  6
CONTINUOUS
 70
0
 71
3
 72
18
 73
14
 74
0
 42
0.0000001
 43
0.0000001
 44
0.0000000001
 40
0.0
 40
0.0
 40
0.0
 40
0.0
 40
0.008794767
 40
0.0228076193
 40
0.0436232452
 40
0.0717008612
 40
0.1072221327
 40
0.1502770859
 40
0.2591717633
 40
0.3986286704
 40
0.5686661554
 40
0.7691692607
 40
1.0
 40
1.0
 40
1.0
 40
1.0
 10
5.8545041852
 20
6.0033960446
 30
0.0
 10
5.8545039042
 20
6.0033698686
 30
0.0
 10
5.8544622753
 20
6.0033068921
 30
0.0
 10
5.8543490607
 20
6.0032435665
 30
0.0
 10
5.8541742216
 20
6.0031745294
 30
0.0
 10
5.8539320637
 20
6.0031070055
 30
0.0
 10
5.8536221261
 20
6.0030378175
 30
0.0
 10
5.8530731143
 20
6.0029375355
 30
0.0
 10
5.8522138894
 20
6.0028169105
 30
0.0
 10
5.850976117
 20
6.0026793556
 30
0.0
 10
5.8494643507
 20
6.0025410363
 30
0.0
 10
5.8476797515
 20
6.0024020318
 30
0.0
 10
5.846398811
 20
6.0023152109
 30
0.0
 10
5.8457131562
 20
6.0022712243
 30
0.0
  0
SPLINE
  5
415
100
AcDbEntity
  8
0
100
AcDbSpline
 62
7
  6
CONTINUOUS
 70
0
 71
3
 72
19
 73
15
 74
0
 42
0.0000001
 43
0.0000001
 44
0.0000000001
 40
0.0
 40
0.0
 40
0.0
 40
0.0
 40
0.0087690091
 40
0.0194121781
 40
0.0462404794
 40
0.0802885508
 40
0.1212834707
 40
0.1689386378
 40
0.2229014765
 40
0.3480650936
 40
0.4929746607
 40
0.653202475
 40
0.8239339648
 40
1.0
 40
1.0
 40
1.0
 40
1.0
 10
5.8457131562
 20
6.0022712243
 30
0.0
 10
5.8440988354
 20
6.0021676613
 30
0.0
 10
5.8405233016
 20
6.0019677023
 30
0.0
 10
5.8320023057
 20
6.0015725921
 30
0.0
 10
5.8188171486
 20
6.0010988943
 30
0.0
 10
5.8000324841
 20
6.0005570584
 30
0.0
 10
5.7774045619
 20
6.0000119352
 30
0.0
 10
5.7511021007
 20
5.999464317
 30
0.0
 10
5.7092742355
 20
5.9986938906
 30
0.0
 10
5.64950583
 20
5.997756229
 30
0.0
 10
5.5701346107
 20
5.9966710104
 30
0.0
 10
5.4823567241
 20
5.9955818789
 30
0.0
 10
5.3888309557
 20
5.994490596
 30
0.0
 10
5.3248605193
 20
5.993766137
 30
0.0
 10
5.2923832961
 20
5.9933982361
 30
0.0
  0
SPLINE
  5
416
100
AcDbEntity
  8
0
100
AcDbSpline
 62
7
  6
CONTINUOUS
 70
0
 71
3
 72
14
 73
10
 74
0
 42
0.0000001
 43
0.0000001
 44
0.0000000001
 40
0.0
 40
0.0
 40
0.0
 40
0.0
 40
0.315992295
 40
0.4648050013
 40
0.6032616183
 40
0.728496402
 40
0.8378639369
 40
0.928991497
 40
1.0
 40
1.0
 40
1.0
 40
1.0
 10
5.2792203745
 20
5.993249112
 30
0.0
 10
5.2257513072
 20
5.99264324
 30
0.0
 10
5.1471016456
 20
5.9917505427
 30
0.0
 10
5.0450247306
 20
5.9905077905
 30
0.0
 10
4.9752263565
 20
5.9895957872
 30
0.0
 10
4.9121035213
 20
5.9886864738
 30
0.0
 10
4.8569905411
 20
5.9877828746
 30
0.0
 10
4.8110551993
 20
5.9868852389
 30
0.0
 10
4.7836262793
 20
5.9862134225
 30
0.0
 10
4.7716156215
 20
5.9858510659
 30
0.0
  0
LINE
  5
417
100
AcDbEntity
  8
0
100
AcDbLine
 62
7
  6
CONTINUOUS
 10
5.8760251675
 20
5.9057822737
 11
5.874828951
 21
5.9054766369
  0
LINE
  5
418
100
AcDbEntity
  8
0
100
AcDbLine
 62
7
  6
CONTINUOUS
 10
5.8535406214
 20
6.0037700001
 11
5.8543971841
 21
6.0035211339
  0
SPLINE
  5
419
100
AcDbEntity
  8
0
100
AcDbSpline
 62
7
  6
CONTINUOUS
 70
0
 71
3
 72
14
 73
10
 74
0
 42
0.0000001
 43
0.0000001
 44
0.0000000001
 40
0.0
 40
0.0
 40
0.0
 40
0.0
 40
0.0435582534
 40
0.1098491559
 40
0.1994227271
 40
0.312462102
 40
0.4490332524
 40
0.6091536507
 40
1.0
 40
1.0
 40
1.0
 40
1.0
 10
5.8760223699
 20
6.0257765913
 30
0.0
 10
5.8759404678
 20
6.0257299801
 30
0.0
 10
5.8757135026
 20
6.0256518142
 30
0.0
 10
5.8752944452
 20
6.0255520067
 30
0.0
 10
5.8747207482
 20
6.0254516614
 30
0.0
 10
5.8739940683
 20
6.0253502085
 30
0.0
 10
5.8731133515
 20
6.0252485862
 30
0.0
 10
5.8716330146
 20
6.0251029757
 30
0.0
 10
5.870444562
 20
6.0250094928
 30
0.0
 10
5.8696011875
 20
6.0249484303
 30
0.0
  0
LINE
  5
41A
100
AcDbEntity
  8
0
100
AcDbLine
 62
7
  6
CONTINUOUS
 10
5.8696011875
 20
6.0249484303
 11
5.8501893812
 21
6.0239988358
  0
SPLINE
  5
41B
100
AcDbEntity
  8
0
100
AcDbSpline
 62
7
  6
CONTINUOUS
 70
0
 71
3
 72
27
 73
23
 74
0
 42
0.0000001
 43
0.0000001
 44
0.0000000001
 40
0.0
 40
0.0
 40
0.0
 40
0.0
 40
0.0138308535
 40
0.0307267519
 40
0.0505888639
 40
0.0732835906
 40
0.1265948989
 40
0.1893158769
 40
0.2598701982
 40
0.3364783051
 40
0.4172067346
 40
0.5000228999
 40
0.5828382502
 40
0.6635642496
 40
0.7401683849
 40
0.8107172812
 40
0.8734314894
 40
0.9267349182
 40
0.9494253653
 40
0.9692829646
 40
0.9861740967
 40
1.0
 40
1.0
 40
1.0
 40
1.0
 10
5.8501893812
 20
6.0239988358
 30
0.0
 10
5.8450497441
 20
6.0238073612
 30
0.0
 10
5.833629378
 20
6.023438655
 30
0.0
 10
5.8148237188
 20
6.0229406075
 30
0.0
 10
5.7927207964
 20
6.0224481108
 30
0.0
 10
5.757077612
 20
6.0217522719
 30
0.0
 10
5.7054972127
 20
6.0208830149
 30
0.0
 10
5.6361195428
 20
6.0198764617
 30
0.0
 10
5.5580774318
 20
6.0189012527
 30
0.0
 10
5.4733387543
 20
6.0179075551
 30
0.0
 10
5.3840401696
 20
6.0169015305
 30
0.0
 10
5.2924332024
 20
6.0158945412
 30
0.0
 10
5.2008269071
 20
6.014908908
 30
0.0
 10
5.1115309507
 20
6.0139074742
 30
0.0
 10
5.0267968276
 20
6.0129004506
 30
0.0
 10
4.9487607484
 20
6.0119241154
 30
0.0
 10
4.8793904607
 20
6.0109235229
 30
0.0
 10
4.8278170735
 20
6.0100554024
 30
0.0
 10
4.792180172
 20
6.0093552902
 30
0.0
 10
4.7700823317
 20
6.0088612059
 30
0.0
 10
4.7512818946
 20
6.0083661624
 30
0.0
 10
4.7398650365
 20
6.0080007249
 30
0.0
 10
4.7347272065
 20
6.0078101907
 30
0.0
  0
SPLINE
  5
41C
100
AcDbEntity
  8
0
100
AcDbSpline
 62
7
  6
CONTINUOUS
 70
0
 71
3
 72
12
 73
8
 74
0
 42
0.0000001
 43
0.0000001
 44
0.0000000001
 40
0.0
 40
0.0
 40
0.0
 40
0.0
 40
0.3605098778
 40
0.6477834565
 40
0.8610532756
 40
0.9398285432
 40
1.0
 40
1.0
 40
1.0
 40
1.0
 10
4.7347272065
 20
6.0078101907
 30
0.0
 10
4.7318051858
 20
6.0077018289
 30
0.0
 10
4.7265552035
 20
6.0074921397
 30
0.0
 10
4.7195800456
 20
6.0071443285
 30
0.0
 10
4.7148905071
 20
6.0068401307
 30
0.0
 10
4.7120455202
 20
6.0065800871
 30
0.0
 10
4.7109259485
 20
6.0064480903
 30
0.0
 10
4.710443091
 20
6.0063771588
 30
0.0
  0
LINE
  5
41D
100
AcDbEntity
  8
0
100
AcDbLine
 62
7
  6
CONTINUOUS
 10
4.709940272
 20
6.0062965164
 11
4.7088053614
 21
6.0058948739
  0
SPLINE
  5
41E
100
AcDbEntity
  8
0
100
AcDbSpline
 62
7
  6
CONTINUOUS
 70
0
 71
3
 72
15
 73
11
 74
0
 42
0.0000001
 43
0.0000001
 44
0.0000000001
 40
0.0
 40
0.0
 40
0.0
 40
0.0
 40
0.0254505317
 40
0.0470120532
 40
0.0755290477
 40
0.1544061827
 40
0.2631303896
 40
0.4019998066
 40
0.5710996923
 40
1.0
 40
1.0
 40
1.0
 40
1.0
 10
4.7304501389
 20
6.0334119273
 30
0.0
 10
4.730449375
 20
6.0334561174
 30
0.0
 10
4.7305228372
 20
6.0335231507
 30
0.0
 10
4.7306356062
 20
6.0335792304
 30
0.0
 10
4.7308477201
 20
6.0336595729
 30
0.0
 10
4.731211072
 20
6.0337495911
 30
0.0
 10
4.7317690733
 20
6.0338543484
 30
0.0
 10
4.7324849849
 20
6.0339589529
 30
0.0
 10
4.7337555516
 20
6.034112521
 30
0.0
 10
4.7347897721
 20
6.0342080254
 30
0.0
 10
4.7355319424
 20
6.034270755
 30
0.0
  0
SPLINE
  5
41F
100
AcDbEntity
  8
0
100
AcDbSpline
 62
7
  6
CONTINUOUS
 70
0
 71
3
 72
21
 73
17
 74
0
 42
0.0000001
 43
0.0000001
 44
0.0000000001
 40
0.0
 40
0.0
 40
0.0
 40
0.0
 40
0.0069226547
 40
0.0159378651
 40
0.0270327067
 40
0.0401908635
 40
0.0725484889
 40
0.1126727377
 40
0.160189017
 40
0.2146181303
 40
0.275450956
 40
0.3421100175
 40
0.4903496036
 40
0.653617222
 40
0.825724227
 40
1.0
 40
1.0
 40
1.0
 40
1.0
 10
4.7355319424
 20
6.034270755
 30
0.0
 10
4.736980997
 20
6.0343932318
 30
0.0
 10
4.7403215439
 20
6.0346217499
 30
0.0
 10
4.7459921271
 20
6.0349257948
 30
0.0
 10
4.7529740717
 20
6.0352319791
 30
0.0
 10
4.76485796
 20
6.0356731022
 30
0.0
 10
4.7828404381
 20
6.0362053685
 30
0.0
 10
4.8080407389
 20
6.0368159768
 30
0.0
 10
4.8378786394
 20
6.0374292091
 30
0.0
 10
4.8720674427
 20
6.0380453474
 30
0.0
 10
4.910278074
 20
6.0386626837
 30
0.0
 10
4.9681938622
 20
6.0395176739
 30
0.0
 10
5.0476272808
 20
6.0405630791
 30
0.0
 10
5.1492113472
 20
6.0417834414
 30
0.0
 10
5.2562651016
 20
6.0430061535
 30
0.0
 10
5.3290240686
 20
6.0438266709
 30
0.0
 10
5.3656312703
 20
6.0442448545
 30
0.0
  0
SPLINE
  5
420
100
AcDbEntity
  8
0
100
AcDbSpline
 62
7
  6
CONTINUOUS
 70
0
 71
3
 72
18
 73
14
 74
0
 42
0.0000001
 43
0.0000001
 44
0.0000000001
 40
0.0
 40
0.0
 40
0.0
 40
0.0
 40
0.0080525114
 40
0.0215100637
 40
0.0419670996
 40
0.069848935
 40
0.1053054654
 40
0.1483945542
 40
0.2575462218
 40
0.397353013
 40
0.5677602516
 40
0.7686780439
 40
1.0
 40
1.0
 40
1.0
 40
1.0
 10
4.7304304739
 20
5.753416043
 30
0.0
 10
4.7304293365
 20
5.753444883
 30
0.0
 10
4.7304789936
 20
5.7535168422
 30
0.0
 10
4.730612613
 20
5.7535841454
 30
0.0
 10
4.7308215493
 20
5.7536607433
 30
0.0
 10
4.731112742
 20
5.7537345957
 30
0.0
 10
4.7314866403
 20
5.7538108915
 30
0.0
 10
4.7321503599
 20
5.7539213113
 30
0.0
 10
4.7331889652
 20
5.7540541565
 30
0.0
 10
4.734684489
 20
5.7542056778
 30
0.0
 10
4.7365102533
 20
5.7543580963
 30
0.0
 10
4.7386648969
 20
5.7545112539
 30
0.0
 10
4.7402112252
 20
5.7546069078
 30
0.0
 10
4.7410389278
 20
5.754655367
 30
0.0
  0
SPLINE
  5
421
100
AcDbEntity
  8
0
100
AcDbSpline
 62
7
  6
CONTINUOUS
 70
0
 71
3
 72
38
 73
34
 74
0
 42
0.0000001
 43
0.0000001
 44
0.0000000001
 40
0.0
 40
0.0
 40
0.0
 40
0.0
 40
0.0049312099
 40
0.0108660376
 40
0.025695803
 40
0.0443561895
 40
0.0667030469
 40
0.0925560018
 40
0.1217055972
 40
0.1889462766
 40
0.266182672
 40
0.350897782
 40
0.4403456876
 40
0.5315926888
 40
0.6216677804
 40
0.7076140058
 40
0.7481552628
 40
0.7866337991
 40
0.8227363128
 40
0.8561690269
 40
0.8866456949
 40
0.9139226215
 40
0.9377738371
 40
0.9579990009
 40
0.9667058393
 40
0.9744524338
 40
0.9812215425
 40
0.9869982594
 40
0.9917727434
 40
0.9955361046
 40
0.9982802143
 40
0.9992682112
 40
1.0
 40
1.0
 40
1.0
 40
1.0
 10
4.7410389278
 20
5.754655367
 30
0.0
 10
4.7428651892
 20
5.7547622884
 30
0.0
 10
4.7468910576
 20
5.7549694817
 30
0.0
 10
4.756414993
 20
5.7553788966
 30
0.0
 10
4.7710329237
 20
5.7558707411
 30
0.0
 10
4.7917398087
 20
5.7564343583
 30
0.0
 10
4.8165373242
 20
5.7570005775
 30
0.0
 10
4.845226922
 20
5.7575695411
 30
0.0
 10
4.8905699126
 20
5.7583685482
 30
0.0
 10
4.9549749754
 20
5.7593406149
 30
0.0
 10
5.0399936279
 20
5.7604677416
 30
0.0
 10
5.1332513699
 20
5.7615982319
 30
0.0
 10
5.2317071173
 20
5.7627306276
 30
0.0
 10
5.3321514345
 20
5.7638641838
 30
0.0
 10
5.4312966176
 20
5.7649969689
 30
0.0
 10
5.5116316404
 20
5.7659571442
 30
0.0
 10
5.5728260557
 20
5.76673641
 30
0.0
 10
5.6155304881
 20
5.7673091457
 30
0.0
 10
5.655597536
 20
5.7678814989
 30
0.0
 10
5.6926957267
 20
5.7684530383
 30
0.0
 10
5.7265193758
 20
5.7690239022
 30
0.0
 10
5.7567879387
 20
5.7695933215
 30
0.0
 10
5.7832526558
 20
5.770160949
 30
0.0
 10
5.802828161
 20
5.7706530603
 30
0.0
 10
5.8164293407
 20
5.7710548283
 30
0.0
 10
5.8250397637
 20
5.7713403869
 30
0.0
 10
5.8325625462
 20
5.7716250533
 30
0.0
 10
5.8389818094
 20
5.7719088884
 30
0.0
 10
5.8442850085
 20
5.7721900679
 30
0.0
 10
5.8484609909
 20
5.7724695199
 30
0.0
 10
5.8512318493
 20
5.7727132254
 30
0.0
 10
5.8528745639
 20
5.7729231733
 30
0.0
 10
5.8535042053
 20
5.7730294808
 30
0.0
 10
5.8537693895
 20
5.7730876089
 30
0.0
  0
LINE
  5
422
100
AcDbEntity
  8
0
100
AcDbLine
 62
7
  6
CONTINUOUS
 10
5.8537693895
 20
5.7730876089
 11
5.854405475
 21
5.7732892887
  0
LINE
  5
423
100
AcDbEntity
  8
0
100
AcDbLine
 62
7
  6
CONTINUOUS
 10
4.7313943337
 20
5.7930437426
 11
4.7305531565
 21
5.7932884563
  0
SPLINE
  5
424
100
AcDbEntity
  8
0
100
AcDbSpline
 62
7
  6
CONTINUOUS
 70
0
 71
3
 72
13
 73
9
 74
0
 42
0.0000001
 43
0.0000001
 44
0.0000000001
 40
0.0
 40
0.0
 40
0.0
 40
0.0
 40
0.0467961642
 40
0.1153554955
 40
0.206246562
 40
0.3196822185
 40
0.6144807236
 40
1.0
 40
1.0
 40
1.0
 40
1.0
 10
4.7305543006
 20
6.1932921548
 30
0.0
 10
4.7306227359
 20
6.1932527452
 30
0.0
 10
4.730806499
 20
6.1931837491
 30
0.0
 10
4.7311427809
 20
6.1930951088
 30
0.0
 10
4.7315949062
 20
6.1930054238
 30
0.0
 10
4.7324266871
 20
6.1928727059
 30
0.0
 10
4.7337573736
 20
6.1927149796
 30
0.0
 10
4.7349005801
 20
6.1926092773
 30
0.0
 10
4.7355488564
 20
6.192554476
 30
0.0
  0
SPLINE
  5
425
100
AcDbEntity
  8
0
100
AcDbSpline
 62
7
  6
CONTINUOUS
 70
0
 71
3
 72
13
 73
9
 74
0
 42
0.0000001
 43
0.0000001
 44
0.0000000001
 40
0.0
 40
0.0
 40
0.0
 40
0.0
 40
0.0478059104
 40
0.1170315755
 40
0.2082817867
 40
0.3217964818
 40
0.6159915106
 40
1.0
 40
1.0
 40
1.0
 40
1.0
 10
4.730551228
 20
6.1532972247
 30
0.0
 10
4.7306126552
 20
6.1532611253
 30
0.0
 10
4.730776483
 20
6.1531972542
 30
0.0
 10
4.7310756496
 20
6.1531151951
 30
0.0
 10
4.731475854
 20
6.1530322048
 30
0.0
 10
4.7322093425
 20
6.1529096408
 30
0.0
 10
4.7333807066
 20
6.1527637054
 30
0.0
 10
4.7343867284
 20
6.1526656011
 30
0.0
 10
4.7349567801
 20
6.1526146755
 30
0.0
  0
SPLINE
  5
426
100
AcDbEntity
  8
0
100
AcDbSpline
 62
7
  6
CONTINUOUS
 70
0
 71
3
 72
18
 73
14
 74
0
 42
0.0000001
 43
0.0000001
 44
0.0000000001
 40
0.0
 40
0.0
 40
0.0
 40
0.0
 40
0.0087901233
 40
0.0227508046
 40
0.0435221538
 40
0.0715728518
 40
0.1070835429
 40
0.1501402725
 40
0.2590547549
 40
0.3985178888
 40
0.5685493561
 40
0.7690753091
 40
1.0
 40
1.0
 40
1.0
 40
1.0
 10
4.7304431745
 20
5.7934137776
 30
0.0
 10
4.7304428897
 20
5.7934396977
 30
0.0
 10
4.7304828545
 20
5.7935028806
 30
0.0
 10
4.7305945739
 20
5.7935661811
 30
0.0
 10
4.7307670916
 20
5.7936351755
 30
0.0
 10
4.7310066501
 20
5.7937026254
 30
0.0
 10
4.7313134686
 20
5.7937717595
 30
0.0
 10
4.7318572888
 20
5.7938719662
 30
0.0
 10
4.7327085067
 20
5.7939924915
 30
0.0
 10
4.7339347611
 20
5.7941299646
 30
0.0
 10
4.7354325039
 20
5.7942682114
 30
0.0
 10
4.7372008325
 20
5.7944071367
 30
0.0
 10
4.7384702218
 20
5.7944938894
 30
0.0
 10
4.7391497891
 20
5.7945378403
 30
0.0
  0
SPLINE
  5
427
100
AcDbEntity
  8
0
100
AcDbSpline
 62
7
  6
CONTINUOUS
 70
0
 71
3
 72
38
 73
34
 74
0
 42
0.0000001
 43
0.0000001
 44
0.0000000001
 40
0.0
 40
0.0
 40
0.0
 40
0.0
 40
0.0045423417
 40
0.010101143
 40
0.0242340562
 40
0.0422962898
 40
0.0641240007
 40
0.0895425035
 40
0.118333524
 40
0.1850437587
 40
0.2620637698
 40
0.3468626864
 40
0.4366019878
 40
0.5283200131
 40
0.6189795302
 40
0.7055814387
 40
0.7464600391
 40
0.7852667056
 40
0.8216676301
 40
0.8553652858
 40
0.8860886366
 40
0.913578009
 40
0.9376161263
 40
0.9579969142
 40
0.9667584965
 40
0.9745449781
 40
0.9813403165
 40
0.9871285523
 40
0.9918941451
 40
0.9956282668
 40
0.9983294837
 40
0.9992931602
 40
1.0
 40
1.0
 40
1.0
 40
1.0
 10
4.7391497891
 20
5.7945378403
 30
0.0
 10
4.7408343165
 20
5.7946467866
 30
0.0
 10
4.7445824177
 20
5.7948565101
 30
0.0
 10
4.7535789287
 20
5.7952708173
 30
0.0
 10
4.7676008128
 20
5.7957660273
 30
0.0
 10
4.7876691111
 20
5.7963319657
 30
0.0
 10
4.8119327456
 20
5.796901606
 30
0.0
 10
4.8401842938
 20
5.7974741054
 30
0.0
 10
4.8851138859
 20
5.7982796948
 30
0.0
 10
4.9492196675
 20
5.7992595824
 30
0.0
 10
5.0341392185
 20
5.8003938175
 30
0.0
 10
5.1276175888
 20
5.801531432
 30
0.0
 10
5.2265584391
 20
5.8026721059
 30
0.0
 10
5.3276773705
 20
5.8038131139
 30
0.0
 10
5.4276302966
 20
5.8049538803
 30
0.0
 10
5.5086907836
 20
5.8059208002
 30
0.0
 10
5.5704822448
 20
5.8067053997
 30
0.0
 10
5.613618903
 20
5.8072820411
 30
0.0
 10
5.6540866967
 20
5.8078583618
 30
0.0
 10
5.6915502127
 20
5.8084341572
 30
0.0
 10
5.7257015672
 20
5.8090089531
 30
0.0
 10
5.7562626626
 20
5.8095826956
 30
0.0
 10
5.7829794756
 20
5.8101545408
 30
0.0
 10
5.8027365407
 20
5.8106498013
 30
0.0
 10
5.8164542722
 20
5.811054592
 30
0.0
 10
5.8251245113
 20
5.8113421428
 30
0.0
 10
5.8326891551
 20
5.8116287479
 30
0.0
 10
5.8391302207
 20
5.8119143313
 30
0.0
 10
5.8444326702
 20
5.81219717
 30
0.0
 10
5.8485855888
 20
5.8124785515
 30
0.0
 10
5.8513252597
 20
5.8127238281
 30
0.0
 10
5.8529360505
 20
5.8129358346
 30
0.0
 10
5.8535481513
 20
5.8130430823
 30
0.0
 10
5.8538041231
 20
5.8131020637
 30
0.0
  0
LINE
  5
428
100
AcDbEntity
  8
0
100
AcDbLine
 62
7
  6
CONTINUOUS
 10
5.8538041231
 20
5.8131020637
 11
5.8543748686
 21
5.8132894192
  0
LINE
  5
429
100
AcDbEntity
  8
0
100
AcDbLine
 62
7
  6
CONTINUOUS
 10
4.731499017
 20
5.8330268251
 11
4.7305541682
 21
5.8332912734
  0
SPLINE
  5
42A
100
AcDbEntity
  8
0
100
AcDbSpline
 62
7
  6
CONTINUOUS
 70
0
 71
3
 72
14
 73
10
 74
0
 42
0.0000001
 43
0.0000001
 44
0.0000000001
 40
0.0
 40
0.0
 40
0.0
 40
0.0
 40
0.0430491758
 40
0.10893464
 40
0.1982259635
 40
0.3111268343
 40
0.4477252675
 40
0.6080616567
 40
1.0
 40
1.0
 40
1.0
 40
1.0
 10
5.8759405313
 20
6.1857354614
 30
0.0
 10
5.8758599678
 20
6.1856892122
 30
0.0
 10
5.8756354598
 20
6.185611747
 30
0.0
 10
5.8752201394
 20
6.1855123724
 30
0.0
 10
5.8746497601
 20
6.1854120355
 30
0.0
 10
5.8739259166
 20
6.1853101717
 30
0.0
 10
5.8730473568
 20
6.1852078318
 30
0.0
 10
5.8715681288
 20
6.1850607681
 30
0.0
 10
5.8703800123
 20
6.1849662363
 30
0.0
 10
5.8695365132
 20
6.1849045021
 30
0.0
  0
LINE
  5
42B
100
AcDbEntity
  8
0
100
AcDbLine
 62
7
  6
CONTINUOUS
 10
5.8695365132
 20
6.1849045021
 11
5.8501228544
 21
6.1839547561
  0
SPLINE
  5
42C
100
AcDbEntity
  8
0
100
AcDbSpline
 62
7
  6
CONTINUOUS
 70
0
 71
3
 72
26
 73
22
 74
0
 42
0.0000001
 43
0.0000001
 44
0.0000000001
 40
0.0
 40
0.0
 40
0.0
 40
0.0
 40
0.0138483233
 40
0.0307501988
 40
0.0732769819
 40
0.1265926161
 40
0.1893181497
 40
0.2598697304
 40
0.3364815764
 40
0.4172124448
 40
0.5000243778
 40
0.5828427725
 40
0.6635673564
 40
0.7401677853
 40
0.8107168088
 40
0.8734308002
 40
0.9267342916
 40
0.9494284043
 40
0.9692829234
 40
0.9861725575
 40
1.0
 40
1.0
 40
1.0
 40
1.0
 10
5.8501228544
 20
6.1839547561
 30
0.0
 10
5.844976898
 20
6.1837652712
 30
0.0
 10
5.8335482153
 20
6.1834016327
 30
0.0
 10
5.8063098094
 20
6.1826856287
 30
0.0
 10
5.7643947319
 20
6.1818302814
 30
0.0
 10
5.7054399684
 20
6.1808514849
 30
0.0
 10
5.6360631289
 20
6.1798666992
 30
0.0
 10
5.5580230242
 20
6.1788766914
 30
0.0
 10
5.4732872385
 20
6.17788453
 30
0.0
 10
5.3839922213
 20
6.1768905891
 30
0.0
 10
5.2923892008
 20
6.1758952564
 30
0.0
 10
5.2007885198
 20
6.1748997282
 30
0.0
 10
5.1114977019
 20
6.1739039083
 30
0.0
 10
5.0267694845
 20
6.1729090926
 30
0.0
 10
4.9487388896
 20
6.1719165088
 30
0.0
 10
4.879371909
 20
6.170927084
 30
0.0
 10
4.8277995733
 20
6.1700697589
 30
0.0
 10
4.7921642993
 20
6.1693641657
 30
0.0
 10
4.7700680027
 20
6.1688652811
 30
0.0
 10
4.7512696809
 20
6.1683683987
 30
0.0
 10
4.7398533609
 20
6.1680034696
 30
0.0
 10
4.7347151984
 20
6.1678133304
 30
0.0
  0
SPLINE
  5
42D
100
AcDbEntity
  8
0
100
AcDbSpline
 62
7
  6
CONTINUOUS
 70
0
 71
3
 72
12
 73
8
 74
0
 42
0.0000001
 43
0.0000001
 44
0.0000000001
 40
0.0
 40
0.0
 40
0.0
 40
0.0
 40
0.3604914846
 40
0.6479478307
 40
0.8613788728
 40
0.9400558305
 40
1.0
 40
1.0
 40
1.0
 40
1.0
 10
4.7347151984
 20
6.1678133304
 30
0.0
 10
4.7317917788
 20
6.1677051483
 30
0.0
 10
4.726537677
 20
6.1674958212
 30
0.0
 10
4.7195561594
 20
6.1671486544
 30
0.0
 10
4.7148620829
 20
6.1668454458
 30
0.0
 10
4.7120168327
 20
6.1665864117
 30
0.0
 10
4.710899246
 20
6.1664550836
 30
0.0
 10
4.7104179322
 20
6.166384565
 30
0.0
  0
LINE
  5
42E
100
AcDbEntity
  8
0
100
AcDbLine
 62
7
  6
CONTINUOUS
 10
4.709887525
 20
6.1662991789
 11
4.708796164
 21
6.1659082832
  0
SPLINE
  5
42F
100
AcDbEntity
  8
0
100
AcDbSpline
 62
7
  6
CONTINUOUS
 70
0
 71
3
 72
13
 73
9
 74
0
 42
0.0000001
 43
0.0000001
 44
0.0000000001
 40
0.0
 40
0.0
 40
0.0
 40
0.0
 40
0.0477304422
 40
0.1169064634
 40
0.2081499722
 40
0.3216950637
 40
0.6159829144
 40
1.0
 40
1.0
 40
1.0
 40
1.0
 10
5.8543628564
 20
6.1733357812
 30
0.0
 10
5.8542994199
 20
6.1732990483
 30
0.0
 10
5.8541304837
 20
6.1732341491
 30
0.0
 10
5.8538220741
 20
6.1731508223
 30
0.0
 10
5.8534094495
 20
6.1730666421
 30
0.0
 10
5.8526530945
 20
6.172942398
 30
0.0
 10
5.8514455282
 20
6.1727946383
 30
0.0
 10
5.8504085287
 20
6.1726953376
 30
0.0
 10
5.8498210139
 20
6.1726437955
 30
0.0
  0
SPLINE
  5
430
100
AcDbEntity
  8
0
100
AcDbSpline
 62
7
  6
CONTINUOUS
 70
0
 71
3
 72
51
 73
47
 74
0
 42
0.0000001
 43
0.0000001
 44
0.0000000001
 40
0.0
 40
0.0
 40
0.0
 40
0.0
 40
0.0035882544
 40
0.0082671249
 40
0.0140307505
 40
0.0208720705
 40
0.0377173299
 40
0.0586324124
 40
0.083433547
 40
0.1118934477
 40
0.1437666379
 40
0.1787796941
 40
0.2166163237
 40
0.2569507577
 40
0.3436409592
 40
0.4357725556
 40
0.5301008352
 40
0.5770463884
 40
0.6232905966
 40
0.6684258834
 40
0.712048496
 40
0.7537758147
 40
0.7932343131
 40
0.8300735661
 40
0.863979545
 40
0.8946468004
 40
0.9086809371
 40
0.9218064837
 40
0.9339917661
 40
0.9452057139
 40
0.9554247732
 40
0.9646305537
 40
0.9728047955
 40
0.9799292875
 40
0.9859863451
 40
0.9886106465
 40
0.990964162
 40
0.9930459731
 40
0.9948552089
 40
0.9963910805
 40
0.9976529527
 40
0.9986405162
 40
0.999354293
 40
0.9997977038
 40
0.9999236559
 40
1.0
 40
1.0
 40
1.0
 40
1.0
 10
5.8498210139
 20
6.1726437955
 30
0.0
 10
5.8484868883
 20
6.172526754
 30
0.0
 10
5.8454087276
 20
6.1723085334
 30
0.0
 10
5.8401800331
 20
6.1720179255
 30
0.0
 10
5.8337357469
 20
6.1717244509
 30
0.0
 10
5.8227521729
 20
6.1712995161
 30
0.0
 10
5.8061132164
 20
6.1707836519
 30
0.0
 10
5.782770803
 20
6.1701898896
 30
0.0
 10
5.755092297
 20
6.1695936458
 30
0.0
 10
5.723323108
 20
6.168996314
 30
0.0
 10
5.6877418721
 20
6.168401266
 30
0.0
 10
5.6486604745
 20
6.1678085318
 30
0.0
 10
5.6064207773
 20
6.1672133513
 30
0.0
 10
5.5448948422
 20
6.1663910389
 30
0.0
 10
5.4631050974
 20
6.1653761411
 30
0.0
 10
5.3611635766
 20
6.1642063846
 30
0.0
 10
5.2740548993
 20
6.1632192552
 30
0.0
 10
5.2040718419
 20
6.1624174762
 30
0.0
 10
5.152448056
 20
6.1618174342
 30
0.0
 10
5.1020645673
 20
6.1612186047
 30
0.0
 10
5.0533670209
 20
6.1606218905
 30
0.0
 10
5.0067883785
 20
6.1600265186
 30
0.0
 10
4.9627417202
 20
6.1594308722
 30
0.0
 10
4.9216145282
 20
6.1588343294
 30
0.0
 10
4.8837688628
 20
6.1582387929
 30
0.0
 10
4.8544344915
 20
6.1577307065
 30
0.0
 10
4.8328555421
 20
6.1573207568
 30
0.0
 10
4.8181737798
 20
6.1570226965
 30
0.0
 10
4.8045448285
 20
6.1567248331
 30
0.0
 10
4.7920009495
 20
6.1564269509
 30
0.0
 10
4.7805694531
 20
6.15612915
 30
0.0
 10
4.7702728843
 20
6.1558316946
 30
0.0
 10
4.7611318174
 20
6.1555348676
 30
0.0
 10
4.7531666268
 20
6.1552389134
 30
0.0
 10
4.747272879
 20
6.1549827875
 30
0.0
 10
4.7431595748
 20
6.1547743257
 30
0.0
 10
4.7405288762
 20
6.154625789
 30
0.0
 10
4.7382028834
 20
6.1544775778
 30
0.0
 10
4.7361827952
 20
6.1543298089
 30
0.0
 10
4.734469422
 20
6.1541826769
 30
0.0
 10
4.7330644944
 20
6.1540366683
 30
0.0
 10
4.731966706
 20
6.1538924115
 30
0.0
 10
4.7311805779
 20
6.1537523452
 30
0.0
 10
4.7307129462
 20
6.1536263076
 30
0.0
 10
4.7304994229
 20
6.1535174961
 30
0.0
 10
4.7304486517
 20
6.1534499982
 30
0.0
 10
4.7304476461
 20
6.1534215219
 30
0.0
  0
SPLINE
  5
431
100
AcDbEntity
  8
0
100
AcDbSpline
 62
7
  6
CONTINUOUS
 70
0
 71
3
 72
14
 73
10
 74
0
 42
0.0000001
 43
0.0000001
 44
0.0000000001
 40
0.0
 40
0.0
 40
0.0
 40
0.0
 40
0.0430694855
 40
0.1089874167
 40
0.1983149264
 40
0.3112465227
 40
0.4478608588
 40
0.6081889037
 40
1.0
 40
1.0
 40
1.0
 40
1.0
 10
5.8759930531
 20
6.1457774948
 30
0.0
 10
5.8759122968
 20
6.1457310955
 30
0.0
 10
5.8756872113
 20
6.1456533852
 30
0.0
 10
5.8752708374
 20
6.1455536847
 30
0.0
 10
5.8746990443
 20
6.1454530086
 30
0.0
 10
5.8739734963
 20
6.1453507899
 30
0.0
 10
5.8730929969
 20
6.1452480841
 30
0.0
 10
5.871610896
 20
6.1451004958
 30
0.0
 10
5.8704205542
 20
6.1450055893
 30
0.0
 10
5.8695755411
 20
6.1449436043
 30
0.0
  0
LINE
  5
432
100
AcDbEntity
  8
0
100
AcDbLine
 62
7
  6
CONTINUOUS
 10
5.8695755411
 20
6.1449436043
 11
5.8501812333
 21
6.1439912666
  0
SPLINE
  5
433
100
AcDbEntity
  8
0
100
AcDbSpline
 62
7
  6
CONTINUOUS
 70
0
 71
3
 72
25
 73
21
 74
0
 42
0.0000001
 43
0.0000001
 44
0.0000000001
 40
0.0
 40
0.0
 40
0.0
 40
0.0
 40
0.0138448127
 40
0.030751052
 40
0.0732861058
 40
0.1266115904
 40
0.1893276753
 40
0.2598759234
 40
0.3364883579
 40
0.4172066079
 40
0.5000236219
 40
0.582839288
 40
0.6635559052
 40
0.7401664576
 40
0.8107078817
 40
0.8734202792
 40
0.9267337219
 40
0.9692583057
 40
0.9861606275
 40
1.0
 40
1.0
 40
1.0
 40
1.0
 10
5.8501812333
 20
6.1439912666
 30
0.0
 10
5.8450363544
 20
6.1438011151
 30
0.0
 10
5.8336068275
 20
6.143436295
 30
0.0
 10
5.8063637484
 20
6.1427179461
 30
0.0
 10
5.7644383142
 20
6.1418591354
 30
0.0
 10
5.7054774879
 20
6.1408764781
 30
0.0
 10
5.6360983953
 20
6.1398866989
 30
0.0
 10
5.5580590392
 20
6.13889234
 30
0.0
 10
5.4733248474
 20
6.1378958783
 30
0.0
 10
5.3840280703
 20
6.136897435
 30
0.0
 10
5.292424397
 20
6.1358987017
 30
0.0
 10
5.2008213313
 20
6.1348999239
 30
0.0
 10
5.1115263637
 20
6.133901385
 30
0.0
 10
5.0267960177
 20
6.1329048487
 30
0.0
 10
4.9487612742
 20
6.1319102194
 30
0.0
 10
4.8793905698
 20
6.1309203903
 30
0.0
 10
4.8204394923
 20
6.1299374214
 30
0.0
 10
4.7785238931
 20
6.1290783739
 30
0.0
 10
4.7512881932
 20
6.1283598959
 30
0.0
 10
4.7398621505
 20
6.1279949796
 30
0.0
 10
4.7347192989
 20
6.1278047493
 30
0.0
  0
SPLINE
  5
434
100
AcDbEntity
  8
0
100
AcDbSpline
 62
7
  6
CONTINUOUS
 70
0
 71
3
 72
12
 73
8
 74
0
 42
0.0000001
 43
0.0000001
 44
0.0000000001
 40
0.0
 40
0.0
 40
0.0
 40
0.0
 40
0.3608088448
 40
0.6479571604
 40
0.8610970377
 40
0.9398346155
 40
1.0
 40
1.0
 40
1.0
 40
1.0
 10
4.7347192989
 20
6.1278047493
 30
0.0
 10
4.7317978002
 20
6.1276966851
 30
0.0
 10
4.7265516982
 20
6.127487633
 30
0.0
 10
4.7195832204
 20
6.1271403486
 30
0.0
 10
4.7149007886
 20
6.1268367918
 30
0.0
 10
4.7120600087
 20
6.1265779063
 30
0.0
 10
4.7109418547
 20
6.1264467326
 30
0.0
 10
4.7104594618
 20
6.1263763721
 30
0.0
  0
LINE
  5
435
100
AcDbEntity
  8
0
100
AcDbLine
 62
7
  6
CONTINUOUS
 10
4.7099142263
 20
6.1262888689
 11
4.7088173081
 21
6.1259003206
  0
SPLINE
  5
436
100
AcDbEntity
  8
0
100
AcDbSpline
 62
7
  6
CONTINUOUS
 70
0
 71
3
 72
16
 73
12
 74
0
 42
0.0000001
 43
0.0000001
 44
0.0000000001
 40
0.0
 40
0.0
 40
0.0
 40
0.0
 40
0.0155659482
 40
0.0371249025
 40
0.0988182355
 40
0.1856743702
 40
0.2978645638
 40
0.4354611493
 40
0.5984322147
 40
0.7866563456
 40
1.0
 40
1.0
 40
1.0
 40
1.0
 10
5.8543911464
 20
6.1333479852
 30
0.0
 10
5.8543407625
 20
6.1333189671
 30
0.0
 10
5.8542117686
 20
6.1332658268
 30
0.0
 10
5.853857824
 20
6.1331610495
 30
0.0
 10
5.8532327753
 20
6.1330402175
 30
0.0
 10
5.8522690044
 20
6.1329012066
 30
0.0
 10
5.8510191517
 20
6.1327606192
 30
0.0
 10
5.8494840297
 20
6.1326177217
 30
0.0
 10
5.8476639041
 20
6.1324735294
 30
0.0
 10
5.8455601986
 20
6.1323282198
 30
0.0
 10
5.8440630256
 20
6.1322365606
 30
0.0
 10
5.8432674815
 20
6.1321901955
 30
0.0
  0
SPLINE
  5
437
100
AcDbEntity
  8
0
100
AcDbSpline
 62
7
  6
CONTINUOUS
 70
0
 71
3
 72
18
 73
14
 74
0
 42
0.0000001
 43
0.0000001
 44
0.0000000001
 40
0.0
 40
0.0
 40
0.0
 40
0.0
 40
0.0219579105
 40
0.0505003657
 40
0.0854899651
 40
0.1267318667
 40
0.1740098054
 40
0.227100929
 40
0.3494989327
 40
0.4912119788
 40
0.6491665855
 40
0.8199982479
 40
1.0
 40
1.0
 40
1.0
 40
1.0
 10
5.8432674815
 20
6.1321901955
 30
0.0
 10
5.8400329044
 20
6.1320016815
 30
0.0
 10
5.8325891609
 20
6.1316492176
 30
0.0
 10
5.8199829964
 20
6.1311826083
 30
0.0
 10
5.8045295359
 20
6.1307210378
 30
0.0
 10
5.7863104871
 20
6.1302616267
 30
0.0
 10
5.7654196759
 20
6.1298022039
 30
0.0
 10
5.7325549726
 20
6.1291544549
 30
0.0
 10
5.6857559948
 20
6.128355609
 30
0.0
 10
5.6234837734
 20
6.1274235044
 30
0.0
 10
5.5540640535
 20
6.1264917831
 30
0.0
 10
5.4789939351
 20
6.1255712659
 30
0.0
 10
5.4272292041
 20
6.1249646364
 30
0.0
 10
5.4006702896
 20
6.1246564564
 30
0.0
  0
LINE
  5
438
100
AcDbEntity
  8
0
100
AcDbLine
 62
7
  6
CONTINUOUS
 10
5.4006702896
 20
6.1246564564
 11
5.3924019742
 21
6.1245606295
  0
LINE
  5
439
100
AcDbEntity
  8
0
100
AcDbLine
 62
7
  6
CONTINUOUS
 10
5.3924019742
 20
6.1245606295
 11
5.3643837654
 21
6.1242374864
  0
LINE
  5
43A
100
AcDbEntity
  8
0
100
AcDbLine
 62
7
  6
CONTINUOUS
 10
5.3643837654
 20
6.1242374864
 11
5.3570906858
 21
6.1241537317
  0
LINE
  5
43B
100
AcDbEntity
  8
0
100
AcDbLine
 62
7
  6
CONTINUOUS
 10
5.2203185881
 20
6.1225958157
 11
5.1923139606
 21
6.1222746155
  0
LINE
  5
43C
100
AcDbEntity
  8
0
100
AcDbLine
 62
7
  6
CONTINUOUS
 10
5.1923139606
 20
6.1222746155
 11
5.1814612324
 21
6.1221493642
  0
SPLINE
  5
43D
100
AcDbEntity
  8
0
100
AcDbSpline
 62
7
  6
CONTINUOUS
 70
0
 71
3
 72
37
 73
33
 74
0
 42
0.0000001
 43
0.0000001
 44
0.0000000001
 40
0.0
 40
0.0
 40
0.0
 40
0.0
 40
0.1036900308
 40
0.2048112167
 40
0.3026169734
 40
0.396386447
 40
0.4854483492
 40
0.5691391141
 40
0.6468410944
 40
0.7179817488
 40
0.7820037964
 40
0.8112027062
 40
0.8384619388
 40
0.8637329193
 40
0.8869670954
 40
0.9081189052
 40
0.9271537482
 40
0.944039618
 40
0.9587446355
 40
0.971237144
 40
0.9814865581
 40
0.9857640782
 40
0.9894759739
 40
0.9926219784
 40
0.9952022162
 40
0.9972176445
 40
0.9980144659
 40
0.9986716533
 40
0.9991908179
 40
0.9995754297
 40
0.9998346022
 40
1.0
 40
1.0
 40
1.0
 40
1.0
 10
5.1814612324
 20
6.1221493642
 30
0.0
 10
5.1658661196
 20
6.1219690139
 30
0.0
 10
5.135062289
 20
6.1216095388
 30
0.0
 10
5.0895485262
 20
6.1210648052
 30
0.0
 10
5.0455270334
 20
6.1205203946
 30
0.0
 10
5.0033195296
 20
6.1199765852
 30
0.0
 10
4.9632352529
 20
6.1194336388
 30
0.0
 10
4.92556793
 20
6.1188916297
 30
0.0
 10
4.8905964492
 20
6.1183504898
 30
0.0
 10
4.8585837365
 20
6.1178101605
 30
0.0
 10
4.833866206
 20
6.1173469077
 30
0.0
 10
4.8157484808
 20
6.1169726208
 30
0.0
 10
4.8034584935
 20
6.1167008744
 30
0.0
 10
4.7920658947
 20
6.1164295582
 30
0.0
 10
4.7815921875
 20
6.116158824
 30
0.0
 10
4.7720567874
 20
6.1158887887
 30
0.0
 10
4.7634766441
 20
6.1156193881
 30
0.0
 10
4.7558666852
 20
6.1153505381
 30
0.0
 10
4.7492414246
 20
6.115082346
 30
0.0
 10
4.7436152904
 20
6.1148148178
 30
0.0
 10
4.739557844
 20
6.1145812119
 30
0.0
 10
4.7368212242
 20
6.1143889189
 30
0.0
 10
4.7351517576
 20
6.1142537679
 30
0.0
 10
4.7337384643
 20
6.1141192198
 30
0.0
 10
4.7325816755
 20
6.1139853985
 30
0.0
 10
4.7317788292
 20
6.1138681216
 30
0.0
 10
4.7312660628
 20
6.1137706357
 30
0.0
 10
4.7309769055
 20
6.11370342
 30
0.0
 10
4.7307512348
 20
6.1136377905
 30
0.0
 10
4.7305890765
 20
6.113570818
 30
0.0
 10
4.7304838702
 20
6.1135088816
 30
0.0
 10
4.7304476823
 20
6.1134477087
 30
0.0
 10
4.7304483989
 20
6.1134228413
 30
0.0
  0
SPLINE
  5
43E
100
AcDbEntity
  8
0
100
AcDbSpline
 62
7
  6
CONTINUOUS
 70
0
 71
3
 72
14
 73
10
 74
0
 42
0.0000001
 43
0.0000001
 44
0.0000000001
 40
0.0
 40
0.0
 40
0.0
 40
0.0
 40
0.0428998359
 40
0.1085917784
 40
0.1976946901
 40
0.3104619599
 40
0.4470313204
 40
0.6074911697
 40
1.0
 40
1.0
 40
1.0
 40
1.0
 10
5.8760221141
 20
6.1057766011
 30
0.0
 10
5.8759418898
 20
6.1057304689
 30
0.0
 10
5.8757181928
 20
6.1056531598
 30
0.0
 10
5.8753041372
 20
6.1055540118
 30
0.0
 10
5.8747350388
 20
6.1054538951
 30
0.0
 10
5.8740121692
 20
6.1053522507
 30
0.0
 10
5.8731339592
 20
6.1052501216
 30
0.0
 10
5.8716537469
 20
6.105103348
 30
0.0
 10
5.8704644993
 20
6.1050090527
 30
0.0
 10
5.8696200346
 20
6.1049474234
 30
0.0
  0
LINE
  5
43F
100
AcDbEntity
  8
0
100
AcDbLine
 62
7
  6
CONTINUOUS
 10
5.8696200346
 20
6.1049474234
 11
5.8501723939
 21
6.1039950152
  0
SPLINE
  5
440
100
AcDbEntity
  8
0
100
AcDbSpline
 62
7
  6
CONTINUOUS
 70
0
 71
3
 72
15
 73
11
 74
0
 42
0.0000001
 43
0.0000001
 44
0.0000000001
 40
0.0
 40
0.0
 40
0.0
 40
0.0
 40
0.0283464261
 40
0.062431369
 40
0.1472321349
 40
0.2525959791
 40
0.3763096089
 40
0.5159437322
 40
0.6685456705
 40
1.0
 40
1.0
 40
1.0
 40
1.0
 10
5.8501723939
 20
6.1039950152
 30
0.0
 10
5.84558791
 20
6.1038254311
 30
0.0
 10
5.8354891759
 20
6.1034973226
 30
0.0
 10
5.8116696966
 20
6.1028497515
 30
0.0
 10
5.7753849219
 20
6.102074371
 30
0.0
 10
5.7245942638
 20
6.1011841638
 30
0.0
 10
5.6649282036
 20
6.1002887183
 30
0.0
 10
5.5976163976
 20
6.0993898838
 30
0.0
 10
5.4966851558
 20
6.0981538983
 30
0.0
 10
5.4183497697
 20
6.0972802802
 30
0.0
 10
5.3647100466
 20
6.0966907568
 30
0.0
  0
SPLINE
  5
441
100
AcDbEntity
  8
0
100
AcDbSpline
 62
7
  6
CONTINUOUS
 70
0
 71
3
 72
15
 73
11
 74
0
 42
0.0000001
 43
0.0000001
 44
0.0000000001
 40
0.0
 40
0.0
 40
0.0
 40
0.0
 40
0.3314609475
 40
0.484051595
 40
0.6236868339
 40
0.7474337345
 40
0.8527619143
 40
0.9375644843
 40
0.9716658658
 40
1.0
 40
1.0
 40
1.0
 40
1.0
 10
5.2205992174
 20
6.095114954
 30
0.0
 10
5.1669136589
 20
6.0945248865
 30
0.0
 10
5.0885136514
 20
6.0936510156
 30
0.0
 10
4.9874987561
 20
6.0924139617
 30
0.0
 10
4.9201270349
 20
6.0915144352
 30
0.0
 10
4.8604113784
 20
6.0906189148
 30
0.0
 10
4.8095784357
 20
6.0897275578
 30
0.0
 10
4.7732662037
 20
6.0889515927
 30
0.0
 10
4.7494258674
 20
6.0883040252
 30
0.0
 10
4.7393180355
 20
6.0879755468
 30
0.0
 10
4.7347317217
 20
6.0878057246
 30
0.0
  0
SPLINE
  5
442
100
AcDbEntity
  8
0
100
AcDbSpline
 62
7
  6
CONTINUOUS
 70
0
 71
3
 72
12
 73
8
 74
0
 42
0.0000001
 43
0.0000001
 44
0.0000000001
 40
0.0
 40
0.0
 40
0.0
 40
0.0
 40
0.3602285205
 40
0.6474780115
 40
0.860947742
 40
0.9398080212
 40
1.0
 40
1.0
 40
1.0
 40
1.0
 10
4.7347317217
 20
6.0878057246
 30
0.0
 10
4.7318102093
 20
6.0876975468
 30
0.0
 10
4.7265595129
 20
6.0874882615
 30
0.0
 10
4.7195809468
 20
6.0871411339
 30
0.0
 10
4.7148863942
 20
6.0868378373
 30
0.0
 10
4.7120370689
 20
6.0865790829
 30
0.0
 10
4.7109158553
 20
6.0864479354
 30
0.0
 10
4.7104324588
 20
6.0863774981
 30
0.0
  0
LINE
  5
443
100
AcDbEntity
  8
0
100
AcDbLine
 62
7
  6
CONTINUOUS
 10
4.7099303638
 20
6.08629763
 11
4.7088016178
 21
6.0859014185
  0
SPLINE
  5
444
100
AcDbEntity
  8
0
100
AcDbSpline
 62
7
  6
CONTINUOUS
 70
0
 71
3
 72
15
 73
11
 74
0
 42
0.0000001
 43
0.0000001
 44
0.0000000001
 40
0.0
 40
0.0
 40
0.0
 40
0.0
 40
0.0164665264
 40
0.0388221434
 40
0.1017566658
 40
0.1893589998
 40
0.3017734428
 40
0.4390457259
 40
0.6011833431
 40
1.0
 40
1.0
 40
1.0
 40
1.0
 10
5.8543598543
 20
6.0933174942
 30
0.0
 10
5.8543103577
 20
6.0932897264
 30
0.0
 10
5.8541860773
 20
6.0932383179
 30
0.0
 10
5.8538502055
 20
6.0931371215
 30
0.0
 10
5.8532648316
 20
6.0930200273
 30
0.0
 10
5.8523686077
 20
6.0928861326
 30
0.0
 10
5.8512136863
 20
6.0927513892
 30
0.0
 10
5.8498008134
 20
6.0926153376
 30
0.0
 10
5.8474021977
 20
6.0924196306
 30
0.0
 10
5.8454727423
 20
6.0922945261
 30
0.0
 10
5.8441006111
 20
6.0922128352
 30
0.0
  0
SPLINE
  5
445
100
AcDbEntity
  8
0
100
AcDbSpline
 62
7
  6
CONTINUOUS
 70
0
 71
3
 72
50
 73
46
 74
0
 42
0.0000001
 43
0.0000001
 44
0.0000000001
 40
0.0
 40
0.0
 40
0.0
 40
0.0
 40
0.0049778044
 40
0.0109959446
 40
0.0260968545
 40
0.0451875257
 40
0.068107138
 40
0.0946430414
 40
0.1245733304
 40
0.1935775721
 40
0.2728271365
 40
0.3596109257
 40
0.4509848821
 40
0.543857749
 40
0.5898727963
 40
0.6350858917
 40
0.6791120445
 40
0.7215814904
 40
0.7621284516
 40
0.8004099075
 40
0.8361024001
 40
0.8688945562
 40
0.8985205202
 40
0.9120666516
 40
0.924726799
 40
0.9364756514
 40
0.9472898015
 40
0.9571458583
 40
0.9660204531
 40
0.9738912559
 40
0.9807439046
 40
0.9865678666
 40
0.989090853
 40
0.9913528066
 40
0.9933524868
 40
0.9950887006
 40
0.9965603445
 40
0.9977669115
 40
0.9987088968
 40
0.9990810862
 40
0.9993878172
 40
0.9996297524
 40
0.9998083012
 40
0.9999271848
 40
1.0
 40
1.0
 40
1.0
 40
1.0
 10
5.8441006111
 20
6.0922128352
 30
0.0
 10
5.8422555271
 20
6.0921029866
 30
0.0
 10
5.8381779337
 20
6.0918909011
 30
0.0
 10
5.8284966674
 20
6.0914724028
 30
0.0
 10
5.8135742204
 20
6.0909703495
 30
0.0
 10
5.7923755396
 20
6.0903949401
 30
0.0
 10
5.7669295969
 20
6.0898153902
 30
0.0
 10
5.7374579108
 20
6.0892326465
 30
0.0
 10
5.6908755338
 20
6.0884163118
 30
0.0
 10
5.6247198406
 20
6.0874236229
 30
0.0
 10
5.5374535989
 20
6.0862724079
 30
0.0
 10
5.4418804622
 20
6.0851169571
 30
0.0
 10
5.3412483748
 20
6.0839639081
 30
0.0
 10
5.2557533103
 20
6.0829996389
 30
0.0
 10
5.1873976818
 20
6.0822161291
 30
0.0
 10
5.1371786592
 20
6.0816312687
 30
0.0
 10
5.0882762538
 20
6.0810482146
 30
0.0
 10
5.0411065859
 20
6.0804660686
 30
0.0
 10
4.9960702049
 20
6.0798834743
 30
0.0
 10
4.9535504582
 20
6.0793005507
 30
0.0
 10
4.913910486
 20
6.0787186767
 30
0.0
 10
4.8774848064
 20
6.0781384678
 30
0.0
 10
4.8492822009
 20
6.0776431089
 30
0.0
 10
4.8285545057
 20
6.0772432377
 30
0.0
 10
4.8144640552
 20
6.0769525347
 30
0.0
 10
4.8013882679
 20
6.0766619782
 30
0.0
 10
4.7893539664
 20
6.0763714976
 30
0.0
 10
4.778387267
 20
6.0760810381
 30
0.0
 10
4.7685139075
 20
6.0757906042
 30
0.0
 10
4.7597563053
 20
6.0755000552
 30
0.0
 10
4.7521321595
 20
6.07520982
 30
0.0
 10
4.7464937925
 20
6.0749585819
 30
0.0
 10
4.7425597954
 20
6.074754251
 30
0.0
 10
4.7400447271
 20
6.0746087683
 30
0.0
 10
4.7378223124
 20
6.0744637721
 30
0.0
 10
4.7358940229
 20
6.0743193862
 30
0.0
 10
4.734261072
 20
6.0741759641
 30
0.0
 10
4.7329243231
 20
6.0740336217
 30
0.0
 10
4.7319963717
 20
6.0739090248
 30
0.0
 10
4.7314033735
 20
6.073805559
 30
0.0
 10
4.7310688529
 20
6.0737341583
 30
0.0
 10
4.7308077967
 20
6.0736647624
 30
0.0
 10
4.7306197363
 20
6.0735933787
 30
0.0
 10
4.7304986698
 20
6.0735292383
 30
0.0
 10
4.73045368
 20
6.0734632077
 30
0.0
 10
4.7304539635
 20
6.0734361715
 30
0.0
  0
SPLINE
  5
446
100
AcDbEntity
  8
0
100
AcDbSpline
 62
7
  6
CONTINUOUS
 70
0
 71
3
 72
18
 73
14
 74
0
 42
0.0000001
 43
0.0000001
 44
0.0000000001
 40
0.0
 40
0.0
 40
0.0
 40
0.0
 40
0.0089436794
 40
0.0230151493
 40
0.043857385
 40
0.0719481567
 40
0.1074729189
 40
0.1505202779
 40
0.2593507364
 40
0.3986506118
 40
0.5685028857
 40
0.7689465803
 40
1.0
 40
1.0
 40
1.0
 40
1.0
 10
4.7304444827
 20
5.8334169344
 30
0.0
 10
4.7304443953
 20
5.8334422953
 30
0.0
 10
4.7304827962
 20
5.8335037597
 30
0.0
 10
4.7305905715
 20
5.8335661412
 30
0.0
 10
4.7307566539
 20
5.8336336356
 30
0.0
 10
4.7309870306
 20
5.8336997641
 30
0.0
 10
4.7312819152
 20
5.8337674506
 30
0.0
 10
4.7318042863
 20
5.8338655704
 30
0.0
 10
4.7326217668
 20
5.8339835848
 30
0.0
 10
4.73379941
 20
5.8341182295
 30
0.0
 10
4.7352381662
 20
5.8342536272
 30
0.0
 10
4.7369379757
 20
5.8343896739
 30
0.0
 10
4.7381586197
 20
5.8344745726
 30
0.0
 10
4.7388123916
 20
5.8345175826
 30
0.0
  0
SPLINE
  5
447
100
AcDbEntity
  8
0
100
AcDbSpline
 62
7
  6
CONTINUOUS
 70
0
 71
3
 72
38
 73
34
 74
0
 42
0.0000001
 43
0.0000001
 44
0.0000000001
 40
0.0
 40
0.0
 40
0.0
 40
0.0
 40
0.0044626197
 40
0.0099420235
 40
0.0238920418
 40
0.0417298417
 40
0.0633081908
 40
0.0884471848
 40
0.1169571903
 40
0.1831115335
 40
0.2595961738
 40
0.3438651549
 40
0.4331588982
 40
0.5245487027
 40
0.6150166654
 40
0.7015947106
 40
0.7425237998
 40
0.7814207304
 40
0.8179782841
 40
0.8518953479
 40
0.8828941937
 40
0.9107125934
 40
0.93510607
 40
0.9558881632
 40
0.9648704914
 40
0.9728859625
 40
0.9799208337
 40
0.9859635701
 40
0.9910027618
 40
0.9950272512
 40
0.9980270741
 40
0.9991416878
 40
1.0
 40
1.0
 40
1.0
 40
1.0
 10
4.7388123916
 20
5.8345175826
 30
0.0
 10
4.7404671186
 20
5.8346264428
 30
0.0
 10
4.7441557782
 20
5.8348355193
 30
0.0
 10
4.7530245056
 20
5.8352481754
 30
0.0
 10
4.7668644983
 20
5.8357414751
 30
0.0
 10
4.7866873129
 20
5.836305768
 30
0.0
 10
4.810669296
 20
5.836873216
 30
0.0
 10
4.8386178831
 20
5.8374440863
 30
0.0
 10
4.8831294522
 20
5.838246953
 30
0.0
 10
4.9467207994
 20
5.8392234816
 30
0.0
 10
5.0310319688
 20
5.8403535625
 30
0.0
 10
5.1239423555
 20
5.8414878332
 30
0.0
 10
5.2223918328
 20
5.8426243611
 30
0.0
 10
5.3231449855
 20
5.8437615117
 30
0.0
 10
5.422888922
 20
5.8448987548
 30
0.0
 10
5.5038824866
 20
5.8458616463
 30
0.0
 10
5.5657131005
 20
5.8466429694
 30
0.0
 10
5.6089572763
 20
5.8472178971
 30
0.0
 10
5.6495955567
 20
5.8477922852
 30
0.0
 10
5.6872986144
 20
5.8483661404
 30
0.0
 10
5.7217538198
 20
5.8489391321
 30
0.0
 10
5.7526695671
 20
5.8495106123
 30
0.0
 10
5.7797880726
 20
5.8500808858
 30
0.0
 10
5.7999071071
 20
5.8505743242
 30
0.0
 10
5.8139403159
 20
5.8509769634
 30
0.0
 10
5.8228662408
 20
5.8512637305
 30
0.0
 10
5.8306992231
 20
5.8515497552
 30
0.0
 10
5.8374253907
 20
5.8518348797
 30
0.0
 10
5.8430319336
 20
5.852117795
 30
0.0
 10
5.8475058993
 20
5.8523988353
 30
0.0
 10
5.8505209163
 20
5.8526447656
 30
0.0
 10
5.8523569791
 20
5.8528540986
 30
0.0
 10
5.8530827277
 20
5.8529601619
 30
0.0
 10
5.8533966154
 20
5.8530167496
 30
0.0
  0
LINE
  5
448
100
AcDbEntity
  8
0
100
AcDbLine
 62
7
  6
CONTINUOUS
 10
5.8533966154
 20
5.8530167496
 11
5.8544012666
 21
5.8532929955
  0
SPLINE
  5
449
100
AcDbEntity
  8
0
100
AcDbSpline
 62
7
  6
CONTINUOUS
 70
0
 71
3
 72
13
 73
9
 74
0
 42
0.0000001
 43
0.0000001
 44
0.0000000001
 40
0.0
 40
0.0
 40
0.0
 40
0.0
 40
0.0451489856
 40
0.1125714725
 40
0.2028200835
 40
0.3160834566
 40
0.6118625999
 40
1.0
 40
1.0
 40
1.0
 40
1.0
 10
5.8760310719
 20
6.0657842466
 30
0.0
 10
5.8759597216
 20
6.0657431673
 30
0.0
 10
5.8757649431
 20
6.0656725966
 30
0.0
 10
5.875406779
 20
6.0655821097
 30
0.0
 10
5.874920761
 20
6.0654906075
 30
0.0
 10
5.874020523
 20
6.065354734
 30
0.0
 10
5.8725752924
 20
6.0651934439
 30
0.0
 10
5.8713328645
 20
6.0650851949
 30
0.0
 10
5.8706273208
 20
6.0650289382
 30
0.0
  0
LINE
  5
44A
100
AcDbEntity
  8
0
100
AcDbLine
 62
7
  6
CONTINUOUS
 10
5.8706273208
 20
6.0650289382
 11
5.8541413848
 21
6.064149203
  0
SPLINE
  5
44B
100
AcDbEntity
  8
0
100
AcDbSpline
 62
7
  6
CONTINUOUS
 70
0
 71
3
 72
15
 73
11
 74
0
 42
0.0000001
 43
0.0000001
 44
0.0000000001
 40
0.0
 40
0.0
 40
0.0
 40
0.0
 40
0.0268323872
 40
0.0596856162
 40
0.142575126
 40
0.2468608025
 40
0.3704823683
 40
0.5106652654
 40
0.664490837
 40
1.0
 40
1.0
 40
1.0
 40
1.0
 10
5.8541413848
 20
6.064149203
 30
0.0
 10
5.8498002018
 20
6.0639748351
 30
0.0
 10
5.8401416139
 20
6.0636400343
 30
0.0
 10
5.8170652689
 20
6.0629814988
 30
0.0
 10
5.7814468139
 20
6.062194147
 30
0.0
 10
5.7311308657
 20
6.0612912434
 30
0.0
 10
5.6715367676
 20
6.060384752
 30
0.0
 10
5.6039205156
 20
6.0594722088
 30
0.0
 10
5.5019971303
 20
6.0582164343
 30
0.0
 10
5.4227692776
 20
6.0573316594
 30
0.0
 10
5.3684471297
 20
6.056734064
 30
0.0
  0
SPLINE
  5
44C
100
AcDbEntity
  8
0
100
AcDbSpline
 62
7
  6
CONTINUOUS
 70
0
 71
3
 72
15
 73
11
 74
0
 42
0.0000001
 43
0.0000001
 44
0.0000000001
 40
0.0
 40
0.0
 40
0.0
 40
0.0
 40
0.0163279168
 40
0.0385602455
 40
0.1013377766
 40
0.1889042208
 40
0.3013762194
 40
0.4387630297
 40
0.6010325227
 40
1.0
 40
1.0
 40
1.0
 40
1.0
 10
5.8543935711
 20
6.0533184307
 30
0.0
 10
5.854348862
 20
6.0532918619
 30
0.0
 10
5.8542355614
 20
6.0532426371
 30
0.0
 10
5.853927591
 20
6.0531457582
 30
0.0
 10
5.8533883354
 20
6.0530336505
 30
0.0
 10
5.8525612383
 20
6.0529053063
 30
0.0
 10
5.8514940196
 20
6.0527759803
 30
0.0
 10
5.8501878215
 20
6.0526452304
 30
0.0
 10
5.8479704609
 20
6.0524569593
 30
0.0
 10
5.8461867605
 20
6.0523363318
 30
0.0
 10
5.8449184157
 20
6.0522574886
 30
0.0
  0
SPLINE
  5
44D
100
AcDbEntity
  8
0
100
AcDbSpline
 62
7
  6
CONTINUOUS
 70
0
 71
3
 72
18
 73
14
 74
0
 42
0.0000001
 43
0.0000001
 44
0.0000000001
 40
0.0
 40
0.0
 40
0.0
 40
0.0
 40
0.0204730071
 40
0.047922138
 40
0.0821526364
 40
0.122946118
 40
0.1700681887
 40
0.223222504
 40
0.3463576131
 40
0.4893176036
 40
0.6485276506
 40
0.8202609812
 40
1.0
 40
1.0
 40
1.0
 40
1.0
 10
5.8449184157
 20
6.0522574886
 30
0.0
 10
5.8416532801
 20
6.0520545202
 30
0.0
 10
5.8340041238
 20
6.0516838965
 30
0.0
 10
5.8208857591
 20
6.051196456
 30
0.0
 10
5.8045185138
 20
6.0507057225
 30
0.0
 10
5.7850066692
 20
6.0502123058
 30
0.0
 10
5.7624701067
 20
6.0497181993
 30
0.0
 10
5.7267773083
 20
6.049023443
 30
0.0
 10
5.6757705302
 20
6.0481754203
 30
0.0
 10
5.6078169273
 20
6.0471930728
 30
0.0
 10
5.5320969392
 20
6.0462124883
 30
0.0
 10
5.4504998586
 20
6.0452017105
 30
0.0
 10
5.3943411145
 20
6.0445318907
 30
0.0
 10
5.3656219989
 20
6.0442036382
 30
0.0
  0
SPLINE
  5
44E
100
AcDbEntity
  8
0
100
AcDbSpline
 62
7
  6
CONTINUOUS
 70
0
 71
3
 72
18
 73
14
 74
0
 42
0.0000001
 43
0.0000001
 44
0.0000000001
 40
0.0
 40
0.0
 40
0.0
 40
0.0
 40
0.0100425554
 40
0.0269393781
 40
0.0508231166
 40
0.0817300471
 40
0.1196709721
 40
0.16464713
 40
0.2756894163
 40
0.4148108939
 40
0.5819492305
 40
0.7770360534
 40
1.0
 40
1.0
 40
1.0
 40
1.0
 10
5.862231951
 20
6.2179067531
 30
0.0
 10
5.8621889653
 20
6.2178818546
 30
0.0
 10
5.8620587533
 20
6.2178449294
 30
0.0
 10
5.8618133413
 20
6.2177954085
 30
0.0
 10
5.8614615865
 20
6.2177455885
 30
0.0
 10
5.8610060341
 20
6.2176936367
 30
0.0
 10
5.8604453559
 20
6.217640977
 30
0.0
 10
5.8594890371
 20
6.2175640327
 30
0.0
 10
5.8580320823
 20
6.2174695071
 30
0.0
 10
5.8559708113
 20
6.2173593658
 30
0.0
 10
5.8534934023
 20
6.2172469321
 30
0.0
 10
5.8506009952
 20
6.2171324407
 30
0.0
 10
5.8485343569
 20
6.2170598401
 30
0.0
 10
5.8474320737
 20
6.2170229383
 30
0.0
  0
SPLINE
  5
44F
100
AcDbEntity
  8
0
100
AcDbSpline
 62
7
  6
CONTINUOUS
 70
0
 71
3
 72
32
 73
28
 74
0
 42
0.0000001
 43
0.0000001
 44
0.0000000001
 40
0.0
 40
0.0
 40
0.0
 40
0.0
 40
0.0111237877
 40
0.0254775867
 40
0.042978424
 40
0.0635235192
 40
0.0869538146
 40
0.1131001458
 40
0.1417878011
 40
0.1728305211
 40
0.2412100799
 40
0.3164746794
 40
0.3966508319
 40
0.4379301736
 40
0.4796502623
 40
0.5215417278
 40
0.5633352172
 40
0.6455612111
 40
0.7242216693
 40
0.7973346238
 40
0.8312181142
 40
0.8630161678
 40
0.8925109008
 40
0.9195358816
 40
0.9439439286
 40
0.9655881348
 40
1.0
 40
1.0
 40
1.0
 40
1.0
 10
5.8474320737
 20
6.2170229383
 30
0.0
 10
5.843342169
 20
6.216886018
 30
0.0
 10
5.8339730077
 20
6.2166258805
 30
0.0
 10
5.818165822
 20
6.2162848444
 30
0.0
 10
5.7988917302
 20
6.2159631474
 30
0.0
 10
5.7762778376
 20
6.2156714925
 30
0.0
 10
5.7504832018
 20
6.2153841701
 30
0.0
 10
5.7216931275
 20
6.2150780612
 30
0.0
 10
5.6901028042
 20
6.2147388268
 30
0.0
 10
5.6429764854
 20
6.2142533226
 30
0.0
 10
5.5787155997
 20
6.2136755771
 30
0.0
 10
5.4963792711
 20
6.2130677622
 30
0.0
 10
5.4240118423
 20
6.212593579
 30
0.0
 10
5.363984764
 20
6.2121524848
 30
0.0
 10
5.3180415589
 20
6.2117940227
 30
0.0
 10
5.2719091833
 20
6.2114381253
 30
0.0
 10
5.2108757297
 20
6.2110063295
 30
0.0
 10
5.1363157035
 20
6.2105408126
 30
0.0
 10
5.0502346487
 20
6.2099278936
 30
0.0
 10
4.981938021
 20
6.2093469013
 30
0.0
 10
4.9308808404
 20
6.2088673569
 30
0.0
 10
4.8958691831
 20
6.2085332747
 30
0.0
 10
4.8633803953
 20
6.2082348279
 30
0.0
 10
4.8336102045
 20
6.2079520916
 30
0.0
 10
4.8067282564
 20
6.2076599945
 30
0.0
 10
4.777130116
 20
6.2072496086
 30
0.0
 10
4.7565114843
 20
6.2068764028
 30
0.0
 10
4.7438553411
 20
6.2065907905
 30
0.0
  0
LINE
  5
450
100
AcDbEntity
  8
0
100
AcDbLine
 62
7
  6
CONTINUOUS
 10
4.7315890223
 20
5.8730061491
 11
4.7305273828
 21
5.8732936745
  0
LINE
  5
451
100
AcDbEntity
  8
0
100
AcDbLine
 62
7
  6
CONTINUOUS
 10
5.8544669767
 20
6.2134654752
 11
5.8536746646
 21
6.2137838841
  0
SPLINE
  5
452
100
AcDbEntity
  8
0
100
AcDbSpline
 62
7
  6
CONTINUOUS
 70
0
 71
3
 72
16
 73
12
 74
0
 42
0.0000001
 43
0.0000001
 44
0.0000000001
 40
0.0
 40
0.0
 40
0.0
 40
0.0
 40
0.0241405903
 40
0.0457062985
 40
0.0744018326
 40
0.1538414039
 40
0.2631168393
 40
0.4023752443
 40
0.5716347276
 40
0.7708621405
 40
1.0
 40
1.0
 40
1.0
 40
1.0
 10
5.8545187669
 20
6.203388143
 30
0.0
 10
5.8545155002
 20
6.2033322392
 30
0.0
 10
5.8544064751
 20
6.2032593646
 30
0.0
 10
5.8542557356
 20
6.2031952935
 30
0.0
 10
5.8539643071
 20
6.2031033175
 30
0.0
 10
5.8534731945
 20
6.2029996365
 30
0.0
 10
5.8527204945
 20
6.2028791759
 30
0.0
 10
5.8517592211
 20
6.2027587598
 30
0.0
 10
5.8505874846
 20
6.2026369406
 30
0.0
 10
5.8492065791
 20
6.2025148196
 30
0.0
 10
5.8482158003
 20
6.2024384654
 30
0.0
 10
5.8476856752
 20
6.2023998028
 30
0.0
  0
SPLINE
  5
453
100
AcDbEntity
  8
0
100
AcDbSpline
 62
7
  6
CONTINUOUS
 70
0
 71
3
 72
28
 73
24
 74
0
 42
0.0000001
 43
0.0000001
 44
0.0000000001
 40
0.0
 40
0.0
 40
0.0
 40
0.0
 40
0.0037712342
 40
0.0084077829
 40
0.0202472603
 40
0.0354401225
 40
0.0539013169
 40
0.0755177119
 40
0.100119401
 40
0.1575583219
 40
0.2246588265
 40
0.299627988
 40
0.3803822526
 40
0.4647153616
 40
0.550326988
 40
0.6348680092
 40
0.7160453591
 40
0.7916187016
 40
0.8595028116
 40
0.9178931078
 40
0.965165755
 40
0.9842023432
 40
1.0
 40
1.0
 40
1.0
 40
1.0
 10
5.8476856752
 20
6.2023998028
 30
0.0
 10
5.8463242056
 20
6.2023005092
 30
0.0
 10
5.8432866638
 20
6.2021096768
 30
0.0
 10
5.8359673195
 20
6.2017328718
 30
0.0
 10
5.8245125275
 20
6.2012829154
 30
0.0
 10
5.8080530957
 20
6.2007680818
 30
0.0
 10
5.7880532809
 20
6.2002505947
 30
0.0
 10
5.7646468656
 20
6.19973062
 30
0.0
 10
5.727132957
 20
6.198996632
 30
0.0
 10
5.6731551669
 20
6.198103508
 30
0.0
 10
5.600945765
 20
6.1970712676
 30
0.0
 10
5.5202961035
 20
6.1960362456
 30
0.0
 10
5.433408282
 20
6.194997777
 30
0.0
 10
5.3426679255
 20
6.193958273
 30
0.0
 10
5.2505567794
 20
6.1929186462
 30
0.0
 10
5.1595880089
 20
6.1918787854
 30
0.0
 10
5.0722530485
 20
6.1908406055
 30
0.0
 10
4.9909478671
 20
6.1898047959
 30
0.0
 10
4.9178916379
 20
6.1887727184
 30
0.0
 10
4.8550806044
 20
6.1877473454
 30
0.0
 10
4.8099513126
 20
6.1868537143
 30
0.0
 10
4.7802401479
 20
6.1861068949
 30
0.0
 10
4.7676366631
 20
6.1857284137
 30
0.0
 10
4.7619216914
 20
6.1855325309
 30
0.0
  0
SPLINE
  5
454
100
AcDbEntity
  8
0
100
AcDbSpline
 62
7
  6
CONTINUOUS
 70
0
 71
3
 72
14
 73
10
 74
0
 42
0.0000001
 43
0.0000001
 44
0.0000000001
 40
0.0
 40
0.0
 40
0.0
 40
0.0
 40
0.0302699804
 40
0.0531803916
 40
0.0825757894
 40
0.1622100409
 40
0.270709034
 40
0.5759806692
 40
1.0
 40
1.0
 40
1.0
 40
1.0
 10
4.7304333948
 20
6.2233930849
 30
0.0
 10
4.7304330887
 20
6.2233616523
 30
0.0
 10
4.7304721639
 20
6.2233110489
 30
0.0
 10
4.7305426515
 20
6.2232652684
 30
0.0
 10
4.7306666576
 20
6.2232044432
 30
0.0
 10
4.7308817492
 20
6.2231347805
 30
0.0
 10
4.7313800816
 20
6.2230139992
 30
0.0
 10
4.7322398107
 20
6.2228753761
 30
0.0
 10
4.7329915601
 20
6.2227838084
 30
0.0
 10
4.7334292557
 20
6.2227357403
 30
0.0
  0
LINE
  5
455
100
AcDbEntity
  8
0
100
AcDbLine
 62
7
  6
CONTINUOUS
 10
5.8528074756
 20
6.2038878257
 11
5.8544175409
 21
6.2035127371
  0
SPLINE
  5
456
100
AcDbEntity
  8
0
100
AcDbSpline
 62
7
  6
CONTINUOUS
 70
0
 71
3
 72
17
 73
13
 74
0
 42
0.0000001
 43
0.0000001
 44
0.0000000001
 40
0.0
 40
0.0
 40
0.0
 40
0.0
 40
0.0090407241
 40
0.0233821778
 40
0.0445476217
 40
0.0729716772
 40
0.1521403813
 40
0.2614086356
 40
0.4008654434
 40
0.5704929382
 40
0.7702311046
 40
1.0
 40
1.0
 40
1.0
 40
1.0
 10
4.730424369
 20
5.8734184504
 30
0.0
 10
4.7304255122
 20
5.8734443418
 30
0.0
 10
4.7304675951
 20
5.8735053698
 30
0.0
 10
4.730578805
 20
5.873567677
 30
0.0
 10
4.7307499981
 20
5.8736352262
 30
0.0
 10
4.7311055717
 20
5.8737348641
 30
0.0
 10
4.7317168607
 20
5.8738523826
 30
0.0
 10
4.7326473273
 20
5.8739855955
 30
0.0
 10
4.7338392211
 20
5.8741201431
 30
0.0
 10
4.7352915529
 20
5.8742557726
 30
0.0
 10
4.7370037104
 20
5.8743919262
 30
0.0
 10
4.7382320328
 20
5.8744770104
 30
0.0
 10
4.7388892905
 20
5.8745201026
 30
0.0
  0
SPLINE
  5
457
100
AcDbEntity
  8
0
100
AcDbSpline
 62
7
  6
CONTINUOUS
 70
0
 71
3
 72
35
 73
31
 74
0
 42
0.0000001
 43
0.0000001
 44
0.0000000001
 40
0.0
 40
0.0
 40
0.0
 40
0.0
 40
0.0044512964
 40
0.0099048232
 40
0.0237749573
 40
0.041497683
 40
0.0629497364
 40
0.0879562977
 40
0.1162991692
 40
0.1820441707
 40
0.2580423085
 40
0.341831324
 40
0.4306814829
 40
0.5216842968
 40
0.6118779669
 40
0.6983222224
 40
0.7782102172
 40
0.8148713504
 40
0.8489359736
 40
0.8801115813
 40
0.9081573421
 40
0.9328540096
 40
0.9539976155
 40
0.9714167303
 40
0.9786774767
 40
0.9849486425
 40
0.9902224954
 40
0.9944927106
 40
0.997753413
 40
1.0
 40
1.0
 40
1.0
 40
1.0
 10
4.7388892905
 20
5.8745201026
 30
0.0
 10
4.7405390043
 20
5.8746282638
 30
0.0
 10
4.7442119922
 20
5.8748364094
 30
0.0
 10
4.7530327515
 20
5.8752473228
 30
0.0
 10
4.7667837032
 20
5.8757384352
 30
0.0
 10
4.7864771324
 20
5.8763005913
 30
0.0
 10
4.8103081125
 20
5.8768653526
 30
0.0
 10
4.8380843495
 20
5.8774331902
 30
0.0
 10
4.8823100133
 20
5.878232629
 30
0.0
 10
4.9454742533
 20
5.8792049598
 30
0.0
 10
5.0292315966
 20
5.8803303215
 30
0.0
 10
5.1215710782
 20
5.8814592833
 30
0.0
 10
5.2194837953
 20
5.8825907887
 30
0.0
 10
5.3197754065
 20
5.8837232841
 30
0.0
 10
5.4191733927
 20
5.8848551461
 30
0.0
 10
5.5144429622
 20
5.8859858654
 30
0.0
 10
5.5898305705
 20
5.8869507447
 30
0.0
 10
5.6457645115
 20
5.8877358639
 30
0.0
 10
5.683607389
 20
5.8883070204
 30
0.0
 10
5.7182500474
 20
5.8888777159
 30
0.0
 10
5.7494128526
 20
5.889447362
 30
0.0
 10
5.7768490337
 20
5.8900149097
 30
0.0
 10
5.8003374341
 20
5.8905803029
 30
0.0
 10
5.8173497688
 20
5.891072009
 30
0.0
 10
5.8288381803
 20
5.8914770009
 30
0.0
 10
5.8358171162
 20
5.8917612652
 30
0.0
 10
5.8416842165
 20
5.8920443956
 30
0.0
 10
5.846432167
 20
5.8923238145
 30
0.0
 10
5.8500528143
 20
5.8926008646
 30
0.0
 10
5.8520885446
 20
5.8928129094
 30
0.0
 10
5.8529137424
 20
5.8929365211
 30
0.0
  0
SPLINE
  5
458
100
AcDbEntity
  8
0
100
AcDbSpline
 62
7
  6
CONTINUOUS
 70
0
 71
3
 72
15
 73
11
 74
0
 42
0.0000001
 43
0.0000001
 44
0.0000000001
 40
0.0
 40
0.0
 40
0.0
 40
0.0
 40
0.0252336503
 40
0.0468190043
 40
0.0753898035
 40
0.1543882584
 40
0.2631791549
 40
0.4020488998
 40
0.5711152735
 40
1.0
 40
1.0
 40
1.0
 40
1.0
 10
4.7304510034
 20
5.5934181995
 30
0.0
 10
4.7304509602
 20
5.5934643368
 30
0.0
 10
4.7305302004
 20
5.593532477
 30
0.0
 10
4.7306491386
 20
5.5935899039
 30
0.0
 10
4.7308738207
 20
5.5936722665
 30
0.0
 10
4.7312572598
 20
5.5937646384
 30
0.0
 10
4.7318456945
 20
5.5938721416
 30
0.0
 10
4.732599891
 20
5.5939795084
 30
0.0
 10
4.7339380523
 20
5.5941371193
 30
0.0
 10
4.7350270896
 20
5.5942351209
 30
0.0
 10
4.7358086189
 20
5.5942994768
 30
0.0
  0
SPLINE
  5
459
100
AcDbEntity
  8
0
100
AcDbSpline
 62
7
  6
CONTINUOUS
 70
0
 71
3
 72
36
 73
32
 74
0
 42
0.0000001
 43
0.0000001
 44
0.0000000001
 40
0.0
 40
0.0
 40
0.0
 40
0.0
 40
0.0036945474
 40
0.0084261153
 40
0.0209636558
 40
0.0374905028
 40
0.0578681969
 40
0.0819216294
 40
0.1094471421
 40
0.1402291981
 40
0.174004166
 40
0.2493997124
 40
0.3331009853
 40
0.4223020961
 40
0.5140381447
 40
0.6052465976
 40
0.6928983751
 40
0.7740556936
 40
0.8113321186
 40
0.8459976464
 40
0.8777599616
 40
0.9063584772
 40
0.9315430422
 40
0.9530964782
 40
0.9708499304
 40
0.978250574
 40
0.984646209
 40
0.9900275666
 40
0.9943857219
 40
0.9977122079
 40
1.0
 40
1.0
 40
1.0
 40
1.0
 10
4.7358086189
 20
5.5942994768
 30
0.0
 10
4.7371799206
 20
5.5944123981
 30
0.0
 10
4.7403110447
 20
5.5946253828
 30
0.0
 10
4.7481072418
 20
5.5950450752
 30
0.0
 10
4.7606845087
 20
5.5955396722
 30
0.0
 10
4.7790892918
 20
5.5961061234
 30
0.0
 10
4.8017845609
 20
5.596675933
 30
0.0
 10
4.8285769153
 20
5.5972499621
 30
0.0
 10
4.8592448677
 20
5.597825879
 30
0.0
 10
4.8935339026
 20
5.598402839
 30
0.0
 10
4.9456496645
 20
5.5992030506
 30
0.0
 10
5.0174733818
 20
5.6001823799
 30
0.0
 10
5.1099387924
 20
5.6013243743
 30
0.0
 10
5.2084902241
 20
5.6024687933
 30
0.0
 10
5.3098376904
 20
5.6036138349
 30
0.0
 10
5.4106081085
 20
5.6047590801
 30
0.0
 10
5.5074384952
 20
5.6059027505
 30
0.0
 10
5.5841838009
 20
5.6068781398
 30
0.0
 10
5.6411963304
 20
5.6076725191
 30
0.0
 10
5.6798141142
 20
5.608250636
 30
0.0
 10
5.7151996464
 20
5.6088280571
 30
0.0
 10
5.7470537328
 20
5.6094041932
 30
0.0
 10
5.7751051331
 20
5.6099783404
 30
0.0
 10
5.7991166101
 20
5.6105505429
 30
0.0
 10
5.816504713
 20
5.6110480683
 30
0.0
 10
5.8282475173
 20
5.6114577576
 30
0.0
 10
5.8353840461
 20
5.6117451643
 30
0.0
 10
5.8413863529
 20
5.6120314176
 30
0.0
 10
5.846244607
 20
5.6123139699
 30
0.0
 10
5.8499477544
 20
5.6125942947
 30
0.0
 10
5.852028916
 20
5.6128090863
 30
0.0
 10
5.8528716419
 20
5.6129346705
 30
0.0
  0
LINE
  5
45A
100
AcDbEntity
  8
0
100
AcDbLine
 62
7
  6
CONTINUOUS
 10
5.8529759957
 20
5.6129504789
 11
5.8543910776
 21
5.6132944557
  0
LINE
  5
45B
100
AcDbEntity
  8
0
100
AcDbLine
 62
7
  6
CONTINUOUS
 10
4.7319618092
 20
5.6329483841
 11
4.730530211
 21
5.6332957955
  0
SPLINE
  5
45C
100
AcDbEntity
  8
0
100
AcDbSpline
 62
7
  6
CONTINUOUS
 70
0
 71
3
 72
13
 73
9
 74
0
 42
0.0000001
 43
0.0000001
 44
0.0000000001
 40
0.0
 40
0.0
 40
0.0
 40
0.0
 40
0.0571840117
 40
0.132970965
 40
0.2280208381
 40
0.3426886353
 40
0.6315902836
 40
1.0
 40
1.0
 40
1.0
 40
1.0
 10
4.7253628997
 20
6.220539846
 30
0.0
 10
4.725601985
 20
6.2206772124
 30
0.0
 10
4.7261930227
 20
6.2209335997
 30
0.0
 10
4.7272407703
 20
6.2212680742
 30
0.0
 10
4.7285768571
 20
6.2216034517
 30
0.0
 10
4.7309316815
 20
6.2220904126
 30
0.0
 10
4.734609051
 20
6.2226778937
 30
0.0
 10
4.7377532303
 20
6.2230792438
 30
0.0
 10
4.7395175135
 20
6.2232867899
 30
0.0
  0
LINE
  5
45D
100
AcDbEntity
  8
0
100
AcDbLine
 62
7
  6
CONTINUOUS
 10
4.7451467763
 20
6.223896659
 11
4.7672630116
 21
6.2257367822
  0
SPLINE
  5
45E
100
AcDbEntity
  8
0
100
AcDbSpline
 62
7
  6
CONTINUOUS
 70
0
 71
3
 72
15
 73
11
 74
0
 42
0.0000001
 43
0.0000001
 44
0.0000000001
 40
0.0
 40
0.0
 40
0.0
 40
0.0
 40
0.0255404275
 40
0.0472586014
 40
0.0759325274
 40
0.1550721198
 40
0.2639691661
 40
0.4029007823
 40
0.5719087383
 40
1.0
 40
1.0
 40
1.0
 40
1.0
 10
4.7304244241
 20
5.6334209319
 30
0.0
 10
4.730425509
 20
5.6334666463
 30
0.0
 10
4.7305037659
 20
5.6335329176
 30
0.0
 10
4.73062119
 20
5.6335898161
 30
0.0
 10
4.7308417543
 20
5.6336706443
 30
0.0
 10
4.7312177902
 20
5.633761652
 30
0.0
 10
4.7317944569
 20
5.6338673132
 30
0.0
 10
4.7325331119
 20
5.6339729103
 30
0.0
 10
4.7338419538
 20
5.6341278004
 30
0.0
 10
4.7349067706
 20
5.6342242629
 30
0.0
 10
4.7356705956
 20
5.6342876192
 30
0.0
  0
SPLINE
  5
45F
100
AcDbEntity
  8
0
100
AcDbSpline
 62
7
  6
CONTINUOUS
 70
0
 71
3
 72
43
 73
39
 74
0
 42
0.0000001
 43
0.0000001
 44
0.0000000001
 40
0.0
 40
0.0
 40
0.0
 40
0.0
 40
0.0037321472
 40
0.0085257179
 40
0.0212568936
 40
0.0380882141
 40
0.0588767081
 40
0.0834665372
 40
0.1116364909
 40
0.143136933
 40
0.1776973908
 40
0.254764334
 40
0.3401986084
 40
0.4310736387
 40
0.5242420461
 40
0.6164959314
 40
0.6612841447
 40
0.7046564927
 40
0.7462446392
 40
0.7856953984
 40
0.8226650191
 40
0.856834365
 40
0.8878915614
 40
0.9155739217
 40
0.9396576995
 40
0.9502824032
 40
0.9599329967
 40
0.9685898059
 40
0.9762331924
 40
0.9828435781
 40
0.9884038436
 40
0.992905106
 40
0.9947565045
 40
0.9963407125
 40
0.9976571037
 40
0.9987053073
 40
0.9994855632
 40
1.0
 40
1.0
 40
1.0
 40
1.0
 10
4.7356705956
 20
5.6342876192
 30
0.0
 10
4.7370576869
 20
5.634402673
 30
0.0
 10
4.7402301467
 20
5.6346190267
 30
0.0
 10
4.7481462184
 20
5.635045682
 30
0.0
 10
4.7609495254
 20
5.6355484959
 30
0.0
 10
4.7797184571
 20
5.6361236384
 30
0.0
 10
4.8029116163
 20
5.6367027459
 30
0.0
 10
4.8303343042
 20
5.6372853766
 30
0.0
 10
4.8617526283
 20
5.6378699692
 30
0.0
 10
4.8968898971
 20
5.6384561517
 30
0.0
 10
4.9502613539
 20
5.6392686301
 30
0.0
 10
5.023746196
 20
5.6402633566
 30
0.0
 10
5.1182323926
 20
5.6414229434
 30
0.0
 10
5.2187238111
 20
5.6425847468
 30
0.0
 10
5.3217586569
 20
5.6437479659
 30
0.0
 10
5.4076070332
 20
5.6447261522
 30
0.0
 10
5.474885532
 20
5.6455189774
 30
0.0
 10
5.5232700071
 20
5.6461077252
 30
0.0
 10
5.5696637997
 20
5.6466962647
 30
0.0
 10
5.6136695853
 20
5.647284361
 30
0.0
 10
5.6549083733
 20
5.6478720018
 30
0.0
 10
5.6930165672
 20
5.6484587342
 30
0.0
 10
5.7276607716
 20
5.6490446533
 30
0.0
 10
5.7585431187
 20
5.6496294903
 30
0.0
 10
5.7818055455
 20
5.65013349
 30
0.0
 10
5.7983436099
 20
5.6505432828
 30
0.0
 10
5.8091294599
 20
5.650837331
 30
0.0
 10
5.8188030294
 20
5.6511308724
 30
0.0
 10
5.8273422288
 20
5.6514237733
 30
0.0
 10
5.8347259037
 20
5.6517155542
 30
0.0
 10
5.8409367164
 20
5.6520062681
 30
0.0
 10
5.8453724278
 20
5.6522598193
 30
0.0
 10
5.8483250078
 20
5.6524688718
 30
0.0
 10
5.8500913105
 20
5.6526146461
 30
0.0
 10
5.8515567135
 20
5.6527598248
 30
0.0
 10
5.8527214113
 20
5.6529026529
 30
0.0
 10
5.8535829453
 20
5.6530445378
 30
0.0
 10
5.8540554842
 20
5.6531537424
 30
0.0
 10
5.854235633
 20
5.6532197254
 30
0.0
  0
SPLINE
  5
460
100
AcDbEntity
  8
0
100
AcDbSpline
 62
7
  6
CONTINUOUS
 70
0
 71
3
 72
13
 73
9
 74
0
 42
0.0000001
 43
0.0000001
 44
0.0000000001
 40
0.0
 40
0.0
 40
0.0
 40
0.0
 40
0.0468831643
 40
0.1155294361
 40
0.2064907683
 40
0.3199688719
 40
0.6147324103
 40
1.0
 40
1.0
 40
1.0
 40
1.0
 10
5.854388472
 20
6.0435308751
 30
0.0
 10
5.8543196521
 20
6.0435700367
 30
0.0
 10
5.8541352507
 20
6.043638532
 30
0.0
 10
5.8537980713
 20
6.0437265008
 30
0.0
 10
5.8533450895
 20
6.0438154634
 30
0.0
 10
5.8525123157
 20
6.0439470901
 30
0.0
 10
5.8511808341
 20
6.0441036579
 30
0.0
 10
5.8500371432
 20
6.044208887
 30
0.0
 10
5.8493887539
 20
6.044263529
 30
0.0
  0
SPLINE
  5
461
100
AcDbEntity
  8
0
100
AcDbSpline
 62
7
  6
CONTINUOUS
 70
0
 71
3
 72
14
 73
10
 74
0
 42
0.0000001
 43
0.0000001
 44
0.0000000001
 40
0.0
 40
0.0
 40
0.0
 40
0.0
 40
0.0269802181
 40
0.0490135262
 40
0.0778550911
 40
0.1570345241
 40
0.2656797
 40
0.5726377239
 40
1.0
 40
1.0
 40
1.0
 40
1.0
 10
4.7304518537
 20
5.6734171028
 30
0.0
 10
4.7304519835
 20
5.673457045
 30
0.0
 10
4.7305132718
 20
5.6735182094
 30
0.0
 10
4.7306114972
 20
5.6735710274
 30
0.0
 10
4.7307916922
 20
5.6736446371
 30
0.0
 10
4.7311009874
 20
5.673727895
 30
0.0
 10
4.7318196824
 20
5.6738735032
 30
0.0
 10
4.733057037
 20
5.6740398964
 30
0.0
 10
4.7341386363
 20
5.6741499416
 30
0.0
 10
4.7347686795
 20
5.6742076672
 30
0.0
  0
SPLINE
  5
462
100
AcDbEntity
  8
0
100
AcDbSpline
 62
7
  6
CONTINUOUS
 70
0
 71
3
 72
41
 73
37
 74
0
 42
0.0000001
 43
0.0000001
 44
0.0000000001
 40
0.0
 40
0.0
 40
0.0
 40
0.0
 40
0.0034012995
 40
0.0078506961
 40
0.013338683
 40
0.0198553045
 40
0.0359320923
 40
0.0559485707
 40
0.0797151712
 40
0.1070322392
 40
0.1376629135
 40
0.1713570751
 40
0.2078380624
 40
0.2467860679
 40
0.3307499671
 40
0.4203920302
 40
0.5126813258
 40
0.6044997619
 40
0.6927347925
 40
0.7345676598
 40
0.7743989146
 40
0.8118892255
 40
0.8467113981
 40
0.8785847127
 40
0.9072406438
 40
0.9324340212
 40
0.9539502363
 40
0.9632635612
 40
0.9715861889
 40
0.978904573
 40
0.9852053523
 40
0.9904752829
 40
0.9947015323
 40
0.9978765793
 40
0.9990696166
 40
1.0
 40
1.0
 40
1.0
 40
1.0
 10
4.7347686795
 20
5.6742076672
 30
0.0
 10
4.7360316573
 20
5.6743233834
 30
0.0
 10
4.7389514421
 20
5.674538568
 30
0.0
 10
4.7439169558
 20
5.6748244879
 30
0.0
 10
4.7500456247
 20
5.6751125117
 30
0.0
 10
4.7605083287
 20
5.6755284078
 30
0.0
 10
4.776388903
 20
5.6760296802
 30
0.0
 10
4.7987019511
 20
5.6766039358
 30
0.0
 10
4.8252073581
 20
5.6771814402
 30
0.0
 10
4.8556712969
 20
5.6777612211
 30
0.0
 10
4.8898375661
 20
5.6783425366
 30
0.0
 10
4.9274212821
 20
5.6789247208
 30
0.0
 10
4.968106677
 20
5.6795073364
 30
0.0
 10
5.0275353378
 20
5.6803050668
 30
0.0
 10
5.1067858575
 20
5.6812860372
 30
0.0
 10
5.2059254933
 20
5.6824387741
 30
0.0
 10
5.3079940898
 20
5.6835923409
 30
0.0
 10
5.4095380021
 20
5.6847458142
 30
0.0
 10
5.4922686485
 20
5.6857223228
 30
0.0
 10
5.5556152525
 20
5.6865146634
 30
0.0
 10
5.6000414226
 20
5.6870980229
 30
0.0
 10
5.6418532332
 20
5.6876808468
 30
0.0
 10
5.6806974047
 20
5.6882634289
 30
0.0
 10
5.7162470492
 20
5.688845121
 30
0.0
 10
5.7482058351
 20
5.6894254806
 30
0.0
 10
5.7763020038
 20
5.6900043199
 30
0.0
 10
5.797185762
 20
5.6905047855
 30
0.0
 10
5.8117790251
 20
5.6909133078
 30
0.0
 10
5.8210793978
 20
5.6912044084
 30
0.0
 10
5.8292558814
 20
5.6914947283
 30
0.0
 10
5.8362932781
 20
5.6917841542
 30
0.0
 10
5.8421767328
 20
5.6920714434
 30
0.0
 10
5.8468929293
 20
5.6923569911
 30
0.0
 10
5.8500883358
 20
5.6926070745
 30
0.0
 10
5.8520527054
 20
5.6928190097
 30
0.0
 10
5.8528374366
 20
5.6929263866
 30
0.0
 10
5.8531796563
 20
5.6929832937
 30
0.0
  0
LINE
  5
463
100
AcDbEntity
  8
0
100
AcDbLine
 62
7
  6
CONTINUOUS
 10
5.8531796563
 20
5.6929832937
 11
5.8543753713
 21
5.6932900712
  0
SPLINE
  5
464
100
AcDbEntity
  8
0
100
AcDbSpline
 62
7
  6
CONTINUOUS
 70
0
 71
3
 72
14
 73
10
 74
0
 42
0.0000001
 43
0.0000001
 44
0.0000000001
 40
0.0
 40
0.0
 40
0.0
 40
0.0
 40
0.0424711643
 40
0.1079979884
 40
0.1971242669
 40
0.3100248825
 40
0.4467600489
 40
0.6073432055
 40
1.0
 40
1.0
 40
1.0
 40
1.0
 10
4.7089054983
 20
6.0510336507
 30
0.0
 10
4.7089851629
 20
6.0510797067
 30
0.0
 10
4.7092089381
 20
6.0511563001
 30
0.0
 10
4.7096237027
 20
6.0512548561
 30
0.0
 10
4.7101954595
 20
6.0513545563
 30
0.0
 10
4.7109222689
 20
6.0514560718
 30
0.0
 10
4.7118053024
 20
6.0515582456
 30
0.0
 10
4.7132929863
 20
6.0517053436
 30
0.0
 10
4.7144880354
 20
6.051800089
 30
0.0
 10
4.7153365239
 20
6.05186201
 30
0.0
  0
LINE
  5
465
100
AcDbEntity
  8
0
100
AcDbLine
 62
7
  6
CONTINUOUS
 10
4.7153365239
 20
6.05186201
 11
4.734748114
 21
6.052812263
  0
SPLINE
  5
466
100
AcDbEntity
  8
0
100
AcDbSpline
 62
7
  6
CONTINUOUS
 70
0
 71
3
 72
24
 73
20
 74
0
 42
0.0000001
 43
0.0000001
 44
0.0000000001
 40
0.0
 40
0.0
 40
0.0
 40
0.0
 40
0.013830641
 40
0.0307264442
 40
0.0732833063
 40
0.1265943657
 40
0.189315083
 40
0.2598693497
 40
0.3364773719
 40
0.417205727
 40
0.5000218709
 40
0.6635632652
 40
0.7401674972
 40
0.8107165851
 40
0.8734308365
 40
0.9267343719
 40
0.969282845
 40
0.9861740921
 40
1.0
 40
1.0
 40
1.0
 40
1.0
 10
4.734748114
 20
6.052812263
 30
0.0
 10
4.739887736
 20
6.0530019841
 30
0.0
 10
4.7513081088
 20
6.053366702
 30
0.0
 10
4.7785500627
 20
6.0540881698
 30
0.0
 10
4.8204741563
 20
6.0549576283
 30
0.0
 10
4.8794396522
 20
6.0559301756
 30
0.0
 10
4.9488174685
 20
6.0569103246
 30
0.0
 10
5.0268589269
 20
6.057922642
 30
0.0
 10
5.1115976046
 20
6.0589095692
 30
0.0
 10
5.2008962127
 20
6.0599054481
 30
0.0
 10
5.3225203647
 20
6.0612501782
 30
0.0
 10
5.4426114591
 20
6.0625364039
 30
0.0
 10
5.5581397148
 20
6.0639009488
 30
0.0
 10
5.6361754131
 20
6.0649144907
 30
0.0
 10
5.7055461795
 20
6.0658885734
 30
0.0
 10
5.7645034064
 20
6.0668592261
 30
0.0
 10
5.8064197103
 20
6.0677365313
 30
0.0
 10
5.83365519
 20
6.0684536737
 30
0.0
 10
5.8450722166
 20
6.0688150048
 30
0.0
 10
5.8502101127
 20
6.0690037628
 30
0.0
  0
SPLINE
  5
467
100
AcDbEntity
  8
0
100
AcDbSpline
 62
7
  6
CONTINUOUS
 70
0
 71
3
 72
12
 73
8
 74
0
 42
0.0000001
 43
0.0000001
 44
0.0000000001
 40
0.0
 40
0.0
 40
0.0
 40
0.0
 40
0.3605030562
 40
0.6477768234
 40
0.8610533116
 40
0.9398309974
 40
1.0
 40
1.0
 40
1.0
 40
1.0
 10
5.8502101127
 20
6.0690037628
 30
0.0
 10
5.8531322015
 20
6.0691111156
 30
0.0
 10
5.8583823614
 20
6.069318925
 30
0.0
 10
5.8653577025
 20
6.0696676889
 30
0.0
 10
5.8700472399
 20
6.0699751652
 30
0.0
 10
5.8728922369
 20
6.0702366274
 30
0.0
 10
5.8740118293
 20
6.0703685587
 30
0.0
 10
5.8744947483
 20
6.0704390326
 30
0.0
  0
LINE
  5
468
100
AcDbEntity
  8
0
100
AcDbLine
 62
7
  6
CONTINUOUS
 10
5.8750018686
 20
6.0705197137
 11
5.8761325268
 21
6.0709102359
  0
SPLINE
  5
469
100
AcDbEntity
  8
0
100
AcDbSpline
 62
7
  6
CONTINUOUS
 70
0
 71
3
 72
13
 73
9
 74
0
 42
0.0000001
 43
0.0000001
 44
0.0000000001
 40
0.0
 40
0.0
 40
0.0
 40
0.0
 40
0.0485580579
 40
0.1182929353
 40
0.2098197138
 40
0.3233949284
 40
0.6171276964
 40
1.0
 40
1.0
 40
1.0
 40
1.0
 10
4.730567599
 20
6.0635282372
 30
0.0
 10
4.7306275122
 20
6.0635633532
 30
0.0
 10
4.7307861031
 20
6.0636259129
 30
0.0
 10
4.7310750211
 20
6.0637063951
 30
0.0
 10
4.7314599109
 20
6.0637877742
 30
0.0
 10
4.7321631824
 20
6.0639077917
 30
0.0
 10
4.7332846231
 20
6.0640508063
 30
0.0
 10
4.7342474981
 20
6.064146975
 30
0.0
 10
4.7347927886
 20
6.0641968753
 30
0.0
  0
SPLINE
  5
46A
100
AcDbEntity
  8
0
100
AcDbSpline
 62
7
  6
CONTINUOUS
 70
0
 71
3
 72
51
 73
47
 74
0
 42
0.0000001
 43
0.0000001
 44
0.0000000001
 40
0.0
 40
0.0
 40
0.0
 40
0.0
 40
0.0034903148
 40
0.0080747322
 40
0.0137433846
 40
0.0204859327
 40
0.0371478878
 40
0.0579153756
 40
0.0825851541
 40
0.1109403655
 40
0.1427214249
 40
0.1776566428
 40
0.2154403648
 40
0.2557343846
 40
0.342417061
 40
0.4346089011
 40
0.5290441671
 40
0.5760604669
 40
0.6223820081
 40
0.667599092
 40
0.7113134682
 40
0.7531324691
 40
0.7926863584
 40
0.8296134194
 40
0.8635890068
 40
0.8943272959
 40
0.9083949473
 40
0.921553717
 40
0.9337748302
 40
0.9450295217
 40
0.9552890413
 40
0.9645273913
 40
0.9727275223
 40
0.9798742506
 40
0.9859524774
 40
0.9885862337
 40
0.990947288
 40
0.9930342238
 40
0.9948466099
 40
0.9963842343
 40
0.9976470397
 40
0.9986352959
 40
0.9993501034
 40
0.9997954336
 40
0.9999226659
 40
1.0
 40
1.0
 40
1.0
 40
1.0
 10
4.7347927886
 20
6.0641968753
 30
0.0
 10
4.7360904228
 20
6.0643156235
 30
0.0
 10
4.7390973221
 20
6.0645358936
 30
0.0
 10
4.7442199156
 20
6.0648282219
 30
0.0
 10
4.7505582452
 20
6.0651227461
 30
0.0
 10
4.7614039692
 20
6.0655483684
 30
0.0
 10
4.7778871704
 20
6.0660609883
 30
0.0
 10
4.8010635806
 20
6.0666482704
 30
0.0
 10
4.8286066161
 20
6.0672388596
 30
0.0
 10
4.8602621431
 20
6.0678318034
 30
0.0
 10
4.8957506852
 20
6.0684263652
 30
0.0
 10
4.9347596486
 20
6.0690217119
 30
0.0
 10
4.9769471277
 20
6.0696176396
 30
0.0
 10
5.0384525426
 20
6.0704329347
 30
0.0
 10
5.120269682
 20
6.0714351957
 30
0.0
 10
5.2222989539
 20
6.0726137927
 30
0.0
 10
5.3095206378
 20
6.0735979077
 30
0.0
 10
5.3796183508
 20
6.0743956632
 30
0.0
 10
5.4313422882
 20
6.0749931411
 30
0.0
 10
5.4818334192
 20
6.075590557
 30
0.0
 10
5.5306434778
 20
6.0761876637
 30
0.0
 10
5.5773391082
 20
6.0767844612
 30
0.0
 10
5.6215005876
 20
6.0773806833
 30
0.0
 10
5.6627335714
 20
6.0779764628
 30
0.0
 10
5.7006750209
 20
6.0785717458
 30
0.0
 10
5.7300825327
 20
6.0790805801
 30
0.0
 10
5.7517188801
 20
6.079491739
 30
0.0
 10
5.7664429894
 20
6.0797907903
 30
0.0
 10
5.7801166954
 20
6.0800896332
 30
0.0
 10
5.7927077377
 20
6.0803882212
 30
0.0
 10
5.8041848793
 20
6.0806864799
 30
0.0
 10
5.8145212316
 20
6.08098446
 30
0.0
 10
5.8236949564
 20
6.0812818393
 30
0.0
 10
5.8316882186
 20
6.0815784607
 30
0.0
 10
5.8376033277
 20
6.0818352075
 30
0.0
 10
5.8417320091
 20
6.0820442737
 30
0.0
 10
5.844371682
 20
6.0821932926
 30
0.0
 10
5.8467042031
 20
6.0823420569
 30
0.0
 10
5.8487285629
 20
6.0824904226
 30
0.0
 10
5.8504445525
 20
6.0826381786
 30
0.0
 10
5.8518510605
 20
6.0827848669
 30
0.0
 10
5.8529501028
 20
6.0829297826
 30
0.0
 10
5.8537376209
 20
6.0830707064
 30
0.0
 10
5.8542069956
 20
6.0831972852
 30
0.0
 10
5.8544218584
 20
6.0833067639
 30
0.0
 10
5.8544739695
 20
6.0833740841
 30
0.0
 10
5.8544756299
 20
6.0834029078
 30
0.0
  0
SPLINE
  5
46B
100
AcDbEntity
  8
0
100
AcDbSpline
 62
7
  6
CONTINUOUS
 70
0
 71
3
 72
18
 73
14
 74
0
 42
0.0000001
 43
0.0000001
 44
0.0000000001
 40
0.0
 40
0.0
 40
0.0
 40
0.0
 40
0.0080001195
 40
0.0214425266
 40
0.0418893441
 40
0.0697419469
 40
0.1051457254
 40
0.1481654497
 40
0.2571606167
 40
0.3968430891
 40
0.5672268802
 40
0.7682914386
 40
1.0
 40
1.0
 40
1.0
 40
1.0
 10
4.730429971
 20
5.7134144682
 30
0.0
 10
4.730428833
 20
5.7134437614
 30
0.0
 10
4.7304801279
 20
5.713516796
 30
0.0
 10
4.7306166814
 20
5.7135846759
 30
0.0
 10
4.7308303851
 20
5.7136623144
 30
0.0
 10
4.7311278821
 20
5.7137370907
 30
0.0
 10
4.7315097197
 20
5.7138143954
 30
0.0
 10
4.7321873977
 20
5.7139262521
 30
0.0
 10
4.733248069
 20
5.7140608507
 30
0.0
 10
4.7347760271
 20
5.7142143493
 30
0.0
 10
4.7366426983
 20
5.7143687575
 30
0.0
 10
4.7388474569
 20
5.7145239137
 30
0.0
 10
4.740430351
 20
5.7146207646
 30
0.0
 10
4.7412779937
 20
5.7146698324
 30
0.0
  0
SPLINE
  5
46C
100
AcDbEntity
  8
0
100
AcDbSpline
 62
7
  6
CONTINUOUS
 70
0
 71
3
 72
40
 73
36
 74
0
 42
0.0000001
 43
0.0000001
 44
0.0000000001
 40
0.0
 40
0.0
 40
0.0
 40
0.0
 40
0.0049963162
 40
0.0110000758
 40
0.0259688422
 40
0.0447825429
 40
0.0672912132
 40
0.0933137316
 40
0.1226574018
 40
0.190272648
 40
0.2678751937
 40
0.3529369163
 40
0.4426722903
 40
0.5341340263
 40
0.6243179058
 40
0.710264335
 40
0.7507637474
 40
0.7891638803
 40
0.8251576314
 40
0.8584434977
 40
0.8887476724
 40
0.9158169024
 40
0.9394151327
 40
0.9498575413
 40
0.9593690646
 40
0.9679299183
 40
0.9755211581
 40
0.9821285828
 40
0.9877397675
 40
0.9923424556
 40
0.9959247514
 40
0.997329831
 40
0.9984766819
 40
0.999366127
 40
1.0
 40
1.0
 40
1.0
 40
1.0
 10
4.7412779937
 20
5.7146698324
 30
0.0
 10
4.7431284167
 20
5.7147769483
 30
0.0
 10
4.7472040119
 20
5.7149844445
 30
0.0
 10
4.7568291929
 20
5.7153945075
 30
0.0
 10
4.7715809937
 20
5.7158877718
 30
0.0
 10
4.7924561465
 20
5.7164525087
 30
0.0
 10
4.8174332032
 20
5.717020049
 30
0.0
 10
4.8463174128
 20
5.7175905357
 30
0.0
 10
4.8919337665
 20
5.7183906442
 30
0.0
 10
4.9566848821
 20
5.7193651764
 30
0.0
 10
5.0421059419
 20
5.7204948823
 30
0.0
 10
5.1357336826
 20
5.7216276931
 30
0.0
 10
5.2345031887
 20
5.7227628078
 30
0.0
 10
5.3351730134
 20
5.7238986503
 30
0.0
 10
5.4344371416
 20
5.7250338741
 30
0.0
 10
5.5147961333
 20
5.7259963526
 30
0.0
 10
5.57594529
 20
5.7267774939
 30
0.0
 10
5.6185642521
 20
5.7273515778
 30
0.0
 10
5.6585069035
 20
5.7279250428
 30
0.0
 10
5.6954458147
 20
5.7284979017
 30
0.0
 10
5.7290735168
 20
5.7290697679
 30
0.0
 10
5.7591067742
 20
5.7296402072
 30
0.0
 10
5.7817718676
 20
5.730132197
 30
0.0
 10
5.7979238104
 20
5.7305317019
 30
0.0
 10
5.8084982729
 20
5.7308186731
 30
0.0
 10
5.8180146
 20
5.7311052107
 30
0.0
 10
5.8264530513
 20
5.7313912371
 30
0.0
 10
5.8337965482
 20
5.7316765312
 30
0.0
 10
5.840030508
 20
5.7319602739
 30
0.0
 10
5.8451408295
 20
5.732242435
 30
0.0
 10
5.848690306
 20
5.7324892067
 30
0.0
 10
5.8509566249
 20
5.7326956076
 30
0.0
 10
5.8522257543
 20
5.7328363628
 30
0.0
 10
5.853206392
 20
5.7329758542
 30
0.0
 10
5.8537622015
 20
5.7330827586
 30
0.0
 10
5.8539895528
 20
5.7331428261
 30
0.0
  0
LINE
  5
46D
100
AcDbEntity
  8
0
100
AcDbLine
 62
7
  6
CONTINUOUS
 10
5.8539895528
 20
5.7331428261
 11
5.8543969219
 21
5.7332902588
  0
SPLINE
  5
46E
100
AcDbEntity
  8
0
100
AcDbSpline
 62
7
  6
CONTINUOUS
 70
0
 71
3
 72
14
 73
10
 74
0
 42
0.0000001
 43
0.0000001
 44
0.0000000001
 40
0.0
 40
0.0
 40
0.0
 40
0.0
 40
0.0427246459
 40
0.1084417205
 40
0.1976848961
 40
0.3106266353
 40
0.4473264249
 40
0.6077975055
 40
1.0
 40
1.0
 40
1.0
 40
1.0
 10
4.7089078075
 20
6.0910200416
 30
0.0
 10
4.7089880506
 20
6.0910661754
 30
0.0
 10
4.7092125509
 20
6.0911433241
 30
0.0
 10
4.7096283285
 20
6.0912428632
 30
0.0
 10
4.7102005506
 20
6.0913438251
 30
0.0
 10
4.7109273609
 20
6.0914467825
 30
0.0
 10
4.7118098855
 20
6.09155055
 30
0.0
 10
4.7132958751
 20
6.0917000289
 30
0.0
 10
4.7144894487
 20
6.0917963804
 30
0.0
 10
4.7153367923
 20
6.0918592985
 30
0.0
  0
LINE
  5
46F
100
AcDbEntity
  8
0
100
AcDbLine
 62
7
  6
CONTINUOUS
 10
4.7153367923
 20
6.0918592985
 11
4.7347488339
 21
6.0928165834
  0
SPLINE
  5
470
100
AcDbEntity
  8
0
100
AcDbSpline
 62
7
  6
CONTINUOUS
 70
0
 71
3
 72
16
 73
12
 74
0
 42
0.0000001
 43
0.0000001
 44
0.0000000001
 40
0.0
 40
0.0
 40
0.0
 40
0.0
 40
0.0283582122
 40
0.0624684136
 40
0.1472553086
 40
0.2526000532
 40
0.3763494197
 40
0.5159649368
 40
0.6685652291
 40
0.8310251984
 40
1.0
 40
1.0
 40
1.0
 40
1.0
 10
4.7347488339
 20
6.0928165834
 30
0.0
 10
4.739338407
 20
6.0929852874
 30
0.0
 10
4.7494501749
 20
6.0933103089
 30
0.0
 10
4.7732898504
 20
6.0939536004
 30
0.0
 10
4.8095979803
 20
6.0947409284
 30
0.0
 10
4.8604239116
 20
6.0956330717
 30
0.0
 10
4.9201307615
 20
6.0965146051
 30
0.0
 10
4.9874911703
 20
6.097416817
 30
0.0
 10
5.061121249
 20
6.0983282229
 30
0.0
 10
5.139506485
 20
6.0992377201
 30
0.0
 10
5.1931798437
 20
6.099824606
 30
0.0
 10
5.2205440663
 20
6.1001210122
 30
0.0
  0
LINE
  5
471
100
AcDbEntity
  8
0
100
AcDbLine
 62
7
  6
CONTINUOUS
 10
5.2205440663
 20
6.1001210122
 11
5.3646561586
 21
6.1016976874
  0
SPLINE
  5
472
100
AcDbEntity
  8
0
100
AcDbSpline
 62
7
  6
CONTINUOUS
 70
0
 71
3
 72
16
 73
12
 74
0
 42
0.0000001
 43
0.0000001
 44
0.0000000001
 40
0.0
 40
0.0
 40
0.0
 40
0.0
 40
0.1700420682
 40
0.3327582146
 40
0.4850704153
 40
0.6241203118
 40
0.7472834647
 40
0.8522327972
 40
0.9370110665
 40
0.9713078398
 40
1.0
 40
1.0
 40
1.0
 40
1.0
 10
5.3926743801
 20
6.1020108312
 30
0.0
 10
5.4186096225
 20
6.1023013177
 30
0.0
 10
5.46936274
 20
6.1028696757
 30
0.0
 10
5.5433466227
 20
6.103722821
 30
0.0
 10
5.6126026962
 20
6.1045907548
 30
0.0
 10
5.6758251735
 20
6.105456663
 30
0.0
 10
5.7318227601
 20
6.106310137
 30
0.0
 10
5.7795410643
 20
6.1071623861
 30
0.0
 10
5.8137040479
 20
6.1079087333
 30
0.0
 10
5.8362347249
 20
6.1085318527
 30
0.0
 10
5.8458374679
 20
6.1088470901
 30
0.0
 10
5.8502109378
 20
6.1090092365
 30
0.0
  0
SPLINE
  5
473
100
AcDbEntity
  8
0
100
AcDbSpline
 62
7
  6
CONTINUOUS
 70
0
 71
3
 72
12
 73
8
 74
0
 42
0.0000001
 43
0.0000001
 44
0.0000000001
 40
0.0
 40
0.0
 40
0.0
 40
0.0
 40
0.3605265677
 40
0.6478081048
 40
0.8610743913
 40
0.9398419617
 40
1.0
 40
1.0
 40
1.0
 40
1.0
 10
5.8502109378
 20
6.1090092365
 30
0.0
 10
5.8531329186
 20
6.109117569
 30
0.0
 10
5.8583827966
 20
6.1093267821
 30
0.0
 10
5.8653578499
 20
6.1096716013
 30
0.0
 10
5.8700473183
 20
6.1099715624
 30
0.0
 10
5.8728923263
 20
6.1102271993
 30
0.0
 10
5.8740119225
 20
6.1103568003
 30
0.0
 10
5.8744948315
 20
6.1104264179
 30
0.0
  0
LINE
  5
474
100
AcDbEntity
  8
0
100
AcDbLine
 62
7
  6
CONTINUOUS
 10
5.8750442294
 20
6.1105137014
 11
5.8761325268
 21
6.1108995395
  0
SPLINE
  5
475
100
AcDbEntity
  8
0
100
AcDbSpline
 62
7
  6
CONTINUOUS
 70
0
 71
3
 72
13
 73
9
 74
0
 42
0.0000001
 43
0.0000001
 44
0.0000000001
 40
0.0
 40
0.0
 40
0.0
 40
0.0
 40
0.0486628563
 40
0.1184936089
 40
0.2100974686
 40
0.323720384
 40
0.6174162145
 40
1.0
 40
1.0
 40
1.0
 40
1.0
 10
4.7305538752
 20
6.1035292677
 30
0.0
 10
4.7306132613
 20
6.1035641121
 30
0.0
 10
4.7307703819
 20
6.1036262192
 30
0.0
 10
4.7310565499
 20
6.1037061299
 30
0.0
 10
4.7314375941
 20
6.1037869304
 30
0.0
 10
4.7321334269
 20
6.103906065
 30
0.0
 10
4.7332424537
 20
6.1040480445
 30
0.0
 10
4.7341945639
 20
6.1041435582
 30
0.0
 10
4.7347336137
 20
6.1041931157
 30
0.0
  0
SPLINE
  5
476
100
AcDbEntity
  8
0
100
AcDbSpline
 62
7
  6
CONTINUOUS
 70
0
 71
3
 72
20
 73
16
 74
0
 42
0.0000001
 43
0.0000001
 44
0.0000000001
 40
0.0
 40
0.0
 40
0.0
 40
0.0
 40
0.0069727863
 40
0.0158500498
 40
0.039274496
 40
0.070095348
 40
0.1081014371
 40
0.1530651436
 40
0.2046968044
 40
0.26269092
 40
0.3267143707
 40
0.4711245964
 40
0.6342598884
 40
0.8120309993
 40
1.0
 40
1.0
 40
1.0
 40
1.0
 10
4.7347336137
 20
6.1041931157
 30
0.0
 10
4.7357931603
 20
6.104290525
 30
0.0
 10
4.7382050102
 20
6.1044748343
 30
0.0
 10
4.7441871688
 20
6.1048383473
 30
0.0
 10
4.7538103035
 20
6.1052675347
 30
0.0
 10
4.7678788824
 20
6.1057587589
 30
0.0
 10
4.7852358893
 20
6.1062531071
 30
0.0
 10
4.8057694464
 20
6.1067506473
 30
0.0
 10
4.8293538349
 20
6.1072497899
 30
0.0
 10
4.8558471924
 20
6.1077501454
 30
0.0
 10
4.8964968973
 20
6.1084460542
 30
0.0
 10
4.9531902344
 20
6.1092989458
 30
0.0
 10
5.0272406737
 20
6.1102908015
 30
0.0
 10
5.1079384931
 20
6.1112849938
 30
0.0
 10
5.1637449396
 20
6.1119361995
 30
0.0
 10
5.1924262368
 20
6.1122663443
 30
0.0
  0
LINE
  5
477
100
AcDbEntity
  8
0
100
AcDbLine
 62
7
  6
CONTINUOUS
 10
5.1924262368
 20
6.1122663443
 11
5.220439462
 21
6.1125874696
  0
LINE
  5
478
100
AcDbEntity
  8
0
100
AcDbLine
 62
7
  6
CONTINUOUS
 10
5.220439462
 20
6.1125874696
 11
5.2239561164
 21
6.1126276178
  0
LINE
  5
479
100
AcDbEntity
  8
0
100
AcDbLine
 62
7
  6
CONTINUOUS
 10
5.3645045672
 20
6.1142238536
 11
5.3925130628
 21
6.1145449328
  0
LINE
  5
47A
100
AcDbEntity
  8
0
100
AcDbLine
 62
7
  6
CONTINUOUS
 10
5.3925130628
 20
6.1145449328
 11
5.3995150268
 21
6.114625626
  0
SPLINE
  5
47B
100
AcDbEntity
  8
0
100
AcDbSpline
 62
7
  6
CONTINUOUS
 70
0
 71
3
 72
38
 73
34
 74
0
 42
0.0000001
 43
0.0000001
 44
0.0000000001
 40
0.0
 40
0.0
 40
0.0
 40
0.0
 40
0.1034829673
 40
0.2044445192
 40
0.3021442786
 40
0.3958490214
 40
0.4848639725
 40
0.5685505165
 40
0.6462783924
 40
0.7174704494
 40
0.7815881146
 40
0.8108280293
 40
0.8381172911
 40
0.863413678
 40
0.8866750361
 40
0.9078592451
 40
0.9269243246
 40
0.9438342943
 40
0.9585628089
 40
0.9710845887
 40
0.9765101732
 40
0.9813747986
 40
0.985675492
 40
0.9894094021
 40
0.9925740162
 40
0.9951689896
 40
0.9971960892
 40
0.9979978482
 40
0.9986594981
 40
0.9991827202
 40
0.9995709981
 40
0.9998332477
 40
1.0
 40
1.0
 40
1.0
 40
1.0
 10
5.3995150268
 20
6.114625626
 30
0.0
 10
5.415215772
 20
6.1148067842
 30
0.0
 10
5.446234672
 20
6.115167621
 30
0.0
 10
5.4920767004
 20
6.1157140945
 30
0.0
 10
5.5364349431
 20
6.1162603485
 30
0.0
 10
5.5789803506
 20
6.1168064561
 30
0.0
 10
5.6193993084
 20
6.1173524363
 30
0.0
 10
5.6573938204
 20
6.1178979243
 30
0.0
 10
5.6926837213
 20
6.1184428914
 30
0.0
 10
5.7250040037
 20
6.118987145
 30
0.0
 10
5.7499673085
 20
6.119452759
 30
0.0
 10
5.7682695624
 20
6.1198291226
 30
0.0
 10
5.7806822015
 20
6.1201025683
 30
0.0
 10
5.792187464
 20
6.1203758374
 30
0.0
 10
5.8027661113
 20
6.1206489008
 30
0.0
 10
5.8123989291
 20
6.1209216745
 30
0.0
 10
5.8210676167
 20
6.1211941082
 30
0.0
 10
5.8287562443
 20
6.121466066
 30
0.0
 10
5.8354513555
 20
6.121737346
 30
0.0
 10
5.8404038728
 20
6.121972175
 30
0.0
 10
5.8438599404
 20
6.1221633624
 30
0.0
 10
5.8460696834
 20
6.1222996277
 30
0.0
 10
5.848022222
 20
6.1224356087
 30
0.0
 10
5.8497161273
 20
6.1225712249
 30
0.0
 10
5.8511503475
 20
6.1227062112
 30
0.0
 10
5.8523242588
 20
6.1228404697
 30
0.0
 10
5.8531390588
 20
6.1229581445
 30
0.0
 10
5.8536596702
 20
6.1230559809
 30
0.0
 10
5.8539535544
 20
6.1231234678
 30
0.0
 10
5.854183157
 20
6.1231894086
 30
0.0
 10
5.8543487182
 20
6.1232566981
 30
0.0
 10
5.8544561669
 20
6.1233189216
 30
0.0
 10
5.8544945258
 20
6.1233801542
 30
0.0
 10
5.8544944981
 20
6.1234054561
 30
0.0
  0
SPLINE
  5
47C
100
AcDbEntity
  8
0
100
AcDbSpline
 62
7
  6
CONTINUOUS
 70
0
 71
3
 72
14
 73
10
 74
0
 42
0.0000001
 43
0.0000001
 44
0.0000000001
 40
0.0
 40
0.0
 40
0.0
 40
0.0
 40
0.0434626331
 40
0.1096934027
 40
0.1992350032
 40
0.3122672894
 40
0.4488545218
 40
0.6090131664
 40
1.0
 40
1.0
 40
1.0
 40
1.0
 10
4.7089146074
 20
6.1310265018
 30
0.0
 10
4.7089963371
 20
6.1310730477
 30
0.0
 10
4.709222998
 20
6.13115122
 30
0.0
 10
4.709641665
 20
6.1312513856
 30
0.0
 10
4.7102151795
 20
6.131352408
 30
0.0
 10
4.7109418683
 20
6.1314548209
 30
0.0
 10
4.7118227859
 20
6.1315576189
 30
0.0
 10
4.7133037486
 20
6.1317051492
 30
0.0
 10
4.7144927965
 20
6.1318000021
 30
0.0
 10
4.7153366342
 20
6.1318619414
 30
0.0
  0
LINE
  5
47D
100
AcDbEntity
  8
0
100
AcDbLine
 62
7
  6
CONTINUOUS
 10
4.7153366342
 20
6.1318619414
 11
4.7347483451
 21
6.1328175585
  0
SPLINE
  5
47E
100
AcDbEntity
  8
0
100
AcDbSpline
 62
7
  6
CONTINUOUS
 70
0
 71
3
 72
27
 73
23
 74
0
 42
0.0000001
 43
0.0000001
 44
0.0000000001
 40
0.0
 40
0.0
 40
0.0
 40
0.0
 40
0.0138307463
 40
0.0307265527
 40
0.0505886279
 40
0.0732833409
 40
0.1265945992
 40
0.189315514
 40
0.2598698025
 40
0.3364778925
 40
0.4172063091
 40
0.5000224739
 40
0.5828378334
 40
0.6635638566
 40
0.7401680172
 40
0.810716948
 40
0.8734312358
 40
0.9267347178
 40
0.949425158
 40
0.9692827691
 40
0.9861739809
 40
1.0
 40
1.0
 40
1.0
 40
1.0
 10
4.7347483451
 20
6.1328175585
 30
0.0
 10
4.7398879629
 20
6.1330084741
 30
0.0
 10
4.7513083379
 20
6.1333746742
 30
0.0
 10
4.7701139765
 20
6.133869913
 30
0.0
 10
4.7922168335
 20
6.1343628048
 30
0.0
 10
4.8278599373
 20
6.1350608008
 30
0.0
 10
4.8794402989
 20
6.1359296313
 30
0.0
 10
4.9488179702
 20
6.1369320981
 30
0.0
 10
5.0268600471
 20
6.1379060498
 30
0.0
 10
5.1115985678
 20
6.1389107529
 30
0.0
 10
5.2008971761
 20
6.1399135901
 30
0.0
 10
5.2925043263
 20
6.1409031878
 30
0.0
 10
5.3841104378
 20
6.141906482
 30
0.0
 10
5.4734063518
 20
6.1429129724
 30
0.0
 10
5.5581406172
 20
6.1439101022
 30
0.0
 10
5.6361767855
 20
6.1448835584
 30
0.0
 10
5.7055470463
 20
6.1458904007
 30
0.0
 10
5.7571204392
 20
6.1467602263
 30
0.0
 10
5.792757457
 20
6.1474553025
 30
0.0
 10
5.8148553838
 20
6.1479470217
 30
0.0
 10
5.8336558495
 20
6.1484441659
 30
0.0
 10
5.8450726897
 20
6.1488123751
 30
0.0
 10
5.8502105315
 20
6.1490037424
 30
0.0
  0
SPLINE
  5
47F
100
AcDbEntity
  8
0
100
AcDbSpline
 62
7
  6
CONTINUOUS
 70
0
 71
3
 72
12
 73
8
 74
0
 42
0.0000001
 43
0.0000001
 44
0.0000000001
 40
0.0
 40
0.0
 40
0.0
 40
0.0
 40
0.3605218781
 40
0.6477999198
 40
0.8610651746
 40
0.9398351546
 40
1.0
 40
1.0
 40
1.0
 40
1.0
 10
5.8502105315
 20
6.1490037424
 30
0.0
 10
5.8531325565
 20
6.149112578
 30
0.0
 10
5.8583825052
 20
6.1493229464
 30
0.0
 10
5.8653576611
 20
6.1496688815
 30
0.0
 10
5.8700472522
 20
6.1499694073
 30
0.0
 10
5.8728923074
 20
6.1502263711
 30
0.0
 10
5.8740119103
 20
6.1503570209
 30
0.0
 10
5.8744947843
 20
6.1504273822
 30
0.0
  0
LINE
  5
480
100
AcDbEntity
  8
0
100
AcDbLine
 62
7
  6
CONTINUOUS
 10
5.8750230248
 20
6.150511926
 11
5.8761325268
 21
6.1509088752
  0
SPLINE
  5
481
100
AcDbEntity
  8
0
100
AcDbSpline
 62
7
  6
CONTINUOUS
 70
0
 71
3
 72
15
 73
11
 74
0
 42
0.0000001
 43
0.0000001
 44
0.0000000001
 40
0.0
 40
0.0
 40
0.0
 40
0.0
 40
0.0163720959
 40
0.0386671623
 40
0.1015814954
 40
0.1892590445
 40
0.3017951657
 40
0.4391867817
 40
0.6013928046
 40
1.0
 40
1.0
 40
1.0
 40
1.0
 10
4.7305642247
 20
6.1435326608
 30
0.0
 10
4.7306132697
 20
6.1435602334
 30
0.0
 10
4.730736747
 20
6.1436112018
 30
0.0
 10
4.7310711918
 20
6.1437114958
 30
0.0
 10
4.7316550214
 20
6.1438274057
 30
0.0
 10
4.7325493833
 20
6.1439600143
 30
0.0
 10
4.7337021494
 20
6.1440934878
 30
0.0
 10
4.7351120667
 20
6.1442283234
 30
0.0
 10
4.737503739
 20
6.1444223102
 30
0.0
 10
4.7394271364
 20
6.144546562
 30
0.0
 10
4.7407945789
 20
6.1446277722
 30
0.0
  0
SPLINE
  5
482
100
AcDbEntity
  8
0
100
AcDbSpline
 62
7
  6
CONTINUOUS
 70
0
 71
3
 72
50
 73
46
 74
0
 42
0.0000001
 43
0.0000001
 44
0.0000000001
 40
0.0
 40
0.0
 40
0.0
 40
0.0
 40
0.0049659829
 40
0.0109717339
 40
0.0260532092
 40
0.0451137058
 40
0.0680097801
 40
0.0945422794
 40
0.1244696
 40
0.1934682228
 40
0.272703634
 40
0.3594926419
 40
0.450883881
 40
0.543781063
 40
0.5898053328
 40
0.6350277529
 40
0.6790648333
 40
0.7215427578
 40
0.7621037273
 40
0.8003951095
 40
0.8360951239
 40
0.8688976274
 40
0.8985195653
 40
0.9120643695
 40
0.9247271693
 40
0.9364796103
 40
0.947296143
 40
0.9571552474
 40
0.9660357347
 40
0.9739164477
 40
0.9807763437
 40
0.9865994042
 40
0.9891197453
 40
0.9913782154
 40
0.9933740446
 40
0.9951065122
 40
0.9965749828
 40
0.9977789821
 40
0.9987183796
 40
0.9990890658
 40
0.9993940594
 40
0.9996340389
 40
0.999810558
 40
0.9999276591
 40
1.0
 40
1.0
 40
1.0
 40
1.0
 10
4.7407945789
 20
6.1446277722
 30
0.0
 10
4.7426353587
 20
6.1447370931
 30
0.0
 10
4.7467041159
 20
6.144948563
 30
0.0
 10
4.7563695187
 20
6.1453662866
 30
0.0
 10
4.771269464
 20
6.1458673266
 30
0.0
 10
4.7924417243
 20
6.1464412433
 30
0.0
 10
4.8178673753
 20
6.14701769
 30
0.0
 10
4.8473290034
 20
6.1475970673
 30
0.0
 10
4.8939085283
 20
6.1484108167
 30
0.0
 10
4.9600580169
 20
6.1494015546
 30
0.0
 10
5.0473218242
 20
6.150548832
 30
0.0
 10
5.1429013076
 20
6.1516999203
 30
0.0
 10
5.2435541367
 20
6.1528536192
 30
0.0
 10
5.3290709294
 20
6.1538180777
 30
0.0
 10
5.3974447825
 20
6.1545996171
 30
0.0
 10
5.4476764366
 20
6.155183882
 30
0.0
 10
5.4965911335
 20
6.1557680227
 30
0.0
 10
5.543774764
 20
6.1563520248
 30
0.0
 10
5.5888246747
 20
6.1569356042
 30
0.0
 10
5.6313575202
 20
6.1575188525
 30
0.0
 10
5.6710091296
 20
6.1581014544
 30
0.0
 10
5.7074411426
 20
6.158683307
 30
0.0
 10
5.7356465007
 20
6.1591812655
 30
0.0
 10
5.7563738413
 20
6.1595834461
 30
0.0
 10
5.7704665528
 20
6.1598758507
 30
0.0
 10
5.7835459434
 20
6.160168074
 30
0.0
 10
5.7955839595
 20
6.1604601102
 30
0.0
 10
5.8065551981
 20
6.160751825
 30
0.0
 10
5.8164358645
 20
6.1610431242
 30
0.0
 10
5.8252023192
 20
6.1613337761
 30
0.0
 10
5.832832772
 20
6.1616237165
 30
0.0
 10
5.8384727056
 20
6.161874943
 30
0.0
 10
5.8424042093
 20
6.1620794981
 30
0.0
 10
5.8449156354
 20
6.162225242
 30
0.0
 10
5.8471339726
 20
6.1623706898
 30
0.0
 10
5.8490582664
 20
6.1625157629
 30
0.0
 10
5.8506876531
 20
6.1626601349
 30
0.0
 10
5.8520212168
 20
6.1628036702
 30
0.0
 10
5.8529465359
 20
6.1629295031
 30
0.0
 10
5.8535371751
 20
6.1630341482
 30
0.0
 10
5.8538695192
 20
6.1631063667
 30
0.0
 10
5.8541282949
 20
6.1631765592
 30
0.0
 10
5.8543134985
 20
6.163248832
 30
0.0
 10
5.8544328368
 20
6.1633139197
 30
0.0
 10
5.8544745164
 20
6.1633812999
 30
0.0
 10
5.8544730836
 20
6.1634081241
 30
0.0
  0
SPLINE
  5
483
100
AcDbEntity
  8
0
100
AcDbSpline
 62
7
  6
CONTINUOUS
 70
0
 71
3
 72
15
 73
11
 74
0
 42
0.0000001
 43
0.0000001
 44
0.0000000001
 40
0.0
 40
0.0
 40
0.0
 40
0.0
 40
0.016110121
 40
0.0381640375
 40
0.1006513524
 40
0.1880046542
 40
0.3003638671
 40
0.4377732819
 40
0.6002188186
 40
1.0
 40
1.0
 40
1.0
 40
1.0
 10
4.7089120464
 20
6.1710363594
 30
0.0
 10
4.7089594
 20
6.1710631299
 30
0.0
 10
4.709079121
 20
6.1711126382
 30
0.0
 10
4.7094045991
 20
6.171210617
 30
0.0
 10
4.7099747992
 20
6.1713245774
 30
0.0
 10
4.7108502759
 20
6.1714555051
 30
0.0
 10
4.7119811833
 20
6.1715874031
 30
0.0
 10
4.7133667218
 20
6.1717201895
 30
0.0
 10
4.7157215002
 20
6.171910446
 30
0.0
 10
4.7176161672
 20
6.172031353
 30
0.0
 10
4.7189637519
 20
6.1721101988
 30
0.0
  0
LINE
  5
484
100
AcDbEntity
  8
0
100
AcDbLine
 62
7
  6
CONTINUOUS
 10
4.7189637519
 20
6.1721101988
 11
4.7346910143
 21
6.1728190846
  0
SPLINE
  5
485
100
AcDbEntity
  8
0
100
AcDbSpline
 62
7
  6
CONTINUOUS
 70
0
 71
3
 72
14
 73
10
 74
0
 42
0.0000001
 43
0.0000001
 44
0.0000000001
 40
0.0
 40
0.0
 40
0.0
 40
0.0
 40
0.0393450785
 40
0.1025841971
 40
0.1903219753
 40
0.3027926992
 40
0.4400971767
 40
0.6021603032
 40
1.0
 40
1.0
 40
1.0
 40
1.0
 10
4.7305571035
 20
6.1835311161
 30
0.0
 10
4.7306595863
 20
6.183590532
 30
0.0
 10
4.7309581105
 20
6.1836843648
 30
0.0
 10
4.7315164394
 20
6.1838058495
 30
0.0
 10
4.7323013853
 20
6.1839278872
 30
0.0
 10
4.7333096154
 20
6.1840525898
 30
0.0
 10
4.7345434599
 20
6.18417775
 30
0.0
 10
4.7366348449
 20
6.1843581348
 30
0.0
 10
4.7383167998
 20
6.1844736965
 30
0.0
 10
4.739512235
 20
6.184549276
 30
0.0
  0
LINE
  5
486
100
AcDbEntity
  8
0
100
AcDbLine
 62
7
  6
CONTINUOUS
 10
4.739512235
 20
6.184549276
 11
4.7619309324
 21
6.1855457629
  0
SPLINE
  5
487
100
AcDbEntity
  8
0
100
AcDbSpline
 62
7
  6
CONTINUOUS
 70
0
 71
3
 72
14
 73
10
 74
0
 42
0.0000001
 43
0.0000001
 44
0.0000000001
 40
0.0
 40
0.0
 40
0.0
 40
0.0
 40
0.0433052581
 40
0.1094280951
 40
0.1989077403
 40
0.3119218887
 40
0.4485335057
 40
0.6087582194
 40
1.0
 40
1.0
 40
1.0
 40
1.0
 10
4.7089131108
 20
5.8910251754
 30
0.0
 10
4.7089945217
 20
5.8910716446
 30
0.0
 10
4.7092207047
 20
5.8911496723
 30
0.0
 10
4.709638741
 20
5.8912498779
 30
0.0
 10
4.7102119671
 20
5.8913511391
 30
0.0
 10
4.7109386736
 20
5.8914539818
 30
0.0
 10
4.7118199279
 20
5.8915573476
 30
0.0
 10
4.7133019536
 20
5.8917058553
 30
0.0
 10
4.7144919714
 20
5.8918014119
 30
0.0
 10
4.7153365617
 20
5.8918638008
 30
0.0
  0
LINE
  5
488
100
AcDbEntity
  8
0
100
AcDbLine
 62
7
  6
CONTINUOUS
 10
4.7153365617
 20
5.8918638008
 11
4.7347482175
 21
5.8928211766
  0
SPLINE
  5
489
100
AcDbEntity
  8
0
100
AcDbSpline
 62
7
  6
CONTINUOUS
 70
0
 71
3
 72
27
 73
23
 74
0
 42
0.0000001
 43
0.0000001
 44
0.0000000001
 40
0.0
 40
0.0
 40
0.0
 40
0.0
 40
0.0138306497
 40
0.0307263873
 40
0.0505884386
 40
0.0732831347
 40
0.1265942888
 40
0.1893150787
 40
0.2598692813
 40
0.3364772876
 40
0.4172056262
 40
0.5000217359
 40
0.582837067
 40
0.6635630878
 40
0.7401672767
 40
0.8107162807
 40
0.8734306626
 40
0.926734271
 40
0.9494248032
 40
0.9692825243
 40
0.9861738585
 40
1.0
 40
1.0
 40
1.0
 40
1.0
 10
4.7347482175
 20
5.8928211766
 30
0.0
 10
4.7398878229
 20
5.893011404
 30
0.0
 10
4.7513081959
 20
5.8933756127
 30
0.0
 10
4.7701137842
 20
5.8938696205
 30
0.0
 10
4.7922165429
 20
5.894364628
 30
0.0
 10
4.8278595047
 20
5.8950665762
 30
0.0
 10
4.8794398172
 20
5.8959323372
 30
0.0
 10
4.9488174207
 20
5.8969291842
 30
0.0
 10
5.0268592909
 20
5.8979084087
 30
0.0
 10
5.1115976409
 20
5.8989173449
 30
0.0
 10
5.2008961715
 20
5.899917171
 30
0.0
 10
5.2925033069
 20
5.9008995546
 30
0.0
 10
5.3841092546
 20
5.9019119253
 30
0.0
 10
5.4734051324
 20
5.9029185264
 30
0.0
 10
5.5581394791
 20
5.9039094239
 30
0.0
 10
5.6361756294
 20
5.9048879398
 30
0.0
 10
5.7055459978
 20
5.905892786
 30
0.0
 10
5.757119539
 20
5.9067598261
 30
0.0
 10
5.7927566435
 20
5.9074561389
 30
0.0
 10
5.8148546546
 20
5.907949142
 30
0.0
 10
5.8336552158
 20
5.9084474139
 30
0.0
 10
5.8450721272
 20
5.9088160637
 30
0.0
 10
5.8502100118
 20
5.9090074558
 30
0.0
  0
SPLINE
  5
48A
100
AcDbEntity
  8
0
100
AcDbSpline
 62
7
  6
CONTINUOUS
 70
0
 71
3
 72
12
 73
8
 74
0
 42
0.0000001
 43
0.0000001
 44
0.0000000001
 40
0.0
 40
0.0
 40
0.0
 40
0.0
 40
0.3605252796
 40
0.6478049492
 40
0.8610694469
 40
0.9398378499
 40
1.0
 40
1.0
 40
1.0
 40
1.0
 10
5.8502100118
 20
5.9090074558
 30
0.0
 10
5.8531320856
 20
5.9091163064
 30
0.0
 10
5.8583821154
 20
5.9093266072
 30
0.0
 10
5.8653573913
 20
5.9096718467
 30
0.0
 10
5.87004707
 20
5.9099713473
 30
0.0
 10
5.8728921967
 20
5.9102272876
 30
0.0
 10
5.8740118329
 20
5.910357399
 30
0.0
 10
5.8744947301
 20
5.9104274741
 30
0.0
  0
LINE
  5
48B
100
AcDbEntity
  8
0
100
AcDbLine
 62
7
  6
CONTINUOUS
 10
5.8750339702
 20
5.9105136207
 11
5.8761325268
 21
5.9109071459
  0
SPLINE
  5
48C
100
AcDbEntity
  8
0
100
AcDbSpline
 62
7
  6
CONTINUOUS
 70
0
 71
3
 72
29
 73
25
 74
0
 42
0.0000001
 43
0.0000001
 44
0.0000000001
 40
0.0
 40
0.0
 40
0.0
 40
0.0
 40
0.1827038369
 40
0.362571209
 40
0.4490040768
 40
0.5318947803
 40
0.61033334
 40
0.6834588665
 40
0.7505214846
 40
0.8108057043
 40
0.8636878892
 40
0.8871670402
 40
0.9085798053
 40
0.9278742006
 40
0.9450000766
 40
0.9599073772
 40
0.9725474989
 40
0.9828905956
 40
0.9871959146
 40
0.9909213493
 40
0.994065299
 40
0.9966264784
 40
0.9986042928
 40
1.0
 40
1.0
 40
1.0
 40
1.0
 10
5.3656314425
 20
6.0342297922
 30
0.0
 10
5.3269800998
 20
6.0337882569
 30
0.0
 10
5.2502773405
 20
6.0329238298
 30
0.0
 10
5.155289697
 20
6.0318367201
 30
0.0
 10
5.0814181597
 20
6.0309526114
 30
0.0
 10
5.0290042676
 20
6.0302987084
 30
0.0
 10
4.9794059736
 20
6.0296453974
 30
0.0
 10
4.9331566618
 20
6.0289925372
 30
0.0
 10
4.8907485761
 20
6.0283409254
 30
0.0
 10
4.8526238285
 20
6.0276902913
 30
0.0
 10
4.8237196939
 20
6.0271303667
 30
0.0
 10
4.8030390373
 20
6.0266755209
 30
0.0
 10
4.7894633463
 20
6.0263483122
 30
0.0
 10
4.7772322033
 20
6.0260216378
 30
0.0
 10
4.7663779218
 20
6.0256956202
 30
0.0
 10
4.7569321222
 20
6.0253707552
 30
0.0
 10
4.7489222831
 20
6.0250469969
 30
0.0
 10
4.7431557163
 20
6.0247648573
 30
0.0
 10
4.7392753303
 20
6.0245329836
 30
0.0
 10
4.7369166807
 20
6.0243704052
 30
0.0
 10
4.7349280639
 20
6.0242084768
 30
0.0
 10
4.7333102681
 20
6.0240482239
 30
0.0
 10
4.7320648869
 20
6.023889352
 30
0.0
 10
4.7313606313
 20
6.0237675437
 30
0.0
 10
4.7310735642
 20
6.0236983703
 30
0.0
  0
LINE
  5
48D
100
AcDbEntity
  8
0
100
AcDbLine
 62
7
  6
CONTINUOUS
 10
4.7310735642
 20
6.0236983703
 11
4.7305578274
 21
6.0235224264
  0
SPLINE
  5
48E
100
AcDbEntity
  8
0
100
AcDbSpline
 62
7
  6
CONTINUOUS
 70
0
 71
3
 72
15
 73
11
 74
0
 42
0.0000001
 43
0.0000001
 44
0.0000000001
 40
0.0
 40
0.0
 40
0.0
 40
0.0
 40
0.3861176961
 40
0.5460304547
 40
0.6833440105
 40
0.7976865426
 40
0.888694091
 40
0.9560971435
 40
0.9809694737
 40
1.0
 40
1.0
 40
1.0
 40
1.0
 10
4.7672772757
 20
6.2257215222
 30
0.0
 10
4.7626265723
 20
6.2255733602
 30
0.0
 10
4.7560502631
 20
6.2253452512
 30
0.0
 10
4.7478228808
 20
6.224992015
 30
0.0
 10
4.7428692642
 20
6.2247444201
 30
0.0
 10
4.7387470048
 20
6.2244989577
 30
0.0
 10
4.7354691044
 20
6.2242557602
 30
0.0
 10
4.7332699374
 20
6.2240436337
 30
0.0
 10
4.7319406882
 20
6.2238633087
 30
0.0
 10
4.7314191859
 20
6.2237721105
 30
0.0
 10
4.7311950883
 20
6.2237233795
 30
0.0
  0
LINE
  5
48F
100
AcDbEntity
  8
0
100
AcDbLine
 62
7
  6
CONTINUOUS
 10
4.7310553302
 20
6.2236914531
 11
4.7305422062
 21
6.2235174406
  0
SPLINE
  5
490
100
AcDbEntity
  8
0
100
AcDbSpline
 62
7
  6
CONTINUOUS
 70
0
 71
3
 72
23
 73
19
 74
0
 42
0.0000001
 43
0.0000001
 44
0.0000000001
 40
0.0
 40
0.0
 40
0.0
 40
0.0
 40
0.2278313104
 40
0.4268297682
 40
0.5966888129
 40
0.6705957483
 40
0.7371036767
 40
0.7961750189
 40
0.8477772474
 40
0.8918906206
 40
0.9284989742
 40
0.957589551
 40
0.9693140653
 40
0.9791589221
 40
0.9871278151
 40
0.9932302388
 40
0.9974916221
 40
1.0
 40
1.0
 40
1.0
 40
1.0
 10
4.7438577048
 20
6.2065945246
 30
0.0
 10
4.741278094
 20
6.2065427319
 30
0.0
 10
4.7364454514
 20
6.2064394597
 30
0.0
 10
4.7296901649
 20
6.2062720739
 30
0.0
 10
4.7246780717
 20
6.2061260807
 30
0.0
 10
4.7211663064
 20
6.2060071629
 30
0.0
 10
4.7189087637
 20
6.2059223425
 30
0.0
 10
4.7169039973
 20
6.2058378912
 30
0.0
 10
4.7151530769
 20
6.2057539532
 30
0.0
 10
4.7136568331
 20
6.2056705717
 30
0.0
 10
4.7124159971
 20
6.2055876638
 30
0.0
 10
4.711542077
 20
6.2055151767
 30
0.0
 10
4.7109715591
 20
6.2054549971
 30
0.0
 10
4.7106395013
 20
6.2054133403
 30
0.0
 10
4.7103721176
 20
6.2053718813
 30
0.0
 10
4.7101676219
 20
6.2053311847
 30
0.0
 10
4.7100289532
 20
6.2052910684
 30
0.0
 10
4.709956141
 20
6.2052588439
 30
0.0
 10
4.7099364218
 20
6.2052383965
 30
0.0
  0
SPLINE
  5
491
100
AcDbEntity
  8
0
100
AcDbSpline
 62
7
  6
CONTINUOUS
 70
0
 71
3
 72
42
 73
38
 74
0
 42
0.0000001
 43
0.0000001
 44
0.0000000001
 40
0.0
 40
0.0
 40
0.0
 40
0.0
 40
0.0162838271
 40
0.0359992672
 40
0.0589837164
 40
0.0850666554
 40
0.1140659898
 40
0.1457937239
 40
0.1800152178
 40
0.2164696721
 40
0.2548899296
 40
0.2949898389
 40
0.3364792808
 40
0.3790589857
 40
0.4224187383
 40
0.4662466387
 40
0.5102228234
 40
0.5540237446
 40
0.5973293189
 40
0.6398283677
 40
0.681211377
 40
0.7211750252
 40
0.7594221864
 40
0.795662596
 40
0.8296453458
 40
0.8611341685
 40
0.8899013612
 40
0.9157373452
 40
0.938437139
 40
0.9578325763
 40
0.9737861549
 40
0.9804309148
 40
0.9861735149
 40
0.99100765
 40
0.9949271573
 40
0.9979261942
 40
1.0
 40
1.0
 40
1.0
 40
1.0
 10
4.7619498767
 20
6.1955579041
 30
0.0
 10
4.7678689962
 20
6.1957746314
 30
0.0
 10
4.7809567064
 20
6.1961966615
 30
0.0
 10
4.8024040535
 20
6.1967639308
 30
0.0
 10
4.827417522
 20
6.1972987806
 30
0.0
 10
4.8558091705
 20
6.1977989123
 30
0.0
 10
4.8873814971
 20
6.1983004158
 30
0.0
 10
4.9219139798
 20
6.1988355392
 30
0.0
 10
4.959158067
 20
6.1993995975
 30
0.0
 10
4.99883661
 20
6.1999741075
 30
0.0
 10
5.0406536476
 20
6.2005439781
 30
0.0
 10
5.0843024947
 20
6.2010971605
 30
0.0
 10
5.1294648264
 20
6.2016160389
 30
0.0
 10
5.1758132509
 20
6.2021084054
 30
0.0
 10
5.2230121923
 20
6.202612558
 30
0.0
 10
5.2707185623
 20
6.2031671964
 30
0.0
 10
5.3185850435
 20
6.2037523551
 30
0.0
 10
5.3662615885
 20
6.2043319777
 30
0.0
 10
5.4134011846
 20
6.2048794082
 30
0.0
 10
5.4596614767
 20
6.2054052449
 30
0.0
 10
5.5047062793
 20
6.2059150547
 30
0.0
 10
5.548204414
 20
6.2064234249
 30
0.0
 10
5.5898316201
 20
6.206950952
 30
0.0
 10
5.6292825377
 20
6.2075225993
 30
0.0
 10
5.666274621
 20
6.2081110311
 30
0.0
 10
5.7005483917
 20
6.2086771707
 30
0.0
 10
5.7318592286
 20
6.209196304
 30
0.0
 10
5.7599730015
 20
6.209696715
 30
0.0
 10
5.7846771595
 20
6.2102052499
 30
0.0
 10
5.8057853056
 20
6.2107336691
 30
0.0
 10
5.8210529359
 20
6.2112094909
 30
0.0
 10
5.8313538095
 20
6.2116134492
 30
0.0
 10
5.8376115169
 20
6.2118992299
 30
0.0
 10
5.8428767521
 20
6.212183103
 30
0.0
 10
5.847142999
 20
6.2124598018
 30
0.0
 10
5.850402734
 20
6.2127276753
 30
0.0
 10
5.8522382482
 20
6.2129258162
 30
0.0
 10
5.8529842439
 20
6.2130376176
 30
0.0
  0
LINE
  5
492
100
AcDbEntity
  8
0
100
AcDbLine
 62
7
  6
CONTINUOUS
 10
5.8530854329
 20
6.2130530338
 11
5.8543717746
 21
6.213363023
  0
SPLINE
  5
493
100
AcDbEntity
  8
0
100
AcDbSpline
 62
7
  6
CONTINUOUS
 70
0
 71
3
 72
22
 73
18
 74
0
 42
0.0000001
 43
0.0000001
 44
0.0000000001
 40
0.0
 40
0.0
 40
0.0
 40
0.0
 40
0.2303922139
 40
0.4315337044
 40
0.6029164406
 40
0.7440382298
 40
0.8030980414
 40
0.8544111309
 40
0.8979218057
 40
0.933587196
 40
0.9614270185
 40
0.9724342007
 40
0.9815178834
 40
0.9887042143
 40
0.9940449636
 40
0.9976684201
 40
1.0
 40
1.0
 40
1.0
 40
1.0
 10
4.7619922084
 20
6.1955119153
 30
0.0
 10
4.7595586562
 20
6.1954282605
 30
0.0
 10
4.755000751
 20
6.195264593
 30
0.0
 10
4.7486337571
 20
6.1950072867
 30
0.0
 10
4.7432110028
 20
6.1947531784
 30
0.0
 10
4.7392900572
 20
6.1945326757
 30
0.0
 10
4.7366382104
 20
6.1943510777
 30
0.0
 10
4.7350168538
 20
6.1942229556
 30
0.0
 10
4.7336436085
 20
6.1940948634
 30
0.0
 10
4.7325198031
 20
6.1939665439
 30
0.0
 10
4.7317401877
 20
6.1938533155
 30
0.0
 10
4.7312424195
 20
6.1937587214
 30
0.0
 10
4.7309615504
 20
6.1936933363
 30
0.0
 10
4.7307421184
 20
6.1936292179
 30
0.0
 10
4.7305838625
 20
6.1935637957
 30
0.0
 10
4.7304809337
 20
6.193502686
 30
0.0
 10
4.7304446159
 20
6.1934432895
 30
0.0
 10
4.7304445339
 20
6.1934186474
 30
0.0
  0
SPLINE
  5
494
100
AcDbEntity
  8
0
100
AcDbSpline
 62
7
  6
CONTINUOUS
 70
0
 71
3
 72
12
 73
8
 74
0
 42
0.0000001
 43
0.0000001
 44
0.0000000001
 40
0.0
 40
0.0
 40
0.0
 40
0.0
 40
0.3246640851
 40
0.6022297009
 40
0.8285194247
 40
0.921279841
 40
1.0
 40
1.0
 40
1.0
 40
1.0
 10
5.7012341213
 20
5.9858506163
 30
0.0
 10
5.7173585038
 20
5.9860928501
 30
0.0
 10
5.7472678148
 20
5.986565525
 30
0.0
 10
5.7884133592
 20
5.9873473155
 30
0.0
 10
5.8180398417
 20
5.9880287055
 30
0.0
 10
5.837789547
 20
5.9885819908
 30
0.0
 10
5.8463025505
 20
5.988861075
 30
0.0
 10
5.8502099774
 20
5.9890046411
 30
0.0
  0
SPLINE
  5
495
100
AcDbEntity
  8
0
100
AcDbSpline
 62
7
  6
CONTINUOUS
 70
0
 71
3
 72
12
 73
8
 74
0
 42
0.0000001
 43
0.0000001
 44
0.0000000001
 40
0.0
 40
0.0
 40
0.0
 40
0.0
 40
0.3605031799
 40
0.6477770073
 40
0.8610534539
 40
0.9398310797
 40
1.0
 40
1.0
 40
1.0
 40
1.0
 10
5.8502099774
 20
5.9890046411
 30
0.0
 10
5.8531320796
 20
5.9891120045
 30
0.0
 10
5.8583822634
 20
5.9893198293
 30
0.0
 10
5.8653576376
 20
5.9896685637
 30
0.0
 10
5.870047199
 20
5.9899759762
 30
0.0
 10
5.8728922123
 20
5.9902373803
 30
0.0
 10
5.8740118118
 20
5.9903692843
 30
0.0
 10
5.874494734
 20
5.9904397456
 30
0.0
  0
LINE
  5
496
100
AcDbEntity
  8
0
100
AcDbLine
 62
7
  6
CONTINUOUS
 10
5.8750023747
 20
5.9905205036
 11
5.8761325268
 21
5.9909109076
  0
SPLINE
  5
497
100
AcDbEntity
  8
0
100
AcDbSpline
 62
7
  6
CONTINUOUS
 70
0
 71
3
 72
19
 73
15
 74
0
 42
0.0000001
 43
0.0000001
 44
0.0000000001
 40
0.0
 40
0.0
 40
0.0
 40
0.0
 40
0.1621757763
 40
0.3230599099
 40
0.4013910099
 40
0.477518127
 40
0.5508443694
 40
0.6207793851
 40
0.7483300617
 40
0.8561826934
 40
0.9016341869
 40
0.9409555359
 40
0.9738281038
 40
1.0
 40
1.0
 40
1.0
 40
1.0
 10
5.3684470022
 20
6.0567334131
 30
0.0
 10
5.3340453593
 20
6.0563646436
 30
0.0
 10
5.2655163055
 20
6.0556077246
 30
0.0
 10
5.1803711448
 20
6.0546792155
 30
0.0
 10
5.1134793579
 20
6.053924169
 30
0.0
 10
5.0651610058
 20
6.0533548957
 30
0.0
 10
5.0186238821
 20
6.0527878171
 30
0.0
 10
4.9611789087
 20
6.0520702052
 30
0.0
 10
4.8964108653
 20
6.0512015058
 30
0.0
 10
4.8368389159
 20
6.0502184825
 30
0.0
 10
4.7959832457
 20
6.0494355997
 30
0.0
 10
4.7710321087
 20
6.0488897297
 30
0.0
 10
4.750172204
 20
6.0483388016
 30
0.0
 10
4.7376533068
 20
6.047923825
 30
0.0
 10
4.7321055402
 20
6.0477057868
 30
0.0
  0
SPLINE
  5
498
100
AcDbEntity
  8
0
100
AcDbSpline
 62
7
  6
CONTINUOUS
 70
0
 71
3
 72
12
 73
8
 74
0
 42
0.0000001
 43
0.0000001
 44
0.0000000001
 40
0.0
 40
0.0
 40
0.0
 40
0.0
 40
0.3606449475
 40
0.6479092219
 40
0.8611119558
 40
0.9398518095
 40
1.0
 40
1.0
 40
1.0
 40
1.0
 10
4.7321055402
 20
6.0477057868
 30
0.0
 10
4.7294776548
 20
6.0476025057
 30
0.0
 10
4.7247570417
 20
6.0474029983
 30
0.0
 10
4.718486152
 20
6.0470759334
 30
0.0
 10
4.7142713234
 20
6.0467926668
 30
0.0
 10
4.7117151197
 20
6.0465508826
 30
0.0
 10
4.7107094412
 20
6.046428034
 30
0.0
 10
4.7102758388
 20
6.0463619067
 30
0.0
  0
SPLINE
  5
499
100
AcDbEntity
  8
0
100
AcDbSpline
 62
7
  6
CONTINUOUS
 70
0
 71
3
 72
12
 73
8
 74
0
 42
0.0000001
 43
0.0000001
 44
0.0000000001
 40
0.0
 40
0.0
 40
0.0
 40
0.0
 40
0.4135287136
 40
0.7138198813
 40
0.8223926975
 40
0.9043722014
 40
1.0
 40
1.0
 40
1.0
 40
1.0
 10
4.7101392943
 20
6.0463405691
 30
0.0
 10
4.7099441586
 20
6.0463093049
 30
0.0
 10
4.7096076747
 20
6.0462491649
 30
0.0
 10
4.7092263634
 20
6.0461592774
 30
0.0
 10
4.7090027209
 20
6.0460786162
 30
0.0
 10
4.7088844542
 20
6.0460223538
 30
0.0
 10
4.7088053611
 20
6.0459551292
 30
0.0
 10
4.7088053614
 20
6.0459094289
 30
0.0
  0
SPLINE
  5
49A
100
AcDbEntity
  8
0
100
AcDbSpline
 62
7
  6
CONTINUOUS
 70
0
 71
3
 72
14
 73
10
 74
0
 42
0.0000001
 43
0.0000001
 44
0.0000000001
 40
0.0
 40
0.0
 40
0.0
 40
0.0
 40
0.0440549643
 40
0.1106974916
 40
0.2004739844
 40
0.3135716972
 40
0.450061751
 40
0.6099668536
 40
1.0
 40
1.0
 40
1.0
 40
1.0
 10
4.7089077775
 20
6.0110208533
 30
0.0
 10
4.7089820058
 20
6.0110635914
 30
0.0
 10
4.7091867485
 20
6.0111363826
 30
0.0
 10
4.7095644969
 20
6.0112302053
 30
0.0
 10
4.7100803342
 20
6.0113254578
 30
0.0
 10
4.710732908
 20
6.0114224191
 30
0.0
 10
4.7115231431
 20
6.0115201476
 30
0.0
 10
4.7128503052
 20
6.0116607683
 30
0.0
 10
4.7139157739
 20
6.0117515474
 30
0.0
 10
4.7146717671
 20
6.0118108019
 30
0.0
  0
LINE
  5
49B
100
AcDbEntity
  8
0
100
AcDbLine
 62
7
  6
CONTINUOUS
 10
4.7146717671
 20
6.0118108019
 11
4.7321238809
 21
6.0127174994
  0
SPLINE
  5
49C
100
AcDbEntity
  8
0
100
AcDbSpline
 62
7
  6
CONTINUOUS
 70
0
 71
3
 72
20
 73
16
 74
0
 42
0.0000001
 43
0.0000001
 44
0.0000000001
 40
0.0
 40
0.0
 40
0.0
 40
0.0
 40
0.0261784504
 40
0.0590568924
 40
0.0983833682
 40
0.1438386926
 40
0.1950808989
 40
0.2516949916
 40
0.379245841
 40
0.4491796407
 40
0.5225038173
 40
0.5986282203
 40
0.6769561148
 40
0.8378325636
 40
1.0
 40
1.0
 40
1.0
 40
1.0
 10
4.7321238809
 20
6.0127174994
 30
0.0
 10
4.7376730156
 20
6.0129320241
 30
0.0
 10
4.7501945249
 20
6.0133364787
 30
0.0
 10
4.7710574751
 20
6.0138887963
 30
0.0
 10
4.7960106416
 20
6.014452526
 30
0.0
 10
4.8248602141
 20
6.0150143053
 30
0.0
 10
4.8573778524
 20
6.0155640767
 30
0.0
 10
4.9073093581
 20
6.0163269033
 30
0.0
 10
4.9612065214
 20
6.0170805677
 30
0.0
 10
5.018648962
 20
6.0178160378
 30
0.0
 10
5.0651836133
 20
6.0183715642
 30
0.0
 10
5.1134990543
 20
6.0189255331
 30
0.0
 10
5.1803860112
 20
6.0196817471
 30
0.0
 10
5.2655245316
 20
6.0206198819
 30
0.0
 10
5.3340484699
 20
6.0213531354
 30
0.0
 10
5.3684471388
 20
6.0217412341
 30
0.0
  0
SPLINE
  5
49D
100
AcDbEntity
  8
0
100
AcDbSpline
 62
7
  6
CONTINUOUS
 70
0
 71
3
 72
16
 73
12
 74
0
 42
0.0000001
 43
0.0000001
 44
0.0000000001
 40
0.0
 40
0.0
 40
0.0
 40
0.0
 40
0.1712660493
 40
0.3356887903
 40
0.4895979189
 40
0.6298340867
 40
0.7534003424
 40
0.8576798038
 40
0.9404670375
 40
0.9732279438
 40
1.0
 40
1.0
 40
1.0
 40
1.0
 10
5.3684471388
 20
6.0217412341
 30
0.0
 10
5.3961866669
 20
6.0220385902
 30
0.0
 10
5.4505570416
 20
6.0226482499
 30
0.0
 10
5.5298551919
 20
6.0235683949
 30
0.0
 10
5.6041270321
 20
6.0244763614
 30
0.0
 10
5.6717802494
 20
6.0254047281
 30
0.0
 10
5.7313942344
 20
6.0263033792
 30
0.0
 10
5.7817016852
 20
6.0271972953
 30
0.0
 10
5.8172999171
 20
6.0279988871
 30
0.0
 10
5.8403431544
 20
6.0286563215
 30
0.0
 10
5.8499805424
 20
6.0289877785
 30
0.0
 10
5.8543135381
 20
6.0291608605
 30
0.0
  0
SPLINE
  5
49E
100
AcDbEntity
  8
0
100
AcDbSpline
 62
7
  6
CONTINUOUS
 70
0
 71
3
 72
12
 73
8
 74
0
 42
0.0000001
 43
0.0000001
 44
0.0000000001
 40
0.0
 40
0.0
 40
0.0
 40
0.0
 40
0.3606697858
 40
0.6479074962
 40
0.8610893811
 40
0.9398324201
 40
1.0
 40
1.0
 40
1.0
 40
1.0
 10
5.8543135381
 20
6.0291608605
 30
0.0
 10
5.8567751366
 20
6.0292591893
 30
0.0
 10
5.8611967044
 20
6.0294495478
 30
0.0
 10
5.8670697257
 20
6.0297685799
 30
0.0
 10
5.8710163538
 20
6.0300499796
 30
0.0
 10
5.8734093405
 20
6.0302906806
 30
0.0
 10
5.8743506493
 20
6.0304127016
 30
0.0
 10
5.8747563869
 20
6.0304781085
 30
0.0
  0
SPLINE
  5
49F
100
AcDbEntity
  8
0
100
AcDbSpline
 62
7
  6
CONTINUOUS
 70
0
 71
3
 72
12
 73
8
 74
0
 42
0.0000001
 43
0.0000001
 44
0.0000000001
 40
0.0
 40
0.0
 40
0.0
 40
0.0
 40
0.414131086
 40
0.7147818966
 40
0.8234042668
 40
0.9052999646
 40
1.0
 40
1.0
 40
1.0
 40
1.0
 10
5.8747563869
 20
6.0304781085
 30
0.0
 10
5.874957693
 20
6.03051056
 30
0.0
 10
5.8753048255
 20
6.03057287
 30
0.0
 10
5.8756980399
 20
6.0306655581
 30
0.0
 10
5.8759289155
 20
6.0307482088
 30
0.0
 10
5.8760502921
 20
6.0308054928
 30
0.0
 10
5.8761325268
 20
6.0308734853
 30
0.0
 10
5.8761325268
 20
6.0309201126
 30
0.0
  0
SPLINE
  5
4A0
100
AcDbEntity
  8
0
100
AcDbSpline
 62
7
  6
CONTINUOUS
 70
0
 71
3
 72
14
 73
10
 74
0
 42
0.0000001
 43
0.0000001
 44
0.0000000001
 40
0.0
 40
0.0
 40
0.0
 40
0.0
 40
0.0426593308
 40
0.1083120656
 40
0.1975091759
 40
0.3104292455
 40
0.4471345535
 40
0.6076398197
 40
1.0
 40
1.0
 40
1.0
 40
1.0
 10
4.7089070944
 20
5.7310410492
 30
0.0
 10
4.7089870917
 20
5.7310872933
 30
0.0
 10
4.7092113959
 20
5.7311642359
 30
0.0
 10
4.709626878
 20
5.7312629345
 30
0.0
 10
4.710198962
 20
5.7313625295
 30
0.0
 10
4.7109257518
 20
5.7314636906
 30
0.0
 10
4.7118084072
 20
5.7315653258
 30
0.0
 10
4.7132948953
 20
5.7317114253
 30
0.0
 10
4.7144888586
 20
5.7318054022
 30
0.0
 10
4.7153365039
 20
5.731866822
 30
0.0
  0
LINE
  5
4A1
100
AcDbEntity
  8
0
100
AcDbLine
 62
7
  6
CONTINUOUS
 10
4.7153365039
 20
5.731866822
 11
4.7347480743
 21
5.7328143444
  0
SPLINE
  5
4A2
100
AcDbEntity
  8
0
100
AcDbSpline
 62
7
  6
CONTINUOUS
 70
0
 71
3
 72
26
 73
22
 74
0
 42
0.0000001
 43
0.0000001
 44
0.0000000001
 40
0.0
 40
0.0
 40
0.0
 40
0.0
 40
0.0138306724
 40
0.0307264771
 40
0.0505885787
 40
0.0732832794
 40
0.1265942927
 40
0.1893149757
 40
0.2598691658
 40
0.3364771212
 40
0.4172054221
 40
0.5000215194
 40
0.5828368519
 40
0.6635628758
 40
0.7401671174
 40
0.8107162249
 40
0.8734305483
 40
0.9267341846
 40
0.9692827273
 40
0.9861740202
 40
1.0
 40
1.0
 40
1.0
 40
1.0
 10
4.7347480743
 20
5.7328143444
 30
0.0
 10
4.739887688
 20
5.733004574
 30
0.0
 10
4.7513080195
 20
5.7333708567
 30
0.0
 10
4.7701135136
 20
5.7338704088
 30
0.0
 10
4.7922161757
 20
5.7343717146
 30
0.0
 10
4.8278589924
 20
5.7350797049
 30
0.0
 10
4.8794394656
 20
5.7359314926
 30
0.0
 10
4.9488170774
 20
5.7369189016
 30
0.0
 10
5.0268585439
 20
5.7379250601
 30
0.0
 10
5.1115971575
 20
5.7389089602
 30
0.0
 10
5.2008956442
 20
5.7399082691
 30
0.0
 10
5.2925023535
 20
5.74092786
 30
0.0
 10
5.3841086192
 20
5.7419104657
 30
0.0
 10
5.4734046885
 20
5.7429017649
 30
0.0
 10
5.5581389268
 20
5.7439078332
 30
0.0
 10
5.6361747401
 20
5.7449138314
 30
0.0
 10
5.7055455272
 20
5.7458909317
 30
0.0
 10
5.7645027494
 20
5.7468658907
 30
0.0
 10
5.8064192068
 20
5.7477389999
 30
0.0
 10
5.8336547915
 20
5.7484546218
 30
0.0
 10
5.8450718615
 20
5.7488159522
 30
0.0
 10
5.8502097744
 20
5.7490049501
 30
0.0
  0
SPLINE
  5
4A3
100
AcDbEntity
  8
0
100
AcDbSpline
 62
7
  6
CONTINUOUS
 70
0
 71
3
 72
12
 73
8
 74
0
 42
0.0000001
 43
0.0000001
 44
0.0000000001
 40
0.0
 40
0.0
 40
0.0
 40
0.0
 40
0.3604986503
 40
0.647770687
 40
0.8610485165
 40
0.9398281348
 40
1.0
 40
1.0
 40
1.0
 40
1.0
 10
5.8502097744
 20
5.7490049501
 30
0.0
 10
5.8531319014
 20
5.7491124404
 30
0.0
 10
5.8583821401
 20
5.7493206329
 30
0.0
 10
5.8653575743
 20
5.7496705734
 30
0.0
 10
5.8700471695
 20
5.7499793878
 30
0.0
 10
5.8728921912
 20
5.7502419764
 30
0.0
 10
5.874011792
 20
5.7503744424
 30
0.0
 10
5.8744947096
 20
5.7504451771
 30
0.0
  0
LINE
  5
4A4
100
AcDbEntity
  8
0
100
AcDbLine
 62
7
  6
CONTINUOUS
 10
5.8749908886
 20
5.7505242302
 11
5.8761325268
 21
5.7509176546
  0
SPLINE
  5
4A5
100
AcDbEntity
  8
0
100
AcDbSpline
 62
7
  6
CONTINUOUS
 70
0
 71
3
 72
15
 73
11
 74
0
 42
0.0000001
 43
0.0000001
 44
0.0000000001
 40
0.0
 40
0.0
 40
0.0
 40
0.0
 40
0.015729883
 40
0.0374433499
 40
0.0994573695
 40
0.1866070888
 40
0.2989826773
 40
0.4365708217
 40
0.5993189861
 40
1.0
 40
1.0
 40
1.0
 40
1.0
 10
4.7305452782
 20
5.74353238
 30
0.0
 10
4.7305930052
 20
5.743560737
 30
0.0
 10
4.7307153643
 20
5.7436128154
 30
0.0
 10
4.7310511279
 20
5.7437152713
 30
0.0
 10
4.7316438341
 20
5.7438330929
 30
0.0
 10
4.732556786
 20
5.7439680623
 30
0.0
 10
4.7337390743
 20
5.7441038868
 30
0.0
 10
4.7351891817
 20
5.7442411876
 30
0.0
 10
4.7376554655
 20
5.7444388617
 30
0.0
 10
4.739640078
 20
5.7445652867
 30
0.0
 10
4.7410517883
 20
5.7446479396
 30
0.0
  0
SPLINE
  5
4A6
100
AcDbEntity
  8
0
100
AcDbSpline
 62
7
  6
CONTINUOUS
 70
0
 71
3
 72
49
 73
45
 74
0
 42
0.0000001
 43
0.0000001
 44
0.0000000001
 40
0.0
 40
0.0
 40
0.0
 40
0.0
 40
0.0050237123
 40
0.0110859263
 40
0.026271681
 40
0.0454166141
 40
0.0683680862
 40
0.0949329797
 40
0.1248903505
 40
0.1939649031
 40
0.2732068938
 40
0.3599471243
 40
0.4512677643
 40
0.5440704363
 40
0.5900490703
 40
0.6352252816
 40
0.6792099035
 40
0.7216293114
 40
0.7621340458
 40
0.8003800836
 40
0.8360481136
 40
0.8688301048
 40
0.8984401505
 40
0.9119794321
 40
0.9246352037
 40
0.9363778038
 40
0.9471820421
 40
0.9570291505
 40
0.9659008766
 40
0.9737789986
 40
0.9806453613
 40
0.9864843892
 40
0.9890153934
 40
0.9912858023
 40
0.993294462
 40
0.9950402671
 40
0.9965221949
 40
0.9977393792
 40
0.9986912864
 40
0.9993782376
 40
0.9996233642
 40
0.9998045911
 40
0.9999256904
 40
1.0
 40
1.0
 40
1.0
 40
1.0
 10
4.7410517883
 20
5.7446479396
 30
0.0
 10
4.7429136671
 20
5.7447569489
 30
0.0
 10
4.7470240351
 20
5.7449679753
 30
0.0
 10
4.7567686172
 20
5.7453848617
 30
0.0
 10
4.7717565082
 20
5.7458852999
 30
0.0
 10
4.7930149837
 20
5.7464587032
 30
0.0
 10
4.8184992438
 20
5.7470347561
 30
0.0
 10
4.8479984343
 20
5.7476137173
 30
0.0
 10
4.8946195474
 20
5.7484265801
 30
0.0
 10
4.9607969315
 20
5.7494153283
 30
0.0
 10
5.0480548996
 20
5.7505619893
 30
0.0
 10
5.1435723976
 20
5.7517119158
 30
0.0
 10
5.2441246472
 20
5.7528638795
 30
0.0
 10
5.3295452022
 20
5.7538275661
 30
0.0
 10
5.3978354837
 20
5.7546081637
 30
0.0
 10
5.448002996
 20
5.7551916591
 30
0.0
 10
5.496849046
 20
5.7557750277
 30
0.0
 10
5.5439606709
 20
5.7563583059
 30
0.0
 10
5.5889416654
 20
5.7569412133
 30
0.0
 10
5.6314159745
 20
5.7575238611
 30
0.0
 10
5.671022917
 20
5.7581058812
 30
0.0
 10
5.7074233622
 20
5.758687107
 30
0.0
 10
5.7356087114
 20
5.759184364
 30
0.0
 10
5.7563226217
 20
5.7595860116
 30
0.0
 10
5.770404059
 20
5.7598780317
 30
0.0
 10
5.7834698733
 20
5.760169908
 30
0.0
 10
5.795492686
 20
5.7604616626
 30
0.0
 10
5.8064493457
 20
5.7607531223
 30
0.0
 10
5.8163192655
 20
5.761044188
 30
0.0
 10
5.8250820647
 20
5.761334635
 30
0.0
 10
5.8327182889
 20
5.7616243499
 30
0.0
 10
5.8383693472
 20
5.7618752138
 30
0.0
 10
5.8423143758
 20
5.762079428
 30
0.0
 10
5.8448384594
 20
5.7622249996
 30
0.0
 10
5.8470705089
 20
5.7623702874
 30
0.0
 10
5.8490091794
 20
5.7625151616
 30
0.0
 10
5.8506530748
 20
5.7626594565
 30
0.0
 10
5.8520011481
 20
5.7628025983
 30
0.0
 10
5.8530519388
 20
5.7629441916
 30
0.0
 10
5.8537409909
 20
5.7630692782
 30
0.0
 10
5.8541406206
 20
5.7631752025
 30
0.0
 10
5.8543316483
 20
5.763247323
 30
0.0
 10
5.8544547198
 20
5.7633124245
 30
0.0
 10
5.8545015151
 20
5.7633786674
 30
0.0
 10
5.8545019432
 20
5.7634062517
 30
0.0
  0
SPLINE
  5
4A7
100
AcDbEntity
  8
0
100
AcDbSpline
 62
7
  6
CONTINUOUS
 70
0
 71
3
 72
15
 73
11
 74
0
 42
0.0000001
 43
0.0000001
 44
0.0000000001
 40
0.0
 40
0.0
 40
0.0
 40
0.0
 40
0.0281960199
 40
0.0622570237
 40
0.1472247246
 40
0.253059164
 40
0.3773527926
 40
0.5173827021
 40
0.6701320989
 40
1.0
 40
1.0
 40
1.0
 40
1.0
 10
4.755712212
 20
5.5153354033
 30
0.0
 10
4.7603234757
 20
5.5155116973
 30
0.0
 10
4.7705070519
 20
5.5158517605
 30
0.0
 10
4.7945929542
 20
5.5165222485
 30
0.0
 10
4.8313861304
 20
5.5173253558
 30
0.0
 10
4.882947318
 20
5.5182461332
 30
0.0
 10
4.9435212898
 20
5.5191725255
 30
0.0
 10
5.0117741747
 20
5.5201034302
 30
0.0
 10
5.1136702266
 20
5.5213795621
 30
0.0
 10
5.1926514165
 20
5.522285796
 30
0.0
 10
5.2466349507
 20
5.5228993339
 30
0.0
  0
SPLINE
  5
4A8
100
AcDbEntity
  8
0
100
AcDbSpline
 62
7
  6
CONTINUOUS
 70
0
 71
3
 72
23
 73
19
 74
0
 42
0.0000001
 43
0.0000001
 44
0.0000000001
 40
0.0
 40
0.0
 40
0.0
 40
0.0
 40
0.1889185004
 40
0.3694170295
 40
0.5359007891
 40
0.6122274056
 40
0.6831386562
 40
0.7480810775
 40
0.8065337272
 40
0.8580762297
 40
0.9023093761
 40
0.938883376
 40
0.9542076661
 40
0.9675094189
 40
0.9787540737
 40
0.9879214716
 40
0.9950048184
 40
1.0
 40
1.0
 40
1.0
 40
1.0
 10
5.3348161081
 20
5.5238991455
 30
0.0
 10
5.3674279382
 20
5.5242695634
 30
0.0
 10
5.4311980596
 20
5.5249985456
 30
0.0
 10
5.5237066586
 20
5.5261041165
 30
0.0
 10
5.596778499
 20
5.5270476188
 30
0.0
 10
5.6509323806
 20
5.527815247
 30
0.0
 10
5.6875578637
 20
5.5283736517
 30
0.0
 10
5.7210973052
 20
5.5289311399
 30
0.0
 10
5.7512925275
 20
5.5294879945
 30
0.0
 10
5.7779119772
 20
5.5300429466
 30
0.0
 10
5.8007535028
 20
5.5305957253
 30
0.0
 10
5.8173423178
 20
5.5310764881
 30
0.0
 10
5.8285912174
 20
5.531471538
 30
0.0
 10
5.8354687551
 20
5.5317490949
 30
0.0
 10
5.8412823762
 20
5.5320256267
 30
0.0
 10
5.8460214097
 20
5.5322993535
 30
0.0
 10
5.8496790303
 20
5.5325707992
 30
0.0
 10
5.8517548172
 20
5.5327785635
 30
0.0
 10
5.8526089837
 20
5.5328970323
 30
0.0
  0
LINE
  5
4A9
100
AcDbEntity
  8
0
100
AcDbLine
 62
7
  6
CONTINUOUS
 10
5.8526089837
 20
5.5328970323
 11
5.8543847779
 21
5.5332952433
  0
LINE
  5
4AA
100
AcDbEntity
  8
0
100
AcDbLine
 62
7
  6
CONTINUOUS
 10
4.7324318148
 20
5.5528841301
 11
4.7305549571
 21
5.5532966225
  0
SPLINE
  5
4AB
100
AcDbEntity
  8
0
100
AcDbSpline
 62
7
  6
CONTINUOUS
 70
0
 71
3
 72
14
 73
10
 74
0
 42
0.0000001
 43
0.0000001
 44
0.0000000001
 40
0.0
 40
0.0
 40
0.0
 40
0.0
 40
0.0425536907
 40
0.1081493252
 40
0.1973208143
 40
0.3102397908
 40
0.4469650612
 40
0.6075093552
 40
1.0
 40
1.0
 40
1.0
 40
1.0
 10
4.7089062895
 20
5.771025101
 30
0.0
 10
4.7089861836
 20
5.7710711302
 30
0.0
 10
4.7092101956
 20
5.7711479508
 30
0.0
 10
4.7096253041
 20
5.7712471201
 30
0.0
 10
4.7101972211
 20
5.7713477363
 30
0.0
 10
4.7109240429
 20
5.7714504038
 30
0.0
 10
4.7118069161
 20
5.7715539157
 30
0.0
 10
4.7132940315
 20
5.7717030998
 30
0.0
 10
4.7144886069
 20
5.7717992913
 30
0.0
 10
4.7153367279
 20
5.7718621201
 30
0.0
  0
LINE
  5
4AC
100
AcDbEntity
  8
0
100
AcDbLine
 62
7
  6
CONTINUOUS
 10
4.7153367279
 20
5.7718621201
 11
4.734748696
 21
5.7728182641
  0
SPLINE
  5
4AD
100
AcDbEntity
  8
0
100
AcDbSpline
 62
7
  6
CONTINUOUS
 70
0
 71
3
 72
25
 73
21
 74
0
 42
0.0000001
 43
0.0000001
 44
0.0000000001
 40
0.0
 40
0.0
 40
0.0
 40
0.0
 40
0.0138306796
 40
0.030726541
 40
0.0732836607
 40
0.1265949161
 40
0.189315757
 40
0.2598701326
 40
0.3364782285
 40
0.5000227292
 40
0.5828380422
 40
0.6635639932
 40
0.7401680974
 40
0.8107170357
 40
0.8734311671
 40
0.9267345325
 40
0.9494250783
 40
0.9692828202
 40
0.986174061
 40
1.0
 40
1.0
 40
1.0
 40
1.0
 10
4.734748696
 20
5.7728182641
 30
0.0
 10
4.7398883617
 20
5.7730071767
 30
0.0
 10
4.7513088697
 20
5.7733688201
 30
0.0
 10
4.7785510516
 20
5.7740861333
 30
0.0
 10
4.820475177
 20
5.7749623902
 30
0.0
 10
4.8794409053
 20
5.7759347073
 30
0.0
 10
4.9488189358
 20
5.7769102602
 30
0.0
 10
5.0268605048
 20
5.7779219347
 30
0.0
 10
5.1423932825
 20
5.7792887137
 30
0.0
 10
5.2624867107
 20
5.7805694882
 30
0.0
 10
5.3841107769
 20
5.7819166572
 30
0.0
 10
5.4734067094
 20
5.7829132864
 30
0.0
 10
5.5581410595
 20
5.7838988017
 30
0.0
 10
5.6361766528
 20
5.784909764
 30
0.0
 10
5.705547092
 20
5.7858932045
 30
0.0
 10
5.7571207931
 20
5.7867426896
 30
0.0
 10
5.7927575376
 20
5.7874541077
 30
0.0
 10
5.8148552885
 20
5.7879575454
 30
0.0
 10
5.8336557027
 20
5.7884570612
 30
0.0
 10
5.845072605
 20
5.7888224481
 30
0.0
 10
5.8502104712
 20
5.7890123215
 30
0.0
  0
SPLINE
  5
4AE
100
AcDbEntity
  8
0
100
AcDbSpline
 62
7
  6
CONTINUOUS
 70
0
 71
3
 72
12
 73
8
 74
0
 42
0.0000001
 43
0.0000001
 44
0.0000000001
 40
0.0
 40
0.0
 40
0.0
 40
0.0
 40
0.3605218904
 40
0.6478021263
 40
0.8610708241
 40
0.9398403563
 40
1.0
 40
1.0
 40
1.0
 40
1.0
 10
5.8502104712
 20
5.7890123215
 30
0.0
 10
5.853132503
 20
5.7891203072
 30
0.0
 10
5.8583824946
 20
5.7893289222
 30
0.0
 10
5.8653576815
 20
5.7896742758
 30
0.0
 10
5.8700472085
 20
5.789975704
 30
0.0
 10
5.872892247
 20
5.7902323847
 30
0.0
 10
5.8740118582
 20
5.7903623366
 30
0.0
 10
5.8744947816
 20
5.7904320347
 30
0.0
  0
LINE
  5
4AF
100
AcDbEntity
  8
0
100
AcDbLine
 62
7
  6
CONTINUOUS
 10
5.8750379183
 20
5.790518253
 11
5.8761325268
 21
5.7909036019
  0
LINE
  5
4B0
100
AcDbEntity
  8
0
100
AcDbLine
 62
7
  6
CONTINUOUS
 10
5.8744827473
 20
5.9054225581
 11
5.8697251798
 21
5.9049636392
  0
LINE
  5
4B1
100
AcDbEntity
  8
0
100
AcDbLine
 62
7
  6
CONTINUOUS
 10
5.8697251798
 20
5.9049636392
 11
5.8510387393
 21
5.9040302216
  0
SPLINE
  5
4B2
100
AcDbEntity
  8
0
100
AcDbSpline
 62
7
  6
CONTINUOUS
 70
0
 71
3
 72
26
 73
22
 74
0
 42
0.0000001
 43
0.0000001
 44
0.0000000001
 40
0.0
 40
0.0
 40
0.0
 40
0.0
 40
0.0136866065
 40
0.0304655466
 40
0.0502335103
 40
0.0728702832
 40
0.1261374947
 40
0.1889150474
 40
0.2596063784
 40
0.3364093257
 40
0.4173708808
 40
0.5004319275
 40
0.5834767008
 40
0.6643927562
 40
0.7411220375
 40
0.8117090006
 40
0.8743584539
 40
0.9274794696
 40
0.9697189169
 40
0.9864082434
 40
1.0
 40
1.0
 40
1.0
 40
1.0
 10
5.8510387393
 20
5.9040302216
 30
0.0
 10
5.8459433598
 20
5.9038382858
 30
0.0
 10
5.8345990344
 20
5.903473371
 30
0.0
 10
5.8158908875
 20
5.9029779786
 30
0.0
 10
5.7938474872
 20
5.902475473
 30
0.0
 10
5.7582118439
 20
5.901753973
 30
0.0
 10
5.7065526792
 20
5.9008869676
 30
0.0
 10
5.6369901782
 20
5.8999209489
 30
0.0
 10
5.5586592739
 20
5.8989030395
 30
0.0
 10
5.4735531727
 20
5.8978976917
 30
0.0
 10
5.3838382263
 20
5.8969082165
 30
0.0
 10
5.291798005
 20
5.895893402
 30
0.0
 10
5.1997746037
 20
5.8948905748
 30
0.0
 10
5.1101101907
 20
5.8938946794
 30
0.0
 10
5.0250873006
 20
5.8928955813
 30
0.0
 10
4.9468704796
 20
5.8918755619
 30
0.0
 10
4.8774492954
 20
5.8908924906
 30
0.0
 10
4.8185900731
 20
5.8899218858
 30
0.0
 10
4.7768545486
 20
5.8890396826
 30
0.0
 10
4.7498463439
 20
5.8883189384
 30
0.0
 10
4.7385707164
 20
5.8879561194
 30
0.0
 10
4.733510633
 20
5.887765926
 30
0.0
  0
SPLINE
  5
4B3
100
AcDbEntity
  8
0
100
AcDbSpline
 62
7
  6
CONTINUOUS
 70
0
 71
3
 72
12
 73
8
 74
0
 42
0.0000001
 43
0.0000001
 44
0.0000000001
 40
0.0
 40
0.0
 40
0.0
 40
0.0
 40
0.3605519835
 40
0.6478158837
 40
0.8610659319
 40
0.9398333466
 40
1.0
 40
1.0
 40
1.0
 40
1.0
 10
4.733510633
 20
5.887765926
 30
0.0
 10
4.7307250504
 20
5.8876612243
 30
0.0
 10
4.725720553
 20
5.8874584489
 30
0.0
 10
4.7190721027
 20
5.8871172461
 30
0.0
 10
4.7146029796
 20
5.8868158533
 30
0.0
 10
4.7118921332
 20
5.8865594951
 30
0.0
 10
4.7108254623
 20
5.8864301656
 30
0.0
 10
4.7103654468
 20
5.8863611173
 30
0.0
  0
LINE
  5
4B4
100
AcDbEntity
  8
0
100
AcDbLine
 62
7
  6
CONTINUOUS
 10
4.7100427655
 20
5.8863099495
 11
4.7088053614
 21
5.8859000145
  0
SPLINE
  5
4B5
100
AcDbEntity
  8
0
100
AcDbSpline
 62
7
  6
CONTINUOUS
 70
0
 71
3
 72
14
 73
10
 74
0
 42
0.0000001
 43
0.0000001
 44
0.0000000001
 40
0.0
 40
0.0
 40
0.0
 40
0.0
 40
0.039852096
 40
0.1034907073
 40
0.1914839599
 40
0.3040260707
 40
0.4411890352
 40
0.6029477126
 40
1.0
 40
1.0
 40
1.0
 40
1.0
 10
4.7305632671
 20
5.7835315348
 30
0.0
 10
4.7306629064
 20
5.7835894732
 30
0.0
 10
4.7309516963
 20
5.7836817183
 30
0.0
 10
4.7314909921
 20
5.7838009175
 30
0.0
 10
4.7322466971
 20
5.783920774
 30
0.0
 10
4.7332154413
 20
5.7840431212
 30
0.0
 10
4.7343993128
 20
5.7841659553
 30
0.0
 10
4.7364043997
 20
5.7843429259
 30
0.0
 10
4.7380167609
 20
5.7844562981
 30
0.0
 10
4.7391627175
 20
5.7845304143
 30
0.0
  0
SPLINE
  5
4B6
100
AcDbEntity
  8
0
100
AcDbSpline
 62
7
  6
CONTINUOUS
 70
0
 71
3
 72
49
 73
45
 74
0
 42
0.0000001
 43
0.0000001
 44
0.0000000001
 40
0.0
 40
0.0
 40
0.0
 40
0.0
 40
0.0046244388
 40
0.0102990235
 40
0.0247626838
 40
0.0432811683
 40
0.06568155
 40
0.0917787857
 40
0.1213396869
 40
0.1898079136
 40
0.2687631147
 40
0.3555167456
 40
0.4470698682
 40
0.5403008106
 40
0.5865468076
 40
0.6320130542
 40
0.6763158475
 40
0.7190752679
 40
0.7599247189
 40
0.798510209
 40
0.8344895052
 40
0.8675665892
 40
0.8974581465
 40
0.9111276693
 40
0.9239094067
 40
0.9357762028
 40
0.9467009119
 40
0.956656868
 40
0.9656231798
 40
0.9735828664
 40
0.9805190691
 40
0.986415016
 40
0.9889677027
 40
0.9912544036
 40
0.9932745655
 40
0.9950279957
 40
0.9965145849
 40
0.9977343813
 40
0.9986877673
 40
0.9993759764
 40
0.9996218228
 40
0.9998037251
 40
0.9999253523
 40
1.0
 40
1.0
 40
1.0
 40
1.0
 10
4.7391627175
 20
5.7845304143
 30
0.0
 10
4.7408788416
 20
5.7846414068
 30
0.0
 10
4.7447029676
 20
5.7848548236
 30
0.0
 10
4.7539019897
 20
5.7852763562
 30
0.0
 10
4.768268948
 20
5.7857797458
 30
0.0
 10
4.7888562877
 20
5.78635505
 30
0.0
 10
4.8137712039
 20
5.7869341486
 30
0.0
 10
4.8427933461
 20
5.7875161859
 30
0.0
 10
4.8889455097
 20
5.7883351648
 30
0.0
 10
4.9547539756
 20
5.7893310365
 30
0.0
 10
5.0418307789
 20
5.7904839117
 30
0.0
 10
5.1374928974
 20
5.7916402915
 30
0.0
 10
5.2384641157
 20
5.7927996976
 30
0.0
 10
5.3243727809
 20
5.793768559
 30
0.0
 10
5.3931439062
 20
5.7945536492
 30
0.0
 10
5.4437209848
 20
5.7951409769
 30
0.0
 10
5.4930014082
 20
5.7957281303
 30
0.0
 10
5.5405648418
 20
5.7963150555
 30
0.0
 10
5.5860019938
 20
5.7969016377
 30
0.0
 10
5.6289175788
 20
5.7974877046
 30
0.0
 10
5.6689425394
 20
5.7980734869
 30
0.0
 10
5.7057340891
 20
5.7986584671
 30
0.0
 10
5.7342294769
 20
5.7991587945
 30
0.0
 10
5.7551780229
 20
5.7995631092
 30
0.0
 10
5.7694244931
 20
5.799857084
 30
0.0
 10
5.7826500097
 20
5.8001508581
 30
0.0
 10
5.794824418
 20
5.8004443717
 30
0.0
 10
5.8059198774
 20
5.8007376286
 30
0.0
 10
5.8159123083
 20
5.8010305269
 30
0.0
 10
5.824781259
 20
5.8013227964
 30
0.0
 10
5.8325077414
 20
5.8016143019
 30
0.0
 10
5.8382234688
 20
5.80186664
 30
0.0
 10
5.8422103865
 20
5.8020721732
 30
0.0
 10
5.8447570864
 20
5.8022186648
 30
0.0
 10
5.8470060273
 20
5.8023648841
 30
0.0
 10
5.8489567631
 20
5.8025106943
 30
0.0
 10
5.8506089119
 20
5.8026559289
 30
0.0
 10
5.851962441
 20
5.8028000208
 30
0.0
 10
5.8530169036
 20
5.802942571
 30
0.0
 10
5.853708297
 20
5.8030685355
 30
0.0
 10
5.8541094907
 20
5.8031751003
 30
0.0
 10
5.8543014806
 20
5.8032476837
 30
0.0
 10
5.8544252371
 20
5.8033131846
 30
0.0
 10
5.8544723142
 20
5.803379856
 30
0.0
 10
5.8544727186
 20
5.8034076126
 30
0.0
  0
SPLINE
  5
4B7
100
AcDbEntity
  8
0
100
AcDbSpline
 62
7
  6
CONTINUOUS
 70
0
 71
3
 72
14
 73
10
 74
0
 42
0.0000001
 43
0.0000001
 44
0.0000000001
 40
0.0
 40
0.0
 40
0.0
 40
0.0
 40
0.0433105593
 40
0.1094370551
 40
0.1989188116
 40
0.3119335877
 40
0.4485443888
 40
0.6087668689
 40
1.0
 40
1.0
 40
1.0
 40
1.0
 10
4.7089131609
 20
5.8110260692
 30
0.0
 10
4.7089945826
 20
5.811072541
 30
0.0
 10
4.7092207817
 20
5.8111505744
 30
0.0
 10
4.7096388394
 20
5.8112507807
 30
0.0
 10
4.7102120754
 20
5.8113520369
 30
0.0
 10
4.7109387817
 20
5.811454869
 30
0.0
 10
4.711820025
 20
5.8115582202
 30
0.0
 10
4.7133020156
 20
5.8117067022
 30
0.0
 10
4.7144920015
 20
5.8118022401
 30
0.0
 10
4.715336567
 20
5.8118646171
 30
0.0
  0
LINE
  5
4B8
100
AcDbEntity
  8
0
100
AcDbLine
 62
7
  6
CONTINUOUS
 10
4.715336567
 20
5.8118646171
 11
4.7347482107
 21
5.8128219597
  0
SPLINE
  5
4B9
100
AcDbEntity
  8
0
100
AcDbSpline
 62
7
  6
CONTINUOUS
 70
0
 71
3
 72
27
 73
23
 74
0
 42
0.0000001
 43
0.0000001
 44
0.0000000001
 40
0.0
 40
0.0
 40
0.0
 40
0.0
 40
0.0138306458
 40
0.0307263765
 40
0.0505884176
 40
0.0732831019
 40
0.1265942311
 40
0.1893149921
 40
0.2598691621
 40
0.3364771368
 40
0.4172054465
 40
0.5000215321
 40
0.5828368473
 40
0.6635628615
 40
0.7401670545
 40
0.8107160752
 40
0.8734304877
 40
0.9267341417
 40
0.9494247021
 40
0.9692824546
 40
0.9861738223
 40
1.0
 40
1.0
 40
1.0
 40
1.0
 10
4.7347482107
 20
5.8128219597
 30
0.0
 10
4.7398878131
 20
5.8130122092
 30
0.0
 10
4.7513081784
 20
5.8133764758
 30
0.0
 10
4.7701137555
 20
5.8138705021
 30
0.0
 10
4.7922165022
 20
5.8143654126
 30
0.0
 10
4.8278594436
 20
5.8150672124
 30
0.0
 10
4.8794397191
 20
5.8159332063
 30
0.0
 10
4.9488172765
 20
5.8169302894
 30
0.0
 10
5.0268591052
 20
5.8179090583
 30
0.0
 10
5.1115974064
 20
5.8189180368
 30
0.0
 10
5.2008958894
 20
5.8199180358
 30
0.0
 10
5.2925029841
 20
5.8209004491
 30
0.0
 10
5.3841089017
 20
5.8219126494
 30
0.0
 10
5.4734047583
 20
5.8229192579
 30
0.0
 10
5.5581390954
 20
5.8239102703
 30
0.0
 10
5.6361752535
 20
5.8248886898
 30
0.0
 10
5.7055456455
 20
5.8258935228
 30
0.0
 10
5.7571192162
 20
5.8267606352
 30
0.0
 10
5.792756353
 20
5.8274570006
 30
0.0
 10
5.814854395
 20
5.827950011
 30
0.0
 10
5.833654992
 20
5.8284482296
 30
0.0
 10
5.8450719294
 20
5.8288168233
 30
0.0
 10
5.8502098275
 20
5.8290081933
 30
0.0
  0
SPLINE
  5
4BA
100
AcDbEntity
  8
0
100
AcDbSpline
 62
7
  6
CONTINUOUS
 70
0
 71
3
 72
12
 73
8
 74
0
 42
0.0000001
 43
0.0000001
 44
0.0000000001
 40
0.0
 40
0.0
 40
0.0
 40
0.0
 40
0.360524935
 40
0.647804463
 40
0.8610690569
 40
0.939837612
 40
1.0
 40
1.0
 40
1.0
 40
1.0
 10
5.8502098275
 20
5.8290081933
 30
0.0
 10
5.8531319195
 20
5.8291170317
 30
0.0
 10
5.8583819833
 20
5.829327312
 30
0.0
 10
5.8653573052
 20
5.8296725532
 30
0.0
 10
5.8700470163
 20
5.8299720851
 30
0.0
 10
5.8728921635
 20
5.8302280662
 30
0.0
 10
5.8740118083
 20
5.8303582012
 30
0.0
 10
5.8744947091
 20
5.8304282894
 30
0.0
  0
LINE
  5
4BB
100
AcDbEntity
  8
0
100
AcDbLine
 62
7
  6
CONTINUOUS
 10
5.8750333839
 20
5.8305143512
 11
5.8761325268
 21
5.8309080566
  0
SPLINE
  5
4BC
100
AcDbEntity
  8
0
100
AcDbSpline
 62
7
  6
CONTINUOUS
 70
0
 71
3
 72
14
 73
10
 74
0
 42
0.0000001
 43
0.0000001
 44
0.0000000001
 40
0.0
 40
0.0
 40
0.0
 40
0.0
 40
0.0404177114
 40
0.1044310661
 40
0.1926046366
 40
0.3051338574
 40
0.4421049434
 40
0.6035607129
 40
1.0
 40
1.0
 40
1.0
 40
1.0
 10
4.7305662997
 20
5.8235351083
 30
0.0
 10
4.7306635784
 20
5.8235912092
 30
0.0
 10
4.7309430697
 20
5.8236814446
 30
0.0
 10
4.7314640453
 20
5.8237978293
 30
0.0
 10
4.7321911635
 20
5.8239149752
 30
0.0
 10
4.7331215057
 20
5.8240344223
 30
0.0
 10
4.7342571647
 20
5.8241543832
 30
0.0
 10
4.736180025
 20
5.8243271887
 30
0.0
 10
4.7377262729
 20
5.8244378511
 30
0.0
 10
4.7388253608
 20
5.8245101588
 30
0.0
  0
SPLINE
  5
4BD
100
AcDbEntity
  8
0
100
AcDbSpline
 62
7
  6
CONTINUOUS
 70
0
 71
3
 72
50
 73
46
 74
0
 42
0.0000001
 43
0.0000001
 44
0.0000000001
 40
0.0
 40
0.0
 40
0.0
 40
0.0
 40
0.0045658744
 40
0.0101916792
 40
0.0245600396
 40
0.0429766044
 40
0.0652818205
 40
0.0912834449
 40
0.1207758323
 40
0.1891732639
 40
0.2681231759
 40
0.3548870355
 40
0.4465021799
 40
0.539824777
 40
0.5861209192
 40
0.6316439788
 40
0.676001833
 40
0.7188133956
 40
0.7597020876
 40
0.7983236585
 40
0.8343548946
 40
0.8674840298
 40
0.89742753
 40
0.9111174839
 40
0.9239099175
 40
0.935780697
 40
0.9467065975
 40
0.9566644081
 40
0.9656309423
 40
0.973585612
 40
0.980514885
 40
0.9864064993
 40
0.9889594016
 40
0.9912483745
 40
0.9932719622
 40
0.9950287583
 40
0.996517714
 40
0.9977387512
 40
0.9986922804
 40
0.9990691054
 40
0.9993796976
 40
0.9996247144
 40
0.9998055756
 40
0.9999260603
 40
1.0
 40
1.0
 40
1.0
 40
1.0
 10
4.7388253608
 20
5.8245101588
 30
0.0
 10
4.74052018
 20
5.8246216589
 30
0.0
 10
4.7443055459
 20
5.8248354711
 30
0.0
 10
4.7534320842
 20
5.8252573809
 30
0.0
 10
4.7677121427
 20
5.8257612192
 30
0.0
 10
4.788197342
 20
5.8263375029
 30
0.0
 10
4.8130114397
 20
5.8269171077
 30
0.0
 10
4.8419465222
 20
5.827500237
 30
0.0
 10
4.8880262716
 20
5.828320213
 30
0.0
 10
4.9538023185
 20
5.8293172731
 30
0.0
 10
5.0408829121
 20
5.8304713794
 30
0.0
 10
5.1366010151
 20
5.8316297049
 30
0.0
 10
5.2376660193
 20
5.8327901764
 30
0.0
 10
5.3236784217
 20
5.8337602619
 30
0.0
 10
5.3925457765
 20
5.834546512
 30
0.0
 10
5.4431995628
 20
5.8351344842
 30
0.0
 10
5.4925570158
 20
5.8357222496
 30
0.0
 10
5.540190385
 20
5.8363096908
 30
0.0
 10
5.5856897178
 20
5.8368970305
 30
0.0
 10
5.6286665856
 20
5.8374840681
 30
0.0
 10
5.6687566605
 20
5.8380704655
 30
0.0
 10
5.7056181723
 20
5.8386562528
 30
0.0
 10
5.7341691086
 20
5.8391570635
 30
0.0
 10
5.7551553662
 20
5.839561748
 30
0.0
 10
5.7694195258
 20
5.8398560553
 30
0.0
 10
5.7826552411
 20
5.8401501666
 30
0.0
 10
5.7948362155
 20
5.8404440448
 30
0.0
 10
5.8059364919
 20
5.8407376048
 30
0.0
 10
5.8159310714
 20
5.8410307754
 30
0.0
 10
5.8247985301
 20
5.8413234793
 30
0.0
 10
5.8325214495
 20
5.8416154687
 30
0.0
 10
5.8382349057
 20
5.8418682215
 30
0.0
 10
5.8422224231
 20
5.8420740041
 30
0.0
 10
5.8447721443
 20
5.8422206742
 30
0.0
 10
5.8470251947
 20
5.8423670363
 30
0.0
 10
5.8489799536
 20
5.8425130123
 30
0.0
 10
5.8506352938
 20
5.8426583197
 30
0.0
 10
5.8519904892
 20
5.8428027984
 30
0.0
 10
5.8529313956
 20
5.8429294517
 30
0.0
 10
5.8535327626
 20
5.8430347277
 30
0.0
 10
5.8538720497
 20
5.8431074125
 30
0.0
 10
5.8541368483
 20
5.8431780934
 30
0.0
 10
5.8543275776
 20
5.843250794
 30
0.0
 10
5.8544504226
 20
5.8433162073
 30
0.0
 10
5.8544958738
 20
5.8433834512
 30
0.0
 10
5.8544955335
 20
5.8434109543
 30
0.0
  0
SPLINE
  5
4BE
100
AcDbEntity
  8
0
100
AcDbSpline
 62
7
  6
CONTINUOUS
 70
0
 71
3
 72
15
 73
11
 74
0
 42
0.0000001
 43
0.0000001
 44
0.0000000001
 40
0.0
 40
0.0
 40
0.0
 40
0.0
 40
0.0244020142
 40
0.0458510922
 40
0.0743607539
 40
0.153349329
 40
0.2622069594
 40
0.4012025562
 40
0.5704608327
 40
1.0
 40
1.0
 40
1.0
 40
1.0
 10
4.73045037
 20
5.5534217584
 30
0.0
 10
4.7304518551
 20
5.553473557
 30
0.0
 10
4.7305479567
 20
5.55354531
 30
0.0
 10
4.7306852436
 20
5.5536067419
 30
0.0
 10
4.7309486466
 20
5.5536953005
 30
0.0
 10
4.7313953036
 20
5.5537947237
 30
0.0
 10
4.7320809212
 20
5.5539104093
 30
0.0
 10
4.7329588509
 20
5.5540259764
 30
0.0
 10
4.7345166732
 20
5.5541956434
 30
0.0
 10
4.7357840066
 20
5.554301101
 30
0.0
 10
4.7366935391
 20
5.554370348
 30
0.0
  0
SPLINE
  5
4BF
100
AcDbEntity
  8
0
100
AcDbSpline
 62
7
  6
CONTINUOUS
 70
0
 71
3
 72
36
 73
32
 74
0
 42
0.0000001
 43
0.0000001
 44
0.0000000001
 40
0.0
 40
0.0
 40
0.0
 40
0.0
 40
0.003931471
 40
0.0088853091
 40
0.0218100968
 40
0.0386714966
 40
0.0593295409
 40
0.0836019067
 40
0.1112975504
 40
0.142185297
 40
0.1760176231
 40
0.2513885319
 40
0.3348809453
 40
0.4237498258
 40
0.5150732118
 40
0.6058320118
 40
0.6930428714
 40
0.7738124764
 40
0.8109426041
 40
0.8454857358
 40
0.8771623215
 40
0.9057114802
 40
0.9308868463
 40
0.9524868997
 40
0.9703207225
 40
0.9777770828
 40
0.9842437467
 40
0.989709493
 40
0.9941632848
 40
0.9975949498
 40
1.0
 40
1.0
 40
1.0
 40
1.0
 10
4.7366935391
 20
5.554370348
 30
0.0
 10
4.7381519946
 20
5.554481387
 30
0.0
 10
4.7414511911
 20
5.5546921807
 30
0.0
 10
4.7495549116
 20
5.5551078634
 30
0.0
 10
4.7624707226
 20
5.555601001
 30
0.0
 10
4.7812297075
 20
5.5561647155
 30
0.0
 10
4.8042120285
 20
5.5567318482
 30
0.0
 10
4.8312260326
 20
5.5573029959
 30
0.0
 10
4.86204665
 20
5.5578754674
 30
0.0
 10
4.896424494
 20
5.5584494194
 30
0.0
 10
4.9485383133
 20
5.5592445148
 30
0.0
 10
5.0202228155
 20
5.5602178791
 30
0.0
 10
5.1123828585
 20
5.5613538129
 30
0.0
 10
5.2104783059
 20
5.5624916965
 30
0.0
 10
5.3112773226
 20
5.5636304972
 30
0.0
 10
5.4114594453
 20
5.5647694246
 30
0.0
 10
5.507714868
 20
5.5659065023
 30
0.0
 10
5.5840186853
 20
5.5668767096
 30
0.0
 10
5.6407284996
 20
5.5676662044
 30
0.0
 10
5.679174796
 20
5.5682411976
 30
0.0
 10
5.7144282325
 20
5.5688153701
 30
0.0
 10
5.7461959724
 20
5.5693882586
 30
0.0
 10
5.7742141731
 20
5.5699595466
 30
0.0
 10
5.7982448996
 20
5.5705282995
 30
0.0
 10
5.8156832066
 20
5.5710230988
 30
0.0
 10
5.8274911299
 20
5.5714302942
 30
0.0
 10
5.834698982
 20
5.5717162019
 30
0.0
 10
5.8407887078
 20
5.5720009566
 30
0.0
 10
5.8457482313
 20
5.5722824399
 30
0.0
 10
5.8495664092
 20
5.5725616673
 30
0.0
 10
5.8517284202
 20
5.5727755547
 30
0.0
 10
5.8526147568
 20
5.572898203
 30
0.0
  0
LINE
  5
4C0
100
AcDbEntity
  8
0
100
AcDbLine
 62
7
  6
CONTINUOUS
 10
5.8526147568
 20
5.572898203
 11
5.8543983186
 21
5.5732965142
  0
LINE
  5
4C1
100
AcDbEntity
  8
0
100
AcDbLine
 62
7
  6
CONTINUOUS
 10
5.8744827539
 20
5.8704434348
 11
5.8761121836
 21
5.8708520134
  0
SPLINE
  5
4C2
100
AcDbEntity
  8
0
100
AcDbSpline
 62
7
  6
CONTINUOUS
 70
0
 71
3
 72
14
 73
10
 74
0
 42
0.0000001
 43
0.0000001
 44
0.0000000001
 40
0.0
 40
0.0
 40
0.0
 40
0.0
 40
0.0440770506
 40
0.1107245162
 40
0.2005011532
 40
0.3135975819
 40
0.450085329
 40
0.6099862746
 40
1.0
 40
1.0
 40
1.0
 40
1.0
 10
4.7089146779
 20
5.851041121
 30
0.0
 10
4.708993568
 20
5.8510861079
 30
0.0
 10
4.7092110667
 20
5.8511620438
 30
0.0
 10
4.7096120585
 20
5.851258901
 30
0.0
 10
4.7101593792
 20
5.8513562545
 30
0.0
 10
4.7108515749
 20
5.8514545697
 30
0.0
 10
4.7116896224
 20
5.8515530193
 30
0.0
 10
4.7130968485
 20
5.8516939993
 30
0.0
 10
4.7142263812
 20
5.8517845602
 30
0.0
 10
4.7150277779
 20
5.8518437196
 30
0.0
  0
LINE
  5
4C3
100
AcDbEntity
  8
0
100
AcDbLine
 62
7
  6
CONTINUOUS
 10
4.7150277779
 20
5.8518437196
 11
4.7335296206
 21
5.8527686389
  0
SPLINE
  5
4C4
100
AcDbEntity
  8
0
100
AcDbSpline
 62
7
  6
CONTINUOUS
 70
0
 71
3
 72
27
 73
23
 74
0
 42
0.0000001
 43
0.0000001
 44
0.0000000001
 40
0.0
 40
0.0
 40
0.0
 40
0.0
 40
0.0135964306
 40
0.0302901036
 40
0.0499814796
 40
0.072537223
 40
0.1256653478
 40
0.1883208221
 40
0.2589123696
 40
0.3356449828
 40
0.4165629802
 40
0.4996082382
 40
0.5826683427
 40
0.6636275805
 40
0.740426842
 40
0.8111132766
 40
0.8738850841
 40
0.9017954838
 40
0.9271453842
 40
0.9695423319
 40
0.9863173874
 40
1.0
 40
1.0
 40
1.0
 40
1.0
 10
4.7335296206
 20
5.8527686389
 30
0.0
 10
4.7385913261
 20
5.8529618488
 30
0.0
 10
4.7498700119
 20
5.8533336182
 30
0.0
 10
4.7684840929
 20
5.8538342098
 30
0.0
 10
4.7904371538
 20
5.854328538
 30
0.0
 10
4.825962623
 20
5.8550282613
 30
0.0
 10
4.877493996
 20
5.8559050408
 30
0.0
 10
4.9469213871
 20
5.8569113399
 30
0.0
 10
5.0251438548
 20
5.8578892321
 30
0.0
 10
5.1101702361
 20
5.8588935258
 30
0.0
 10
5.1998365302
 20
5.8599037747
 30
0.0
 10
5.2918603528
 20
5.8609084119
 30
0.0
 10
5.3838996692
 20
5.8619013403
 30
0.0
 10
5.4736116186
 20
5.862918116
 30
0.0
 10
5.5587136229
 20
5.8639159673
 30
0.0
 10
5.6370395935
 20
5.8648966495
 30
0.0
 10
5.6971515398
 20
5.8657793636
 30
0.0
 10
5.7403739431
 20
5.8664833984
 30
0.0
 10
5.7760057714
 20
5.8671118508
 30
0.0
 10
5.8074884748
 20
5.8677498268
 30
0.0
 10
5.8346210247
 20
5.8684766797
 30
0.0
 10
5.845962235
 20
5.868846326
 30
0.0
 10
5.8510561056
 20
5.8690386258
 30
0.0
  0
LINE
  5
4C5
100
AcDbEntity
  8
0
100
AcDbLine
 62
7
  6
CONTINUOUS
 10
5.8510561056
 20
5.8690386258
 11
5.8697290314
 21
5.8699710369
  0
LINE
  5
4C6
100
AcDbEntity
  8
0
100
AcDbLine
 62
7
  6
CONTINUOUS
 10
5.8697290314
 20
5.8699710369
 11
5.8744827539
 21
5.8704434348
  0
SPLINE
  5
4C7
100
AcDbEntity
  8
0
100
AcDbSpline
 62
7
  6
CONTINUOUS
 70
0
 71
3
 72
14
 73
10
 74
0
 42
0.0000001
 43
0.0000001
 44
0.0000000001
 40
0.0
 40
0.0
 40
0.0
 40
0.0
 40
0.0408410438
 40
0.1053171665
 40
0.1939016564
 40
0.306713612
 40
0.4437669083
 40
0.6050335017
 40
1.0
 40
1.0
 40
1.0
 40
1.0
 10
4.7305511365
 20
5.8635354891
 30
0.0
 10
4.7306511777
 20
5.863591622
 30
0.0
 10
4.7309364395
 20
5.863681965
 30
0.0
 10
4.7314671409
 20
5.8637986329
 30
0.0
 10
4.7322056077
 20
5.8639160538
 30
0.0
 10
4.733148467
 20
5.8640357741
 30
0.0
 10
4.7342971412
 20
5.8641560074
 30
0.0
 10
4.736236724
 20
5.864329039
 30
0.0
 10
4.7377952522
 20
5.8644400979
 30
0.0
 10
4.7389022475
 20
5.8645126781
 30
0.0
  0
SPLINE
  5
4C8
100
AcDbEntity
  8
0
100
AcDbSpline
 62
7
  6
CONTINUOUS
 70
0
 71
3
 72
35
 73
31
 74
0
 42
0.0000001
 43
0.0000001
 44
0.0000000001
 40
0.0
 40
0.0
 40
0.0
 40
0.0
 40
0.0044513019
 40
0.009904834
 40
0.0237749782
 40
0.0414977135
 40
0.0629497758
 40
0.0879563453
 40
0.1162992245
 40
0.1820442391
 40
0.2580423867
 40
0.3418314086
 40
0.4306815704
 40
0.5216843838
 40
0.6118780501
 40
0.6983222987
 40
0.7782102841
 40
0.8148714119
 40
0.8489360291
 40
0.8801116302
 40
0.9081573843
 40
0.9328540451
 40
0.9539976444
 40
0.9714167517
 40
0.9786774937
 40
0.9849486547
 40
0.990222503
 40
0.9944927142
 40
0.9977534139
 40
1.0
 40
1.0
 40
1.0
 40
1.0
 10
4.7389022475
 20
5.8645126781
 30
0.0
 10
4.7405519246
 20
5.8646208393
 30
0.0
 10
4.7442248304
 20
5.8648289849
 30
0.0
 10
4.7530453909
 20
5.8652398983
 30
0.0
 10
4.7667960301
 20
5.8657310106
 30
0.0
 10
4.7864890093
 20
5.8662931667
 30
0.0
 10
4.8103194421
 20
5.866857928
 30
0.0
 10
4.8380950389
 20
5.8674257656
 30
0.0
 10
4.8823196796
 20
5.8682252044
 30
0.0
 10
4.9454824544
 20
5.8691975352
 30
0.0
 10
5.0292378507
 20
5.8703228968
 30
0.0
 10
5.121575181
 20
5.8714518586
 30
0.0
 10
5.2194856127
 20
5.872583364
 30
0.0
 10
5.3197748792
 20
5.8737158594
 30
0.0
 10
5.419170538
 20
5.8748477213
 30
0.0
 10
5.5144378731
 20
5.8759784406
 30
0.0
 10
5.5898237113
 20
5.87694332
 30
0.0
 10
5.645756337
 20
5.877728439
 30
0.0
 10
5.6835983233
 20
5.8782995954
 30
0.0
 10
5.7182401647
 20
5.8788702913
 30
0.0
 10
5.7494022339
 20
5.8794399377
 30
0.0
 10
5.7768377661
 20
5.8800074849
 30
0.0
 10
5.8003256095
 20
5.8805728766
 30
0.0
 10
5.8173375395
 20
5.8810645824
 30
0.0
 10
5.8288256759
 20
5.8814695761
 30
0.0
 10
5.8358044431
 20
5.8817538427
 30
0.0
 10
5.8416714009
 20
5.8820369753
 30
0.0
 10
5.8464192357
 20
5.8823163956
 30
0.0
 10
5.8500397952
 20
5.882593445
 30
0.0
 10
5.8520754763
 20
5.8828054873
 30
0.0
 10
5.8529006544
 20
5.8829290962
 30
0.0
  0
LINE
  5
4C9
100
AcDbEntity
  8
0
100
AcDbLine
 62
7
  6
CONTINUOUS
 10
4.7319785158
 20
5.5929484061
 11
4.7305604002
 21
5.5932925418
  0
SPLINE
  5
4CA
100
AcDbEntity
  8
0
100
AcDbSpline
 62
7
  6
CONTINUOUS
 70
0
 71
3
 72
14
 73
10
 74
0
 42
0.0000001
 43
0.0000001
 44
0.0000000001
 40
0.0
 40
0.0
 40
0.0
 40
0.0
 40
0.0430928895
 40
0.1090671742
 40
0.198460172
 40
0.3114477158
 40
0.4480915273
 40
0.6084063813
 40
1.0
 40
1.0
 40
1.0
 40
1.0
 10
4.7089112909
 20
5.571036492
 30
0.0
 10
4.7089923206
 20
5.5710827326
 30
0.0
 10
4.7092179472
 20
5.5711601602
 30
0.0
 10
4.7096352109
 20
5.5712596398
 30
0.0
 10
4.7102080941
 20
5.5713601772
 30
0.0
 10
4.7109348359
 20
5.5714623413
 30
0.0
 10
4.7118165232
 20
5.5715650515
 30
0.0
 10
4.7132999129
 20
5.5717126847
 30
0.0
 10
4.7144911298
 20
5.571807698
 30
0.0
 10
4.7153366485
 20
5.5718697491
 30
0.0
  0
LINE
  5
4CB
100
AcDbEntity
  8
0
100
AcDbLine
 62
7
  6
CONTINUOUS
 10
4.7153366485
 20
5.5718697491
 11
4.7347484782
 21
5.5728224143
  0
SPLINE
  5
4CC
100
AcDbEntity
  8
0
100
AcDbSpline
 62
7
  6
CONTINUOUS
 70
0
 71
3
 72
27
 73
23
 74
0
 42
0.0000001
 43
0.0000001
 44
0.0000000001
 40
0.0
 40
0.0
 40
0.0
 40
0.0
 40
0.0138306843
 40
0.03072649
 40
0.0505886247
 40
0.0732833922
 40
0.1265946034
 40
0.1893154258
 40
0.2598696833
 40
0.336477717
 40
0.4172060577
 40
0.5000221562
 40
0.5828374619
 40
0.6635634405
 40
0.7401675777
 40
0.8107165342
 40
0.8734308264
 40
0.9267343448
 40
0.9494248652
 40
0.969282583
 40
0.9861738991
 40
1.0
 40
1.0
 40
1.0
 40
1.0
 10
4.7347484782
 20
5.5728224143
 30
0.0
 10
4.7398881177
 20
5.5730120662
 30
0.0
 10
4.7513085419
 20
5.573375738
 30
0.0
 10
4.7701141708
 20
5.5738707348
 30
0.0
 10
4.7922169492
 20
5.5743684932
 30
0.0
 10
4.8278599194
 20
5.5750740982
 30
0.0
 10
4.879440374
 20
5.5759354533
 30
0.0
 10
4.9488181024
 20
5.576926617
 30
0.0
 10
5.0268599214
 20
5.5779129368
 30
0.0
 10
5.1115982707
 20
5.5789245909
 30
0.0
 10
5.2008968409
 20
5.5799213234
 30
0.0
 10
5.2925040153
 20
5.5808986903
 30
0.0
 10
5.3841098555
 20
5.5819179935
 30
0.0
 10
5.4734057032
 20
5.5829229511
 30
0.0
 10
5.5581400635
 20
5.5839082751
 30
0.0
 10
5.6361760327
 20
5.5848954082
 30
0.0
 10
5.7055463733
 20
5.5858955285
 30
0.0
 10
5.7571199276
 20
5.5867579818
 30
0.0
 10
5.7927569282
 20
5.5874576935
 30
0.0
 10
5.8148548667
 20
5.5879533323
 30
0.0
 10
5.8336553747
 20
5.5884526369
 30
0.0
 10
5.8450722684
 20
5.588821087
 30
0.0
 10
5.8502101462
 20
5.589012254
 30
0.0
  0
SPLINE
  5
4CD
100
AcDbEntity
  8
0
100
AcDbSpline
 62
7
  6
CONTINUOUS
 70
0
 71
3
 72
12
 73
8
 74
0
 42
0.0000001
 43
0.0000001
 44
0.0000000001
 40
0.0
 40
0.0
 40
0.0
 40
0.0
 40
0.3605272681
 40
0.6478081128
 40
0.8610725849
 40
0.9398400306
 40
1.0
 40
1.0
 40
1.0
 40
1.0
 10
5.8502101462
 20
5.589012254
 30
0.0
 10
5.8531322036
 20
5.589120976
 30
0.0
 10
5.8583822042
 20
5.5893309561
 30
0.0
 10
5.8653574426
 20
5.5896757008
 30
0.0
 10
5.8700470855
 20
5.5899747748
 30
0.0
 10
5.8728922002
 20
5.5902301505
 30
0.0
 10
5.8740118352
 20
5.5903598954
 30
0.0
 10
5.874494742
 20
5.5904297376
 30
0.0
  0
LINE
  5
4CE
100
AcDbEntity
  8
0
100
AcDbLine
 62
7
  6
CONTINUOUS
 10
5.875034975
 20
5.5905157541
 11
5.8761325268
 21
5.5909071734
  0
SPLINE
  5
4CF
100
AcDbEntity
  8
0
100
AcDbSpline
 62
7
  6
CONTINUOUS
 70
0
 71
3
 72
13
 73
9
 74
0
 42
0.0000001
 43
0.0000001
 44
0.0000000001
 40
0.0
 40
0.0
 40
0.0
 40
0.0
 40
0.046008938
 40
0.1139792576
 40
0.2044950108
 40
0.3177804428
 40
0.6130032303
 40
1.0
 40
1.0
 40
1.0
 40
1.0
 10
4.7305732304
 20
5.5835364446
 30
0.0
 10
4.7306438949
 20
5.5835771313
 30
0.0
 10
4.7308350141
 20
5.5836477871
 30
0.0
 10
4.7311855592
 20
5.5837384205
 30
0.0
 10
4.7316588797
 20
5.5838300833
 30
0.0
 10
4.7325327701
 20
5.5839659574
 30
0.0
 10
4.7339338629
 20
5.5841274109
 30
0.0
 10
4.7351380767
 20
5.5842357616
 30
0.0
 10
4.7358216291
 20
5.5842920508
 30
0.0
  0
SPLINE
  5
4D0
100
AcDbEntity
  8
0
100
AcDbSpline
 62
7
  6
CONTINUOUS
 70
0
 71
3
 72
51
 73
47
 74
0
 42
0.0000001
 43
0.0000001
 44
0.0000000001
 40
0.0
 40
0.0
 40
0.0
 40
0.0
 40
0.0037987326
 40
0.008687434
 40
0.0216935261
 40
0.038885492
 40
0.060112671
 40
0.0851815715
 40
0.113872083
 40
0.1459452648
 40
0.1811113644
 40
0.2594842623
 40
0.3462143505
 40
0.4382466187
 40
0.5323606444
 40
0.5791634437
 40
0.6252511097
 40
0.6702182084
 40
0.7136688132
 40
0.7552150454
 40
0.79448225
 40
0.8311391362
 40
0.8648648558
 40
0.8953646564
 40
0.909319995
 40
0.9223672163
 40
0.9344748221
 40
0.9456189628
 40
0.9557773872
 40
0.9649278642
 40
0.9730481952
 40
0.9801186467
 40
0.986127631
 40
0.9887310256
 40
0.991065421
 40
0.9931296546
 40
0.9949226126
 40
0.9964432657
 40
0.9976907441
 40
0.9986648072
 40
0.999049709
 40
0.9993669544
 40
0.9996172258
 40
0.9998019626
 40
0.9999249471
 40
1.0
 40
1.0
 40
1.0
 40
1.0
 10
4.7358216291
 20
5.5842920508
 30
0.0
 10
4.7372337609
 20
5.5844083371
 30
0.0
 10
4.7404670262
 20
5.5846270849
 30
0.0
 10
4.7485472255
 20
5.5850580466
 30
0.0
 10
4.7616251532
 20
5.5855651967
 30
0.0
 10
4.7807977608
 20
5.5861461554
 30
0.0
 10
4.8044714576
 20
5.586730535
 30
0.0
 10
4.8324349697
 20
5.5873194363
 30
0.0
 10
4.8644447552
 20
5.5879101917
 30
0.0
 10
4.9002212913
 20
5.5885020663
 30
0.0
 10
4.9545278516
 20
5.5893225405
 30
0.0
 10
5.029220694
 20
5.590326291
 30
0.0
 10
5.1251239431
 20
5.5914974123
 30
0.0
 10
5.2268989505
 20
5.5926707833
 30
0.0
 10
5.3137824762
 20
5.593650741
 30
0.0
 10
5.3835298552
 20
5.5944453518
 30
0.0
 10
5.434946719
 20
5.5950401531
 30
0.0
 10
5.4851131449
 20
5.5956347872
 30
0.0
 10
5.5335855157
 20
5.5962291476
 30
0.0
 10
5.5799316883
 20
5.5968231545
 30
0.0
 10
5.6237436149
 20
5.5974170435
 30
0.0
 10
5.6646382485
 20
5.5980102667
 30
0.0
 10
5.7022623158
 20
5.598602824
 30
0.0
 10
5.7314190722
 20
5.5991095301
 30
0.0
 10
5.7528633151
 20
5.5995188327
 30
0.0
 10
5.767448214
 20
5.5998164849
 30
0.0
 10
5.7809843165
 20
5.6001140188
 30
0.0
 10
5.7934426345
 20
5.6004113231
 30
0.0
 10
5.8047976232
 20
5.6007083034
 30
0.0
 10
5.8150243312
 20
5.6010048639
 30
0.0
 10
5.8240987241
 20
5.6013008029
 30
0.0
 10
5.8320006637
 20
5.6015961655
 30
0.0
 10
5.8378447725
 20
5.6018518919
 30
0.0
 10
5.8419225813
 20
5.6020600833
 30
0.0
 10
5.8445301062
 20
5.6022084683
 30
0.0
 10
5.8468348187
 20
5.6023565495
 30
0.0
 10
5.8488353208
 20
5.6025042443
 30
0.0
 10
5.8505303098
 20
5.6026512229
 30
0.0
 10
5.8519185246
 20
5.6027973456
 30
0.0
 10
5.8528825301
 20
5.6029254816
 30
0.0
 10
5.853498694
 20
5.6030319887
 30
0.0
 10
5.8538463884
 20
5.6031055289
 30
0.0
 10
5.8541177868
 20
5.6031770166
 30
0.0
 10
5.8543135032
 20
5.6032505911
 30
0.0
 10
5.8544394029
 20
5.6033165907
 30
0.0
 10
5.854486809
 20
5.603384609
 30
0.0
 10
5.8544867402
 20
5.6034126033
 30
0.0
  0
SPLINE
  5
4D1
100
AcDbEntity
  8
0
100
AcDbSpline
 62
7
  6
CONTINUOUS
 70
0
 71
3
 72
13
 73
9
 74
0
 42
0.0000001
 43
0.0000001
 44
0.0000000001
 40
0.0
 40
0.0
 40
0.0
 40
0.0
 40
0.0462401199
 40
0.1143278832
 40
0.2048696377
 40
0.3181145507
 40
0.6131556978
 40
1.0
 40
1.0
 40
1.0
 40
1.0
 10
5.8543775243
 20
5.6035380527
 30
0.0
 10
5.8543080234
 20
5.6035780227
 30
0.0
 10
5.8541206234
 20
5.6036476657
 30
0.0
 10
5.8537771558
 20
5.6037370146
 30
0.0
 10
5.8533140503
 20
5.6038273754
 30
0.0
 10
5.8524595822
 20
5.603961264
 30
0.0
 10
5.8510896354
 20
5.6041203952
 30
0.0
 10
5.8499121605
 20
5.6042271401
 30
0.0
 10
5.8492437158
 20
5.6042825912
 30
0.0
  0
SPLINE
  5
4D2
100
AcDbEntity
  8
0
100
AcDbSpline
 62
7
  6
CONTINUOUS
 70
0
 71
3
 72
14
 73
10
 74
0
 42
0.0000001
 43
0.0000001
 44
0.0000000001
 40
0.0
 40
0.0
 40
0.0
 40
0.0
 40
0.0435646175
 40
0.1098606497
 40
0.1994375222
 40
0.3124781817
 40
0.4490485233
 40
0.6091659841
 40
1.0
 40
1.0
 40
1.0
 40
1.0
 10
4.7089155761
 20
5.6110397965
 30
0.0
 10
4.708997493
 20
5.6110864116
 30
0.0
 10
4.709224475
 20
5.611164605
 30
0.0
 10
4.7096435575
 20
5.611264471
 30
0.0
 10
4.7102172675
 20
5.6113648969
 30
0.0
 10
4.7109439505
 20
5.6114664467
 30
0.0
 10
4.711824659
 20
5.6115681782
 30
0.0
 10
4.7133049611
 20
5.6117139545
 30
0.0
 10
4.7144933852
 20
5.6118075478
 30
0.0
 10
4.7153367374
 20
5.6118686781
 30
0.0
  0
LINE
  5
4D3
100
AcDbEntity
  8
0
100
AcDbLine
 62
7
  6
CONTINUOUS
 10
4.7153367374
 20
5.6118686781
 11
4.734748692
 21
5.6128185247
  0
SPLINE
  5
4D4
100
AcDbEntity
  8
0
100
AcDbSpline
 62
7
  6
CONTINUOUS
 70
0
 71
3
 72
27
 73
23
 74
0
 42
0.0000001
 43
0.0000001
 44
0.0000000001
 40
0.0
 40
0.0
 40
0.0
 40
0.0
 40
0.0138308797
 40
0.0307268053
 40
0.0505889487
 40
0.0732837061
 40
0.1265950593
 40
0.1893160615
 40
0.259870394
 40
0.3364785
 40
0.4172069184
 40
0.5000230646
 40
0.5828383886
 40
0.663564359
 40
0.7401684634
 40
0.8107173277
 40
0.8734315158
 40
0.9267349306
 40
0.9494253679
 40
0.9692829595
 40
0.9861740915
 40
1.0
 40
1.0
 40
1.0
 40
1.0
 10
4.734748692
 20
5.6128185247
 30
0.0
 10
4.7398883427
 20
5.6130098673
 30
0.0
 10
4.7513087387
 20
5.6133781935
 30
0.0
 10
4.7701144341
 20
5.6138758916
 30
0.0
 10
4.7922173821
 20
5.6143685152
 30
0.0
 10
4.8278605901
 20
5.6150648226
 30
0.0
 10
4.8794410105
 20
5.6159344579
 30
0.0
 10
4.9488187011
 20
5.6169407299
 30
0.0
 10
5.0268608161
 20
5.6179153776
 30
0.0
 10
5.1115994688
 20
5.6189097214
 30
0.0
 10
5.2008980248
 20
5.6199157042
 30
0.0
 10
5.2925049641
 20
5.6209216637
 30
0.0
 10
5.384111206
 20
5.6219079943
 30
0.0
 10
5.4734071041
 20
5.6229101879
 30
0.0
 10
5.5581411772
 20
5.6239170749
 30
0.0
 10
5.6361772297
 20
5.624891878
 30
0.0
 10
5.7055474667
 20
5.6258934484
 30
0.0
 10
5.7571208107
 20
5.626762467
 30
0.0
 10
5.7927577036
 20
5.6274620375
 30
0.0
 10
5.8148555415
 20
5.6279557475
 30
0.0
 10
5.8336559739
 20
5.6284508166
 30
0.0
 10
5.8450728267
 20
5.6288164072
 30
0.0
 10
5.8502106562
 20
5.6290069775
 30
0.0
  0
SPLINE
  5
4D5
100
AcDbEntity
  8
0
100
AcDbSpline
 62
7
  6
CONTINUOUS
 70
0
 71
3
 72
12
 73
8
 74
0
 42
0.0000001
 43
0.0000001
 44
0.0000000001
 40
0.0
 40
0.0
 40
0.0
 40
0.0
 40
0.360510791
 40
0.6477846453
 40
0.8610540358
 40
0.9398289166
 40
1.0
 40
1.0
 40
1.0
 40
1.0
 10
5.8502106562
 20
5.6290069775
 30
0.0
 10
5.8531326791
 20
5.6291153601
 30
0.0
 10
5.8583826619
 20
5.6293250738
 30
0.0
 10
5.8653578241
 20
5.6296726864
 30
0.0
 10
5.8700473709
 20
5.6299765611
 30
0.0
 10
5.8728923648
 20
5.630236373
 30
0.0
 10
5.874011939
 20
5.6303682841
 30
0.0
 10
5.8744947968
 20
5.6304391883
 30
0.0
  0
LINE
  5
4D6
100
AcDbEntity
  8
0
100
AcDbLine
 62
7
  6
CONTINUOUS
 10
5.8749991487
 20
5.6305200784
 11
5.8761325268
 21
5.630921644
  0
SPLINE
  5
4D7
100
AcDbEntity
  8
0
100
AcDbSpline
 62
7
  6
CONTINUOUS
 70
0
 71
3
 72
13
 73
9
 74
0
 42
0.0000001
 43
0.0000001
 44
0.0000000001
 40
0.0
 40
0.0
 40
0.0
 40
0.0
 40
0.0464481413
 40
0.1147391003
 40
0.205488726
 40
0.3189289852
 40
0.6140338123
 40
1.0
 40
1.0
 40
1.0
 40
1.0
 10
4.7305489579
 20
5.6235383948
 30
0.0
 10
4.7306189893
 20
5.6235781689
 30
0.0
 10
4.7308072083
 20
5.6236475447
 30
0.0
 10
4.7311518925
 20
5.6237365891
 30
0.0
 10
4.7316161383
 20
5.6238266181
 30
0.0
 10
4.7324715505
 20
5.6239599113
 30
0.0
 10
4.7338405286
 20
5.6241183636
 30
0.0
 10
4.7350166471
 20
5.6242248703
 30
0.0
 10
4.7356835971
 20
5.6242801926
 30
0.0
  0
SPLINE
  5
4D8
100
AcDbEntity
  8
0
100
AcDbSpline
 62
7
  6
CONTINUOUS
 70
0
 71
3
 72
51
 73
47
 74
0
 42
0.0000001
 43
0.0000001
 44
0.0000000001
 40
0.0
 40
0.0
 40
0.0
 40
0.0
 40
0.0037761526
 40
0.0086358696
 40
0.0215643897
 40
0.0386760476
 40
0.0598230655
 40
0.0848430227
 40
0.1135047218
 40
0.1455502991
 40
0.1806975253
 40
0.2590190722
 40
0.3457313213
 40
0.4377990123
 40
0.5319664492
 40
0.5788024733
 40
0.6249231642
 40
0.6699217738
 40
0.7133965583
 40
0.754973245
 40
0.7942879744
 40
0.83099219
 40
0.8647591621
 40
0.895273447
 40
0.9092299314
 40
0.9222809943
 40
0.9343979226
 40
0.9455524362
 40
0.9557210901
 40
0.9648835251
 40
0.9730194616
 40
0.9801086705
 40
0.9861316365
 40
0.9887391937
 40
0.991076217
 40
0.9931418258
 40
0.9949351885
 40
0.9964555581
 40
0.9977023471
 40
0.9986753085
 40
0.9990592786
 40
0.9993751997
 40
0.9996236654
 40
0.9998060808
 40
0.9999264899
 40
1.0
 40
1.0
 40
1.0
 40
1.0
 10
4.7356835971
 20
5.6242801926
 30
0.0
 10
4.7370874475
 20
5.6243966393
 30
0.0
 10
4.7403018589
 20
5.6246153659
 30
0.0
 10
4.7483348423
 20
5.6250466897
 30
0.0
 10
4.7613446793
 20
5.6255546751
 30
0.0
 10
4.7804309258
 20
5.6261358094
 30
0.0
 10
4.8040295281
 20
5.6267209358
 30
0.0
 10
4.8319377438
 20
5.6273096521
 30
0.0
 10
4.863912363
 20
5.6279004065
 30
0.0
 10
4.8996654333
 20
5.6284927385
 30
0.0
 10
4.9539425203
 20
5.6293135841
 30
0.0
 10
5.0286121641
 20
5.630318385
 30
0.0
 10
5.1245152261
 20
5.6314899431
 30
0.0
 10
5.2263298899
 20
5.6326637455
 30
0.0
 10
5.3132701884
 20
5.6336446739
 30
0.0
 10
5.3830712336
 20
5.6344397012
 30
0.0
 10
5.4345312217
 20
5.6350347972
 30
0.0
 10
5.4847372358
 20
5.6356297073
 30
0.0
 10
5.5332480135
 20
5.6362246124
 30
0.0
 10
5.5796382912
 20
5.6368192145
 30
0.0
 10
5.6235026362
 20
5.63741337
 30
0.0
 10
5.6644533381
 20
5.6380069558
 30
0.0
 10
5.7021207288
 20
5.6385995736
 30
0.0
 10
5.7313024767
 20
5.6391066833
 30
0.0
 10
5.7527567543
 20
5.6395163602
 30
0.0
 10
5.7673488761
 20
5.6398142522
 30
0.0
 10
5.7808955105
 20
5.6401119419
 30
0.0
 10
5.7933666033
 20
5.640409465
 30
0.0
 10
5.8047352061
 20
5.6407067229
 30
0.0
 10
5.8149773352
 20
5.6410035636
 30
0.0
 10
5.8240701836
 20
5.6412997689
 30
0.0
 10
5.8319911935
 20
5.6415951535
 30
0.0
 10
5.8378498357
 20
5.6418509751
 30
0.0
 10
5.8419359246
 20
5.6420593298
 30
0.0
 10
5.8445468352
 20
5.6422077882
 30
0.0
 10
5.8468534902
 20
5.642355942
 30
0.0
 10
5.8488548079
 20
5.6425037106
 30
0.0
 10
5.8505497969
 20
5.6426507653
 30
0.0
 10
5.8519374138
 20
5.6427969605
 30
0.0
 10
5.852900504
 20
5.6429251328
 30
0.0
 10
5.8535154937
 20
5.6430316991
 30
0.0
 10
5.8538616318
 20
5.6431052809
 30
0.0
 10
5.854131125
 20
5.6431766449
 30
0.0
 10
5.8543238991
 20
5.6432503754
 30
0.0
 10
5.8544477938
 20
5.6433161012
 30
0.0
 10
5.8544914769
 20
5.6433852643
 30
0.0
 10
5.8544898445
 20
5.6434126382
 30
0.0
  0
SPLINE
  5
4D9
100
AcDbEntity
  8
0
100
AcDbSpline
 62
7
  6
CONTINUOUS
 70
0
 71
3
 72
12
 73
8
 74
0
 42
0.0000001
 43
0.0000001
 44
0.0000000001
 40
0.0
 40
0.0
 40
0.0
 40
0.0
 40
0.0490661861
 40
0.1192602256
 40
0.3248458972
 40
0.6183461563
 40
1.0
 40
1.0
 40
1.0
 40
1.0
 10
5.8543756459
 20
5.6435366482
 30
0.0
 10
5.8543125119
 20
5.643572087
 30
0.0
 10
5.8541469642
 20
5.6436353161
 30
0.0
 10
5.8536843172
 20
5.6437601058
 30
0.0
 10
5.8528547338
 20
5.6439020399
 30
0.0
 10
5.8515658409
 20
5.6440655301
 30
0.0
 10
5.8505740324
 20
5.6441622987
 30
0.0
 10
5.8500131478
 20
5.6442128121
 30
0.0
  0
SPLINE
  5
4DA
100
AcDbEntity
  8
0
100
AcDbSpline
 62
7
  6
CONTINUOUS
 70
0
 71
3
 72
14
 73
10
 74
0
 42
0.0000001
 43
0.0000001
 44
0.0000000001
 40
0.0
 40
0.0
 40
0.0
 40
0.0
 40
0.0427544875
 40
0.1084925983
 40
0.1977481169
 40
0.3106937094
 40
0.4473890102
 40
0.6078473652
 40
1.0
 40
1.0
 40
1.0
 40
1.0
 10
5.8760298089
 20
5.5457971473
 30
0.0
 10
5.8759495039
 20
5.5457509997
 30
0.0
 10
5.8757249169
 20
5.5456738091
 30
0.0
 10
5.8753090231
 20
5.5455742354
 30
0.0
 10
5.8747367508
 20
5.5454732528
 30
0.0
 10
5.8740099481
 20
5.5453702913
 30
0.0
 10
5.8731274925
 20
5.5452665297
 30
0.0
 10
5.8716417141
 20
5.5451170729
 30
0.0
 10
5.8704483295
 20
5.5450207373
 30
0.0
 10
5.8696011319
 20
5.5449578283
 30
0.0
  0
LINE
  5
4DB
100
AcDbEntity
  8
0
100
AcDbLine
 62
7
  6
CONTINUOUS
 10
5.8696011319
 20
5.5449578283
 11
5.850189068
 21
5.5440001162
  0
SPLINE
  5
4DC
100
AcDbEntity
  8
0
100
AcDbSpline
 62
7
  6
CONTINUOUS
 70
0
 71
3
 72
26
 73
22
 74
0
 42
0.0000001
 43
0.0000001
 44
0.0000000001
 40
0.0
 40
0.0
 40
0.0
 40
0.0
 40
0.0138307112
 40
0.0307265825
 40
0.0732837081
 40
0.1265950484
 40
0.1893159694
 40
0.2598703799
 40
0.3364785192
 40
0.4172069294
 40
0.5000230741
 40
0.5828383922
 40
0.6635643376
 40
0.7401684129
 40
0.8107172949
 40
0.8734314004
 40
0.9267347079
 40
0.9494251773
 40
0.9692828443
 40
0.9861740564
 40
1.0
 40
1.0
 40
1.0
 40
1.0
 10
5.850189068
 20
5.5440001162
 30
0.0
 10
5.8450493965
 20
5.5438110347
 30
0.0
 10
5.833628871
 20
5.5434493711
 30
0.0
 10
5.8063866173
 20
5.5427339284
 30
0.0
 10
5.764462327
 20
5.5418639509
 30
0.0
 10
5.7054966445
 20
5.5408856959
 30
0.0
 10
5.6361185917
 20
5.539905399
 30
0.0
 10
5.5580768379
 20
5.538903254
 30
0.0
 10
5.4733383056
 20
5.5378945652
 30
0.0
 10
5.3840395859
 20
5.5369025347
 30
0.0
 10
5.2924323642
 20
5.5359234058
 30
0.0
 10
5.2008265128
 20
5.5349026006
 30
0.0
 10
5.1115306252
 20
5.5339024963
 30
0.0
 10
5.0267962732
 20
5.5329198967
 30
0.0
 10
4.9487606098
 20
5.5319170928
 30
0.0
 10
4.8793903072
 20
5.5309267901
 30
0.0
 10
4.8278167505
 20
5.5300727849
 30
0.0
 10
4.7921799884
 20
5.5293662333
 30
0.0
 10
4.7700822341
 20
5.5288657315
 30
0.0
 10
4.7512818675
 20
5.5283655563
 30
0.0
 10
4.7398650313
 20
5.5279983461
 30
0.0
 10
4.7347271884
 20
5.5278077859
 30
0.0
  0
SPLINE
  5
4DD
100
AcDbEntity
  8
0
100
AcDbSpline
 62
7
  6
CONTINUOUS
 70
0
 71
3
 72
12
 73
8
 74
0
 42
0.0000001
 43
0.0000001
 44
0.0000000001
 40
0.0
 40
0.0
 40
0.0
 40
0.0
 40
0.3605269643
 40
0.6478085741
 40
0.8610745895
 40
0.9398419995
 40
1.0
 40
1.0
 40
1.0
 40
1.0
 10
4.7347271884
 20
5.5278077859
 30
0.0
 10
4.731805183
 20
5.52769941
 30
0.0
 10
4.7265552628
 20
5.5274901244
 30
0.0
 10
4.7195801498
 20
5.5271453838
 30
0.0
 10
4.7148906352
 20
5.5268456147
 30
0.0
 10
4.7120455977
 20
5.526590099
 30
0.0
 10
4.7109259898
 20
5.5264605306
 30
0.0
 10
4.7104430771
 20
5.5263909141
 30
0.0
  0
LINE
  5
4DE
100
AcDbEntity
  8
0
100
AcDbLine
 62
7
  6
CONTINUOUS
 10
4.7098930283
 20
5.5263035088
 11
4.7088053614
 21
5.5259174821
  0
SPLINE
  5
4DF
100
AcDbEntity
  8
0
100
AcDbSpline
 62
7
  6
CONTINUOUS
 70
0
 71
3
 72
14
 73
10
 74
0
 42
0.0000001
 43
0.0000001
 44
0.0000000001
 40
0.0
 40
0.0
 40
0.0
 40
0.0
 40
0.0426515151
 40
0.1082989636
 40
0.1974930734
 40
0.3104122945
 40
0.4471188297
 40
0.6076273506
 40
1.0
 40
1.0
 40
1.0
 40
1.0
 10
4.7089070284
 20
5.6510417334
 30
0.0
 10
4.7089870121
 20
5.6510879696
 30
0.0
 10
4.7092112951
 20
5.6511648961
 30
0.0
 10
4.7096267486
 20
5.6512635839
 30
0.0
 10
4.7101988205
 20
5.6513631762
 30
0.0
 10
4.7109256128
 20
5.6514643432
 30
0.0
 10
4.7118082858
 20
5.6515659905
 30
0.0
 10
4.7132948268
 20
5.6517121155
 30
0.0
 10
4.7144888374
 20
5.6518061138
 30
0.0
 10
4.7153365193
 20
5.6518675479
 30
0.0
  0
LINE
  5
4E0
100
AcDbEntity
  8
0
100
AcDbLine
 62
7
  6
CONTINUOUS
 10
4.7153365193
 20
5.6518675479
 11
4.7347481245
 21
5.6528151707
  0
SPLINE
  5
4E1
100
AcDbEntity
  8
0
100
AcDbSpline
 62
7
  6
CONTINUOUS
 70
0
 71
3
 72
26
 73
22
 74
0
 42
0.0000001
 43
0.0000001
 44
0.0000000001
 40
0.0
 40
0.0
 40
0.0
 40
0.0
 40
0.0138306836
 40
0.0307265
 40
0.0505886143
 40
0.0732833271
 40
0.1265943596
 40
0.1893150591
 40
0.2598692649
 40
0.3364772323
 40
0.4172055412
 40
0.5000216424
 40
0.582836974
 40
0.6635629929
 40
0.740167225
 40
0.8107163183
 40
0.8734306238
 40
0.9267342374
 40
0.9692827527
 40
0.9861740326
 40
1.0
 40
1.0
 40
1.0
 40
1.0
 10
4.7347481245
 20
5.6528151707
 30
0.0
 10
4.7398877426
 20
5.6530053955
 30
0.0
 10
4.7513080837
 20
5.6533716531
 30
0.0
 10
4.7701135908
 20
5.653871215
 30
0.0
 10
4.7922162645
 20
5.65437262
 30
0.0
 10
4.8278590955
 20
5.6550807472
 30
0.0
 10
4.8794395912
 20
5.6559323226
 30
0.0
 10
4.9488172263
 20
5.6569194787
 30
0.0
 10
5.0268587062
 20
5.6579259568
 30
0.0
 10
5.1115973346
 20
5.6589098401
 30
0.0
 10
5.2008958328
 20
5.6599090171
 30
0.0
 10
5.2925025482
 20
5.6609285556
 30
0.0
 10
5.3841088127
 20
5.661911318
 30
0.0
 10
5.4734048777
 20
5.6629025966
 30
0.0
 10
5.558139108
 20
5.6639085376
 30
0.0
 10
5.6361749061
 20
5.6649146092
 30
0.0
 10
5.7055456719
 20
5.665891856
 30
0.0
 10
5.7645028693
 20
5.6668667992
 30
0.0
 10
5.8064193091
 20
5.6677396699
 30
0.0
 10
5.8336548734
 20
5.6684553427
 30
0.0
 10
5.845071932
 20
5.6688167416
 30
0.0
 10
5.8502098393
 20
5.6690057683
 30
0.0
  0
SPLINE
  5
4E2
100
AcDbEntity
  8
0
100
AcDbSpline
 62
7
  6
CONTINUOUS
 70
0
 71
3
 72
12
 73
8
 74
0
 42
0.0000001
 43
0.0000001
 44
0.0000000001
 40
0.0
 40
0.0
 40
0.0
 40
0.0
 40
0.360498868
 40
0.6477710046
 40
0.8610487736
 40
0.9398282912
 40
1.0
 40
1.0
 40
1.0
 40
1.0
 10
5.8502098393
 20
5.6690057683
 30
0.0
 10
5.8531319594
 20
5.6691132748
 30
0.0
 10
5.8583821849
 20
5.6693214965
 30
0.0
 10
5.8653576017
 20
5.6696714391
 30
0.0
 10
5.8700471854
 20
5.6699802178
 30
0.0
 10
5.8728922006
 20
5.6702427633
 30
0.0
 10
5.8740117988
 20
5.6703752057
 30
0.0
 10
5.8744947156
 20
5.670445928
 30
0.0
  0
LINE
  5
4E3
100
AcDbEntity
  8
0
100
AcDbLine
 62
7
  6
CONTINUOUS
 10
5.8749926462
 20
5.6705252736
 11
5.8761325268
 21
5.6709183326
  0
SPLINE
  5
4E4
100
AcDbEntity
  8
0
100
AcDbSpline
 62
7
  6
CONTINUOUS
 70
0
 71
3
 72
13
 73
9
 74
0
 42
0.0000001
 43
0.0000001
 44
0.0000000001
 40
0.0
 40
0.0
 40
0.0
 40
0.0
 40
0.0486221119
 40
0.1183962611
 40
0.2099398833
 40
0.323513147
 40
0.6172010848
 40
1.0
 40
1.0
 40
1.0
 40
1.0
 10
4.7305706209
 20
5.6635331161
 30
0.0
 10
4.7306304329
 20
5.6635681308
 30
0.0
 10
4.7307886244
 20
5.6636305477
 30
0.0
 10
4.7310767416
 20
5.6637108579
 30
0.0
 10
4.7314604152
 20
5.6637920606
 30
0.0
 10
4.7321612958
 20
5.6639118053
 30
0.0
 10
4.7332788324
 20
5.6640545037
 30
0.0
 10
4.7342383419
 20
5.6641504558
 30
0.0
 10
4.7347817181
 20
5.664200242
 30
0.0
  0
SPLINE
  5
4E5
100
AcDbEntity
  8
0
100
AcDbSpline
 62
7
  6
CONTINUOUS
 70
0
 71
3
 72
51
 73
47
 74
0
 42
0.0000001
 43
0.0000001
 44
0.0000000001
 40
0.0
 40
0.0
 40
0.0
 40
0.0
 40
0.0034873557
 40
0.0080698965
 40
0.0137374361
 40
0.0204793143
 40
0.0371400055
 40
0.0579052165
 40
0.0825713043
 40
0.1109216672
 40
0.1426992575
 40
0.1776355268
 40
0.2154246157
 40
0.2557221396
 40
0.3423989066
 40
0.4345819745
 40
0.529010911
 40
0.5760248897
 40
0.6223454768
 40
0.6675630523
 40
0.7112779431
 40
0.7530975632
 40
0.7926539396
 40
0.8295865035
 40
0.8635712169
 40
0.894318943
 40
0.908390091
 40
0.9215512348
 40
0.9337739643
 40
0.94502988
 40
0.9552905961
 40
0.9645293574
 40
0.9727285629
 40
0.9798738717
 40
0.985951031
 40
0.9885846496
 40
0.9909459698
 40
0.9930333637
 40
0.9948460691
 40
0.9963838979
 40
0.9976468235
 40
0.9986351461
 40
0.9993499967
 40
0.9997953759
 40
0.9999226405
 40
1.0
 40
1.0
 40
1.0
 40
1.0
 10
4.7347817181
 20
5.664200242
 30
0.0
 10
4.7360782528
 20
5.6643190354
 30
0.0
 10
4.739083376
 20
5.6645393125
 30
0.0
 10
4.7442038014
 20
5.6648316129
 30
0.0
 10
4.7505408329
 20
5.6651261162
 30
0.0
 10
4.7613855355
 20
5.6655517272
 30
0.0
 10
4.7778673412
 20
5.666064345
 30
0.0
 10
4.8010412988
 20
5.6666516648
 30
0.0
 10
4.8285805903
 20
5.667242296
 30
0.0
 10
4.8602319724
 20
5.6678352946
 30
0.0
 10
4.8957181815
 20
5.6684299133
 30
0.0
 10
4.9347286642
 20
5.6690253119
 30
0.0
 10
4.9769203009
 20
5.6696212574
 30
0.0
 10
5.0384274819
 20
5.6704365678
 30
0.0
 10
5.1202413257
 20
5.6714388996
 30
0.0
 10
5.2222638498
 20
5.6726173806
 30
0.0
 10
5.309479966
 20
5.6736014317
 30
0.0
 10
5.3795748456
 20
5.6743991946
 30
0.0
 10
5.4312982993
 20
5.6749966531
 30
0.0
 10
5.4817899927
 20
5.6755940129
 30
0.0
 10
5.5306011827
 20
5.6761910834
 30
0.0
 10
5.5772986662
 20
5.676787903
 30
0.0
 10
5.6214638335
 20
5.677384189
 30
0.0
 10
5.6627036491
 20
5.6779800854
 30
0.0
 10
5.7006544903
 20
5.6785754741
 30
0.0
 10
5.7300705536
 20
5.6790843825
 30
0.0
 10
5.7517128483
 20
5.6794956004
 30
0.0
 10
5.7664399107
 20
5.6797946862
 30
0.0
 10
5.7801157102
 20
5.6800935569
 30
0.0
 10
5.7927083947
 20
5.6803921738
 30
0.0
 10
5.804186717
 20
5.680690443
 30
0.0
 10
5.814523435
 20
5.6809884335
 30
0.0
 10
5.8236965349
 20
5.6812858527
 30
0.0
 10
5.8316886066
 20
5.6815825161
 30
0.0
 10
5.837602797
 20
5.6818392973
 30
0.0
 10
5.8417311709
 20
5.6820483782
 30
0.0
 10
5.8443710911
 20
5.6821974036
 30
0.0
 10
5.8467040278
 20
5.6823461635
 30
0.0
 10
5.8487287762
 20
5.6824945385
 30
0.0
 10
5.8504450253
 20
5.6826423018
 30
0.0
 10
5.851851694
 20
5.682788998
 30
0.0
 10
5.8529508353
 20
5.6829339185
 30
0.0
 10
5.853738418
 20
5.683074854
 30
0.0
 10
5.8542078499
 20
5.6832014312
 30
0.0
 10
5.8544227506
 20
5.6833109207
 30
0.0
 10
5.8544749056
 20
5.6833782235
 30
0.0
 10
5.8544765919
 20
5.6834070555
 30
0.0
  0
SPLINE
  5
4E6
100
AcDbEntity
  8
0
100
AcDbSpline
 62
7
  6
CONTINUOUS
 70
0
 71
3
 72
13
 73
9
 74
0
 42
0.0000001
 43
0.0000001
 44
0.0000000001
 40
0.0
 40
0.0
 40
0.0
 40
0.0
 40
0.0468448803
 40
0.1153510172
 40
0.2061828431
 40
0.3195896373
 40
0.6144090996
 40
1.0
 40
1.0
 40
1.0
 40
1.0
 10
5.8543761661
 20
5.6835317869
 30
0.0
 10
5.854313553
 20
5.683569299
 30
0.0
 10
5.8541446464
 20
5.6836352225
 30
0.0
 10
5.8538349825
 20
5.6837197452
 30
0.0
 10
5.8534182796
 20
5.6838052287
 30
0.0
 10
5.8526510381
 20
5.6839316896
 30
0.0
 10
5.8514228677
 20
5.6840820826
 30
0.0
 10
5.8503675294
 20
5.6841831207
 30
0.0
 10
5.8497690275
 20
5.6842355953
 30
0.0
  0
SPLINE
  5
4E7
100
AcDbEntity
  8
0
100
AcDbSpline
 62
7
  6
CONTINUOUS
 70
0
 71
3
 72
14
 73
10
 74
0
 42
0.0000001
 43
0.0000001
 44
0.0000000001
 40
0.0
 40
0.0
 40
0.0
 40
0.0
 40
0.0425580408
 40
0.1081567848
 40
0.1973301181
 40
0.3102496879
 40
0.4469743146
 40
0.607516739
 40
1.0
 40
1.0
 40
1.0
 40
1.0
 10
4.7089063287
 20
5.6910258236
 30
0.0
 10
4.7089862321
 20
5.691071855
 30
0.0
 10
4.709210257
 20
5.6911486832
 30
0.0
 10
4.7096253833
 20
5.6912478611
 30
0.0
 10
4.7101973089
 20
5.6913484855
 30
0.0
 10
4.7109241313
 20
5.6914511602
 30
0.0
 10
4.7118069966
 20
5.6915546789
 30
0.0
 10
4.7132940849
 20
5.6917038712
 30
0.0
 10
4.7144886358
 20
5.691800068
 30
0.0
 10
4.7153367377
 20
5.6918629
 30
0.0
  0
LINE
  5
4E8
100
AcDbEntity
  8
0
100
AcDbLine
 62
7
  6
CONTINUOUS
 10
4.7153367377
 20
5.6918629
 11
4.7347487262
 21
5.6928191105
  0
SPLINE
  5
4E9
100
AcDbEntity
  8
0
100
AcDbSpline
 62
7
  6
CONTINUOUS
 70
0
 71
3
 72
24
 73
20
 74
0
 42
0.0000001
 43
0.0000001
 44
0.0000000001
 40
0.0
 40
0.0
 40
0.0
 40
0.0
 40
0.0138306879
 40
0.0307265565
 40
0.0732836894
 40
0.1265949586
 40
0.1893158117
 40
0.259870197
 40
0.3364783026
 40
0.5000228187
 40
0.5828381376
 40
0.663564094
 40
0.7401682038
 40
0.8107171476
 40
0.8734312802
 40
0.9267346586
 40
0.9692829028
 40
0.9861740963
 40
1.0
 40
1.0
 40
1.0
 40
1.0
 10
4.7347487262
 20
5.6928191105
 30
0.0
 10
4.7398883937
 20
5.6930080334
 30
0.0
 10
4.7513089054
 20
5.6933696877
 30
0.0
 10
4.7785510948
 20
5.6940869559
 30
0.0
 10
4.8204752301
 20
5.6949630101
 30
0.0
 10
4.879440959
 20
5.695935553
 30
0.0
 10
4.9488189903
 20
5.6969112108
 30
0.0
 10
5.0268605647
 20
5.6979223778
 30
0.0
 10
5.1423933297
 20
5.6992896982
 30
0.0
 10
5.262486752
 20
5.700570266
 30
0.0
 10
5.3841108082
 20
5.7019174545
 30
0.0
 10
5.473406732
 20
5.7029140211
 30
0.0
 10
5.5581410803
 20
5.7038993407
 30
0.0
 10
5.6361766425
 20
5.7049111953
 30
0.0
 10
5.7055471337
 20
5.7058929826
 30
0.0
 10
5.7645040742
 20
5.7068673884
 30
0.0
 10
5.8064203732
 20
5.7077368785
 30
0.0
 10
5.8336556955
 20
5.7084560238
 30
0.0
 10
5.8450726178
 20
5.7088199389
 30
0.0
 10
5.8502104677
 20
5.7090098753
 30
0.0
  0
SPLINE
  5
4EA
100
AcDbEntity
  8
0
100
AcDbSpline
 62
7
  6
CONTINUOUS
 70
0
 71
3
 72
12
 73
8
 74
0
 42
0.0000001
 43
0.0000001
 44
0.0000000001
 40
0.0
 40
0.0
 40
0.0
 40
0.0
 40
0.3605036831
 40
0.647776697
 40
0.8610513685
 40
0.9398289772
 40
1.0
 40
1.0
 40
1.0
 40
1.0
 10
5.8502104677
 20
5.7090098753
 30
0.0
 10
5.8531325188
 20
5.7091178979
 30
0.0
 10
5.8583825951
 20
5.7093269674
 30
0.0
 10
5.8653578363
 20
5.7096763867
 30
0.0
 10
5.8700473464
 20
5.7099835447
 30
0.0
 10
5.8728923163
 20
5.7102451178
 30
0.0
 10
5.8740118904
 20
5.7103773439
 30
0.0
 10
5.8744947806
 20
5.7104481071
 30
0.0
  0
LINE
  5
4EB
100
AcDbEntity
  8
0
100
AcDbLine
 62
7
  6
CONTINUOUS
 10
5.8749934878
 20
5.7105277062
 11
5.8761325268
 21
5.7109238014
  0
SPLINE
  5
4EC
100
AcDbEntity
  8
0
100
AcDbSpline
 62
7
  6
CONTINUOUS
 70
0
 71
3
 72
15
 73
11
 74
0
 42
0.0000001
 43
0.0000001
 44
0.0000000001
 40
0.0
 40
0.0
 40
0.0
 40
0.0
 40
0.0157211353
 40
0.0374184199
 40
0.0993415989
 40
0.1863492549
 40
0.2985795962
 40
0.4360696447
 40
0.598817971
 40
1.0
 40
1.0
 40
1.0
 40
1.0
 10
4.7305473996
 20
5.7035323987
 30
0.0
 10
4.7305963137
 20
5.7035611312
 30
0.0
 10
4.7307215219
 20
5.7036138535
 30
0.0
 10
4.7310646779
 20
5.7037175997
 30
0.0
 10
4.7316699425
 20
5.7038369852
 30
0.0
 10
4.7326021732
 20
5.7039737218
 30
0.0
 10
4.7338097061
 20
5.7041113233
 30
0.0
 10
4.7352915629
 20
5.704250414
 30
0.0
 10
4.7378147348
 20
5.7044507586
 30
0.0
 10
4.7398457305
 20
5.7045787494
 30
0.0
 10
4.7412909488
 20
5.7046624108
 30
0.0
  0
SPLINE
  5
4ED
100
AcDbEntity
  8
0
100
AcDbSpline
 62
7
  6
CONTINUOUS
 70
0
 71
3
 72
50
 73
46
 74
0
 42
0.0000001
 43
0.0000001
 44
0.0000000001
 40
0.0
 40
0.0
 40
0.0
 40
0.0
 40
0.0050750107
 40
0.0111866709
 40
0.0264561282
 40
0.0456788643
 40
0.0686965147
 40
0.095319543
 40
0.1253438023
 40
0.1945010881
 40
0.2737896723
 40
0.3605524816
 40
0.451860865
 40
0.5446263327
 40
0.5905742127
 40
0.6357126591
 40
0.6796576873
 40
0.7220430439
 40
0.7625073571
 40
0.8007112652
 40
0.8363369166
 40
0.8690750507
 40
0.8986515814
 40
0.9121717519
 40
0.9248035742
 40
0.9365228325
 40
0.9473088075
 40
0.9571408106
 40
0.9659981734
 40
0.9738607047
 40
0.9807127267
 40
0.9865412167
 40
0.9890676261
 40
0.991333364
 40
0.9933368829
 40
0.9950766845
 40
0.9965513616
 40
0.9977602208
 40
0.9987039611
 40
0.999076914
 40
0.9993843816
 40
0.9996270675
 40
0.9998064281
 40
0.9999262333
 40
1.0
 40
1.0
 40
1.0
 40
1.0
 10
4.7412909488
 20
5.7046624108
 30
0.0
 10
4.7431714951
 20
5.7047712727
 30
0.0
 10
4.7473184063
 20
5.704981972
 30
0.0
 10
4.7571293711
 20
5.7053982927
 30
0.0
 10
4.7721922732
 20
5.7058987635
 30
0.0
 10
4.7935305912
 20
5.7064716666
 30
0.0
 10
4.8190842453
 20
5.7070474861
 30
0.0
 10
4.8486478842
 20
5.7076263105
 30
0.0
 10
4.8953358118
 20
5.7084380204
 30
0.0
 10
4.9615713731
 20
5.7094265424
 30
0.0
 10
5.0488664062
 20
5.7105725803
 30
0.0
 10
5.1443838801
 20
5.7117216875
 30
0.0
 10
5.2449038811
 20
5.7128731642
 30
0.0
 10
5.3302757447
 20
5.7138361976
 30
0.0
 10
5.3985116591
 20
5.7146163265
 30
0.0
 10
5.4486279311
 20
5.7151994424
 30
0.0
 10
5.4974218089
 20
5.7157824715
 30
0.0
 10
5.5444806619
 20
5.716365233
 30
0.0
 10
5.5894084125
 20
5.71694782
 30
0.0
 10
5.6318269418
 20
5.7175301238
 30
0.0
 10
5.6713774651
 20
5.7181117111
 30
0.0
 10
5.7077253958
 20
5.7186926772
 30
0.0
 10
5.7358686912
 20
5.7191894409
 30
0.0
 10
5.7565495895
 20
5.719590796
 30
0.0
 10
5.7706032574
 20
5.7198826812
 30
0.0
 10
5.7836418412
 20
5.7201744227
 30
0.0
 10
5.7956409394
 20
5.7204659404
 30
0.0
 10
5.806577454
 20
5.7207571548
 30
0.0
 10
5.8164284616
 20
5.7210479557
 30
0.0
 10
5.8251728739
 20
5.721338224
 30
0.0
 10
5.8327923774
 20
5.7216278064
 30
0.0
 10
5.8384312405
 20
5.7218784468
 30
0.0
 10
5.8423680417
 20
5.7220825019
 30
0.0
 10
5.8448862128
 20
5.7222279587
 30
0.0
 10
5.8471118985
 20
5.7223731109
 30
0.0
 10
5.8490432807
 20
5.7225178743
 30
0.0
 10
5.850678843
 20
5.72266194
 30
0.0
 10
5.8520175964
 20
5.7228052359
 30
0.0
 10
5.8529468422
 20
5.7229308616
 30
0.0
 10
5.8535406563
 20
5.7230352873
 30
0.0
 10
5.8538757496
 20
5.7231073691
 30
0.0
 10
5.8541373743
 20
5.7231775288
 30
0.0
 10
5.8543260846
 20
5.7232495802
 30
0.0
 10
5.8544477387
 20
5.7233146848
 30
0.0
 10
5.8544931649
 20
5.7233810308
 30
0.0
 10
5.8544931982
 20
5.7234084108
 30
0.0
  0
SPLINE
  5
4EE
100
AcDbEntity
  8
0
100
AcDbSpline
 62
7
  6
CONTINUOUS
 70
0
 71
3
 72
14
 73
10
 74
0
 42
0.0000001
 43
0.0000001
 44
0.0000000001
 40
0.0
 40
0.0
 40
0.0
 40
0.0
 40
0.0424531349
 40
0.1079681408
 40
0.1970878881
 40
0.309986817
 40
0.4467249017
 40
0.6073154362
 40
1.0
 40
1.0
 40
1.0
 40
1.0
 10
5.8760325376
 20
5.5857840829
 30
0.0
 10
5.8759529024
 20
5.5857380488
 30
0.0
 10
5.8757291765
 20
5.5856614928
 30
0.0
 10
5.8753144789
 20
5.5855629489
 30
0.0
 10
5.8747427524
 20
5.5854632316
 30
0.0
 10
5.8740159404
 20
5.5853616698
 30
0.0
 10
5.8731328708
 20
5.5852594279
 30
0.0
 10
5.871645074
 20
5.585112205
 30
0.0
 10
5.8704499221
 20
5.5850173627
 30
0.0
 10
5.8696013539
 20
5.5849553779
 30
0.0
  0
LINE
  5
4EF
100
AcDbEntity
  8
0
100
AcDbLine
 62
7
  6
CONTINUOUS
 10
5.8696013539
 20
5.5849553779
 11
5.850189684
 21
5.5840046321
  0
SPLINE
  5
4F0
100
AcDbEntity
  8
0
100
AcDbSpline
 62
7
  6
CONTINUOUS
 70
0
 71
3
 72
25
 73
21
 74
0
 42
0.0000001
 43
0.0000001
 44
0.0000000001
 40
0.0
 40
0.0
 40
0.0
 40
0.0
 40
0.0138306601
 40
0.0307264841
 40
0.0732833934
 40
0.1265944839
 40
0.1893152283
 40
0.2598695249
 40
0.3364775674
 40
0.4172059341
 40
0.5000220836
 40
0.5828374461
 40
0.6635634703
 40
0.7401676834
 40
0.8107167462
 40
0.8734309649
 40
0.9267344542
 40
0.9692828741
 40
0.9861741043
 40
1.0
 40
1.0
 40
1.0
 40
1.0
 10
5.850189684
 20
5.5840046321
 30
0.0
 10
5.8450500543
 20
5.5838149227
 30
0.0
 10
5.833629663
 20
5.5834503006
 30
0.0
 10
5.8063876783
 20
5.5827287709
 30
0.0
 10
5.7644635674
 20
5.5818582723
 30
0.0
 10
5.7054980062
 20
5.5808870014
 30
0.0
 10
5.6361201418
 20
5.5799078975
 30
0.0
 10
5.5580786751
 20
5.5788937798
 30
0.0
 10
5.4733399713
 20
5.5779067808
 30
0.0
 10
5.3840413364
 20
5.5769117953
 30
0.0
 10
5.2924344678
 20
5.5758994129
 30
0.0
 10
5.2008282466
 20
5.5749075679
 30
0.0
 10
5.1115321517
 20
5.5739165484
 30
0.0
 10
5.0267978438
 20
5.5729164577
 30
0.0
 10
4.9487621778
 20
5.5719023789
 30
0.0
 10
4.8793914525
 20
5.5709279223
 30
0.0
 10
4.8204342687
 20
5.5699576539
 30
0.0
 10
4.7785179836
 20
5.5690813417
 30
0.0
 10
4.7512825463
 20
5.56836366
 30
0.0
 10
4.7398655447
 20
5.5680018694
 30
0.0
 10
4.7347276591
 20
5.5678129409
 30
0.0
  0
SPLINE
  5
4F1
100
AcDbEntity
  8
0
100
AcDbSpline
 62
7
  6
CONTINUOUS
 70
0
 71
3
 72
12
 73
8
 74
0
 42
0.0000001
 43
0.0000001
 44
0.0000000001
 40
0.0
 40
0.0
 40
0.0
 40
0.0
 40
0.3605045025
 40
0.6477788698
 40
0.8610548732
 40
0.939831905
 40
1.0
 40
1.0
 40
1.0
 40
1.0
 10
4.7347276591
 20
5.5678129409
 30
0.0
 10
4.731805583
 20
5.5677054914
 30
0.0
 10
4.7265554507
 20
5.5674975212
 30
0.0
 10
4.7195801437
 20
5.567148843
 30
0.0
 10
4.714890625
 20
5.5668416989
 30
0.0
 10
4.7120456357
 20
5.566580562
 30
0.0
 10
4.7109260459
 20
5.566448788
 30
0.0
 10
4.7104431271
 20
5.5663783884
 30
0.0
  0
LINE
  5
4F2
100
AcDbEntity
  8
0
100
AcDbLine
 62
7
  6
CONTINUOUS
 10
4.7099291125
 20
5.566296581
 11
4.7088053614
 21
5.5659074579
  0
SPLINE
  5
4F3
100
AcDbEntity
  8
0
100
AcDbSpline
 62
7
  6
CONTINUOUS
 70
0
 71
3
 72
38
 73
34
 74
0
 42
0.0000001
 43
0.0000001
 44
0.0000000001
 40
0.0
 40
0.0
 40
0.0
 40
0.0
 40
0.1017222423
 40
0.2015737611
 40
0.2985813998
 40
0.3918929943
 40
0.4808082348
 40
0.5646385952
 40
0.6427112798
 40
0.7143607731
 40
0.7789765505
 40
0.8084946999
 40
0.8360755209
 40
0.8616609287
 40
0.8851978036
 40
0.9066444453
 40
0.9259607971
 40
0.9431068727
 40
0.9580428003
 40
0.9707313915
 40
0.9762258196
 40
0.981151077
 40
0.985505309
 40
0.9892867719
 40
0.9924939143
 40
0.9951255457
 40
0.997181246
 40
0.9979935576
 40
0.9986628538
 40
0.9991904779
 40
0.9995795402
 40
0.9998387469
 40
1.0
 40
1.0
 40
1.0
 40
1.0
 10
5.3656296469
 20
6.034237542
 30
0.0
 10
5.3822124624
 20
6.0344270006
 30
0.0
 10
5.4150731025
 20
6.0348045911
 30
0.0
 10
5.4637478392
 20
6.0353751085
 30
0.0
 10
5.5110512802
 20
6.0359457605
 30
0.0
 10
5.5565716351
 20
6.0365162387
 30
0.0
 10
5.5999435134
 20
6.0370862182
 30
0.0
 10
5.6408307534
 20
6.0376558432
 30
0.0
 10
5.6789028578
 20
6.0382248305
 30
0.0
 10
5.7138420205
 20
6.03879303
 30
0.0
 10
5.7408655332
 20
6.0392793902
 30
0.0
 10
5.7607049494
 20
6.0396722087
 30
0.0
 10
5.7741820626
 20
6.0399577291
 30
0.0
 10
5.7866838107
 20
6.0402430938
 30
0.0
 10
5.7981852184
 20
6.0405283371
 30
0.0
 10
5.8086642406
 20
6.0408133049
 30
0.0
 10
5.818100951
 20
6.0410978863
 30
0.0
 10
5.8264756997
 20
6.041381865
 30
0.0
 10
5.8337692382
 20
6.0416650727
 30
0.0
 10
5.8391631552
 20
6.0419103648
 30
0.0
 10
5.8429252449
 20
6.0421100975
 30
0.0
 10
5.8453296632
 20
6.0422524234
 30
0.0
 10
5.8474542916
 20
6.0423944573
 30
0.0
 10
5.8492981271
 20
6.0425361239
 30
0.0
 10
5.8508602563
 20
6.0426771078
 30
0.0
 10
5.8521397126
 20
6.0428172819
 30
0.0
 10
5.8530281465
 20
6.0429401459
 30
0.0
 10
5.8535958246
 20
6.0430423008
 30
0.0
 10
5.8539158061
 20
6.0431128061
 30
0.0
 10
5.8541653089
 20
6.043181422
 30
0.0
 10
5.8543442957
 20
6.043251885
 30
0.0
 10
5.854459829
 20
6.0433158203
 30
0.0
 10
5.8545004425
 20
6.0433811282
 30
0.0
 10
5.8544994183
 20
6.0434073975
 30
0.0
  0
LINE
  5
4F4
100
AcDbEntity
  8
0
100
AcDbLine
 62
7
  6
CONTINUOUS
 10
4.7320480851
 20
5.9129317921
 11
4.7305392194
 21
5.9132904081
  0
SPLINE
  5
4F5
100
AcDbEntity
  8
0
100
AcDbSpline
 62
7
  6
CONTINUOUS
 70
0
 71
3
 72
25
 73
21
 74
0
 42
0.0000001
 43
0.0000001
 44
0.0000000001
 40
0.0
 40
0.0
 40
0.0
 40
0.0
 40
0.0154017337
 40
0.0338992603
 40
0.0796351827
 40
0.135989214
 40
0.2015390226
 40
0.3532467337
 40
0.4354977927
 40
0.5192162949
 40
0.6022458049
 40
0.6824471299
 40
0.757750019
 40
0.8262181131
 40
0.8860863636
 40
0.9358067868
 40
0.956456225
 40
0.9741060773
 40
0.9886514045
 40
1.0
 40
1.0
 40
1.0
 40
1.0
 10
4.7415000283
 20
6.1730601014
 30
0.0
 10
4.7472413676
 20
6.1732450367
 30
0.0
 10
4.7598794937
 20
6.1736078393
 30
0.0
 10
4.7895719044
 20
6.1743320738
 30
0.0
 10
4.8345389351
 20
6.1751909852
 30
0.0
 10
4.897055034
 20
6.1761764647
 30
0.0
 10
4.9990924745
 20
6.1776287737
 30
0.0
 10
5.1107919461
 20
6.1788848644
 30
0.0
 10
5.2292670944
 20
6.1802202828
 30
0.0
 10
5.3221296993
 20
6.1812302599
 30
0.0
 10
5.4142278542
 20
6.1822325638
 30
0.0
 10
5.5031870058
 20
6.1832424319
 30
0.0
 10
5.5867147448
 20
6.1842636611
 30
0.0
 10
5.6626585754
 20
6.1852657903
 30
0.0
 10
5.7290605724
 20
6.1862370178
 30
0.0
 10
5.7776270341
 20
6.1871226157
 30
0.0
 10
5.8104472657
 20
6.1878527244
 30
0.0
 10
5.8301502587
 20
6.1883511651
 30
0.0
 10
5.8463832126
 20
6.1888414463
 30
0.0
 10
5.8560339993
 20
6.1892108117
 30
0.0
 10
5.8602618821
 20
6.1894113443
 30
0.0
  0
SPLINE
  5
4F6
100
AcDbEntity
  8
0
100
AcDbSpline
 62
7
  6
CONTINUOUS
 70
0
 71
3
 72
11
 73
7
 74
0
 42
0.0000001
 43
0.0000001
 44
0.0000000001
 40
0.0
 40
0.0
 40
0.0
 40
0.0
 40
0.3422557919
 40
0.6231521719
 40
0.8424568856
 40
1.0
 40
1.0
 40
1.0
 40
1.0
 10
5.8602618821
 20
6.1894113443
 30
0.0
 10
5.8618723052
 20
6.1894877283
 30
0.0
 10
5.8648039114
 20
6.1896378654
 30
0.0
 10
5.8687649206
 20
6.1898848031
 30
0.0
 10
5.8718535578
 20
6.1901299163
 30
0.0
 10
5.873619676
 20
6.1903163109
 30
0.0
 10
5.874354513
 20
6.1904200548
 30
0.0
  0
LINE
  5
4F7
100
AcDbEntity
  8
0
100
AcDbLine
 62
7
  6
CONTINUOUS
 10
5.874354513
 20
6.1904200548
 11
5.874945498
 21
6.190511633
  0
LINE
  5
4F8
100
AcDbEntity
  8
0
100
AcDbLine
 62
7
  6
CONTINUOUS
 10
5.8751449042
 20
6.1905474198
 11
5.8761325268
 21
6.190912618
  0
SPLINE
  5
4F9
100
AcDbEntity
  8
0
100
AcDbSpline
 62
7
  6
CONTINUOUS
 70
0
 71
3
 72
14
 73
10
 74
0
 42
0.0000001
 43
0.0000001
 44
0.0000000001
 40
0.0
 40
0.0
 40
0.0
 40
0.0
 40
0.042760459
 40
0.1085027839
 40
0.1977607773
 40
0.3107071445
 40
0.4474015483
 40
0.6078573554
 40
1.0
 40
1.0
 40
1.0
 40
1.0
 10
5.876029756
 20
5.6257963725
 30
0.0
 10
5.8759494393
 20
5.6257502211
 30
0.0
 10
5.8757248358
 20
5.6256730194
 30
0.0
 10
5.8753089199
 20
5.625573434
 30
0.0
 10
5.8747366385
 20
5.6254724416
 30
0.0
 10
5.8740098383
 20
5.6253694729
 30
0.0
 10
5.8731273972
 20
5.6252657061
 30
0.0
 10
5.871641662
 20
5.6251162451
 30
0.0
 10
5.8704483155
 20
5.6250199085
 30
0.0
 10
5.8696011473
 20
5.6249569995
 30
0.0
  0
LINE
  5
4FA
100
AcDbEntity
  8
0
100
AcDbLine
 62
7
  6
CONTINUOUS
 10
5.8696011473
 20
5.6249569995
 11
5.850189124
 21
5.6239992896
  0
SPLINE
  5
4FB
100
AcDbEntity
  8
0
100
AcDbSpline
 62
7
  6
CONTINUOUS
 70
0
 71
3
 72
26
 73
22
 74
0
 42
0.0000001
 43
0.0000001
 44
0.0000000001
 40
0.0
 40
0.0
 40
0.0
 40
0.0
 40
0.013830695
 40
0.030726549
 40
0.0732836374
 40
0.1265949385
 40
0.1893158198
 40
0.2598701923
 40
0.3364782976
 40
0.4172066797
 40
0.5000228048
 40
0.582838114
 40
0.6635640628
 40
0.7401681551
 40
0.8107170683
 40
0.8734312203
 40
0.9267345964
 40
0.9494251056
 40
0.9692828046
 40
0.9861740313
 40
1.0
 40
1.0
 40
1.0
 40
1.0
 10
5.850189124
 20
5.6239992896
 30
0.0
 10
5.8450494593
 20
5.6238102127
 30
0.0
 10
5.8336289481
 20
5.623448561
 30
0.0
 10
5.8063867253
 20
5.6227331482
 30
0.0
 10
5.7644624775
 20
5.6218632054
 30
0.0
 10
5.7054968513
 20
5.6208848671
 30
0.0
 10
5.636118856
 20
5.6199045329
 30
0.0
 10
5.5580771573
 20
5.6189025297
 30
0.0
 10
5.4733386797
 20
5.6178937705
 30
0.0
 10
5.3840400082
 20
5.6169017137
 30
0.0
 10
5.2924328245
 20
5.6159226763
 30
0.0
 10
5.2008270011
 20
5.6149018193
 30
0.0
 10
5.1115311282
 20
5.6139015954
 30
0.0
 10
5.0267967736
 20
5.6129190022
 30
0.0
 10
4.948761087
 20
5.6119164708
 30
0.0
 10
4.8793907417
 20
5.6109262788
 30
0.0
 10
4.8278171461
 20
5.610071724
 30
0.0
 10
4.7921803468
 20
5.6093647825
 30
0.0
 10
4.7700825596
 20
5.6088645449
 30
0.0
 10
4.7512821346
 20
5.6083657934
 30
0.0
 10
4.7398652542
 20
5.6079994755
 30
0.0
 10
4.7347274043
 20
5.6078088843
 30
0.0
  0
SPLINE
  5
4FC
100
AcDbEntity
  8
0
100
AcDbSpline
 62
7
  6
CONTINUOUS
 70
0
 71
3
 72
12
 73
8
 74
0
 42
0.0000001
 43
0.0000001
 44
0.0000000001
 40
0.0
 40
0.0
 40
0.0
 40
0.0
 40
0.3605166558
 40
0.647794189
 40
0.8610635532
 40
0.9398355259
 40
1.0
 40
1.0
 40
1.0
 40
1.0
 10
4.7347274043
 20
5.6078088843
 30
0.0
 10
4.731805368
 20
5.6077004899
 30
0.0
 10
4.7265553639
 20
5.6074909537
 30
0.0
 10
4.7195801704
 20
5.6071439643
 30
0.0
 10
4.7148906275
 20
5.6068410232
 30
0.0
 10
4.7120456027
 20
5.6065827893
 30
0.0
 10
4.7109260045
 20
5.6064519535
 30
0.0
 10
4.7104431056
 20
5.6063817411
 30
0.0
  0
LINE
  5
4FD
100
AcDbEntity
  8
0
100
AcDbLine
 62
7
  6
CONTINUOUS
 10
4.7099175618
 20
5.6062979761
 11
4.7088053614
 21
5.6059059526
  0
LINE
  5
4FE
100
AcDbEntity
  8
0
100
AcDbLine
 62
7
  6
CONTINUOUS
 10
5.8526354647
 20
5.8839180623
 11
5.8543790005
 21
5.8835247762
  0
SPLINE
  5
4FF
100
AcDbEntity
  8
0
100
AcDbSpline
 62
7
  6
CONTINUOUS
 70
0
 71
3
 72
36
 73
32
 74
0
 42
0.0000001
 43
0.0000001
 44
0.0000000001
 40
0.0
 40
0.0
 40
0.0
 40
0.0
 40
0.1062986321
 40
0.2092711811
 40
0.3082784619
 40
0.4026921774
 40
0.491896989
 40
0.5753456374
 40
0.6525132113
 40
0.7228940762
 40
0.7860782264
 40
0.8148527181
 40
0.8416854728
 40
0.8665308041
 40
0.8893520141
 40
0.9101152306
 40
0.928786639
 40
0.9453325136
 40
0.9597192731
 40
0.9719182545
 40
0.9819187761
 40
0.986092851
 40
0.9897153707
 40
0.9927860505
 40
0.9953050551
 40
0.997273503
 40
0.9980523175
 40
0.9986952945
 40
0.9992042718
 40
0.9995831759
 40
1.0
 40
1.0
 40
1.0
 40
1.0
 10
5.459727332
 20
5.5153353557
 30
0.0
 10
5.4737209876
 20
5.5155013986
 30
0.0
 10
5.501270391
 20
5.5158322414
 30
0.0
 10
5.5418533688
 20
5.5163352954
 30
0.0
 10
5.5808715278
 20
5.5168381696
 30
0.0
 10
5.618076956
 20
5.517340753
 30
0.0
 10
5.6532338346
 20
5.5178431367
 30
0.0
 10
5.6861199498
 20
5.5183451092
 30
0.0
 10
5.7165275187
 20
5.5188464779
 30
0.0
 10
5.7442667964
 20
5.5193475123
 30
0.0
 10
5.7656351592
 20
5.5197765262
 30
0.0
 10
5.7812706888
 20
5.5201230258
 30
0.0
 10
5.7918596103
 20
5.520374593
 30
0.0
 10
5.8016645244
 20
5.5206260332
 30
0.0
 10
5.8106700812
 20
5.5208772823
 30
0.0
 10
5.8188624798
 20
5.5211282644
 30
0.0
 10
5.8262282929
 20
5.5213788743
 30
0.0
 10
5.8327540956
 20
5.5216289915
 30
0.0
 10
5.8384271163
 20
5.5218782959
 30
0.0
 10
5.8432374742
 20
5.5221268266
 30
0.0
 10
5.8467030447
 20
5.5223433035
 30
0.0
 10
5.8490393889
 20
5.5225210163
 30
0.0
 10
5.8504647069
 20
5.5226458509
 30
0.0
 10
5.8516711809
 20
5.5227700084
 30
0.0
 10
5.8526587604
 20
5.5228936581
 30
0.0
 10
5.8533435174
 20
5.5230016202
 30
0.0
 10
5.8537813207
 20
5.5230921019
 30
0.0
 10
5.8540267713
 20
5.5231532166
 30
0.0
 10
5.8542221655
 20
5.523216585
 30
0.0
 10
5.8543711903
 20
5.5232799562
 30
0.0
 10
5.8544783492
 20
5.5233585581
 30
0.0
 10
5.854476242
 20
5.5234133941
 30
0.0
  0
SPLINE
  5
500
100
AcDbEntity
  8
0
100
AcDbSpline
 62
7
  6
CONTINUOUS
 70
0
 71
3
 72
16
 73
12
 74
0
 42
0.0000001
 43
0.0000001
 44
0.0000000001
 40
0.0
 40
0.0
 40
0.0
 40
0.0
 40
0.0234578459
 40
0.0446389685
 40
0.0729725021
 40
0.1518250196
 40
0.2607934062
 40
0.4001164205
 40
0.5698072007
 40
0.7697988275
 40
1.0
 40
1.0
 40
1.0
 40
1.0
 10
4.7304319103
 20
5.9134160131
 30
0.0
 10
4.7304328142
 20
5.913472241
 30
0.0
 10
4.7305431561
 20
5.9135482832
 30
0.0
 10
4.7306955441
 20
5.9136127268
 30
0.0
 10
4.7309938289
 20
5.9137070609
 30
0.0
 10
4.7314984948
 20
5.9138125252
 30
0.0
 10
4.732274662
 20
5.9139355184
 30
0.0
 10
4.7332687251
 20
5.9140582344
 30
0.0
 10
4.7344828606
 20
5.9141824996
 30
0.0
 10
4.7359155221
 20
5.9143070579
 30
0.0
 10
4.7369439082
 20
5.9143849252
 30
0.0
 10
4.7374943551
 20
5.9144243607
 30
0.0
  0
SPLINE
  5
501
100
AcDbEntity
  8
0
100
AcDbSpline
 62
7
  6
CONTINUOUS
 70
0
 71
3
 72
18
 73
14
 74
0
 42
0.0000001
 43
0.0000001
 44
0.0000000001
 40
0.0
 40
0.0
 40
0.0
 40
0.0
 40
0.0190328713
 40
0.0449766145
 40
0.0777156417
 40
0.1170724224
 40
0.1628456833
 40
0.2148278329
 40
0.3362342859
 40
0.4786278692
 40
0.6389990567
 40
0.8140345991
 40
1.0
 40
1.0
 40
1.0
 40
1.0
 10
4.7374943551
 20
5.9144243607
 30
0.0
 10
4.7401333297
 20
5.9146134242
 30
0.0
 10
4.7463767909
 20
5.914954586
 30
0.0
 10
4.7571706242
 20
5.9154033715
 30
0.0
 10
4.7707916604
 20
5.9158555585
 30
0.0
 10
4.7871701864
 20
5.9163116303
 30
0.0
 10
4.8062245436
 20
5.9167694835
 30
0.0
 10
4.836683177
 20
5.9174150658
 30
0.0
 10
4.8805727647
 20
5.918201499
 30
0.0
 10
4.9395293598
 20
5.9191103831
 30
0.0
 10
5.0059416138
 20
5.9200226089
 30
0.0
 10
5.0784112222
 20
5.9209366641
 30
0.0
 10
5.1285900206
 20
5.9215333441
 30
0.0
 10
5.1544391012
 20
5.9218353848
 30
0.0
  0
SPLINE
  5
502
100
AcDbEntity
  8
0
100
AcDbSpline
 62
7
  6
CONTINUOUS
 70
0
 71
3
 72
14
 73
10
 74
0
 42
0.0000001
 43
0.0000001
 44
0.0000000001
 40
0.0
 40
0.0
 40
0.0
 40
0.0
 40
0.0424502054
 40
0.1079633206
 40
0.1970820376
 40
0.3099807139
 40
0.4467192798
 40
0.6073110029
 40
1.0
 40
1.0
 40
1.0
 40
1.0
 10
5.8760325629
 20
5.6657834174
 30
0.0
 10
5.8759529329
 20
5.6657373862
 30
0.0
 10
5.8757292161
 20
5.6656608336
 30
0.0
 10
5.8753145306
 20
5.6655622864
 30
0.0
 10
5.8747428103
 20
5.665462559
 30
0.0
 10
5.8740159993
 20
5.6653609811
 30
0.0
 10
5.8731329252
 20
5.6652587185
 30
0.0
 10
5.8716451122
 20
5.6651114611
 30
0.0
 10
5.8704499449
 20
5.6650165942
 30
0.0
 10
5.8696013645
 20
5.6649545939
 30
0.0
  0
LINE
  5
503
100
AcDbEntity
  8
0
100
AcDbLine
 62
7
  6
CONTINUOUS
 10
5.8696013645
 20
5.6649545939
 11
5.8501897214
 21
5.6640037902
  0
SPLINE
  5
504
100
AcDbEntity
  8
0
100
AcDbSpline
 62
7
  6
CONTINUOUS
 70
0
 71
3
 72
25
 73
21
 74
0
 42
0.0000001
 43
0.0000001
 44
0.0000000001
 40
0.0
 40
0.0
 40
0.0
 40
0.0
 40
0.0138306497
 40
0.0307264649
 40
0.0732833622
 40
0.1265944417
 40
0.1893151767
 40
0.2598694674
 40
0.3364775066
 40
0.4172058721
 40
0.5000220227
 40
0.5828373885
 40
0.6635634177
 40
0.7401676374
 40
0.8107167083
 40
0.8734309354
 40
0.9267344341
 40
0.9692828653
 40
0.9861741005
 40
1.0
 40
1.0
 40
1.0
 40
1.0
 10
5.8501897214
 20
5.6640037902
 30
0.0
 10
5.8450500945
 20
5.6638141077
 30
0.0
 10
5.8336297077
 20
5.6634495633
 30
0.0
 10
5.8063877324
 20
5.6627281132
 30
0.0
 10
5.7644636375
 20
5.6618573876
 30
0.0
 10
5.7054980867
 20
5.660886119
 30
0.0
 10
5.6361202293
 20
5.6599071388
 30
0.0
 10
5.5580787683
 20
5.6588930116
 30
0.0
 10
5.4733400687
 20
5.6579058579
 30
0.0
 10
5.3840414327
 20
5.6569109494
 30
0.0
 10
5.2924345582
 20
5.6558988497
 30
0.0
 10
5.2008283353
 20
5.6549066879
 30
0.0
 10
5.1115322335
 20
5.6539156628
 30
0.0
 10
5.0267979142
 20
5.652915786
 30
0.0
 10
4.9487622407
 20
5.651901507
 30
0.0
 10
4.8793915032
 20
5.6509271643
 30
0.0
 10
4.8204343056
 20
5.6499569871
 30
0.0
 10
4.7785180148
 20
5.64908045
 30
0.0
 10
4.7512825708
 20
5.6483627293
 30
0.0
 10
4.739865565
 20
5.6480009622
 30
0.0
 10
4.7347276772
 20
5.6478120546
 30
0.0
  0
SPLINE
  5
505
100
AcDbEntity
  8
0
100
AcDbSpline
 62
7
  6
CONTINUOUS
 70
0
 71
3
 72
12
 73
8
 74
0
 42
0.0000001
 43
0.0000001
 44
0.0000000001
 40
0.0
 40
0.0
 40
0.0
 40
0.0
 40
0.3605046125
 40
0.6477790127
 40
0.8610549725
 40
0.9398319589
 40
1.0
 40
1.0
 40
1.0
 40
1.0
 10
4.7347276772
 20
5.6478120546
 30
0.0
 10
4.7318055995
 20
5.6477046169
 30
0.0
 10
4.7265554644
 20
5.6474966739
 30
0.0
 10
4.7195801529
 20
5.6471480531
 30
0.0
 10
4.7148906308
 20
5.6468409617
 30
0.0
 10
4.712045639
 20
5.646579861
 30
0.0
 10
4.7109260481
 20
5.6464481016
 30
0.0
 10
4.7104431289
 20
5.6463777079
 30
0.0
  0
LINE
  5
506
100
AcDbEntity
  8
0
100
AcDbLine
 62
7
  6
CONTINUOUS
 10
4.7099329745
 20
5.6462965827
 11
4.7088053614
 21
5.6459067852
  0
SPLINE
  5
507
100
AcDbEntity
  8
0
100
AcDbSpline
 62
7
  6
CONTINUOUS
 70
0
 71
3
 72
14
 73
10
 74
0
 42
0.0000001
 43
0.0000001
 44
0.0000000001
 40
0.0
 40
0.0
 40
0.0
 40
0.0
 40
0.0435638946
 40
0.1098592715
 40
0.1994356932
 40
0.3124761541
 40
0.4490465705
 40
0.6091643903
 40
1.0
 40
1.0
 40
1.0
 40
1.0
 10
4.7089155669
 20
5.5310407256
 30
0.0
 10
4.7089974812
 20
5.5310873426
 30
0.0
 10
4.7092244608
 20
5.5311655369
 30
0.0
 10
4.7096435404
 20
5.5312654007
 30
0.0
 10
4.7102172498
 20
5.5313658211
 30
0.0
 10
4.7109439342
 20
5.5314673626
 30
0.0
 10
4.7118246463
 20
5.5315690832
 30
0.0
 10
4.7133049575
 20
5.5317148411
 30
0.0
 10
4.7144933893
 20
5.5318084198
 30
0.0
 10
4.7153367474
 20
5.5318695402
 30
0.0
  0
LINE
  5
508
100
AcDbEntity
  8
0
100
AcDbLine
 62
7
  6
CONTINUOUS
 10
4.7153367474
 20
5.5318695402
 11
4.7347487243
 21
5.5328192379
  0
SPLINE
  5
509
100
AcDbEntity
  8
0
100
AcDbSpline
 62
7
  6
CONTINUOUS
 70
0
 71
3
 72
27
 73
23
 74
0
 42
0.0000001
 43
0.0000001
 44
0.0000000001
 40
0.0
 40
0.0
 40
0.0
 40
0.0
 40
0.0138308835
 40
0.0307268125
 40
0.0505889585
 40
0.0732837169
 40
0.1265950659
 40
0.1893160586
 40
0.2598703783
 40
0.3364784693
 40
0.417206872
 40
0.5000230033
 40
0.5828383144
 40
0.6635642758
 40
0.7401683766
 40
0.8107172431
 40
0.87343144
 40
0.9267348728
 40
0.9494253231
 40
0.9692829292
 40
0.9861740759
 40
1.0
 40
1.0
 40
1.0
 40
1.0
 10
4.7347487243
 20
5.5328192379
 30
0.0
 10
4.7398883767
 20
5.5330105596
 30
0.0
 10
4.7513087747
 20
5.533378863
 30
0.0
 10
4.7701144709
 20
5.5338765874
 30
0.0
 10
4.7922174171
 20
5.5343693001
 30
0.0
 10
4.8278606184
 20
5.5350657394
 30
0.0
 10
4.8794410299
 20
5.5359353009
 30
0.0
 10
4.9488187043
 20
5.5369414598
 30
0.0
 10
5.0268607944
 20
5.5379163038
 30
0.0
 10
5.1115994241
 20
5.5389104333
 30
0.0
 10
5.2008979531
 20
5.5399164227
 30
0.0
 10
5.2925048627
 20
5.5409226995
 30
0.0
 10
5.3841110838
 20
5.5419087461
 30
0.0
 10
5.4734069635
 20
5.542910862
 30
0.0
 10
5.5581410216
 20
5.5439179033
 30
0.0
 10
5.6361770679
 20
5.5448927164
 30
0.0
 10
5.7055473099
 20
5.5458941595
 30
0.0
 10
5.7571206631
 20
5.5467631849
 30
0.0
 10
5.7927575663
 20
5.5474628924
 30
0.0
 10
5.814855416
 20
5.5479566627
 30
0.0
 10
5.8336558643
 20
5.548451676
 30
0.0
 10
5.8450727296
 20
5.5488171898
 30
0.0
 10
5.8502105653
 20
5.5490077329
 30
0.0
  0
SPLINE
  5
50A
100
AcDbEntity
  8
0
100
AcDbSpline
 62
7
  6
CONTINUOUS
 70
0
 71
3
 72
12
 73
8
 74
0
 42
0.0000001
 43
0.0000001
 44
0.0000000001
 40
0.0
 40
0.0
 40
0.0
 40
0.0
 40
0.3605104676
 40
0.6477842097
 40
0.8610537273
 40
0.9398287476
 40
1.0
 40
1.0
 40
1.0
 40
1.0
 10
5.8502105653
 20
5.5490077329
 30
0.0
 10
5.8531325974
 20
5.5491161001
 30
0.0
 10
5.8583825979
 20
5.5493257889
 30
0.0
 10
5.8653577834
 20
5.5496734281
 30
0.0
 10
5.8700473454
 20
5.5499773723
 30
0.0
 10
5.8728923486
 20
5.5502372422
 30
0.0
 10
5.8740119269
 20
5.5503691778
 30
0.0
 10
5.8744947865
 20
5.5504400917
 30
0.0
  0
LINE
  5
50B
100
AcDbEntity
  8
0
100
AcDbLine
 62
7
  6
CONTINUOUS
 10
5.8749987125
 20
5.5505209157
 11
5.8761325268
 21
5.5509225438
  0
SPLINE
  5
50C
100
AcDbEntity
  8
0
100
AcDbSpline
 62
7
  6
CONTINUOUS
 70
0
 71
3
 72
14
 73
10
 74
0
 42
0.0000001
 43
0.0000001
 44
0.0000000001
 40
0.0
 40
0.0
 40
0.0
 40
0.0
 40
0.0441654003
 40
0.110807875
 40
0.2005132965
 40
0.3135088898
 40
0.4499051348
 40
0.6097636635
 40
1.0
 40
1.0
 40
1.0
 40
1.0
 10
4.7305748184
 20
5.5435392166
 30
0.0
 10
4.7306541441
 20
5.5435844412
 30
0.0
 10
4.7308722601
 20
5.5436613428
 30
0.0
 10
4.7312743517
 20
5.5437599549
 30
0.0
 10
4.731822824
 20
5.5438595916
 30
0.0
 10
4.7325165275
 20
5.5439606052
 30
0.0
 10
4.7333566561
 20
5.5440621042
 30
0.0
 10
4.7347684915
 20
5.5442078607
 30
0.0
 10
4.7359020645
 20
5.5443016733
 30
0.0
 10
4.7367065482
 20
5.5443629237
 30
0.0
  0
SPLINE
  5
50D
100
AcDbEntity
  8
0
100
AcDbSpline
 62
7
  6
CONTINUOUS
 70
0
 71
3
 72
51
 73
47
 74
0
 42
0.0000001
 43
0.0000001
 44
0.0000000001
 40
0.0
 40
0.0
 40
0.0
 40
0.0
 40
0.0040500093
 40
0.0091785852
 40
0.0226171335
 40
0.0402032386
 40
0.0617803459
 40
0.0871497251
 40
0.116100097
 40
0.1483750326
 40
0.183704863
 40
0.2622645761
 40
0.3489972053
 40
0.44089504
 40
0.5347543679
 40
0.5813956183
 40
0.6273026661
 40
0.6720751983
 40
0.7153204227
 40
0.7566522985
 40
0.7957181946
 40
0.832177016
 40
0.8657098025
 40
0.8960309448
 40
0.9098990791
 40
0.9228637343
 40
0.9348986554
 40
0.9459777079
 40
0.9560747714
 40
0.9651640111
 40
0.9732260845
 40
0.9802483766
 40
0.986218665
 40
0.9888055375
 40
0.9911249092
 40
0.9931753292
 40
0.9949554966
 40
0.9964648659
 40
0.9977033224
 40
0.9986710869
 40
0.9990537743
 40
0.9993693576
 40
0.9996184643
 40
0.9998024755
 40
0.9999250995
 40
1.0
 40
1.0
 40
1.0
 40
1.0
 10
4.7367065482
 20
5.5443629237
 30
0.0
 10
4.738211638
 20
5.5444775158
 30
0.0
 10
4.7416258489
 20
5.5446944937
 30
0.0
 10
4.7500445147
 20
5.5451222972
 30
0.0
 10
4.763509818
 20
5.5456290484
 30
0.0
 10
4.7831060544
 20
5.5462083204
 30
0.0
 10
4.8071505141
 20
5.5467912394
 30
0.0
 10
4.8354313426
 20
5.5473783398
 30
0.0
 10
4.8677000032
 20
5.5479668063
 30
0.0
 10
4.9036814533
 20
5.5485568947
 30
0.0
 10
4.9581511103
 20
5.5493736566
 30
0.0
 10
5.032916713
 20
5.5503734618
 30
0.0
 10
5.1287648588
 20
5.5515407447
 30
0.0
 10
5.2303155738
 20
5.5527097527
 30
0.0
 10
5.3169253733
 20
5.5536867148
 30
0.0
 10
5.3863953199
 20
5.554478657
 30
0.0
 10
5.4375716117
 20
5.5550712664
 30
0.0
 10
5.4874821143
 20
5.5556636904
 30
0.0
 10
5.535687322
 20
5.556255832
 30
0.0
 10
5.5817654906
 20
5.556847885
 30
0.0
 10
5.6253141411
 20
5.5574395094
 30
0.0
 10
5.665955781
 20
5.5580305903
 30
0.0
 10
5.7033378719
 20
5.558621117
 30
0.0
 10
5.7323006479
 20
5.5591259057
 30
0.0
 10
5.7535981213
 20
5.5595338005
 30
0.0
 10
5.768081155
 20
5.5598304382
 30
0.0
 10
5.7815244642
 20
5.5601268635
 30
0.0
 10
5.7938987425
 20
5.5604230475
 30
0.0
 10
5.8051748276
 20
5.5607188902
 30
0.0
 10
5.8153260631
 20
5.5610144093
 30
0.0
 10
5.8243308051
 20
5.5613094479
 30
0.0
 10
5.832172424
 20
5.5616037469
 30
0.0
 10
5.8379733929
 20
5.5618585023
 30
0.0
 10
5.8420218049
 20
5.5620659146
 30
0.0
 10
5.844610366
 20
5.5622137449
 30
0.0
 10
5.8468977434
 20
5.5623612647
 30
0.0
 10
5.84888254
 20
5.5625084251
 30
0.0
 10
5.8505638457
 20
5.5626548928
 30
0.0
 10
5.8519410354
 20
5.5628005208
 30
0.0
 10
5.8528977377
 20
5.5629281723
 30
0.0
 10
5.8535096236
 20
5.5630342614
 30
0.0
 10
5.85385517
 20
5.5631075279
 30
0.0
 10
5.8541250319
 20
5.563178766
 30
0.0
 10
5.8543197861
 20
5.5632520536
 30
0.0
 10
5.854445131
 20
5.5633178569
 30
0.0
 10
5.8544924505
 20
5.5633855355
 30
0.0
 10
5.8544924654
 20
5.563413451
 30
0.0
  0
ENDSEC
  0
SECTION
  2
OBJECTS
  0
DICTIONARY
  5
C
100
AcDbDictionary
280
0
281
1
  3
ACAD_GROUP
350
D
  3
ACAD_MLINESTYLE
350
17
  3
ACAD_LAYOUT
350
1A
  3
ACAD_PLOTSETTINGS
350
19
  3
ACAD_PLOTSTYLENAME
350
E
  0
DICTIONARY
  5
D
102
{ACAD_REACTORS
330
C
102
}
100
AcDbDictionary
280
0
281
1
  0
ACDBDICTIONARYWDFLT
  5
E
102
{ACAD_REACTORS
330
C
102
}
100
AcDbDictionary
281
1
  3
Normal
350
F
100
AcDbDictionaryWithDefault
340
F
  0
DICTIONARY
  5
17
102
{ACAD_REACTORS
330
C
102
}
100
AcDbDictionary
280
0
281
1
  3
Standard
350
18
  0
DICTIONARY
  5
19
102
{ACAD_REACTORS
330
C
102
}
100
AcDbDictionary
281
1
  0
DICTIONARY
  5
1A
102
{ACAD_REACTORS
330
C
102
}
100
AcDbDictionary
281
1
  3
Model
350
50E
  3
Layout1
350
50F
  0
ACDBPLACEHOLDER
  5
F
102
{ACAD_REACTORS
330
E
102
}
  0
MLINESTYLE
  5
18
102
{ACAD_REACTORS
330
17
102
}
100
AcDbMlineStyle
  2
STANDARD
 70
0
  3

 62
256
 51
90.0
 52
90.0
 71
2
 49
0.5
 62
256
  6
BYLAYER
 49
-0.5
 62
256
  6
BYLAYER
  0
LAYOUT
  5
50E
102
{ACAD_REACTORS
330
1A
102
}
100
AcDbPlotSettings
  1

  2
none_device
  4
ANSI_A_(11.00_x_8.50_Inches)
  6

 40
0.0
 41
0.0
 42
0.0
 43
0.0
 44
279.4
 45
215.9
 46
0.0
 47
0.0
 48
0.0
 49
0.0
140
0.0
141
0.0
142
1.0
143
1.0
 70
1024
 72
0
 73
0
 74
0
  7

 75
0
147
1.0
148
0.0
149
0.0
100
AcDbLayout
  1
Model
 70
0
 71
0
 10
0.0
 20
0.0
 11
11.0
 21
8.5
 12
0.0
 22
0.0
 32
0.0
 14
0.0
 24
0.0
 34
0.0
 15
0.0
 25
0.0
 35
0.0
146
0.0
 13
0.0
 23
0.0
 33
0.0
 16
1.0
 26
0.0
 36
0.0
 17
0.0
 27
1.0
 37
0.0
 76
0
330
24D
345
0
346
0
  0
LAYOUT
  5
50F
102
{ACAD_REACTORS
330
1A
102
}
100
AcDbPlotSettings
  1

  2
none_device
  4
ANSI_A_(11.00_x_8.50_Inches)
  6

 40
0.0
 41
0.0
 42
0.0
 43
0.0
 44
279.4
 45
215.9
 46
0.0
 47
0.0
 48
0.0
 49
0.0
140
0.0
141
0.0
142
1.0
143
1.0
 70
0
 72
0
 73
0
 74
0
  7

 75
0
147
1.0
148
0.0
149
0.0
100
AcDbLayout
  1
Layout1
 70
0
 71
1
 10
0.0
 20
0.0
 11
11.0
 21
8.5
 12
0.0
 22
0.0
 32
0.0
 14
0.0
 24
0.0
 34
0.0
 15
0.0
 25
0.0
 35
0.0
146
0.0
 13
0.0
 23
0.0
 33
0.0
 16
1.0
 26
0.0
 36
0.0
 17
0.0
 27
1.0
 37
0.0
 76
0
330
24E
345
0
346
0
  0
ENDSEC
  0
EOF
