  0
SECTION
  2
HEADER
  9
$ACADVER
  1
AC1021
  9
$DWGCODEPAGE
  3
ANSI_1252
  9
$EXTMAX
 10
23.3858267717
 20
16.5354330709
 30
0.0
  9
$EXTMIN
 10
0.0
 20
0.0
 30
0.0
  9
$LIMMIN
 10
0.0
 20
0.0
  9
$LIMMAX
 10
23.3858267717
 20
16.5354330709
  9
$VIEWCTR
 10
11.6929133858
 20
8.2677165354
  9
$VIEWSIZE
 40
16.5354330709
  9
$CLAYER
  8
0
  9
$LTSCALE
 40
1.2862204724
  9
$CELTYPE
  6
BYLAYER
  9
$DIMSCALE
 40
1.0
  9
$DIMASZ
 40
0.1875
  9
$DIMEXO
 40
0.1461614173
  9
$DIMDLI
 40
0.8886614173
  9
$DIMEXE
 40
0.4209448819
  9
$DIMCEN
 40
0.2104724409
  9
$DIMLFAC
 40
1.0
  9
$DIMBLK
  1
_CLOSED
  9
$DIMTXT
 40
0.15625
  9
$DIMTOL
 70
0
  9
$DIMLIM
 70
0
  9
$DIMTFAC
 40
1.0
  9
$PDMODE
 70
3
  9
$PDSIZE
 40
0.3125
  9
$HANDSEED
  5
230
  9
$TILEMODE
 70
1
  9
$MEASUREMENT
 70
0
  9
$INSUNITS
 70
1
  0
ENDSEC
  0
SECTION
  2
CLASSES
  0
CLASS
  1
ACDBDICTIONARYWDFLT
  2
AcDbDictionaryWithDefault
  3
AutoCAD 2000
 90
0
 91
1
280
0
281
0
  0
CLASS
  1
ACDBPLACEHOLDER
  2
AcDbPlaceHolder
  3
AutoCAD 2000
 90
0
 91
1
280
0
281
0
  0
CLASS
  1
LAYOUT
  2
AcDbLayout
  3
AutoCAD 2000
 90
0
 91
0
280
0
281
0
  0
ENDSEC
  0
SECTION
  2
TABLES
  0
TABLE
  2
VPORT
  5
8
100
AcDbSymbolTable
 70
2
  0
VPORT
  5
1F4
100
AcDbSymbolTableRecord
100
AcDbViewportTableRecord
  2
*ACTIVE
 70
0
 10
0.0
 20
0.0
 11
1.0
 21
1.0
 12
11.6929133858
 22
8.2677165354
 13
0.0
 23
0.0
 14
1.0
 24
1.0
 15
0.0
 25
0.0
 16
0.0
 26
0.0
 36
1.0
 17
0.0
 27
0.0
 37
0.0
 40
16.5354330709
 41
1.4142857143
 42
50.0
 43
0.0
 44
0.0
 50
0.0
 51
0.0
 71
0
 72
100
 73
1
 74
1
 75
0
 76
0
 77
0
 78
0
  0
ENDTAB
  0
TABLE
  2
LTYPE
  5
5
100
AcDbSymbolTable
 70
6
  0
LTYPE
  5
14
100
AcDbSymbolTableRecord
100
AcDbLinetypeTableRecord
  2
BYBLOCK
 70
0
  3

 72
65
 73
0
 40
0.0
  0
LTYPE
  5
15
100
AcDbSymbolTableRecord
100
AcDbLinetypeTableRecord
  2
BYLAYER
 70
0
  3

 72
65
 73
0
 40
0.0
  0
LTYPE
  5
16
100
AcDbSymbolTableRecord
100
AcDbLinetypeTableRecord
  2
CONTINUOUS
 70
64
  3
Solid line
 72
65
 73
0
 40
0.0
  0
LTYPE
  5
1F5
100
AcDbSymbolTableRecord
100
AcDbLinetypeTableRecord
  2
CENTER
 70
64
  3
____ _ ____ _ ____ _ ____ _ ____ _ ____ _ ____
 72
65
 73
4
 40
0.6
 49
0.375
 74
0
 49
-0.075
 74
0
 49
0.075
 74
0
 49
-0.075
 74
0
  0
LTYPE
  5
1F6
100
AcDbSymbolTableRecord
100
AcDbLinetypeTableRecord
  2
HIDDEN
 70
64
  3
- - - - - - - - - - - - - - - - - - - -
 72
65
 73
2
 40
0.2
 49
0.1
 74
0
 49
-0.1
 74
0
  0
LTYPE
  5
1F7
100
AcDbSymbolTableRecord
100
AcDbLinetypeTableRecord
  2
PHANTOM
 70
64
  3
_____ _ _ _____ _ _ _____ _ _ _____
 72
65
 73
6
 40
0.8
 49
0.45
 74
0
 49
-0.05
 74
0
 49
0.1
 74
0
 49
-0.05
 74
0
 49
0.1
 74
0
 49
-0.05
 74
0
  0
LTYPE
  5
1F8
100
AcDbSymbolTableRecord
100
AcDbLinetypeTableRecord
  2
DOT
 70
64
  3
. . . . . . . . . . . . . . . . . . . .
 72
65
 73
2
 40
0.2
 49
0.1
 74
0
 49
-0.1
 74
0
  0
LTYPE
  5
1F9
100
AcDbSymbolTableRecord
100
AcDbLinetypeTableRecord
  2
DASHED
 70
64
  3
- - - - - - - - - - - - - - - - - - - -
 72
65
 73
2
 40
0.2
 49
0.1
 74
0
 49
-0.1
 74
0
  0
ENDTAB
  0
TABLE
  2
LAYER
  5
2
100
AcDbSymbolTable
 70
36
  0
LAYER
  5
10
100
AcDbSymbolTableRecord
100
AcDbLayerTableRecord
  2
0
 70
0
 62
7
  6
CONTINUOUS
370
-3
390
F
  0
LAYER
  5
1FA
100
AcDbSymbolTableRecord
100
AcDbLayerTableRecord
  2
DEFAULT_1
 70
0
 62
7
  6
CENTER
370
-3
390
F
  0
LAYER
  5
1FB
100
AcDbSymbolTableRecord
100
AcDbLayerTableRecord
  2
DEFAULT_2
 70
0
 62
8
  6
HIDDEN
370
-3
390
F
  0
LAYER
  5
1FC
100
AcDbSymbolTableRecord
100
AcDbLayerTableRecord
  2
DEFAULT_3
 70
0
 62
7
  6
PHANTOM
370
-3
390
F
  0
LAYER
  5
1FD
100
AcDbSymbolTableRecord
100
AcDbLayerTableRecord
  2
DEFAULT_COORDINATE_SYSTEM
 70
0
 62
7
  6
CONTINUOUS
370
-3
390
F
  0
LAYER
  5
1FE
100
AcDbSymbolTableRecord
100
AcDbLayerTableRecord
  2
DEFAULT_DATUM_AXES
 70
0
 62
7
  6
CONTINUOUS
370
-3
390
F
  0
LAYER
  5
1FF
100
AcDbSymbolTableRecord
100
AcDbLayerTableRecord
  2
DEFAULT_DATUM_CURVES
 70
0
 62
7
  6
CONTINUOUS
370
-3
390
F
  0
LAYER
  5
200
100
AcDbSymbolTableRecord
100
AcDbLayerTableRecord
  2
DEFAULT_DATUM_PLANES
 70
0
 62
7
  6
CONTINUOUS
370
-3
390
F
  0
ENDTAB
  0
TABLE
  2
STYLE
  5
3
100
AcDbSymbolTable
 70
1
  0
STYLE
  5
11
100
AcDbSymbolTableRecord
100
AcDbTextStyleTableRecord
  2
STANDARD
 70
0
 40
0.0
 41
0.8
 50
0.0
 71
0
 42
0.2
  3
txt
  4

  0
STYLE
  5
201
100
AcDbSymbolTableRecord
100
AcDbTextStyleTableRecord
  2
TEXTSTYLE_1
 70
0
 40
0.0
 41
0.8
 50
0.0
 71
0
 42
0.2
  3
gdt
  4

  0
ENDTAB
  0
TABLE
  2
VIEW
  5
6
100
AcDbSymbolTable
 70
0
  0
ENDTAB
  0
TABLE
  2
UCS
  5
7
100
AcDbSymbolTable
 70
0
  0
ENDTAB
  0
TABLE
  2
APPID
  5
9
100
AcDbSymbolTable
 70
1
  0
APPID
  5
202
100
AcDbSymbolTableRecord
100
AcDbRegAppTableRecord
  2
ACAD
 70
0
  0
ENDTAB
  0
TABLE
  2
BLOCK_RECORD
  5
1
100
AcDbSymbolTable
 70
0
  0
BLOCK_RECORD
  5
203
100
AcDbSymbolTableRecord
100
AcDbBlockTableRecord
  2
*Model_Space
  0
BLOCK_RECORD
  5
204
100
AcDbSymbolTableRecord
100
AcDbBlockTableRecord
  2
*Paper_Space
  0
ENDTAB
  0
TABLE
  2
DIMSTYLE
  5
A
100
AcDbSymbolTable
 70
1
100
AcDbDimStyleTable
 71
0
  0
DIMSTYLE
105
205
100
AcDbSymbolTableRecord
100
AcDbDimStyleTableRecord
  2
STANDARD
 70
0
  3

  4

 40
1.0
 41
0.1875
 42
0.0625
 43
0.38
 44
0.18
 45
0.0
 46
0.0
 47
0.001
 48
0.001
140
0.15625
141
0.09
142
0.0
143
25.4
144
1.0
145
0.0
146
1.0
147
0.09
 71
0.0
 72
0.0
 73
1
 74
1
 75
0
 76
0
 77
0
 78
4
170
0
171
2
172
0
173
0
174
0
175
0
176
0
177
0
178
0
270
2
271
3
272
3
273
2
274
2
275
0
280
0
281
0
282
0
283
1
284
4
285
0
286
0
287
3
288
0
340
11
  0
ENDTAB
  0
ENDSEC
  0
SECTION
  2
BLOCKS
  0
BLOCK
  5
20
100
AcDbEntity
  8
0
100
AcDbBlockBegin
  2
*Model_Space
 70
0
 10
0.0
 20
0.0
 30
0.0
  3
*Model_Space
  1

  0
ENDBLK
  5
21
100
AcDbEntity
  8
0
100
AcDbBlockEnd
  0
BLOCK
  5
1C
100
AcDbEntity
  8
0
100
AcDbBlockBegin
  2
*Paper_Space
 70
0
 10
0.0
 20
0.0
 30
0.0
  3
*Paper_Space
  1

  0
ENDBLK
  5
1D
100
AcDbEntity
  8
0
100
AcDbBlockEnd
  0
ENDSEC
  0
SECTION
  2
ENTITIES
  0
LINE
  5
206
100
AcDbEntity
  8
0
100
AcDbLine
 62
6
  6
CONTINUOUS
 10
9.9660937391
 20
8.1780966463
 11
9.9660937391
 21
8.1764149348
  0
LINE
  5
207
100
AcDbEntity
  8
0
100
AcDbLine
 62
6
  6
CONTINUOUS
 10
10.0480939748
 20
7.6872557905
 11
10.0480939748
 21
8.6672557905
  0
LINE
  5
208
100
AcDbEntity
  8
0
100
AcDbLine
 62
6
  6
CONTINUOUS
 10
12.8890939748
 20
6.9947557905
 11
12.7594591875
 21
7.0257895729
  0
LINE
  5
209
100
AcDbEntity
  8
0
100
AcDbLine
 62
6
  6
CONTINUOUS
 10
10.7330939748
 20
7.6872557905
 11
10.7330939748
 21
8.6672557905
  0
LINE
  5
20A
100
AcDbEntity
  8
0
100
AcDbLine
 62
6
  6
CONTINUOUS
 10
10.7330939748
 20
7.6872557905
 11
10.0480939748
 21
7.6872557905
  0
LINE
  5
20B
100
AcDbEntity
  8
0
100
AcDbLine
 62
6
  6
CONTINUOUS
 10
11.2440939748
 20
7.8647557905
 11
10.7330939748
 21
7.8647557905
  0
LINE
  5
20C
100
AcDbEntity
  8
0
100
AcDbLine
 62
7
  6
CONTINUOUS
 10
11.2440939748
 20
7.8647557905
 11
11.2440939748
 21
8.4897557905
  0
LINE
  5
20D
100
AcDbEntity
  8
0
100
AcDbLine
 62
6
  6
CONTINUOUS
 10
11.4500939748
 20
7.6872557905
 11
11.4500939748
 21
8.6672557905
  0
LINE
  5
20E
100
AcDbEntity
  8
0
100
AcDbLine
 62
6
  6
CONTINUOUS
 10
11.5640939748
 20
7.6872557905
 11
11.5640939748
 21
8.6672557905
  0
LINE
  5
20F
100
AcDbEntity
  8
0
100
AcDbLine
 62
6
  6
CONTINUOUS
 10
11.2440939748
 20
8.4897557905
 11
10.7330939748
 21
8.4897557905
  0
LINE
  5
210
100
AcDbEntity
  8
0
100
AcDbLine
 62
6
  6
CONTINUOUS
 10
10.7330939748
 20
8.6672557905
 11
10.0480939748
 21
8.6672557905
  0
LINE
  5
211
100
AcDbEntity
  8
0
100
AcDbLine
 62
6
  6
CONTINUOUS
 10
12.2540939748
 20
8.8422557905
 11
12.2540939748
 21
7.5122557905
  0
LINE
  5
212
100
AcDbEntity
  8
0
100
AcDbLine
 62
6
  6
CONTINUOUS
 10
12.8890939748
 20
9.3597557905
 11
12.7594591875
 21
9.3287220081
  0
LINE
  5
213
100
AcDbEntity
  8
0
100
AcDbLine
 62
7
  6
CONTINUOUS
 10
12.4140939748
 20
7.5122557905
 11
12.4140939748
 21
8.8422557905
  0
LINE
  5
214
100
AcDbEntity
  8
0
100
AcDbLine
 62
9
  6
CONTINUOUS
 10
12.514849934
 20
7.3442651151
 11
12.514849934
 21
9.010246466
  0
LINE
  5
215
100
AcDbEntity
  8
0
100
AcDbLine
 62
9
  6
CONTINUOUS
 10
12.7162667769
 20
7.0676717801
 11
12.7162667769
 21
9.286839801
  0
LINE
  5
216
100
AcDbEntity
  8
0
100
AcDbLine
 62
9
  6
CONTINUOUS
 10
12.7594591875
 20
7.0257895729
 11
12.7594591875
 21
9.3287220081
  0
LINE
  5
217
100
AcDbEntity
  8
0
100
AcDbLine
 62
6
  6
CONTINUOUS
 10
12.8890939748
 20
6.9947557905
 11
12.8890939748
 21
9.3597557905
  0
ARC
  5
218
100
AcDbEntity
  8
0
100
AcDbCircle
 62
6
  6
CONTINUOUS
 10
11.4440939748
 20
7.8871657703
 40
0.2
100
AcDbArc
 50
180.0
 51
271.7191313209
  0
ARC
  5
219
100
AcDbEntity
  8
0
100
AcDbCircle
 62
6
  6
CONTINUOUS
 10
11.4660937391
 20
8.1764149348
 40
1.5
100
AcDbArc
 50
180.0
 51
199.0326009568
  0
ARC
  5
21A
100
AcDbEntity
  8
0
100
AcDbCircle
 62
6
  6
CONTINUOUS
 10
11.5070939748
 20
7.6872557905
 40
0.057
100
AcDbArc
 50
180.0
 51
224.6332321333
  0
ARC
  5
21B
100
AcDbEntity
  8
0
100
AcDbCircle
 62
6
  6
CONTINUOUS
 10
11.5070939748
 20
7.6872557905
 40
0.057
100
AcDbArc
 50
315.3667678667
 51
360.0
  0
ARC
  5
21C
100
AcDbEntity
  8
0
100
AcDbCircle
 62
6
  6
CONTINUOUS
 10
11.6793530974
 20
6.6939203313
 40
1.0
100
AcDbArc
 50
54.918512302
 51
96.6185710667
  0
ARC
  5
21D
100
AcDbEntity
  8
0
100
AcDbCircle
 62
6
  6
CONTINUOUS
 10
11.4660937391
 20
8.1780966463
 40
1.5
100
AcDbArc
 50
160.9673990432
 51
180.0
  0
ARC
  5
21E
100
AcDbEntity
  8
0
100
AcDbCircle
 62
6
  6
CONTINUOUS
 10
11.6793530974
 20
9.6605912498
 40
1.0
100
AcDbArc
 50
263.3814289333
 51
305.081487698
  0
ARC
  5
21F
100
AcDbEntity
  8
0
100
AcDbCircle
 62
6
  6
CONTINUOUS
 10
11.4440939748
 20
8.4673458108
 40
0.2
100
AcDbArc
 50
88.2808686791
 51
180.0
  0
ARC
  5
220
100
AcDbEntity
  8
0
100
AcDbCircle
 62
6
  6
CONTINUOUS
 10
11.5070939748
 20
8.6672557905
 40
0.057
100
AcDbArc
 50
135.4320713506
 51
180.0
  0
ARC
  5
221
100
AcDbEntity
  8
0
100
AcDbCircle
 62
6
  6
CONTINUOUS
 10
11.5070939748
 20
8.6672557905
 40
0.057
100
AcDbArc
 50
0.0
 51
44.5679286494
  0
ARC
  5
222
100
AcDbEntity
  8
0
100
AcDbCircle
 62
6
  6
CONTINUOUS
 10
12.2521545122
 20
6.9413356977
 40
0.481
100
AcDbArc
 50
15.2275388812
 51
56.8971022607
  0
ARC
  5
223
100
AcDbEntity
  8
0
100
AcDbCircle
 62
6
  6
CONTINUOUS
 10
12.6360939748
 20
7.5302325385
 40
0.222
100
AcDbArc
 50
180.0
 51
236.8971022606
  0
ARC
  5
224
100
AcDbEntity
  8
0
100
AcDbCircle
 62
6
  6
CONTINUOUS
 10
12.3340939748
 20
7.5122557905
 40
0.08
100
AcDbArc
 50
180.0
 51
360.0
  0
ARC
  5
225
100
AcDbEntity
  8
0
100
AcDbCircle
 62
6
  6
CONTINUOUS
 10
12.7731953084
 20
7.0831683058
 40
0.059
100
AcDbArc
 50
195.2275388811
 51
256.5371047368
  0
ARC
  5
226
100
AcDbEntity
  8
0
100
AcDbCircle
 62
6
  6
CONTINUOUS
 10
12.3340939748
 20
8.8422557905
 40
0.08
100
AcDbArc
 50
0.0
 51
180.0
  0
ARC
  5
227
100
AcDbEntity
  8
0
100
AcDbCircle
 62
6
  6
CONTINUOUS
 10
12.2521545122
 20
9.4131758833
 40
0.481
100
AcDbArc
 50
303.1028977393
 51
344.7724611188
  0
ARC
  5
228
100
AcDbEntity
  8
0
100
AcDbCircle
 62
6
  6
CONTINUOUS
 10
12.6360939748
 20
8.8242790426
 40
0.222
100
AcDbArc
 50
123.1028977394
 51
180.0
  0
ARC
  5
229
100
AcDbEntity
  8
0
100
AcDbCircle
 62
6
  6
CONTINUOUS
 10
12.7731953084
 20
9.2713432753
 40
0.059
100
AcDbArc
 50
103.4628952632
 51
164.7724611189
  0
SPLINE
  5
22A
100
AcDbEntity
  8
0
100
AcDbSpline
 62
6
  6
CONTINUOUS
 70
0
 71
3
 72
8
 73
4
 74
2
 42
0.0000001
 43
0.0000001
 44
0.0000000001
 12
-0.0000448257
 22
-0.000045555
 32
0.0
 13
-0.0000448257
 23
-0.000045555
 33
0.0
 40
0.0
 40
0.0
 40
0.0
 40
0.0
 40
1.0
 40
1.0
 40
1.0
 40
1.0
 10
11.5477018558
 20
7.6472557926
 30
0.0
 10
11.5476869139
 20
7.6472406076
 30
0.0
 10
11.547671972
 20
7.6472254226
 30
0.0
 10
11.5476570301
 20
7.6472102376
 30
0.0
 11
11.5477018558
 21
7.6472557926
 31
0.0
 11
11.5476570301
 21
7.6472102376
 31
0.0
  0
SPLINE
  5
22B
100
AcDbEntity
  8
0
100
AcDbSpline
 62
6
  6
CONTINUOUS
 70
0
 71
3
 72
29
 73
25
 74
23
 42
0.0000001
 43
0.0000001
 44
0.0000000001
 12
-0.063189321
 22
-0.0641389122
 32
0.0
 13
-0.0631851611
 23
0.0641430102
 33
0.0
 40
0.0
 40
0.0
 40
0.0
 40
0.0
 40
0.0277879853
 40
0.0560260577
 40
0.0847206887
 40
0.1138936233
 40
0.1737284166
 40
0.2356022089
 40
0.2994509777
 40
0.3650438979
 40
0.3983834291
 40
0.4319853794
 40
0.4657748658
 40
0.4996626144
 40
0.5335539089
 40
0.5673585864
 40
0.6009936383
 40
0.6343742089
 40
0.7000631762
 40
0.7640274705
 40
0.8259977262
 40
0.8859656099
 40
0.9439410367
 40
1.0
 40
1.0
 40
1.0
 40
1.0
 10
11.5476570301
 20
7.6472102376
 30
0.0
 10
11.5470717288
 20
7.6466161405
 30
0.0
 10
11.5458628259
 20
7.645446359
 30
0.0
 10
11.5439547762
 20
7.6437644636
 30
0.0
 10
11.5419389878
 20
7.6421458335
 30
0.0
 10
11.5390825979
 20
7.6400655636
 30
0.0
 10
11.5352324082
 20
7.6376673834
 30
0.0
 10
11.5302328446
 20
7.6351940119
 30
0.0
 10
11.5248496491
 20
7.633169378
 30
0.0
 10
11.5201174791
 20
7.6319184142
 30
0.0
 10
11.5162039203
 20
7.6311991732
 30
0.0
 10
11.5132049837
 20
7.6308060382
 30
0.0
 10
11.510173301
 20
7.6305683647
 30
0.0
 10
11.5071247035
 20
7.6304874653
 30
0.0
 10
11.5040755189
 20
7.6305645919
 30
0.0
 10
11.5010421398
 20
7.6308005702
 30
0.0
 10
11.4980401263
 20
7.6311906447
 30
0.0
 10
11.4941207072
 20
7.631906444
 30
0.0
 10
11.4893804872
 20
7.6331567134
 30
0.0
 10
11.4839866904
 20
7.6351793873
 30
0.0
 10
11.4789769354
 20
7.6376561294
 30
0.0
 10
11.4743850823
 20
7.6405130584
 30
0.0
 10
11.4702283
 20
7.6436864693
 30
0.0
 10
11.4677102861
 20
7.6460129912
 30
0.0
 10
11.4665295878
 20
7.647211588
 30
0.0
 11
11.5476570301
 21
7.6472102376
 31
0.0
 11
11.5458595252
 21
7.645469911
 31
0.0
 11
11.5439526076
 21
7.6437882901
 31
0.0
 11
11.5419379874
 21
7.6421708207
 31
0.0
 11
11.5398147444
 21
7.6406244961
 31
0.0
 11
11.5352425057
 21
7.6377752459
 31
0.0
 11
11.5302496899
 21
7.6353039773
 31
0.0
 11
11.5248693433
 21
7.6332790985
 31
0.0
 11
11.5191599363
 21
7.631768751
 31
0.0
 11
11.5162076323
 21
7.6312259025
 31
0.0
 11
11.5132078499
 21
7.6308328415
 31
0.0
 11
11.5101748715
 21
7.6305947478
 31
0.0
 11
11.5071247881
 21
7.6305138271
 31
0.0
 11
11.5040742955
 21
7.6305912887
 31
0.0
 11
11.5010397641
 21
7.6308270641
 31
0.0
 11
11.4980366167
 21
7.6312173721
 31
0.0
 11
11.495080105
 21
7.6317577606
 31
0.0
 11
11.4893612002
 21
7.6332660124
 31
0.0
 11
11.4839695352
 21
7.6352903424
 31
0.0
 11
11.4789678775
 21
7.6377633255
 31
0.0
 11
11.4743840301
 21
7.6406166033
 31
0.0
 11
11.4702358095
 21
7.6437852101
 31
0.0
 11
11.4665295878
 21
7.647211588
 31
0.0
  0
SPLINE
  5
22C
100
AcDbEntity
  8
0
100
AcDbSpline
 62
6
  6
CONTINUOUS
 70
0
 71
3
 72
8
 73
4
 74
2
 42
0.0000001
 43
0.0000001
 44
0.0000000001
 12
-0.0000434941
 22
0.0000442045
 32
0.0
 13
-0.0000434941
 23
0.0000442045
 33
0.0
 40
0.0
 40
0.0
 40
0.0
 40
0.0
 40
1.0
 40
1.0
 40
1.0
 40
1.0
 10
11.4665295878
 20
7.647211588
 30
0.0
 10
11.4665150898
 20
7.6472263229
 30
0.0
 10
11.4665005918
 20
7.6472410577
 30
0.0
 10
11.4664860938
 20
7.6472557926
 30
0.0
 11
11.4665295878
 21
7.647211588
 31
0.0
 11
11.4664860938
 21
7.6472557926
 31
0.0
  0
SPLINE
  5
22D
100
AcDbEntity
  8
0
100
AcDbSpline
 62
6
  6
CONTINUOUS
 70
0
 71
3
 72
30
 73
26
 74
24
 42
0.0000001
 43
0.0000001
 44
0.0000000001
 12
0.0632750352
 22
0.0642366275
 32
0.0
 13
0.0632750352
 23
-0.0642366275
 33
0.0
 40
0.0
 40
0.0
 40
0.0
 40
0.0
 40
0.0560067161
 40
0.1138561916
 40
0.173689564
 40
0.2355646038
 40
0.299417197
 40
0.3650170139
 40
0.3983594201
 40
0.4319678507
 40
0.4657591252
 40
0.4996492146
 40
0.5335453194
 40
0.567352397
 40
0.6009847218
 40
0.6343653257
 40
0.6674151302
 40
0.7000733616
 40
0.7323014375
 40
0.7640566505
 40
0.7953024081
 40
0.8260397564
 40
0.8859857
 40
0.9439398753
 40
1.0
 40
1.0
 40
1.0
 40
1.0
 10
11.4664860938
 20
8.7072557905
 30
0.0
 10
11.4676673694
 20
8.7084550181
 30
0.0
 10
11.4701825513
 20
8.7107837427
 30
0.0
 10
11.4743327782
 20
8.7139626204
 30
0.0
 10
11.4789181652
 20
8.7168245898
 30
0.0
 10
11.4839234891
 20
8.7193051844
 30
0.0
 10
11.489313603
 20
8.7213359412
 30
0.0
 10
11.4940525638
 20
8.7225905461
 30
0.0
 10
11.4979720272
 20
8.7233121692
 30
0.0
 10
11.5009756102
 20
8.7237059286
 30
0.0
 10
11.5040118906
 20
8.7239451484
 30
0.0
 10
11.5070651944
 20
8.724025542
 30
0.0
 10
11.5101190219
 20
8.7239478713
 30
0.0
 10
11.5131569704
 20
8.723711983
 30
0.0
 10
11.5161630899
 20
8.7233200266
 30
0.0
 10
11.5191226729
 20
8.7227781904
 30
0.0
 10
11.5220219164
 20
8.7220913134
 30
0.0
 10
11.5248486717
 20
8.7212658572
 30
0.0
 10
11.5275932246
 20
8.7203111745
 30
0.0
 10
11.5302469673
 20
8.7192357758
 30
0.0
 10
11.5328028078
 20
8.7180474294
 30
0.0
 10
11.5360462662
 20
8.7163390916
 30
0.0
 10
11.5398436025
 20
8.7139711643
 30
0.0
 10
11.5440004973
 20
8.7107878842
 30
0.0
 10
11.5465194537
 20
8.7084561617
 30
0.0
 10
11.5477018558
 20
8.7072557905
 30
0.0
 11
11.4664860938
 21
8.7072557905
 31
0.0
 11
11.4701915337
 21
8.7106867881
 31
0.0
 11
11.4743320844
 21
8.7138591116
 31
0.0
 11
11.4789082934
 21
8.7167164252
 31
0.0
 11
11.4839066324
 21
8.7191948852
 31
0.0
 11
11.4892939172
 21
8.7212258272
 31
0.0
 11
11.4950115642
 21
8.7227407378
 31
0.0
 11
11.4979682296
 21
8.7232852233
 31
0.0
 11
11.500972867
 21
8.7236792908
 31
0.0
 11
11.5040103237
 21
8.7239184228
 31
0.0
 11
11.5070650217
 21
8.7239991735
 31
0.0
 11
11.5101203364
 21
8.723921274
 31
0.0
 11
11.5131594568
 21
8.7236851402
 31
0.0
 11
11.5161665541
 21
8.7232932685
 31
0.0
 11
11.51912712
 21
8.7227509542
 31
0.0
 11
11.5220267934
 21
8.7220637209
 31
0.0
 11
11.5248534614
 21
8.7212383961
 31
0.0
 11
11.5275980116
 21
8.720283547
 31
0.0
 11
11.5302515407
 21
8.7192078621
 31
0.0
 11
11.5328062034
 21
8.7180199779
 31
0.0
 11
11.5352583062
 21
8.7167283276
 31
0.0
 11
11.5398441363
 21
8.7138672585
 31
0.0
 11
11.5439926632
 21
8.7106898233
 31
0.0
 11
11.5477018558
 21
8.7072557905
 31
0.0
  0
ENDSEC
  0
SECTION
  2
OBJECTS
  0
DICTIONARY
  5
C
100
AcDbDictionary
280
0
281
1
  3
ACAD_GROUP
350
D
  3
ACAD_MLINESTYLE
350
17
  3
ACAD_LAYOUT
350
1A
  3
ACAD_PLOTSETTINGS
350
19
  3
ACAD_PLOTSTYLENAME
350
E
  0
DICTIONARY
  5
D
102
{ACAD_REACTORS
330
C
102
}
100
AcDbDictionary
280
0
281
1
  0
ACDBDICTIONARYWDFLT
  5
E
102
{ACAD_REACTORS
330
C
102
}
100
AcDbDictionary
281
1
  3
Normal
350
F
100
AcDbDictionaryWithDefault
340
F
  0
DICTIONARY
  5
17
102
{ACAD_REACTORS
330
C
102
}
100
AcDbDictionary
280
0
281
1
  3
Standard
350
18
  0
DICTIONARY
  5
19
102
{ACAD_REACTORS
330
C
102
}
100
AcDbDictionary
281
1
  0
DICTIONARY
  5
1A
102
{ACAD_REACTORS
330
C
102
}
100
AcDbDictionary
281
1
  3
Model
350
22E
  3
Layout1
350
22F
  0
ACDBPLACEHOLDER
  5
F
102
{ACAD_REACTORS
330
E
102
}
  0
MLINESTYLE
  5
18
102
{ACAD_REACTORS
330
17
102
}
100
AcDbMlineStyle
  2
STANDARD
 70
0
  3

 62
256
 51
90.0
 52
90.0
 71
2
 49
0.5
 62
256
  6
BYLAYER
 49
-0.5
 62
256
  6
BYLAYER
  0
LAYOUT
  5
22E
102
{ACAD_REACTORS
330
1A
102
}
100
AcDbPlotSettings
  1

  2
none_device
  4
ISO_A2_(594.00_x_420.00_MM)
  6

 40
0.0
 41
0.0
 42
0.0
 43
0.0
 44
594.0
 45
420.0
 46
0.0
 47
0.0
 48
0.0
 49
0.0
140
0.0
141
0.0
142
1.0
143
1.0
 70
1024
 72
0
 73
0
 74
0
  7

 75
0
147
1.0
148
0.0
149
0.0
100
AcDbLayout
  1
Model
 70
0
 71
0
 10
0.0
 20
0.0
 11
23.3858267717
 21
16.5354330709
 12
0.0
 22
0.0
 32
0.0
 14
0.0
 24
0.0
 34
0.0
 15
0.0
 25
0.0
 35
0.0
146
0.0
 13
0.0
 23
0.0
 33
0.0
 16
1.0
 26
0.0
 36
0.0
 17
0.0
 27
1.0
 37
0.0
 76
0
330
203
345
0
346
0
  0
LAYOUT
  5
22F
102
{ACAD_REACTORS
330
1A
102
}
100
AcDbPlotSettings
  1

  2
none_device
  4
ISO_A2_(594.00_x_420.00_MM)
  6

 40
0.0
 41
0.0
 42
0.0
 43
0.0
 44
594.0
 45
420.0
 46
0.0
 47
0.0
 48
0.0
 49
0.0
140
0.0
141
0.0
142
1.0
143
1.0
 70
0
 72
0
 73
0
 74
0
  7

 75
0
147
1.0
148
0.0
149
0.0
100
AcDbLayout
  1
Layout1
 70
0
 71
1
 10
0.0
 20
0.0
 11
23.3858267717
 21
16.5354330709
 12
0.0
 22
0.0
 32
0.0
 14
0.0
 24
0.0
 34
0.0
 15
0.0
 25
0.0
 35
0.0
146
0.0
 13
0.0
 23
0.0
 33
0.0
 16
1.0
 26
0.0
 36
0.0
 17
0.0
 27
1.0
 37
0.0
 76
0
330
204
345
0
346
0
  0
ENDSEC
  0
EOF
