999
DXF file: E:\BT Custom\CADOUTPUT\_FRONT.dxf
999
Pro/ENGINEER 2018400 by Parametric Technology Corporation
  0
SECTION
  2
HEADER
  9
$ACADVER
  1
AC1018
  9
$DWGCODEPAGE
  3
ANSI_1252
  9
$EXTMAX
 10
22.0
 20
17.0
 30
0.0
  9
$EXTMIN
 10
0.0
 20
0.0
 30
0.0
  9
$LIMMIN
 10
0.0
 20
0.0
  9
$LIMMAX
 10
22.0
 20
17.0
  9
$VIEWCTR
 10
11.0
 20
8.5
  9
$VIEWSIZE
 40
17.0
  9
$CLAYER
  8
0
  9
$LTSCALE
 40
1.21
  9
$CELTYPE
  6
BYLAYER
  9
$DIMSCALE
 40
1.0
  9
$DIMASZ
 40
0.1
  9
$DIMEXO
 40
0.0625
  9
$DIMDLI
 40
0.836
  9
$DIMEXE
 40
0.125
  9
$DIMCEN
 40
0.198
  9
$DIMLFAC
 40
1.0
  9
$DIMBLK
  1
_FILLED
  9
$DIMALT
 70
1
  9
$DIMALTD
 70
2
  9
$DIMALTTD
 70
2
  9
$DIMALTF
 40
25.4
  9
$DIMTXT
 40
0.08
  9
$DIMTOL
 70
1
  9
$DIMLIM
 70
0
  9
$DIMTFAC
 40
1.0
  9
$DIMTP
 40
0.001
  9
$DIMTM
 40
0.001
  9
$DIMGAP
 40
0.09
  9
$DIMDSEP
 70
46
  9
$AUNITS
 70
0
  9
$PDMODE
 70
3
  9
$PDSIZE
 40
0.06
  9
$HANDSEED
  5
2F3
  9
$TILEMODE
 70
1
  9
$MEASUREMENT
 70
0
  9
$INSUNITS
 70
1
  0
ENDSEC
  0
SECTION
  2
CLASSES
  0
CLASS
  1
ACDBDICTIONARYWDFLT
  2
AcDbDictionaryWithDefault
  3
AutoCAD 2000
 90
0
 91
1
280
0
281
0
  0
CLASS
  1
ACDBPLACEHOLDER
  2
AcDbPlaceHolder
  3
AutoCAD 2000
 90
0
 91
1
280
0
281
0
  0
CLASS
  1
LAYOUT
  2
AcDbLayout
  3
AutoCAD 2000
 90
0
 91
0
280
0
281
0
  0
ENDSEC
  0
SECTION
  2
TABLES
  0
TABLE
  2
VPORT
  5
8
100
AcDbSymbolTable
 70
2
  0
VPORT
  5
1F4
100
AcDbSymbolTableRecord
100
AcDbViewportTableRecord
  2
*ACTIVE
 70
0
 10
0.0
 20
0.0
 11
1.0
 21
1.0
 12
11.0
 22
8.5
 13
0.0
 23
0.0
 14
1.0
 24
1.0
 15
0.0
 25
0.0
 16
0.0
 26
0.0
 36
1.0
 17
0.0
 27
0.0
 37
0.0
 40
17.0
 41
1.2941176471
 42
50.0
 43
0.0
 44
0.0
 50
0.0
 51
0.0
 71
0
 72
100
 73
1
 74
1
 75
0
 76
0
 77
0
 78
0
  0
ENDTAB
  0
TABLE
  2
LTYPE
  5
5
100
AcDbSymbolTable
 70
6
  0
LTYPE
  5
14
100
AcDbSymbolTableRecord
100
AcDbLinetypeTableRecord
  2
BYBLOCK
 70
0
  3

 72
65
 73
0
 40
0.0
  0
LTYPE
  5
15
100
AcDbSymbolTableRecord
100
AcDbLinetypeTableRecord
  2
BYLAYER
 70
0
  3

 72
65
 73
0
 40
0.0
  0
LTYPE
  5
16
100
AcDbSymbolTableRecord
100
AcDbLinetypeTableRecord
  2
CONTINUOUS
 70
64
  3
Solid line
 72
65
 73
0
 40
0.0
  0
LTYPE
  5
1F5
100
AcDbSymbolTableRecord
100
AcDbLinetypeTableRecord
  2
CENTER
 70
64
  3
____ _ ____ _ ____ _ ____ _ ____ _ ____ _ ____
 72
65
 73
4
 40
0.6
 49
0.375
 74
0
 49
-0.075
 74
0
 49
0.075
 74
0
 49
-0.075
 74
0
  0
LTYPE
  5
1F6
100
AcDbSymbolTableRecord
100
AcDbLinetypeTableRecord
  2
HIDDEN
 70
64
  3
- - - - - - - - - - - - - - - - - - - -
 72
65
 73
2
 40
0.2
 49
0.1
 74
0
 49
-0.1
 74
0
  0
LTYPE
  5
1F7
100
AcDbSymbolTableRecord
100
AcDbLinetypeTableRecord
  2
PHANTOM
 70
64
  3
_____ _ _ _____ _ _ _____ _ _ _____
 72
65
 73
6
 40
0.8
 49
0.45
 74
0
 49
-0.05
 74
0
 49
0.1
 74
0
 49
-0.05
 74
0
 49
0.1
 74
0
 49
-0.05
 74
0
  0
LTYPE
  5
1F8
100
AcDbSymbolTableRecord
100
AcDbLinetypeTableRecord
  2
DOT
 70
64
  3
. . . . . . . . . . . . . . . . . . . .
 72
65
 73
2
 40
0.2
 49
0.1
 74
0
 49
-0.1
 74
0
  0
LTYPE
  5
1F9
100
AcDbSymbolTableRecord
100
AcDbLinetypeTableRecord
  2
DASHED
 70
64
  3
- - - - - - - - - - - - - - - - - - - -
 72
65
 73
2
 40
0.2
 49
0.1
 74
0
 49
-0.1
 74
0
  0
ENDTAB
  0
TABLE
  2
LAYER
  5
2
100
AcDbSymbolTable
 70
36
  0
LAYER
  5
10
100
AcDbSymbolTableRecord
100
AcDbLayerTableRecord
  2
0
 70
0
 62
7
  6
CONTINUOUS
370
-3
390
F
  0
LAYER
  5
1FA
100
AcDbSymbolTableRecord
100
AcDbLayerTableRecord
  2
DEFAULT_1
 70
0
 62
7
  6
CENTER
370
-3
390
F
  0
LAYER
  5
1FB
100
AcDbSymbolTableRecord
100
AcDbLayerTableRecord
  2
DEFAULT_2
 70
0
 62
8
  6
HIDDEN
370
-3
390
F
  0
LAYER
  5
1FC
100
AcDbSymbolTableRecord
100
AcDbLayerTableRecord
  2
DEFAULT_3
 70
0
 62
7
  6
PHANTOM
370
-3
390
F
  0
LAYER
  5
1FD
100
AcDbSymbolTableRecord
100
AcDbLayerTableRecord
  2
ALL_FEATURES
 70
0
 62
7
  6
CONTINUOUS
370
-3
390
F
  0
LAYER
  5
1FE
100
AcDbSymbolTableRecord
100
AcDbLayerTableRecord
  2
AXES_FEATURES
 70
0
 62
7
  6
CONTINUOUS
370
-3
390
F
  0
LAYER
  5
1FF
100
AcDbSymbolTableRecord
100
AcDbLayerTableRecord
  2
DEFAULT_COORDINATE_SYSTEM
 70
0
 62
7
  6
CONTINUOUS
370
-3
390
F
  0
LAYER
  5
200
100
AcDbSymbolTableRecord
100
AcDbLayerTableRecord
  2
DEFAULT_DATUM_AXES
 70
0
 62
7
  6
CONTINUOUS
370
-3
390
F
  0
LAYER
  5
201
100
AcDbSymbolTableRecord
100
AcDbLayerTableRecord
  2
DEFAULT_DATUM_PLANES
 70
0
 62
7
  6
CONTINUOUS
370
-3
390
F
  0
LAYER
  5
202
100
AcDbSymbolTableRecord
100
AcDbLayerTableRecord
  2
DIMENSIONS
 70
0
 62
7
  6
CONTINUOUS
370
-3
390
F
  0
ENDTAB
  0
TABLE
  2
STYLE
  5
3
100
AcDbSymbolTable
 70
1
  0
STYLE
  5
11
100
AcDbSymbolTableRecord
100
AcDbTextStyleTableRecord
  2
STANDARD
 70
0
 40
0.0
 41
0.8
 50
0.0
 71
0
 42
0.2
  3
txt
  4

  0
STYLE
  5
203
100
AcDbSymbolTableRecord
100
AcDbTextStyleTableRecord
  2
TEXTSTYLE_1
 70
0
 40
0.0
 41
0.8
 50
0.0
 71
0
 42
0.2
  3
gdt
  4

  0
ENDTAB
  0
TABLE
  2
VIEW
  5
6
100
AcDbSymbolTable
 70
0
  0
ENDTAB
  0
TABLE
  2
UCS
  5
7
100
AcDbSymbolTable
 70
0
  0
ENDTAB
  0
TABLE
  2
APPID
  5
9
100
AcDbSymbolTable
 70
1
  0
APPID
  5
204
100
AcDbSymbolTableRecord
100
AcDbRegAppTableRecord
  2
ACAD
 70
0
  0
ENDTAB
  0
TABLE
  2
BLOCK_RECORD
  5
1
100
AcDbSymbolTable
 70
0
  0
BLOCK_RECORD
  5
205
100
AcDbSymbolTableRecord
100
AcDbBlockTableRecord
  2
*Model_Space
  0
BLOCK_RECORD
  5
206
100
AcDbSymbolTableRecord
100
AcDbBlockTableRecord
  2
*Paper_Space
  0
BLOCK_RECORD
  5
207
100
AcDbSymbolTableRecord
100
AcDbBlockTableRecord
  2
_FILLED
  0
ENDTAB
  0
TABLE
  2
DIMSTYLE
  5
A
100
AcDbSymbolTable
 70
1
100
AcDbDimStyleTable
 71
0
  0
DIMSTYLE
105
208
100
AcDbSymbolTableRecord
100
AcDbDimStyleTableRecord
  2
STANDARD
 70
0
  3

  4

 40
1.0
 41
0.1
 42
0.0625
 43
0.38
 44
0.125
 45
0.0
 46
0.0
 47
0.001
 48
0.001
140
0.08
141
0.09
142
0.0
143
25.4
144
1.0
145
0.0
146
1.0
147
0.09
 71
1.0
 72
0.0
 73
1
 74
1
 75
0
 76
0
 77
0
 78
4
 79
1
170
1
171
2
172
0
173
0
174
0
175
0
176
0
177
0
178
0
270
2
179
3
271
3
272
3
273
2
274
2
275
0
280
0
281
0
282
0
283
1
284
4
285
0
286
0
287
3
288
0
340
11
278
46
341
207
342
207
343
207
344
207
  0
ENDTAB
  0
ENDSEC
  0
SECTION
  2
BLOCKS
  0
BLOCK
  5
20
100
AcDbEntity
  8
0
100
AcDbBlockBegin
  2
*Model_Space
 70
0
 10
0.0
 20
0.0
 30
0.0
  3
*Model_Space
  1

  0
ENDBLK
  5
21
100
AcDbEntity
  8
0
100
AcDbBlockEnd
  0
BLOCK
  5
1C
100
AcDbEntity
  8
0
100
AcDbBlockBegin
  2
*Paper_Space
 70
0
 10
0.0
 20
0.0
 30
0.0
  3
*Paper_Space
  1

  0
ENDBLK
  5
1D
100
AcDbEntity
  8
0
100
AcDbBlockEnd
  0
BLOCK
  5
209
100
AcDbEntity
  8
0
100
AcDbBlockBegin
  2
_FILLED
 70
64
 10
0.0
 20
0.0
  3
_FILLED
  1

  0
SOLID
  5
20A
100
AcDbEntity
  8
0
  6
BYBLOCK
 62
0
100
AcDbTrace
 10
0.0
 20
0.0
 11
-1.0
 21
0.2
 12
-1.0
 22
-0.2
 13
-1.0
 23
-0.2
  0
ENDBLK
  5
20B
100
AcDbEntity
  8
0
  6
BYBLOCK
 62
0
100
AcDbBlockEnd
  0
ENDSEC
  0
SECTION
  2
ENTITIES
  0
LINE
  5
20C
100
AcDbEntity
  8
0
100
AcDbLine
 62
7
  6
CONTINUOUS
 10
12.0776923427
 20
4.3927821548
 11
9.7976923427
 21
4.3927821548
  0
LINE
  5
20D
100
AcDbEntity
  8
0
100
AcDbLine
 62
9
  6
CONTINUOUS
 10
12.0958041859
 20
4.5099832137
 11
9.7795804995
 21
4.5099832137
  0
LINE
  5
20E
100
AcDbEntity
  8
0
100
AcDbLine
 62
9
  6
CONTINUOUS
 10
11.9185374151
 20
4.6608247527
 11
9.9568472704
 21
4.6608247527
  0
LINE
  5
20F
100
AcDbEntity
  8
0
100
AcDbLine
 62
9
  6
CONTINUOUS
 10
11.9265830938
 20
4.7363574913
 11
9.9488015916
 21
4.7363574913
  0
LINE
  5
210
100
AcDbEntity
  8
0
100
AcDbLine
 62
7
  6
CONTINUOUS
 10
11.8876923427
 20
4.8177821548
 11
9.9876923427
 21
4.8177821548
  0
LINE
  5
211
100
AcDbEntity
  8
0
100
AcDbLine
 62
9
  6
CONTINUOUS
 10
10.0046753331
 20
4.8309835118
 11
11.8707093524
 21
4.8309835118
  0
LINE
  5
212
100
AcDbEntity
  8
0
100
AcDbLine
 62
7
  6
CONTINUOUS
 10
12.1566923427
 20
5.7227821548
 11
12.0656923427
 21
5.7227821548
  0
LINE
  5
213
100
AcDbEntity
  8
0
100
AcDbLine
 62
7
  6
CONTINUOUS
 10
9.7186923427
 20
5.7227821548
 11
9.8096923427
 21
5.7227821548
  0
LINE
  5
214
100
AcDbEntity
  8
0
100
AcDbLine
 62
7
  6
CONTINUOUS
 10
9.8096923427
 20
5.8377821548
 11
10.1123383518
 21
5.8377821548
  0
LINE
  5
215
100
AcDbEntity
  8
0
100
AcDbLine
 62
7
  6
CONTINUOUS
 10
11.7630463337
 20
5.8377821548
 11
12.0656923427
 21
5.8377821548
  0
LINE
  5
216
100
AcDbEntity
  8
0
100
AcDbLine
 62
7
  6
CONTINUOUS
 10
13.4356923427
 20
5.8677821548
 11
12.7002934231
 21
5.8677821548
  0
LINE
  5
217
100
AcDbEntity
  8
0
100
AcDbLine
 62
7
  6
CONTINUOUS
 10
8.4396923427
 20
5.8677821548
 11
9.1750912624
 21
5.8677821548
  0
LINE
  5
218
100
AcDbEntity
  8
0
100
AcDbLine
 62
7
  6
CONTINUOUS
 10
8.3396923427
 20
6.7777821548
 11
8.3396923427
 21
5.8577821548
  0
LINE
  5
219
100
AcDbEntity
  8
0
100
AcDbLine
 62
7
  6
CONTINUOUS
 10
8.5589236288
 20
7.1240439243
 11
8.5203336522
 21
8.5977356771
  0
LINE
  5
21A
100
AcDbEntity
  8
0
100
AcDbLine
 62
7
  6
CONTINUOUS
 10
8.4396923427
 20
6.7777821548
 11
8.4396923427
 21
5.8577821548
  0
LINE
  5
21B
100
AcDbEntity
  8
0
100
AcDbLine
 62
7
  6
CONTINUOUS
 10
8.4781923427
 20
8.7827821548
 11
8.4781923427
 21
8.8587821548
  0
LINE
  5
21C
100
AcDbEntity
  8
0
100
AcDbLine
 62
7
  6
CONTINUOUS
 10
8.5001923427
 20
6.9922821548
 11
8.5001923427
 21
7.1037821548
  0
LINE
  5
21D
100
AcDbEntity
  8
0
100
AcDbLine
 62
7
  6
CONTINUOUS
 10
8.5881923427
 20
6.8977821548
 11
8.5881923427
 21
6.7647095551
  0
LINE
  5
21E
100
AcDbEntity
  8
0
100
AcDbLine
 62
7
  6
CONTINUOUS
 10
13.4356923427
 20
6.7677821548
 11
13.2946923427
 21
6.7677821548
  0
LINE
  5
21F
100
AcDbEntity
  8
0
100
AcDbLine
 62
7
  6
CONTINUOUS
 10
12.9196923427
 20
6.7677821548
 11
12.7002934231
 21
6.7677821548
  0
LINE
  5
220
100
AcDbEntity
  8
0
100
AcDbLine
 62
7
  6
CONTINUOUS
 10
8.4396923427
 20
6.7677821548
 11
8.5806923427
 21
6.7677821548
  0
LINE
  5
221
100
AcDbEntity
  8
0
100
AcDbLine
 62
7
  6
CONTINUOUS
 10
8.9556923427
 20
6.7677821548
 11
9.1750912624
 21
6.7677821548
  0
LINE
  5
222
100
AcDbEntity
  8
0
100
AcDbLine
 62
7
  6
CONTINUOUS
 10
9.8096923427
 20
6.7977821548
 11
10.1140472595
 21
6.7977821548
  0
LINE
  5
223
100
AcDbEntity
  8
0
100
AcDbLine
 62
7
  6
CONTINUOUS
 10
11.761337426
 20
6.7977821548
 11
12.0656923427
 21
6.7977821548
  0
LINE
  5
224
100
AcDbEntity
  8
0
100
AcDbLine
 62
7
  6
CONTINUOUS
 10
13.2871923427
 20
6.8977821548
 11
12.9271923427
 21
6.8977821548
  0
LINE
  5
225
100
AcDbEntity
  8
0
100
AcDbLine
 62
7
  6
CONTINUOUS
 10
8.9481923442
 20
6.8977821548
 11
8.5881923412
 21
6.8977821548
  0
LINE
  5
226
100
AcDbEntity
  8
0
100
AcDbLine
 62
7
  6
CONTINUOUS
 10
12.1566923427
 20
6.9127821548
 11
12.0656923427
 21
6.9127821548
  0
LINE
  5
227
100
AcDbEntity
  8
0
100
AcDbLine
 62
7
  6
CONTINUOUS
 10
9.7186923427
 20
6.9127821548
 11
9.8096923427
 21
6.9127821548
  0
LINE
  5
228
100
AcDbEntity
  8
0
100
AcDbLine
 62
9
  6
CONTINUOUS
 10
8.5001923427
 20
6.9922821548
 11
9.0361923427
 21
6.9922821548
  0
LINE
  5
229
100
AcDbEntity
  8
0
100
AcDbLine
 62
9
  6
CONTINUOUS
 10
12.8391923427
 20
6.9922821548
 11
13.3751923427
 21
6.9922821548
  0
LINE
  5
22A
100
AcDbEntity
  8
0
100
AcDbLine
 62
9
  6
CONTINUOUS
 10
8.5001923427
 20
7.1037821548
 11
9.0361923427
 21
7.1037821548
  0
LINE
  5
22B
100
AcDbEntity
  8
0
100
AcDbLine
 62
9
  6
CONTINUOUS
 10
12.8391923427
 20
7.1037821548
 11
13.3751923427
 21
7.1037821548
  0
LINE
  5
22C
100
AcDbEntity
  8
0
100
AcDbLine
 62
7
  6
CONTINUOUS
 10
8.9481923427
 20
6.8977821548
 11
8.9481923427
 21
6.7647095547
  0
LINE
  5
22D
100
AcDbEntity
  8
0
100
AcDbLine
 62
7
  6
CONTINUOUS
 10
9.0361923427
 20
6.9922821548
 11
9.0361923427
 21
7.1037821548
  0
LINE
  5
22E
100
AcDbEntity
  8
0
100
AcDbLine
 62
7
  6
CONTINUOUS
 10
9.0581923427
 20
8.7827821548
 11
9.0581923427
 21
8.8587821548
  0
LINE
  5
22F
100
AcDbEntity
  8
0
100
AcDbLine
 62
7
  6
CONTINUOUS
 10
8.9774610566
 20
7.1240439243
 11
9.0160510333
 21
8.5977356771
  0
LINE
  5
230
100
AcDbEntity
  8
0
100
AcDbLine
 62
7
  6
CONTINUOUS
 10
8.5101923717
 20
7.1137821548
 11
9.0261923427
 21
7.1137821548
  0
LINE
  5
231
100
AcDbEntity
  8
0
100
AcDbLine
 62
7
  6
CONTINUOUS
 10
12.8491923427
 20
7.1137821548
 11
13.3651923427
 21
7.1137821548
  0
LINE
  5
232
100
AcDbEntity
  8
0
100
AcDbLine
 62
9
  6
CONTINUOUS
 10
13.3164610566
 20
7.1240439243
 11
12.8979236288
 21
7.1240439243
  0
LINE
  5
233
100
AcDbEntity
  8
0
100
AcDbLine
 62
9
  6
CONTINUOUS
 10
8.9774610566
 20
7.1240439243
 11
8.5589236288
 21
7.1240439243
  0
LINE
  5
234
100
AcDbEntity
  8
0
100
AcDbLine
 62
9
  6
CONTINUOUS
 10
10.143414489
 20
7.3168541703
 11
11.7319701965
 21
7.3168541703
  0
LINE
  5
235
100
AcDbEntity
  8
0
100
AcDbLine
 62
9
  6
CONTINUOUS
 10
10.1376923427
 20
7.3700362177
 11
11.7376923427
 21
7.3700362177
  0
LINE
  5
236
100
AcDbEntity
  8
0
100
AcDbLine
 62
7
  6
CONTINUOUS
 10
10.1076923427
 20
7.4227821548
 11
11.7676923427
 21
7.4227821548
  0
LINE
  5
237
100
AcDbEntity
  8
0
100
AcDbLine
 62
9
  6
CONTINUOUS
 10
9.1750912624
 20
5.8677821548
 11
9.1750912624
 21
6.7677821548
  0
LINE
  5
238
100
AcDbEntity
  8
0
100
AcDbLine
 62
9
  6
CONTINUOUS
 10
9.2196158343
 20
5.8405321548
 11
9.2196158343
 21
6.7950321548
  0
LINE
  5
239
100
AcDbEntity
  8
0
100
AcDbLine
 62
9
  6
CONTINUOUS
 10
9.266366783
 20
5.813331747
 11
9.266366783
 21
6.8222325627
  0
LINE
  5
23A
100
AcDbEntity
  8
0
100
AcDbLine
 62
9
  6
CONTINUOUS
 10
10.0968806399
 20
7.5398942627
 11
11.7785040456
 21
7.5398942627
  0
LINE
  5
23B
100
AcDbEntity
  8
0
100
AcDbLine
 62
9
  6
CONTINUOUS
 10
9.6869807445
 20
5.7298161741
 11
9.6869807445
 21
6.9057481356
  0
LINE
  5
23C
100
AcDbEntity
  8
0
100
AcDbLine
 62
9
  6
CONTINUOUS
 10
9.7186923427
 20
5.7227821548
 11
9.7186923427
 21
6.9127821548
  0
LINE
  5
23D
100
AcDbEntity
  8
0
100
AcDbLine
 62
7
  6
CONTINUOUS
 10
9.8096923427
 20
6.9127821548
 11
9.8096923427
 21
5.7227821548
  0
LINE
  5
23E
100
AcDbEntity
  8
0
100
AcDbLine
 62
7
  6
CONTINUOUS
 10
11.2520023314
 20
11.6528611892
 11
11.2555967387
 21
11.6567542427
  0
LINE
  5
23F
100
AcDbEntity
  8
0
100
AcDbLine
 62
9
  6
CONTINUOUS
 10
11.2520023314
 20
11.6528611892
 11
11.2520003083
 21
11.6528590619
  0
LINE
  5
240
100
AcDbEntity
  8
0
100
AcDbLine
 62
9
  6
CONTINUOUS
 10
11.2254111167
 20
11.3378834622
 11
11.2253682993
 21
11.337840223
  0
LINE
  5
241
100
AcDbEntity
  8
0
100
AcDbLine
 62
9
  6
CONTINUOUS
 10
10.4772525646
 20
7.9535223429
 11
11.3981321209
 21
7.9535223429
  0
LINE
  5
242
100
AcDbEntity
  8
0
100
AcDbLine
 62
9
  6
CONTINUOUS
 10
10.4429477274
 20
8.0261860454
 11
11.4324369581
 21
8.0261860454
  0
LINE
  5
243
100
AcDbEntity
  8
0
100
AcDbLine
 62
7
  6
CONTINUOUS
 10
10.4706924111
 20
8.1177821548
 11
11.4046923427
 21
8.1177821548
  0
LINE
  5
244
100
AcDbEntity
  8
0
100
AcDbLine
 62
7
  6
CONTINUOUS
 10
10.1376923427
 20
7.3700362177
 11
10.1376923427
 21
7.4227821548
  0
LINE
  5
245
100
AcDbEntity
  8
0
100
AcDbLine
 62
7
  6
CONTINUOUS
 10
10.5931658029
 20
11.7462649798
 11
10.5928819504
 21
11.744786023
  0
LINE
  5
246
100
AcDbEntity
  8
0
100
AcDbLine
 62
7
  6
CONTINUOUS
 10
10.6537812926
 20
11.4915995333
 11
10.6542649521
 21
11.5148362192
  0
LINE
  5
247
100
AcDbEntity
  8
0
100
AcDbLine
 62
9
  6
CONTINUOUS
 10
8.5203336522
 20
8.5977356771
 11
9.0160510333
 21
8.5977356771
  0
LINE
  5
248
100
AcDbEntity
  8
0
100
AcDbLine
 62
9
  6
CONTINUOUS
 10
12.8593336522
 20
8.5977356771
 11
13.3550510333
 21
8.5977356771
  0
LINE
  5
249
100
AcDbEntity
  8
0
100
AcDbLine
 62
9
  6
CONTINUOUS
 10
8.5016422563
 20
8.6770700063
 11
9.0347424292
 21
8.6770700063
  0
LINE
  5
24A
100
AcDbEntity
  8
0
100
AcDbLine
 62
9
  6
CONTINUOUS
 10
12.8406422563
 20
8.6770700063
 11
13.3737424292
 21
8.6770700063
  0
LINE
  5
24B
100
AcDbEntity
  8
0
100
AcDbLine
 62
9
  6
CONTINUOUS
 10
8.4781923427
 20
8.7827821548
 11
9.0581923427
 21
8.7827821548
  0
LINE
  5
24C
100
AcDbEntity
  8
0
100
AcDbLine
 62
9
  6
CONTINUOUS
 10
12.8171923427
 20
8.7827821548
 11
13.3971923427
 21
8.7827821548
  0
LINE
  5
24D
100
AcDbEntity
  8
0
100
AcDbLine
 62
9
  6
CONTINUOUS
 10
8.4781923427
 20
8.8587821548
 11
9.0581923427
 21
8.8587821548
  0
LINE
  5
24E
100
AcDbEntity
  8
0
100
AcDbLine
 62
9
  6
CONTINUOUS
 10
12.8171923427
 20
8.8587821548
 11
13.3971923427
 21
8.8587821548
  0
LINE
  5
24F
100
AcDbEntity
  8
0
100
AcDbLine
 62
7
  6
CONTINUOUS
 10
8.6781923427
 20
8.8977821548
 11
8.8581923427
 21
8.8977821548
  0
LINE
  5
250
100
AcDbEntity
  8
0
100
AcDbLine
 62
7
  6
CONTINUOUS
 10
13.0171923427
 20
8.8977821548
 11
13.1971923172
 21
8.8977821548
  0
LINE
  5
251
100
AcDbEntity
  8
0
100
AcDbLine
 62
9
  6
CONTINUOUS
 10
10.6491792089
 20
11.5942454566
 11
10.6488997968
 21
11.5985893308
  0
LINE
  5
252
100
AcDbEntity
  8
0
100
AcDbLine
 62
7
  6
CONTINUOUS
 10
10.6876923427
 20
13.8927789246
 11
10.6876923427
 21
11.8364144204
  0
LINE
  5
253
100
AcDbEntity
  8
0
100
AcDbLine
 62
7
  6
CONTINUOUS
 10
10.6876923427
 20
8.1177821548
 11
10.6876923427
 21
11.310892837
  0
LINE
  5
254
100
AcDbEntity
  8
0
100
AcDbLine
 62
7
  6
CONTINUOUS
 10
11.2211197334
 20
11.5148362192
 11
11.221603393
 21
11.491599531
  0
LINE
  5
255
100
AcDbEntity
  8
0
100
AcDbLine
 62
7
  6
CONTINUOUS
 10
11.1876923427
 20
13.8927789246
 11
11.1876923427
 21
11.8364112407
  0
LINE
  5
256
100
AcDbEntity
  8
0
100
AcDbLine
 62
7
  6
CONTINUOUS
 10
11.1876923427
 20
8.1177821548
 11
11.1876923427
 21
11.3109003364
  0
LINE
  5
257
100
AcDbEntity
  8
0
100
AcDbLine
 62
9
  6
CONTINUOUS
 10
11.2264848888
 20
11.5985893308
 11
11.2262054766
 21
11.5942454566
  0
LINE
  5
258
100
AcDbEntity
  8
0
100
AcDbLine
 62
7
  6
CONTINUOUS
 10
11.7376923427
 20
7.3700362177
 11
11.7376923427
 21
7.4227821548
  0
LINE
  5
259
100
AcDbEntity
  8
0
100
AcDbLine
 62
7
  6
CONTINUOUS
 10
12.0656923427
 20
6.9127821548
 11
12.0656923427
 21
5.7227821548
  0
LINE
  5
25A
100
AcDbEntity
  8
0
100
AcDbLine
 62
7
  6
CONTINUOUS
 10
11.2825027351
 20
11.744786023
 11
11.2822189162
 21
11.7462648107
  0
LINE
  5
25B
100
AcDbEntity
  8
0
100
AcDbLine
 62
9
  6
CONTINUOUS
 10
12.1566923427
 20
5.7227821548
 11
12.1566923427
 21
6.9127821548
  0
LINE
  5
25C
100
AcDbEntity
  8
0
100
AcDbLine
 62
9
  6
CONTINUOUS
 10
12.188403941
 20
5.7298161741
 11
12.188403941
 21
6.9057481356
  0
LINE
  5
25D
100
AcDbEntity
  8
0
100
AcDbLine
 62
9
  6
CONTINUOUS
 10
10.6500163862
 20
11.337840223
 11
10.6499735595
 21
11.3378834715
  0
LINE
  5
25E
100
AcDbEntity
  8
0
100
AcDbLine
 62
9
  6
CONTINUOUS
 10
10.6233842979
 20
11.6528591452
 11
10.6233799676
 21
11.6528636988
  0
LINE
  5
25F
100
AcDbEntity
  8
0
100
AcDbLine
 62
7
  6
CONTINUOUS
 10
10.6197879469
 20
11.6567542427
 11
10.6233799676
 21
11.6528636988
  0
LINE
  5
260
100
AcDbEntity
  8
0
100
AcDbLine
 62
9
  6
CONTINUOUS
 10
12.6090179025
 20
5.813331747
 11
12.6090179025
 21
6.8222325627
  0
LINE
  5
261
100
AcDbEntity
  8
0
100
AcDbLine
 62
9
  6
CONTINUOUS
 10
12.6557688512
 20
5.8405321548
 11
12.6557688512
 21
6.7950321548
  0
LINE
  5
262
100
AcDbEntity
  8
0
100
AcDbLine
 62
9
  6
CONTINUOUS
 10
12.7002934231
 20
5.8677821548
 11
12.7002934231
 21
6.7677821548
  0
LINE
  5
263
100
AcDbEntity
  8
0
100
AcDbLine
 62
7
  6
CONTINUOUS
 10
12.8171923427
 20
8.7827821548
 11
12.8171923427
 21
8.8587821548
  0
LINE
  5
264
100
AcDbEntity
  8
0
100
AcDbLine
 62
7
  6
CONTINUOUS
 10
12.8979236288
 20
7.1240439243
 11
12.8593336522
 21
8.5977356771
  0
LINE
  5
265
100
AcDbEntity
  8
0
100
AcDbLine
 62
7
  6
CONTINUOUS
 10
12.8391923427
 20
6.9922821548
 11
12.8391923427
 21
7.1037821548
  0
LINE
  5
266
100
AcDbEntity
  8
0
100
AcDbLine
 62
7
  6
CONTINUOUS
 10
12.9271923427
 20
6.8977821548
 11
12.9271923427
 21
6.7647095552
  0
LINE
  5
267
100
AcDbEntity
  8
0
100
AcDbLine
 62
7
  6
CONTINUOUS
 10
13.2871923427
 20
6.8977821548
 11
13.2871923427
 21
6.7647095547
  0
LINE
  5
268
100
AcDbEntity
  8
0
100
AcDbLine
 62
7
  6
CONTINUOUS
 10
13.3751923427
 20
6.9922821548
 11
13.3751923427
 21
7.1037821548
  0
LINE
  5
269
100
AcDbEntity
  8
0
100
AcDbLine
 62
7
  6
CONTINUOUS
 10
13.3971923427
 20
8.7827821548
 11
13.3971923427
 21
8.8587821548
  0
LINE
  5
26A
100
AcDbEntity
  8
0
100
AcDbLine
 62
7
  6
CONTINUOUS
 10
13.4356923427
 20
6.7777821548
 11
13.4356923427
 21
5.8577821548
  0
LINE
  5
26B
100
AcDbEntity
  8
0
100
AcDbLine
 62
7
  6
CONTINUOUS
 10
13.5356923427
 20
6.7777821548
 11
13.5356923427
 21
5.8577821548
  0
LINE
  5
26C
100
AcDbEntity
  8
0
100
AcDbLine
 62
7
  6
CONTINUOUS
 10
13.3164610566
 20
7.1240439243
 11
13.3550510333
 21
8.5977356771
  0
ARC
  5
26D
100
AcDbEntity
  8
0
100
AcDbCircle
 62
7
  6
CONTINUOUS
 10
5.5850785351
 20
6.3244529562
 40
4.6651138076
100
AcDbArc
 50
341.328868746
 51
352.6163990289
  0
ARC
  5
26E
100
AcDbEntity
  8
0
100
AcDbCircle
 62
7
  6
CONTINUOUS
 10
5.5850785351
 20
6.3244529562
 40
4.6651138076
100
AcDbArc
 50
7.2147852271
 51
12.2822792134
  0
ARC
  5
26F
100
AcDbEntity
  8
0
100
AcDbCircle
 62
7
  6
CONTINUOUS
 10
9.3064415656
 20
4.9142244053
 40
0.9
100
AcDbArc
 50
64.9871628475
 51
92.5520837091
  0
ARC
  5
270
100
AcDbEntity
  8
0
100
AcDbCircle
 62
7
  6
CONTINUOUS
 10
9.3064415656
 20
7.7213399043
 40
0.9
100
AcDbArc
 50
267.4479162909
 51
295.0128371525
  0
ARC
  5
271
100
AcDbEntity
  8
0
100
AcDbCircle
 62
7
  6
CONTINUOUS
 10
10.0111077971
 20
8.0004797145
 40
0.468503937
100
AcDbArc
 50
280.5491060217
 51
354.247680581
  0
ARC
  5
272
100
AcDbEntity
  8
0
100
AcDbCircle
 62
7
  6
CONTINUOUS
 10
9.6890212835
 20
4.795988508
 40
0.3
100
AcDbArc
 50
287.5695969516
 51
333.2212894265
  0
ARC
  5
273
100
AcDbEntity
  8
0
100
AcDbCircle
 62
7
  6
CONTINUOUS
 10
10.3876923427
 20
7.3700362177
 40
0.25
100
AcDbArc
 50
180.0
 51
192.2822792134
  0
ARC
  5
274
100
AcDbEntity
  8
0
100
AcDbCircle
 62
7
  6
CONTINUOUS
 10
8.7281923427
 20
8.7827821548
 40
0.25
100
AcDbArc
 50
180.0
 51
205.0145622218
  0
ARC
  5
275
100
AcDbEntity
  8
0
100
AcDbCircle
 62
7
  6
CONTINUOUS
 10
8.8081923427
 20
8.7827821548
 40
0.25
100
AcDbArc
 50
334.9854377782
 51
360.0
  0
ARC
  5
276
100
AcDbEntity
  8
0
100
AcDbCircle
 62
7
  6
CONTINUOUS
 10
8.3204021872
 20
8.5925002875
 40
0.2
100
AcDbArc
 50
1.5
 51
25.0145622218
  0
ARC
  5
277
100
AcDbEntity
  8
0
100
AcDbCircle
 62
7
  6
CONTINUOUS
 10
9.2159824983
 20
8.5925002875
 40
0.2
100
AcDbArc
 50
154.9854377782
 51
178.5
  0
ARC
  5
278
100
AcDbEntity
  8
0
100
AcDbCircle
 62
7
  6
CONTINUOUS
 10
10.1140472595
 20
6.8977821548
 40
0.1
100
AcDbArc
 50
270.0
 51
7.2147852271
  0
ARC
  5
279
100
AcDbEntity
  8
0
100
AcDbCircle
 62
7
  6
CONTINUOUS
 10
10.1123383518
 20
5.7377821548
 40
0.1
100
AcDbArc
 50
352.6163990289
 51
90.0
  0
ARC
  5
27A
100
AcDbEntity
  8
0
100
AcDbCircle
 62
7
  6
CONTINUOUS
 10
8.5946923427
 20
6.9922821548
 40
0.0945
100
AcDbArc
 50
180.0
 51
270.0
  0
ARC
  5
27B
100
AcDbEntity
  8
0
100
AcDbCircle
 62
7
  6
CONTINUOUS
 10
8.9416923427
 20
6.9922821548
 40
0.0945
100
AcDbArc
 50
270.0
 51
360.0
  0
ARC
  5
27C
100
AcDbEntity
  8
0
100
AcDbCircle
 62
7
  6
CONTINUOUS
 10
10.3996923427
 20
7.9613354182
 40
0.0779527559
100
AcDbArc
 50
354.247680581
 51
56.2967024761
  0
ARC
  5
27D
100
AcDbEntity
  8
0
100
AcDbCircle
 62
7
  6
CONTINUOUS
 10
9.7186923427
 20
5.7977821548
 40
0.075
100
AcDbArc
 50
244.9871628475
 51
270.0
  0
ARC
  5
27E
100
AcDbEntity
  8
0
100
AcDbCircle
 62
7
  6
CONTINUOUS
 10
9.7186923427
 20
6.8377821548
 40
0.075
100
AcDbArc
 50
90.0
 51
115.0128371525
  0
ARC
  5
27F
100
AcDbEntity
  8
0
100
AcDbCircle
 62
7
  6
CONTINUOUS
 10
9.8943545401
 20
4.6923629623
 40
0.07
100
AcDbArc
 50
333.2212894265
 51
38.9390460747
  0
ARC
  5
280
100
AcDbEntity
  8
0
100
AcDbCircle
 62
7
  6
CONTINUOUS
 10
9.7976923427
 20
4.4527821548
 40
0.06
100
AcDbArc
 50
107.5695969516
 51
270.0
  0
ARC
  5
281
100
AcDbEntity
  8
0
100
AcDbCircle
 62
7
  6
CONTINUOUS
 10
10.1076923427
 20
7.4818372729
 40
0.0590551181
100
AcDbArc
 50
100.5491060217
 51
270.0
  0
ARC
  5
282
100
AcDbEntity
  8
0
100
AcDbCircle
 62
7
  6
CONTINUOUS
 10
9.9876923427
 20
4.7677821548
 40
0.05
100
AcDbArc
 50
90.0
 51
218.9390460747
  0
ARC
  5
283
100
AcDbEntity
  8
0
100
AcDbCircle
 62
7
  6
CONTINUOUS
 10
8.3896923427
 20
5.8577821548
 40
0.05
100
AcDbArc
 50
180.0
 51
360.0
  0
ARC
  5
284
100
AcDbEntity
  8
0
100
AcDbCircle
 62
7
  6
CONTINUOUS
 10
8.3896923427
 20
6.7777821548
 40
0.05
100
AcDbArc
 50
0.0
 51
180.0
  0
ARC
  5
285
100
AcDbEntity
  8
0
100
AcDbCircle
 62
7
  6
CONTINUOUS
 10
9.2641404062
 20
5.8632821548
 40
0.05
100
AcDbArc
 50
207.0649342288
 51
272.5520837091
  0
ARC
  5
286
100
AcDbEntity
  8
0
100
AcDbCircle
 62
7
  6
CONTINUOUS
 10
9.2641404062
 20
6.7722821548
 40
0.05
100
AcDbArc
 50
87.4479162909
 51
152.9350657712
  0
ARC
  5
287
100
AcDbEntity
  8
0
100
AcDbCircle
 62
7
  6
CONTINUOUS
 10
9.1750912624
 20
5.8177821548
 40
0.05
100
AcDbArc
 50
27.0649342288
 51
90.0
  0
ARC
  5
288
100
AcDbEntity
  8
0
100
AcDbCircle
 62
7
  6
CONTINUOUS
 10
9.1750912624
 20
6.8177821548
 40
0.05
100
AcDbArc
 50
270.0
 51
332.9350657712
  0
ARC
  5
289
100
AcDbEntity
  8
0
100
AcDbCircle
 62
7
  6
CONTINUOUS
 10
10.4706923427
 20
8.0677821548
 40
0.05
100
AcDbArc
 50
90.0
 51
236.2967024761
  0
ARC
  5
28A
100
AcDbEntity
  8
0
100
AcDbCircle
 62
7
  6
CONTINUOUS
 10
10.0141490501
 20
4.8277821548
 40
0.01
100
AcDbArc
 50
161.328868746
 51
270.0
  0
ARC
  5
28B
100
AcDbEntity
  8
0
100
AcDbCircle
 62
7
  6
CONTINUOUS
 10
8.9874576299
 20
7.1237821548
 40
0.01
100
AcDbArc
 50
178.5
 51
270.0
  0
ARC
  5
28C
100
AcDbEntity
  8
0
100
AcDbCircle
 62
7
  6
CONTINUOUS
 10
8.5489270556
 20
7.1237821548
 40
0.01
100
AcDbArc
 50
270.0
 51
1.5
  0
ARC
  5
28D
100
AcDbEntity
  8
0
100
AcDbCircle
 62
7
  6
CONTINUOUS
 10
9.0261923427
 20
7.1037821548
 40
0.01
100
AcDbArc
 50
0.0
 51
90.0
  0
ARC
  5
28E
100
AcDbEntity
  8
0
100
AcDbCircle
 62
7
  6
CONTINUOUS
 10
8.5101923427
 20
7.1037821548
 40
0.01
100
AcDbArc
 50
90.0
 51
180.0
  0
ARC
  5
28F
100
AcDbEntity
  8
0
100
AcDbCircle
 62
7
  6
CONTINUOUS
 10
10.0320948098
 20
11.5148569298
 40
0.6221701446
100
AcDbArc
 50
359.998092839
 51
7.3308940462
  0
ARC
  5
290
100
AcDbEntity
  8
0
100
AcDbCircle
 62
7
  6
CONTINUOUS
 10
10.6878645401
 20
11.7271835184
 40
0.0965997383
100
AcDbArc
 50
169.5012835422
 51
179.9882292637
  0
ARC
  5
291
100
AcDbEntity
  8
0
100
AcDbCircle
 62
9
  6
CONTINUOUS
 10
10.683039842
 20
11.7096383043
 40
0.0823568842
100
AcDbArc
 50
219.8734544453
 51
223.5804902123
  0
ARC
  5
292
100
AcDbEntity
  8
0
100
AcDbCircle
 62
7
  6
CONTINUOUS
 10
10.6997505987
 20
11.3991351095
 40
0.0770584639
100
AcDbArc
 50
168.8881202057
 51
179.9833519977
  0
ARC
  5
293
100
AcDbEntity
  8
0
100
AcDbCircle
 62
7
  6
CONTINUOUS
 10
10.5701994576
 20
11.6024149173
 40
0.0733024414
100
AcDbArc
 50
39.6495864377
 51
43.4850462642
  0
ARC
  5
294
100
AcDbEntity
  8
0
100
AcDbCircle
 62
9
  6
CONTINUOUS
 10
10.6803533812
 20
11.6938506357
 40
0.0698561789
100
AcDbArc
 50
215.703191813
 51
219.742551954
  0
ARC
  5
295
100
AcDbEntity
  8
0
100
AcDbCircle
 62
9
  6
CONTINUOUS
 10
10.6348760982
 20
11.7370132646
 40
0.042707426
100
AcDbArc
 50
167.49877144
 51
169.5136087797
  0
ARC
  5
296
100
AcDbEntity
  8
0
100
AcDbCircle
 62
7
  6
CONTINUOUS
 10
16.2903061503
 20
6.3244529562
 40
4.6651138076
100
AcDbArc
 50
167.7177207866
 51
172.7852147729
  0
ARC
  5
297
100
AcDbEntity
  8
0
100
AcDbCircle
 62
7
  6
CONTINUOUS
 10
16.2903061503
 20
6.3244529562
 40
4.6651138076
100
AcDbArc
 50
187.3836009711
 51
198.671131254
  0
ARC
  5
298
100
AcDbEntity
  8
0
100
AcDbCircle
 62
7
  6
CONTINUOUS
 10
12.5689431199
 20
4.9142244053
 40
0.9
100
AcDbArc
 50
87.4479162909
 51
115.0128371525
  0
ARC
  5
299
100
AcDbEntity
  8
0
100
AcDbCircle
 62
7
  6
CONTINUOUS
 10
12.5689431199
 20
7.7213399043
 40
0.9
100
AcDbArc
 50
244.9871628475
 51
272.5520837091
  0
ARC
  5
29A
100
AcDbEntity
  8
0
100
AcDbCircle
 62
7
  6
CONTINUOUS
 10
11.8642768884
 20
8.0004797145
 40
0.468503937
100
AcDbArc
 50
185.752319419
 51
259.4508939783
  0
ARC
  5
29B
100
AcDbEntity
  8
0
100
AcDbCircle
 62
7
  6
CONTINUOUS
 10
12.186363402
 20
4.795988508
 40
0.3
100
AcDbArc
 50
206.7787105735
 51
252.4304030484
  0
ARC
  5
29C
100
AcDbEntity
  8
0
100
AcDbCircle
 62
7
  6
CONTINUOUS
 10
11.4876923427
 20
7.3700362177
 40
0.25
100
AcDbArc
 50
347.7177207866
 51
360.0
  0
ARC
  5
29D
100
AcDbEntity
  8
0
100
AcDbCircle
 62
7
  6
CONTINUOUS
 10
13.1471923427
 20
8.7827821548
 40
0.25
100
AcDbArc
 50
334.9854377782
 51
360.0
  0
ARC
  5
29E
100
AcDbEntity
  8
0
100
AcDbCircle
 62
7
  6
CONTINUOUS
 10
13.0671923427
 20
8.7827821548
 40
0.25
100
AcDbArc
 50
180.0
 51
205.0145622218
  0
ARC
  5
29F
100
AcDbEntity
  8
0
100
AcDbCircle
 62
7
  6
CONTINUOUS
 10
13.5549824983
 20
8.5925002875
 40
0.2
100
AcDbArc
 50
154.9854377782
 51
178.5
  0
ARC
  5
2A0
100
AcDbEntity
  8
0
100
AcDbCircle
 62
7
  6
CONTINUOUS
 10
12.6594021872
 20
8.5925002875
 40
0.2
100
AcDbArc
 50
1.5
 51
25.0145622218
  0
ARC
  5
2A1
100
AcDbEntity
  8
0
100
AcDbCircle
 62
7
  6
CONTINUOUS
 10
11.7630463337
 20
5.7377821548
 40
0.1
100
AcDbArc
 50
90.0
 51
187.3836009711
  0
ARC
  5
2A2
100
AcDbEntity
  8
0
100
AcDbCircle
 62
7
  6
CONTINUOUS
 10
11.761337426
 20
6.8977821548
 40
0.1
100
AcDbArc
 50
172.7852147729
 51
270.0
  0
ARC
  5
2A3
100
AcDbEntity
  8
0
100
AcDbCircle
 62
7
  6
CONTINUOUS
 10
13.2806923427
 20
6.9922821548
 40
0.0945
100
AcDbArc
 50
270.0
 51
360.0
  0
ARC
  5
2A4
100
AcDbEntity
  8
0
100
AcDbCircle
 62
7
  6
CONTINUOUS
 10
12.9336923427
 20
6.9922821548
 40
0.0945
100
AcDbArc
 50
180.0
 51
270.0
  0
ARC
  5
2A5
100
AcDbEntity
  8
0
100
AcDbCircle
 62
7
  6
CONTINUOUS
 10
11.4756923427
 20
7.9613354182
 40
0.0779527559
100
AcDbArc
 50
123.7032975239
 51
185.752319419
  0
ARC
  5
2A6
100
AcDbEntity
  8
0
100
AcDbCircle
 62
7
  6
CONTINUOUS
 10
12.1566923427
 20
5.7977821548
 40
0.075
100
AcDbArc
 50
270.0
 51
295.0128371525
  0
ARC
  5
2A7
100
AcDbEntity
  8
0
100
AcDbCircle
 62
7
  6
CONTINUOUS
 10
12.1566923427
 20
6.8377821548
 40
0.075
100
AcDbArc
 50
64.9871628475
 51
90.0
  0
ARC
  5
2A8
100
AcDbEntity
  8
0
100
AcDbCircle
 62
7
  6
CONTINUOUS
 10
11.9810301454
 20
4.6923629623
 40
0.07
100
AcDbArc
 50
141.0609539253
 51
206.7787105735
  0
ARC
  5
2A9
100
AcDbEntity
  8
0
100
AcDbCircle
 62
7
  6
CONTINUOUS
 10
12.0776923427
 20
4.4527821548
 40
0.06
100
AcDbArc
 50
270.0
 51
72.4304030484
  0
ARC
  5
2AA
100
AcDbEntity
  8
0
100
AcDbCircle
 62
7
  6
CONTINUOUS
 10
11.7676923427
 20
7.4818372729
 40
0.0590551181
100
AcDbArc
 50
270.0
 51
79.4508939783
  0
ARC
  5
2AB
100
AcDbEntity
  8
0
100
AcDbCircle
 62
7
  6
CONTINUOUS
 10
11.8876923427
 20
4.7677821548
 40
0.05
100
AcDbArc
 50
321.0609539253
 51
90.0
  0
ARC
  5
2AC
100
AcDbEntity
  8
0
100
AcDbCircle
 62
7
  6
CONTINUOUS
 10
13.4856923427
 20
5.8577821548
 40
0.05
100
AcDbArc
 50
180.0
 51
360.0
  0
ARC
  5
2AD
100
AcDbEntity
  8
0
100
AcDbCircle
 62
7
  6
CONTINUOUS
 10
13.4856923427
 20
6.7777821548
 40
0.05
100
AcDbArc
 50
0.0
 51
180.0
  0
ARC
  5
2AE
100
AcDbEntity
  8
0
100
AcDbCircle
 62
7
  6
CONTINUOUS
 10
12.6112442793
 20
5.8632821548
 40
0.05
100
AcDbArc
 50
267.4479162909
 51
332.9350657712
  0
ARC
  5
2AF
100
AcDbEntity
  8
0
100
AcDbCircle
 62
7
  6
CONTINUOUS
 10
12.6112442793
 20
6.7722821548
 40
0.05
100
AcDbArc
 50
27.0649342288
 51
92.5520837091
  0
ARC
  5
2B0
100
AcDbEntity
  8
0
100
AcDbCircle
 62
7
  6
CONTINUOUS
 10
12.7002934231
 20
5.8177821548
 40
0.05
100
AcDbArc
 50
90.0
 51
152.9350657712
  0
ARC
  5
2B1
100
AcDbEntity
  8
0
100
AcDbCircle
 62
7
  6
CONTINUOUS
 10
12.7002934231
 20
6.8177821548
 40
0.05
100
AcDbArc
 50
207.0649342288
 51
270.0
  0
ARC
  5
2B2
100
AcDbEntity
  8
0
100
AcDbCircle
 62
7
  6
CONTINUOUS
 10
11.4046923427
 20
8.0677821548
 40
0.05
100
AcDbArc
 50
303.7032975239
 51
90.0
  0
ARC
  5
2B3
100
AcDbEntity
  8
0
100
AcDbCircle
 62
7
  6
CONTINUOUS
 10
11.8612356354
 20
4.8277821548
 40
0.01
100
AcDbArc
 50
270.0
 51
18.671131254
  0
ARC
  5
2B4
100
AcDbEntity
  8
0
100
AcDbCircle
 62
7
  6
CONTINUOUS
 10
12.8879270556
 20
7.1237821548
 40
0.01
100
AcDbArc
 50
270.0
 51
1.5
  0
ARC
  5
2B5
100
AcDbEntity
  8
0
100
AcDbCircle
 62
7
  6
CONTINUOUS
 10
13.3264576299
 20
7.1237821548
 40
0.01
100
AcDbArc
 50
178.5
 51
270.0
  0
ARC
  5
2B6
100
AcDbEntity
  8
0
100
AcDbCircle
 62
7
  6
CONTINUOUS
 10
12.8491923427
 20
7.1037821548
 40
0.01
100
AcDbArc
 50
90.0
 51
180.0
  0
ARC
  5
2B7
100
AcDbEntity
  8
0
100
AcDbCircle
 62
7
  6
CONTINUOUS
 10
13.3651923427
 20
7.1037821548
 40
0.01
100
AcDbArc
 50
0.0
 51
90.0
  0
ARC
  5
2B8
100
AcDbEntity
  8
0
100
AcDbCircle
 62
7
  6
CONTINUOUS
 10
11.8432892857
 20
11.514856963
 40
0.6221695546
100
AcDbArc
 50
172.6691025613
 51
180.0019102239
  0
ARC
  5
2B9
100
AcDbEntity
  8
0
100
AcDbCircle
 62
7
  6
CONTINUOUS
 10
10.9376923427
 20
13.8927821548
 40
0.25
100
AcDbArc
 50
0.0
 51
180.0
  0
ARC
  5
2BA
100
AcDbEntity
  8
0
100
AcDbCircle
 62
7
  6
CONTINUOUS
 10
11.1875198286
 20
11.727183481
 40
0.0966000562
100
AcDbArc
 50
0.0117929187
 51
10.4987041293
  0
ARC
  5
2BB
100
AcDbEntity
  8
0
100
AcDbCircle
 62
9
  6
CONTINUOUS
 10
11.1937740602
 20
11.7083636131
 40
0.0804428404
100
AcDbArc
 50
316.372976975
 51
320.1722971206
  0
ARC
  5
2BC
100
AcDbEntity
  8
0
100
AcDbCircle
 62
7
  6
CONTINUOUS
 10
11.1756339339
 20
11.3991350882
 40
0.0770586175
100
AcDbArc
 50
0.0166638547
 51
11.1119088735
  0
ARC
  5
2BD
100
AcDbEntity
  8
0
100
AcDbCircle
 62
7
  6
CONTINUOUS
 10
11.3051913783
 20
11.6024095179
 40
0.0733106223
100
AcDbArc
 50
136.5151289835
 51
140.350231587
  0
ARC
  5
2BE
100
AcDbEntity
  8
0
100
AcDbCircle
 62
9
  6
CONTINUOUS
 10
11.2406395543
 20
11.7370398953
 40
0.0425737996
100
AcDbArc
 50
10.4832289082
 51
12.5043908719
  0
SPLINE
  5
2BF
100
AcDbEntity
  8
0
100
AcDbSpline
 62
7
  6
CONTINUOUS
 70
0
 71
3
 72
42
 73
38
 74
0
 42
0.0000001
 43
0.0000001
 44
0.0000000001
 40
0.0
 40
0.0
 40
0.0
 40
0.0
 40
0.0042733324
 40
0.0083255486
 40
0.0121940788
 40
0.0159132826
 40
0.0230089955
 40
0.0297699775
 40
0.0363071165
 40
0.0426966082
 40
0.048994498
 40
0.0552404461
 40
0.0676792357
 40
0.0801676408
 40
0.0927822628
 40
0.1055634355
 40
0.1185291236
 40
0.1316869567
 40
0.1450359334
 40
0.1585720383
 40
0.1861769244
 40
0.2144549404
 40
0.2433385406
 40
0.2727755667
 40
0.3027145174
 40
0.3331131757
 40
0.3639308584
 40
0.3951347456
 40
0.4585812
 40
0.5232532895
 40
0.5889915602
 40
0.6556662273
 40
0.7231769019
 40
0.791431898
 40
0.8603609378
 40
0.9299008267
 40
1.0
 40
1.0
 40
1.0
 40
1.0
 10
12.8171923427
 20
8.8587821548
 30
0.0
 10
12.8171923427
 20
8.8590845549
 30
0.0
 10
12.8172093596
 20
8.8596738802
 30
0.0
 10
12.8172860997
 20
8.8605338566
 30
0.0
 10
12.817407884
 20
8.8613489981
 30
0.0
 10
12.81761956
 20
8.862366701
 30
0.0
 10
12.8179674787
 20
8.8635633209
 30
0.0
 10
12.8185083275
 20
8.8649035772
 30
0.0
 10
12.8191438341
 20
8.8661452948
 30
0.0
 10
12.8198618262
 20
8.8673024027
 30
0.0
 10
12.8206498758
 20
8.8683872883
 30
0.0
 10
12.8217813905
 20
8.8697469347
 30
0.0
 10
12.8233380759
 20
8.8713165601
 30
0.0
 10
12.8253853867
 20
8.8730143813
 30
0.0
 10
12.8275752642
 20
8.8745645883
 30
0.0
 10
12.8298890708
 20
8.8759872486
 30
0.0
 10
12.8323088737
 20
8.8773025574
 30
0.0
 10
12.8348224569
 20
8.8785227112
 30
0.0
 10
12.8374183922
 20
8.8796602723
 30
0.0
 10
12.8410011779
 20
8.8810873306
 30
0.0
 10
12.8456430127
 20
8.8827029514
 30
0.0
 10
12.8513958857
 20
8.8844073317
 30
0.0
 10
12.8573326092
 20
8.8859315333
 30
0.0
 10
12.863428014
 20
8.8872969202
 30
0.0
 10
12.8696613938
 20
8.888526251
 30
0.0
 10
12.8760165938
 20
8.8896338894
 30
0.0
 10
12.8824799676
 20
8.8906347891
 30
0.0
 10
12.8912758732
 20
8.8918467397
 30
0.0
 10
12.9024773276
 20
8.8931395842
 30
0.0
 10
12.9161388809
 20
8.8943949118
 30
0.0
 10
12.9300495723
 20
8.8954052071
 30
0.0
 10
12.9441749345
 20
8.8962050795
 30
0.0
 10
12.9584877648
 20
8.8968183582
 30
0.0
 10
12.9729661429
 20
8.8972692225
 30
0.0
 10
12.9875919172
 20
8.8975733339
 30
0.0
 10
13.0023502818
 20
8.8977465226
 30
0.0
 10
13.012231813
 20
8.8977821548
 30
0.0
 10
13.0171923427
 20
8.8977821548
 30
0.0
  0
SPLINE
  5
2C0
100
AcDbEntity
  8
0
100
AcDbSpline
 62
7
  6
CONTINUOUS
 70
0
 71
3
 72
42
 73
38
 74
0
 42
0.0000001
 43
0.0000001
 44
0.0000000001
 40
0.0
 40
0.0
 40
0.0
 40
0.0
 40
0.0042733324
 40
0.0083255486
 40
0.0121940788
 40
0.0159132826
 40
0.0230089955
 40
0.0297699775
 40
0.0363071165
 40
0.0426966082
 40
0.048994498
 40
0.0552404461
 40
0.0676792357
 40
0.0801676408
 40
0.0927822628
 40
0.1055634355
 40
0.1185291236
 40
0.1316869567
 40
0.1450359334
 40
0.1585720383
 40
0.1861769244
 40
0.2144549404
 40
0.2433385406
 40
0.2727755667
 40
0.3027145174
 40
0.3331131757
 40
0.3639308584
 40
0.3951347456
 40
0.4585812
 40
0.5232532895
 40
0.5889915602
 40
0.6556662273
 40
0.7231769019
 40
0.791431898
 40
0.8603609378
 40
0.9299008267
 40
1.0
 40
1.0
 40
1.0
 40
1.0
 10
13.3971923427
 20
8.8587821548
 30
0.0
 10
13.3971923427
 20
8.8590845549
 30
0.0
 10
13.3971753259
 20
8.8596738802
 30
0.0
 10
13.3970985857
 20
8.8605338566
 30
0.0
 10
13.3969768014
 20
8.8613489981
 30
0.0
 10
13.3967651255
 20
8.862366701
 30
0.0
 10
13.3964172068
 20
8.8635633209
 30
0.0
 10
13.395876358
 20
8.8649035772
 30
0.0
 10
13.3952408514
 20
8.8661452948
 30
0.0
 10
13.3945228593
 20
8.8673024027
 30
0.0
 10
13.3937348096
 20
8.8683872883
 30
0.0
 10
13.392603295
 20
8.8697469347
 30
0.0
 10
13.3910466096
 20
8.8713165601
 30
0.0
 10
13.3889992988
 20
8.8730143813
 30
0.0
 10
13.3868094213
 20
8.8745645883
 30
0.0
 10
13.3844956146
 20
8.8759872486
 30
0.0
 10
13.3820758118
 20
8.8773025574
 30
0.0
 10
13.3795622285
 20
8.8785227112
 30
0.0
 10
13.3769662932
 20
8.8796602723
 30
0.0
 10
13.3733835076
 20
8.8810873306
 30
0.0
 10
13.3687416728
 20
8.8827029514
 30
0.0
 10
13.3629887997
 20
8.8844073317
 30
0.0
 10
13.3570520763
 20
8.8859315333
 30
0.0
 10
13.3509566714
 20
8.8872969202
 30
0.0
 10
13.3447232917
 20
8.888526251
 30
0.0
 10
13.3383680917
 20
8.8896338894
 30
0.0
 10
13.3319047179
 20
8.8906347891
 30
0.0
 10
13.3231088123
 20
8.8918467397
 30
0.0
 10
13.3119073579
 20
8.8931395842
 30
0.0
 10
13.2982458046
 20
8.8943949118
 30
0.0
 10
13.2843351132
 20
8.8954052071
 30
0.0
 10
13.270209751
 20
8.8962050795
 30
0.0
 10
13.2558969207
 20
8.8968183582
 30
0.0
 10
13.2414185426
 20
8.8972692225
 30
0.0
 10
13.2267927682
 20
8.8975733339
 30
0.0
 10
13.2120344037
 20
8.8977465226
 30
0.0
 10
13.2021528725
 20
8.8977821548
 30
0.0
 10
13.1971923427
 20
8.8977821548
 30
0.0
  0
SPLINE
  5
2C1
100
AcDbEntity
  8
0
100
AcDbSpline
 62
7
  6
CONTINUOUS
 70
0
 71
3
 72
29
 73
25
 74
0
 42
0.0000001
 43
0.0000001
 44
0.0000000001
 40
0.0
 40
0.0
 40
0.0
 40
0.0
 40
0.0404397379
 40
0.0883627696
 40
0.1514277271
 40
0.1877836988
 40
0.2269066297
 40
0.2684636035
 40
0.3121137797
 40
0.3574974554
 40
0.4042261499
 40
0.4518778068
 40
0.4999999985
 40
0.548122195
 40
0.5957738478
 40
0.6425025454
 40
0.6878862186
 40
0.7315363957
 40
0.773093369
 40
0.8122163009
 40
0.8485722727
 40
0.9116372308
 40
0.9595602621
 40
1.0
 40
1.0
 40
1.0
 40
1.0
 10
8.9556923427
 20
6.7677821548
 30
0.0
 10
8.9508846666
 20
6.7657790167
 30
0.0
 10
8.940330089
 20
6.7615202822
 30
0.0
 10
8.922055899
 20
6.75470148
 30
0.0
 10
8.9040446571
 20
6.7487057071
 30
0.0
 10
8.8869249772
 20
6.7436701379
 30
0.0
 10
8.8723480993
 20
6.739825415
 30
0.0
 10
8.8567405103
 20
6.7362340074
 30
0.0
 10
8.840223804
 20
6.7330403876
 30
0.0
 10
8.822937454
 20
6.7303822194
 30
0.0
 10
8.8050431819
 20
6.7283824361
 30
0.0
 10
8.7867263264
 20
6.7271395622
 30
0.0
 10
8.7681923427
 20
6.7267178181
 30
0.0
 10
8.7496583595
 20
6.7271395621
 30
0.0
 10
8.7313415035
 20
6.7283824361
 30
0.0
 10
8.7134472318
 20
6.7303822193
 30
0.0
 10
8.6961608817
 20
6.7330403876
 30
0.0
 10
8.6796441756
 20
6.7362340073
 30
0.0
 10
8.6640365865
 20
6.739825415
 30
0.0
 10
8.6494597085
 20
6.7436701379
 30
0.0
 10
8.6323400284
 20
6.7487057071
 30
0.0
 10
8.6143287865
 20
6.75470148
 30
0.0
 10
8.5960545965
 20
6.7615202823
 30
0.0
 10
8.5855000189
 20
6.7657790167
 30
0.0
 10
8.5806923427
 20
6.7677821548
 30
0.0
  0
SPLINE
  5
2C2
100
AcDbEntity
  8
0
100
AcDbSpline
 62
7
  6
CONTINUOUS
 70
0
 71
3
 72
42
 73
38
 74
0
 42
0.0000001
 43
0.0000001
 44
0.0000000001
 40
0.0
 40
0.0
 40
0.0
 40
0.0
 40
0.0042733324
 40
0.0083255486
 40
0.0121940788
 40
0.0159132826
 40
0.0230089955
 40
0.0297699775
 40
0.0363071165
 40
0.0426966082
 40
0.048994498
 40
0.0552404461
 40
0.0676792357
 40
0.0801676408
 40
0.0927822628
 40
0.1055634355
 40
0.1185291236
 40
0.1316869567
 40
0.1450359334
 40
0.1585720383
 40
0.1861769244
 40
0.2144549404
 40
0.2433385406
 40
0.2727755667
 40
0.3027145174
 40
0.3331131757
 40
0.3639308584
 40
0.3951347456
 40
0.4585812
 40
0.5232532895
 40
0.5889915602
 40
0.6556662273
 40
0.7231769019
 40
0.791431898
 40
0.8603609378
 40
0.9299008267
 40
1.0
 40
1.0
 40
1.0
 40
1.0
 10
9.0581923427
 20
8.8587821548
 30
0.0
 10
9.0581923427
 20
8.8590845549
 30
0.0
 10
9.0581753259
 20
8.8596738802
 30
0.0
 10
9.0580985857
 20
8.8605338566
 30
0.0
 10
9.0579768014
 20
8.8613489981
 30
0.0
 10
9.0577651255
 20
8.862366701
 30
0.0
 10
9.0574172068
 20
8.8635633209
 30
0.0
 10
9.056876358
 20
8.8649035772
 30
0.0
 10
9.0562408514
 20
8.8661452948
 30
0.0
 10
9.0555228593
 20
8.8673024027
 30
0.0
 10
9.0547348096
 20
8.8683872883
 30
0.0
 10
9.053603295
 20
8.8697469347
 30
0.0
 10
9.0520466096
 20
8.8713165601
 30
0.0
 10
9.0499992988
 20
8.8730143813
 30
0.0
 10
9.0478094213
 20
8.8745645883
 30
0.0
 10
9.0454956146
 20
8.8759872486
 30
0.0
 10
9.0430758118
 20
8.8773025574
 30
0.0
 10
9.0405622285
 20
8.8785227112
 30
0.0
 10
9.0379662932
 20
8.8796602723
 30
0.0
 10
9.0343835076
 20
8.8810873306
 30
0.0
 10
9.0297416728
 20
8.8827029514
 30
0.0
 10
9.0239887997
 20
8.8844073317
 30
0.0
 10
9.0180520763
 20
8.8859315333
 30
0.0
 10
9.0119566714
 20
8.8872969202
 30
0.0
 10
9.0057232917
 20
8.888526251
 30
0.0
 10
8.9993680917
 20
8.8896338894
 30
0.0
 10
8.9929047179
 20
8.8906347891
 30
0.0
 10
8.9841088123
 20
8.8918467397
 30
0.0
 10
8.9729073579
 20
8.8931395842
 30
0.0
 10
8.9592458046
 20
8.8943949118
 30
0.0
 10
8.9453351132
 20
8.8954052071
 30
0.0
 10
8.931209751
 20
8.8962050795
 30
0.0
 10
8.9168969207
 20
8.8968183582
 30
0.0
 10
8.9024185426
 20
8.8972692225
 30
0.0
 10
8.8877927682
 20
8.8975733339
 30
0.0
 10
8.8730344037
 20
8.8977465226
 30
0.0
 10
8.8631528725
 20
8.8977821548
 30
0.0
 10
8.8581923427
 20
8.8977821548
 30
0.0
  0
SPLINE
  5
2C3
100
AcDbEntity
  8
0
100
AcDbSpline
 62
7
  6
CONTINUOUS
 70
0
 71
3
 72
42
 73
38
 74
0
 42
0.0000001
 43
0.0000001
 44
0.0000000001
 40
0.0
 40
0.0
 40
0.0
 40
0.0
 40
0.0042733324
 40
0.0083255486
 40
0.0121940788
 40
0.0159132826
 40
0.0230089955
 40
0.0297699775
 40
0.0363071165
 40
0.0426966082
 40
0.048994498
 40
0.0552404461
 40
0.0676792357
 40
0.0801676408
 40
0.0927822628
 40
0.1055634355
 40
0.1185291236
 40
0.1316869567
 40
0.1450359334
 40
0.1585720383
 40
0.1861769244
 40
0.2144549404
 40
0.2433385406
 40
0.2727755667
 40
0.3027145174
 40
0.3331131757
 40
0.3639308584
 40
0.3951347456
 40
0.4585812
 40
0.5232532895
 40
0.5889915602
 40
0.6556662273
 40
0.7231769019
 40
0.791431898
 40
0.8603609378
 40
0.9299008267
 40
1.0
 40
1.0
 40
1.0
 40
1.0
 10
8.4781923427
 20
8.8587821548
 30
0.0
 10
8.4781923427
 20
8.8590845549
 30
0.0
 10
8.4782093596
 20
8.8596738802
 30
0.0
 10
8.4782860997
 20
8.8605338566
 30
0.0
 10
8.478407884
 20
8.8613489981
 30
0.0
 10
8.47861956
 20
8.862366701
 30
0.0
 10
8.4789674787
 20
8.8635633209
 30
0.0
 10
8.4795083275
 20
8.8649035772
 30
0.0
 10
8.4801438341
 20
8.8661452948
 30
0.0
 10
8.4808618262
 20
8.8673024027
 30
0.0
 10
8.4816498758
 20
8.8683872883
 30
0.0
 10
8.4827813905
 20
8.8697469347
 30
0.0
 10
8.4843380759
 20
8.8713165601
 30
0.0
 10
8.4863853867
 20
8.8730143813
 30
0.0
 10
8.4885752642
 20
8.8745645883
 30
0.0
 10
8.4908890708
 20
8.8759872486
 30
0.0
 10
8.4933088737
 20
8.8773025574
 30
0.0
 10
8.4958224569
 20
8.8785227112
 30
0.0
 10
8.4984183922
 20
8.8796602723
 30
0.0
 10
8.5020011779
 20
8.8810873306
 30
0.0
 10
8.5066430127
 20
8.8827029514
 30
0.0
 10
8.5123958857
 20
8.8844073317
 30
0.0
 10
8.5183326092
 20
8.8859315333
 30
0.0
 10
8.524428014
 20
8.8872969202
 30
0.0
 10
8.5306613938
 20
8.888526251
 30
0.0
 10
8.5370165938
 20
8.8896338894
 30
0.0
 10
8.5434799676
 20
8.8906347891
 30
0.0
 10
8.5522758732
 20
8.8918467397
 30
0.0
 10
8.5634773276
 20
8.8931395842
 30
0.0
 10
8.5771388809
 20
8.8943949118
 30
0.0
 10
8.5910495723
 20
8.8954052071
 30
0.0
 10
8.6051749345
 20
8.8962050795
 30
0.0
 10
8.6194877648
 20
8.8968183582
 30
0.0
 10
8.6339661429
 20
8.8972692225
 30
0.0
 10
8.6485919172
 20
8.8975733339
 30
0.0
 10
8.6633502818
 20
8.8977465226
 30
0.0
 10
8.673231813
 20
8.8977821548
 30
0.0
 10
8.6781923427
 20
8.8977821548
 30
0.0
  0
SPLINE
  5
2C4
100
AcDbEntity
  8
0
100
AcDbSpline
 62
7
  6
CONTINUOUS
 70
0
 71
3
 72
29
 73
25
 74
0
 42
0.0000001
 43
0.0000001
 44
0.0000000001
 40
0.0
 40
0.0
 40
0.0
 40
0.0
 40
0.0404397379
 40
0.0883627696
 40
0.151427727
 40
0.1877836988
 40
0.2269066296
 40
0.2684636035
 40
0.3121137797
 40
0.3574974554
 40
0.4042261499
 40
0.4518778068
 40
0.4999999985
 40
0.548122195
 40
0.5957738478
 40
0.6425025455
 40
0.6878862186
 40
0.7315363958
 40
0.773093369
 40
0.8122163009
 40
0.8485722727
 40
0.9116372308
 40
0.9595602621
 40
1.0
 40
1.0
 40
1.0
 40
1.0
 10
13.2946923427
 20
6.7677821548
 30
0.0
 10
13.2898846666
 20
6.7657790167
 30
0.0
 10
13.279330089
 20
6.7615202822
 30
0.0
 10
13.261055899
 20
6.75470148
 30
0.0
 10
13.2430446571
 20
6.7487057071
 30
0.0
 10
13.2259249772
 20
6.7436701379
 30
0.0
 10
13.2113480993
 20
6.739825415
 30
0.0
 10
13.1957405103
 20
6.7362340074
 30
0.0
 10
13.179223804
 20
6.7330403876
 30
0.0
 10
13.1619374541
 20
6.7303822194
 30
0.0
 10
13.1440431819
 20
6.7283824361
 30
0.0
 10
13.1257263264
 20
6.7271395622
 30
0.0
 10
13.1071923427
 20
6.7267178181
 30
0.0
 10
13.0886583595
 20
6.7271395621
 30
0.0
 10
13.0703415035
 20
6.7283824361
 30
0.0
 10
13.0524472318
 20
6.7303822193
 30
0.0
 10
13.0351608817
 20
6.7330403876
 30
0.0
 10
13.0186441756
 20
6.7362340073
 30
0.0
 10
13.0030365865
 20
6.739825415
 30
0.0
 10
12.9884597085
 20
6.7436701379
 30
0.0
 10
12.9713400284
 20
6.7487057071
 30
0.0
 10
12.9533287865
 20
6.75470148
 30
0.0
 10
12.9350545965
 20
6.7615202823
 30
0.0
 10
12.9245000189
 20
6.7657790167
 30
0.0
 10
12.9196923427
 20
6.7677821548
 30
0.0
  0
SPLINE
  5
2C5
100
AcDbEntity
  8
0
100
AcDbSpline
 62
7
  6
CONTINUOUS
 70
0
 71
3
 72
17
 73
13
 74
0
 42
0.0000001
 43
0.0000001
 44
0.0000000001
 40
0.0
 40
0.0
 40
0.0
 40
0.0
 40
0.0395638268
 40
0.0833588702
 40
0.131153991
 40
0.1827024143
 40
0.2960036107
 40
0.4211551846
 40
0.5560597413
 40
0.698716997
 40
0.8472745196
 40
1.0
 40
1.0
 40
1.0
 40
1.0
 10
11.2487452715
 20
11.6491886168
 30
0.0
 10
11.2482384885
 20
11.6485786185
 30
0.0
 10
11.2471917428
 20
11.647275792
 30
0.0
 10
11.2456108371
 20
11.6451747464
 30
0.0
 10
11.2439608306
 20
11.6428268053
 30
0.0
 10
11.2416267697
 20
11.6392594326
 30
0.0
 10
11.2386996475
 20
11.6342313604
 30
0.0
 10
11.2353897082
 20
11.6275124659
 30
0.0
 10
11.2323448304
 20
11.6200288331
 30
0.0
 10
11.2297067543
 20
11.6118967827
 30
0.0
 10
11.2275908347
 20
11.603245272
 30
0.0
 10
11.2265962759
 20
11.5972817623
 30
0.0
 10
11.2262054766
 20
11.5942454566
 30
0.0
  0
SPLINE
  5
2C6
100
AcDbEntity
  8
0
100
AcDbSpline
 62
7
  6
CONTINUOUS
 70
0
 71
3
 72
18
 73
14
 74
0
 42
0.0000001
 43
0.0000001
 44
0.0000000001
 40
0.0
 40
0.0
 40
0.0
 40
0.0
 40
0.1527202119
 40
0.3012752681
 40
0.4439289447
 40
0.5788315363
 40
0.7039817041
 40
0.7622549359
 40
0.8172983169
 40
0.8688466582
 40
0.9166413125
 40
0.9604357943
 40
1.0
 40
1.0
 40
1.0
 40
1.0
 10
10.6491792089
 20
11.5942454566
 30
0.0
 10
10.648788419
 20
11.5972816897
 30
0.0
 10
10.6477938706
 20
11.6032451127
 30
0.0
 10
10.645678026
 20
11.6118964847
 30
0.0
 10
10.6430399492
 20
11.6200285343
 30
0.0
 10
10.6399951758
 20
11.6275118969
 30
0.0
 10
10.6371729335
 20
11.6332411771
 30
0.0
 10
10.6348339483
 20
11.6374108163
 30
0.0
 10
10.6331187538
 20
11.6402363625
 30
0.0
 10
10.631424089
 20
11.6428264737
 30
0.0
 10
10.6297740921
 20
11.6451744077
 30
0.0
 10
10.6281931727
 20
11.6472754668
 30
0.0
 10
10.6271464463
 20
11.6485783258
 30
0.0
 10
10.6266396509
 20
11.6491883346
 30
0.0
  0
SPLINE
  5
2C7
100
AcDbEntity
  8
0
100
AcDbSpline
 62
7
  6
CONTINUOUS
 70
0
 71
3
 72
20
 73
16
 74
0
 42
0.0000001
 43
0.0000001
 44
0.0000000001
 40
0.0
 40
0.0
 40
0.0
 40
0.0
 40
0.1225653776
 40
0.2451836684
 40
0.368386061
 40
0.4303536476
 40
0.4926012507
 40
0.5551477244
 40
0.6179975511
 40
0.6811404174
 40
0.7445512958
 40
0.8081938937
 40
0.8720279346
 40
0.9359683853
 40
1.0
 40
1.0
 40
1.0
 40
1.0
 10
11.2254293333
 20
11.3379018244
 30
0.0
 10
11.2274067995
 20
11.3399002313
 30
0.0
 10
11.2312235092
 20
11.3440391539
 30
0.0
 10
11.2364569202
 20
11.3506845696
 30
0.0
 10
11.2403417366
 20
11.3565921736
 30
0.0
 10
11.2431240063
 20
11.3615407149
 30
0.0
 10
11.2450419454
 20
11.3653733317
 30
0.0
 10
11.2467743142
 20
11.3693154916
 30
0.0
 10
11.2483084787
 20
11.3733610587
 30
0.0
 10
11.2496320254
 20
11.3775012784
 30
0.0
 10
11.2507333267
 20
11.3817249837
 30
0.0
 10
11.2516019156
 20
11.3860188747
 30
0.0
 10
11.2522287493
 20
11.3903670375
 30
0.0
 10
11.2526079194
 20
11.394752612
 30
0.0
 10
11.252692358
 20
11.397688742
 30
0.0
 10
11.252692358
 20
11.3991574998
 30
0.0
  0
SPLINE
  5
2C8
100
AcDbEntity
  8
0
100
AcDbSpline
 62
7
  6
CONTINUOUS
 70
0
 71
3
 72
20
 73
16
 74
0
 42
0.0000001
 43
0.0000001
 44
0.0000000001
 40
0.0
 40
0.0
 40
0.0
 40
0.0
 40
0.0640317223
 40
0.1279713938
 40
0.1918054365
 40
0.2554479465
 40
0.3188585899
 40
0.3820014784
 40
0.4448513394
 40
0.5073977488
 40
0.5696458168
 40
0.631613446
 40
0.7548160942
 40
0.8774343988
 40
1.0
 40
1.0
 40
1.0
 40
1.0
 10
10.6226923275
 20
11.3991574998
 30
0.0
 10
10.6226923275
 20
11.3976887397
 30
0.0
 10
10.6227767627
 20
11.3947526252
 30
0.0
 10
10.6231559375
 20
11.390367067
 30
0.0
 10
10.6237827601
 20
11.3860189233
 30
0.0
 10
10.6246513451
 20
11.3817250393
 30
0.0
 10
10.6257526473
 20
11.3775013419
 30
0.0
 10
10.6270761817
 20
11.3733611232
 30
0.0
 10
10.6286103431
 20
11.3693155552
 30
0.0
 10
10.6303427223
 20
11.3653733898
 30
0.0
 10
10.6322606491
 20
11.3615407558
 30
0.0
 10
10.6350429387
 20
11.356592206
 30
0.0
 10
10.6389277532
 20
11.3506845945
 30
0.0
 10
10.6441611632
 20
11.344039162
 30
0.0
 10
10.6479779018
 20
11.3399002612
 30
0.0
 10
10.6499553565
 20
11.3379018361
 30
0.0
  0
SPLINE
  5
2C9
100
AcDbEntity
  8
0
100
AcDbSpline
 62
7
  6
CONTINUOUS
 70
0
 71
3
 72
19
 73
15
 74
0
 42
0.0000001
 43
0.0000001
 44
0.0000000001
 40
0.0
 40
0.0
 40
0.0
 40
0.0
 40
0.1208346745
 40
0.242659666
 40
0.3657636663
 40
0.4902875834
 40
0.5530982936
 40
0.6162425614
 40
0.6796924828
 40
0.7434106904
 40
0.8073524905
 40
0.8714735899
 40
0.9356973292
 40
1.0
 40
1.0
 40
1.0
 40
1.0
 10
11.2555975045
 20
11.6567550956
 30
0.0
 10
11.2576871974
 20
11.6590871197
 30
0.0
 10
11.2617200804
 20
11.6639204687
 30
0.0
 10
11.2672242221
 20
11.6716489077
 30
0.0
 10
11.272122331
 20
11.6798884002
 30
0.0
 10
11.275612289
 20
11.6871502402
 30
0.0
 10
11.278008981
 20
11.693184684
 30
0.0
 10
11.2796009162
 20
11.6978297125
 30
0.0
 10
11.2809701981
 20
11.7025696502
 30
0.0
 10
11.2821063874
 20
11.707392141
 30
0.0
 10
11.2830003145
 20
11.7122830919
 30
0.0
 10
11.2836442485
 20
11.7172264854
 30
0.0
 10
11.2840331465
 20
11.7222057249
 30
0.0
 10
11.284119723
 20
11.7255370198
 30
0.0
 10
11.284119723
 20
11.7272033637
 30
0.0
  0
SPLINE
  5
2CA
100
AcDbEntity
  8
0
100
AcDbSpline
 62
7
  6
CONTINUOUS
 70
0
 71
3
 72
19
 73
15
 74
0
 42
0.0000001
 43
0.0000001
 44
0.0000000001
 40
0.0
 40
0.0
 40
0.0
 40
0.0
 40
0.0643028573
 40
0.1285259454
 40
0.1926472407
 40
0.2565890814
 40
0.3203072003
 40
0.383757238
 40
0.4469016148
 40
0.5097122536
 40
0.63423647
 40
0.7573404466
 40
0.8791653594
 40
1.0
 40
1.0
 40
1.0
 40
1.0
 10
10.5912649625
 20
11.7272033637
 30
0.0
 10
10.5912649625
 20
11.725536944
 30
0.0
 10
10.5913515427
 20
11.722205519
 30
0.0
 10
10.5917404812
 20
11.7172260762
 30
0.0
 10
10.5923844606
 20
11.7122824853
 30
0.0
 10
10.5932784624
 20
11.7073913285
 30
0.0
 10
10.5944147544
 20
11.7025686432
 30
0.0
 10
10.5957841431
 20
11.697828514
 30
0.0
 10
10.597376206
 20
11.6931833035
 30
0.0
 10
10.5997731113
 20
11.6871486375
 30
0.0
 10
10.6032633338
 20
11.6798865377
 30
0.0
 10
10.6081618288
 20
11.6716467921
 30
0.0
 10
10.6136663801
 20
11.6639181536
 30
0.0
 10
10.6176995412
 20
11.6590846906
 30
0.0
 10
10.619789382
 20
11.6567526212
 30
0.0
  0
SPLINE
  5
2CB
100
AcDbEntity
  8
0
100
AcDbSpline
 62
7
  6
CONTINUOUS
 70
0
 71
3
 72
57
 73
53
 74
0
 42
0.0000001
 43
0.0000001
 44
0.0000000001
 40
0.0
 40
0.0
 40
0.0
 40
0.0
 40
0.0225820438
 40
0.0341718044
 40
0.0460060939
 40
0.0581150753
 40
0.0705241099
 40
0.083253593
 40
0.0963192605
 40
0.1097325558
 40
0.1235009672
 40
0.137628352
 40
0.1521153304
 40
0.1669595917
 40
0.1821562006
 40
0.1976978707
 40
0.2135751757
 40
0.2297767808
 40
0.2462896397
 40
0.2630991613
 40
0.2801893737
 40
0.3151407952
 40
0.3509947386
 40
0.3875866848
 40
0.4247412766
 40
0.4622752562
 40
0.5000002006
 40
0.5377251433
 40
0.5752591168
 40
0.6124136983
 40
0.649005632
 40
0.6848595584
 40
0.7198109576
 40
0.7369011588
 40
0.7537106689
 40
0.7702235161
 40
0.7864251075
 40
0.8023023961
 40
0.8178440485
 40
0.8330406425
 40
0.847884889
 40
0.8623718523
 40
0.876499218
 40
0.8902676071
 40
0.9036808846
 40
0.9167465346
 40
0.9294759986
 40
0.9418850068
 40
0.9539939579
 40
0.9658282568
 40
0.9774179087
 40
1.0
 40
1.0
 40
1.0
 40
1.0
 10
10.6500163837
 20
11.3378402205
 30
0.0
 10
10.6532291132
 20
11.3345981874
 30
0.0
 10
10.6583988831
 20
11.3299896014
 30
0.0
 10
10.665790891
 20
11.3243455354
 30
0.0
 10
10.6716987413
 20
11.3202568761
 30
0.0
 10
10.6779155891
 20
11.3163370774
 30
0.0
 10
10.6844383787
 20
11.3125744187
 30
0.0
 10
10.6912638716
 20
11.3089602152
 30
0.0
 10
10.6983888634
 20
11.3054877412
 30
0.0
 10
10.7058096227
 20
11.3021521481
 30
0.0
 10
10.7135217271
 20
11.2989501161
 30
0.0
 10
10.7215199116
 20
11.295879598
 30
0.0
 10
10.7297980013
 20
11.2929395589
 30
0.0
 10
10.7383488988
 20
11.2901297655
 30
0.0
 10
10.7471645977
 20
11.2874506151
 30
0.0
 10
10.7562362095
 20
11.2849029896
 30
0.0
 10
10.7655540032
 20
11.2824881347
 30
0.0
 10
10.7751074532
 20
11.2802075543
 30
0.0
 10
10.7848852824
 20
11.2780629353
 30
0.0
 10
10.7948755556
 20
11.2760560456
 30
0.0
 10
10.8085642964
 20
11.2735476897
 30
0.0
 10
10.8261159433
 20
11.2707791746
 30
0.0
 10
10.8476550273
 20
11.268059095
 30
0.0
 10
10.8697078251
 20
11.2659294335
 30
0.0
 10
10.8921505772
 20
11.2644005116
 30
0.0
 10
10.9148556138
 20
11.2634800126
 30
0.0
 10
10.9376924641
 20
11.2631726514
 30
0.0
 10
10.960529313
 20
11.2634800186
 30
0.0
 10
10.9832343457
 20
11.2644005248
 30
0.0
 10
11.0056770916
 20
11.2659294528
 30
0.0
 10
11.0277298808
 20
11.2680591195
 30
0.0
 10
11.0492689536
 20
11.2707792043
 30
0.0
 10
11.0668205894
 20
11.273547724
 30
0.0
 10
11.0805093206
 20
11.2760560822
 30
0.0
 10
11.0904995864
 20
11.2780629737
 30
0.0
 10
11.1002774076
 20
11.2802075943
 30
0.0
 10
11.1098308485
 20
11.2824881761
 30
0.0
 10
11.119148632
 20
11.2849030319
 30
0.0
 10
11.1282202335
 20
11.2874506576
 30
0.0
 10
11.1370359223
 20
11.2901298081
 30
0.0
 10
11.1455868102
 20
11.2929396019
 30
0.0
 10
11.1538648892
 20
11.2958796412
 30
0.0
 10
11.1618630617
 20
11.2989501587
 30
0.0
 10
11.1695751548
 20
11.3021521868
 30
0.0
 10
11.1769959024
 20
11.3054877776
 30
0.0
 10
11.1841208826
 20
11.3089602502
 30
0.0
 10
11.1909463618
 20
11.3125744525
 30
0.0
 10
11.1974691377
 20
11.316337104
 30
0.0
 10
11.2036859801
 20
11.3202568937
 30
0.0
 10
11.2095938008
 20
11.3243455495
 30
0.0
 10
11.2169858103
 20
11.3299895959
 30
0.0
 10
11.2221555655
 20
11.3345981806
 30
0.0
 10
11.2253683018
 20
11.3378402205
 30
0.0
  0
SPLINE
  5
2CC
100
AcDbEntity
  8
0
100
AcDbSpline
 62
7
  6
CONTINUOUS
 70
0
 71
3
 72
63
 73
59
 74
0
 42
0.0000001
 43
0.0000001
 44
0.0000000001
 40
0.0
 40
0.0
 40
0.0
 40
0.0
 40
0.0060168501
 40
0.0120281003
 40
0.0240828888
 40
0.0362148144
 40
0.0484682345
 40
0.060887439
 40
0.0735107178
 40
0.0863720778
 40
0.0994999192
 40
0.112917347
 40
0.1266423679
 40
0.1406882018
 40
0.155063675
 40
0.1697735606
 40
0.1848189794
 40
0.200197785
 40
0.2159048677
 40
0.2319324589
 40
0.2482704231
 40
0.2649064664
 40
0.2818263963
 40
0.299014314
 40
0.3164527941
 40
0.3520040462
 40
0.3883176981
 40
0.4252154155
 40
0.4625082476
 40
0.5000003368
 40
0.5374924231
 40
0.5747852462
 40
0.6116829459
 40
0.6479965748
 40
0.6835478011
 40
0.7009862659
 40
0.7181741676
 40
0.7350940777
 40
0.7517300981
 40
0.7680680368
 40
0.7840956065
 40
0.7998026681
 40
0.8151814542
 40
0.8302268486
 40
0.8449367053
 40
0.8593121412
 40
0.873357947
 40
0.8870829434
 40
0.9005003458
 40
0.9136281479
 40
0.926489468
 40
0.9391127204
 40
0.9515318473
 40
0.9637853193
 40
0.9759170317
 40
0.9879719779
 40
0.9939840663
 40
1.0
 40
1.0
 40
1.0
 40
1.0
 10
11.2617647488
 20
11.7867655151
 30
0.0
 10
11.2608652451
 20
11.7878166925
 30
0.0
 10
11.2590312723
 20
11.7898877418
 30
0.0
 10
11.2552257942
 20
11.7939116084
 30
0.0
 10
11.2502201478
 20
11.7987305395
 30
0.0
 10
11.2438575785
 20
11.8041888107
 30
0.0
 10
11.2371512282
 20
11.8093564144
 30
0.0
 10
11.2301121032
 20
11.8142600669
 30
0.0
 10
11.2227459281
 20
11.8189232421
 30
0.0
 10
11.2150562602
 20
11.8233657607
 30
0.0
 10
11.2070451351
 20
11.8276037119
 30
0.0
 10
11.1987143689
 20
11.8316498529
 30
0.0
 10
11.1900661589
 20
11.8355140407
 30
0.0
 10
11.181103516
 20
11.8392036351
 30
0.0
 10
11.1718305381
 20
11.8427239041
 30
0.0
 10
11.1622525579
 20
11.8460783973
 30
0.0
 10
11.1523762101
 20
11.8492692922
 30
0.0
 10
11.1422094293
 20
11.8522976734
 30
0.0
 10
11.1317614161
 20
11.8551637662
 30
0.0
 10
11.1210425839
 20
11.857867134
 30
0.0
 10
11.110064496
 20
11.8604068431
 30
0.0
 10
11.0988397836
 20
11.8627816014
 30
0.0
 10
11.0873820834
 20
11.8649898636
 30
0.0
 10
11.0757059042
 20
11.8670299597
 30
0.0
 10
11.0597650781
 20
11.8695394464
 30
0.0
 10
11.0394044971
 20
11.8722335451
 30
0.0
 10
11.0145188723
 20
11.8747481223
 30
0.0
 10
10.9891702964
 20
11.8765531212
 30
0.0
 10
10.9635097373
 20
11.8776397783
 30
0.0
 10
10.9376921116
 20
11.8780026125
 30
0.0
 10
10.9118744881
 20
11.8776397659
 30
0.0
 10
10.8862139364
 20
11.8765530961
 30
0.0
 10
10.8608653728
 20
11.8747480838
 30
0.0
 10
10.8359797646
 20
11.8722334952
 30
0.0
 10
10.8156191996
 20
11.869539388
 30
0.0
 10
10.7996783879
 20
11.8670298946
 30
0.0
 10
10.7880022214
 20
11.8649897938
 30
0.0
 10
10.7765445357
 20
11.8627815273
 30
0.0
 10
10.7653198401
 20
11.8604067655
 30
0.0
 10
10.7543417693
 20
11.8578670538
 30
0.0
 10
10.7436229539
 20
11.8551636836
 30
0.0
 10
10.7331749562
 20
11.8522975882
 30
0.0
 10
10.7230081919
 20
11.849269204
 30
0.0
 10
10.7131318626
 20
11.8460783063
 30
0.0
 10
10.7035539045
 20
11.8427238129
 30
0.0
 10
10.6942809477
 20
11.8392035496
 30
0.0
 10
10.6853183257
 20
11.8355139585
 30
0.0
 10
10.6766701359
 20
11.8316497693
 30
0.0
 10
10.6683393939
 20
11.8276036254
 30
0.0
 10
10.6603282939
 20
11.8233656788
 30
0.0
 10
10.6526386405
 20
11.8189231833
 30
0.0
 10
10.6452725029
 20
11.8142600109
 30
0.0
 10
10.6382333841
 20
11.80935637
 30
0.0
 10
10.6315271003
 20
11.8041887704
 30
0.0
 10
10.6251645062
 20
11.798730531
 30
0.0
 10
10.6201587299
 20
11.793911472
 30
0.0
 10
10.6163532858
 20
11.7898875487
 30
0.0
 10
10.6145193034
 20
11.7878165324
 30
0.0
 10
10.6136199367
 20
11.7867655151
 30
0.0
  0
SPLINE
  5
2CD
100
AcDbEntity
  8
0
100
AcDbSpline
 62
7
  6
CONTINUOUS
 70
0
 71
3
 72
15
 73
11
 74
0
 42
0.0000001
 43
0.0000001
 44
0.0000000001
 40
0.0
 40
0.0
 40
0.0
 40
0.0
 40
0.1243604369
 40
0.2485356448
 40
0.3727658257
 40
0.4972551708
 40
0.6221556829
 40
0.7475742304
 40
0.8735250529
 40
1.0
 40
1.0
 40
1.0
 40
1.0
 10
10.6135682602
 20
11.7867051045
 30
0.0
 10
10.6123352074
 20
11.7852620789
 30
0.0
 10
10.6099437632
 20
11.7823148703
 30
0.0
 10
10.6066020873
 20
11.7777066753
 30
0.0
 10
10.60353025
 20
11.7729114168
 30
0.0
 10
10.6007513306
 20
11.767927581
 30
0.0
 10
10.5982907794
 20
11.7627585761
 30
0.0
 10
10.5961763242
 20
11.7574140935
 30
0.0
 10
10.5944352968
 20
11.7519113103
 30
0.0
 10
10.5935425064
 20
11.7481591797
 30
0.0
 10
10.5931659908
 20
11.7462658929
 30
0.0
  0
SPLINE
  5
2CE
100
AcDbEntity
  8
0
100
AcDbSpline
 62
7
  6
CONTINUOUS
 70
0
 71
3
 72
15
 73
11
 74
0
 42
0.0000001
 43
0.0000001
 44
0.0000000001
 40
0.0
 40
0.0
 40
0.0
 40
0.0
 40
0.126475237
 40
0.2524247332
 40
0.3778440462
 40
0.5027441731
 40
0.6272338742
 40
0.751464328
 40
0.8756392673
 40
1.0
 40
1.0
 40
1.0
 40
1.0
 10
11.2822186948
 20
11.7462658929
 30
0.0
 10
11.2818421743
 20
11.748159204
 30
0.0
 10
11.2809493823
 20
11.75191136
 30
0.0
 10
11.2792083174
 20
11.7574141905
 30
0.0
 10
11.2770938523
 20
11.7627587188
 30
0.0
 10
11.2746332487
 20
11.7679277781
 30
0.0
 10
11.271854293
 20
11.7729116666
 30
0.0
 10
11.2687823962
 20
11.7777069648
 30
0.0
 10
11.2654406722
 20
11.7823152045
 30
0.0
 10
11.2630491874
 20
11.7852624321
 30
0.0
 10
11.2618161165
 20
11.7867054744
 30
0.0
  0
SPLINE
  5
2CF
100
AcDbEntity
  8
0
100
AcDbSpline
 62
7
  6
CONTINUOUS
 70
0
 71
3
 72
19
 73
15
 74
0
 42
0.0000001
 43
0.0000001
 44
0.0000000001
 40
0.0
 40
0.0
 40
0.0
 40
0.0
 40
0.0386667584
 40
0.0817439075
 40
0.1802008669
 40
0.2933579277
 40
0.418981579
 40
0.4857570322
 40
0.554775247
 40
0.6257457892
 40
0.6983921644
 40
0.7724328742
 40
0.8475444007
 40
1.0
 40
1.0
 40
1.0
 40
1.0
 10
10.6407418816
 20
11.4512897106
 30
0.0
 10
10.6410674319
 20
11.4517373231
 30
0.0
 10
10.6417396375
 20
11.4526953621
 30
0.0
 10
10.6431514051
 20
11.45485459
 30
0.0
 10
10.6449854394
 20
11.4580090238
 30
0.0
 10
10.6471176449
 20
11.4623441448
 30
0.0
 10
10.6487619608
 20
11.4664017162
 30
0.0
 10
10.6499760326
 20
11.4699419713
 30
0.0
 10
10.6508305683
 20
11.4727763444
 30
0.0
 10
10.6515977697
 20
11.4757225034
 30
0.0
 10
10.6522672762
 20
11.4787660645
 30
0.0
 10
10.6528289982
 20
11.4818916993
 30
0.0
 10
10.6534283126
 20
11.4861678732
 30
0.0
 10
10.6536904733
 20
11.4894191458
 30
0.0
 10
10.6537812864
 20
11.4915995202
 30
0.0
  0
SPLINE
  5
2D0
100
AcDbEntity
  8
0
100
AcDbSpline
 62
7
  6
CONTINUOUS
 70
0
 71
3
 72
18
 73
14
 74
0
 42
0.0000001
 43
0.0000001
 44
0.0000000001
 40
0.0
 40
0.0
 40
0.0
 40
0.0
 40
0.1524591643
 40
0.2275671589
 40
0.3016102259
 40
0.3742597402
 40
0.4452311773
 40
0.5142494909
 40
0.5810262926
 40
0.7066520156
 40
0.8198104086
 40
0.9182673211
 40
1.0
 40
1.0
 40
1.0
 40
1.0
 10
11.2216033991
 20
11.4915995202
 30
0.0
 10
11.2216942142
 20
11.4894190987
 30
0.0
 10
11.2219563506
 20
11.4861678281
 30
0.0
 10
11.2225557269
 20
11.4818916362
 30
0.0
 10
11.2231174381
 20
11.4787659772
 30
0.0
 10
11.2237869547
 20
11.4757223303
 30
0.0
 10
11.2245541752
 20
11.4727761199
 30
0.0
 10
11.2254087491
 20
11.4699417306
 30
0.0
 10
11.2266228263
 20
11.4664014239
 30
0.0
 10
11.2282671603
 20
11.4623438472
 30
0.0
 10
11.2303994546
 20
11.4580085307
 30
0.0
 10
11.2325117704
 20
11.4543758731
 30
0.0
 10
11.2339549059
 20
11.4522355452
 30
0.0
 10
11.2346430408
 20
11.4512893945
 30
0.0
  0
SPLINE
  5
2D1
100
AcDbEntity
  8
0
100
AcDbSpline
 62
7
  6
CONTINUOUS
 70
0
 71
3
 72
15
 73
11
 74
0
 42
0.0000001
 43
0.0000001
 44
0.0000000001
 40
0.0
 40
0.0
 40
0.0
 40
0.0
 40
0.1222992672
 40
0.2453135891
 40
0.3691155242
 40
0.4937431903
 40
0.6191935257
 40
0.7454443038
 40
0.8723989447
 40
1.0
 40
1.0
 40
1.0
 40
1.0
 10
10.6407424191
 20
11.4512904539
 30
0.0
 10
10.6397555835
 20
11.4499336367
 30
0.0
 10
10.6378395017
 20
11.4471652693
 30
0.0
 10
10.6351633321
 20
11.4428642423
 30
0.0
 10
10.6326939745
 20
11.4384043376
 30
0.0
 10
10.6304494919
 20
11.4337897634
 30
0.0
 10
10.628448186
 20
11.4290279791
 30
0.0
 10
10.6267087722
 20
11.4241302869
 30
0.0
 10
10.6252483632
 20
11.4191115863
 30
0.0
 10
10.6244731745
 20
11.415704094
 30
0.0
 10
10.6241365589
 20
11.4139862974
 30
0.0
  0
SPLINE
  5
2D2
100
AcDbEntity
  8
0
100
AcDbSpline
 62
7
  6
CONTINUOUS
 70
0
 71
3
 72
15
 73
11
 74
0
 42
0.0000001
 43
0.0000001
 44
0.0000000001
 40
0.0
 40
0.0
 40
0.0
 40
0.0
 40
0.1276020911
 40
0.2545533651
 40
0.3808056182
 40
0.506255479
 40
0.6308833183
 40
0.7546853024
 40
0.8776999074
 40
1.0
 40
1.0
 40
1.0
 40
1.0
 10
11.2512481266
 20
11.4139862974
 30
0.0
 10
11.250911508
 20
11.4157041096
 30
0.0
 10
11.2501363358
 20
11.4191115765
 30
0.0
 10
11.248675904
 20
11.4241302629
 30
0.0
 10
11.2469365243
 20
11.4290279376
 30
0.0
 10
11.2449352035
 20
11.4337897386
 30
0.0
 10
11.242690723
 20
11.4384043151
 30
0.0
 10
11.2402213563
 20
11.4428642279
 30
0.0
 10
11.2375451862
 20
11.4471652791
 30
0.0
 10
11.235629083
 20
11.449933654
 30
0.0
 10
11.2346422423
 20
11.4512904833
 30
0.0
  0
SPLINE
  5
2D3
100
AcDbEntity
  8
0
100
AcDbSpline
 62
9
  6
CONTINUOUS
 70
0
 71
3
 72
16
 73
12
 74
0
 42
0.0000001
 43
0.0000001
 44
0.0000000001
 40
0.0
 40
0.0
 40
0.0
 40
0.0
 40
0.1150248463
 40
0.2310889667
 40
0.349178306
 40
0.4702425193
 40
0.5951377736
 40
0.7246306031
 40
0.7913250844
 40
0.8594105313
 40
1.0
 40
1.0
 40
1.0
 40
1.0
 10
11.2610588803
 20
11.6794182341
 30
0.0
 10
11.2610590611
 20
11.6781410814
 30
0.0
 10
11.2609284123
 20
11.6755733648
 30
0.0
 10
11.2603425916
 20
11.6717347176
 30
0.0
 10
11.2593677109
 20
11.667906678
 30
0.0
 10
11.2580056036
 20
11.6640949973
 30
0.0
 10
11.2562588457
 20
11.6603043168
 30
0.0
 10
11.2545023442
 20
11.6571973662
 30
0.0
 10
11.2529150769
 20
11.6547287731
 30
0.0
 10
11.2511677312
 20
11.6522191129
 30
0.0
 10
11.2497427188
 20
11.6503892051
 30
0.0
 10
11.2487451832
 20
11.6491885156
 30
0.0
  0
SPLINE
  5
2D4
100
AcDbEntity
  8
0
100
AcDbSpline
 62
9
  6
CONTINUOUS
 70
0
 71
3
 72
16
 73
12
 74
0
 42
0.0000001
 43
0.0000001
 44
0.0000000001
 40
0.0
 40
0.0
 40
0.0
 40
0.0
 40
0.1149782152
 40
0.2309959533
 40
0.3490542806
 40
0.4701005781
 40
0.5949971698
 40
0.7245129121
 40
0.7912275911
 40
0.859339317
 40
1.0
 40
1.0
 40
1.0
 40
1.0
 10
11.2682102493
 20
11.687826485
 30
0.0
 10
11.2682102493
 20
11.6865172957
 30
0.0
 10
11.2680761099
 20
11.6838851584
 30
0.0
 10
11.2674738898
 20
11.6799502291
 30
0.0
 10
11.2664716183
 20
11.6760263104
 30
0.0
 10
11.2650713453
 20
11.6721192081
 30
0.0
 10
11.2632756469
 20
11.6682337908
 30
0.0
 10
11.2614700518
 20
11.6650494511
 30
0.0
 10
11.2598384553
 20
11.6625194483
 30
0.0
 10
11.2580421774
 20
11.6599472056
 30
0.0
 10
11.2565773903
 20
11.6580718996
 30
0.0
 10
11.255552065
 20
11.6568414946
 30
0.0
  0
SPLINE
  5
2D5
100
AcDbEntity
  8
0
100
AcDbSpline
 62
9
  6
CONTINUOUS
 70
0
 71
3
 72
16
 73
12
 74
0
 42
0.0000001
 43
0.0000001
 44
0.0000000001
 40
0.0
 40
0.0
 40
0.0
 40
0.0
 40
0.1137585183
 40
0.2286946128
 40
0.345939914
 40
0.4665532458
 40
0.5914876509
 40
0.7215796558
 40
0.7888004154
 40
0.857568142
 40
1.0
 40
1.0
 40
1.0
 40
1.0
 10
11.2701923429
 20
11.6900780374
 30
0.0
 10
11.2701923429
 20
11.688667143
 30
0.0
 10
11.2700372916
 20
11.6858283768
 30
0.0
 10
11.269341438
 20
11.6815868186
 30
0.0
 10
11.2681837049
 20
11.6773591846
 30
0.0
 10
11.2665668932
 20
11.673152658
 30
0.0
 10
11.264494486
 20
11.6689731763
 30
0.0
 10
11.2624139261
 20
11.6655550248
 30
0.0
 10
11.2605348612
 20
11.6628413559
 30
0.0
 10
11.2584624126
 20
11.6600784797
 30
0.0
 10
11.2567761329
 20
11.6580704196
 30
0.0
 10
11.2555972497
 20
11.6567548149
 30
0.0
  0
SPLINE
  5
2D6
100
AcDbEntity
  8
0
100
AcDbSpline
 62
9
  6
CONTINUOUS
 70
0
 71
3
 72
133
 73
129
 74
0
 42
0.0000001
 43
0.0000001
 44
0.0000000001
 40
0.0
 40
0.0
 40
0.0
 40
0.0
 40
0.0000008512
 40
0.0000034031
 40
0.0000076555
 40
0.0000136081
 40
0.0000212605
 40
0.0000306125
 40
0.0000544138
 40
0.0000850096
 40
0.0001223972
 40
0.0001665744
 40
0.0002175385
 40
0.0002752871
 40
0.0003398176
 40
0.0004892136
 40
0.0006656848
 40
0.0008691718
 40
0.0010996145
 40
0.0013569529
 40
0.0016411269
 40
0.0019520685
 40
0.0026538799
 40
0.0034616123
 40
0.0043744651
 40
0.0053914698
 40
0.0065115787
 40
0.0077337065
 40
0.0090566142
 40
0.0104790235
 40
0.0136169262
 40
0.0171358608
 40
0.0210234762
 40
0.0252668208
 40
0.0298524782
 40
0.0347667897
 40
0.0399959862
 40
0.0455263252
 40
0.0513442249
 40
0.0637896034
 40
0.0772296205
 40
0.0915686224
 40
0.1067187323
 40
0.1226001458
 40
0.1391409944
 40
0.1562769349
 40
0.1739505833
 40
0.1921108774
 40
0.2107124213
 40
0.2297148324
 40
0.2490820922
 40
0.2687819229
 40
0.2887851742
 40
0.3090652027
 40
0.3295972165
 40
0.3503575675
 40
0.371322988
 40
0.3924697818
 40
0.4137730184
 40
0.435205827
 40
0.4567389408
 40
0.4675341884
 40
0.478342441
 40
0.4891594255
 40
0.4999807632
 40
0.5108020493
 40
0.5216188837
 40
0.532426891
 40
0.5432218118
 40
0.5647540985
 40
0.5861859546
 40
0.6074882589
 40
0.6286342721
 40
0.649599166
 40
0.6703593133
 40
0.6908914833
 40
0.7111720389
 40
0.7311761797
 40
0.7508772408
 40
0.7702460414
 40
0.7892502679
 40
0.8078538652
 40
0.8260164139
 40
0.8436924817
 40
0.8608309711
 40
0.877374464
 40
0.8932585827
 40
0.9084114245
 40
0.9227531492
 40
0.9361958424
 40
0.9486438099
 40
0.954462958
 40
0.959994507
 40
0.9652248692
 40
0.9701402958
 40
0.9747270117
 40
0.9789713513
 40
0.9828598921
 40
0.9863796761
 40
0.9895183456
 40
0.9909411058
 40
0.9922643414
 40
0.9934867736
 40
0.9946071629
 40
0.9956244232
 40
0.9965375063
 40
0.9973454433
 40
0.9980474329
 40
0.9983584537
 40
0.9986427001
 40
0.9989001042
 40
0.9991306057
 40
0.9993341447
 40
0.9995106611
 40
0.9996600953
 40
0.9997246424
 40
0.9997824058
 40
0.9998333829
 40
0.9998775714
 40
0.9999149686
 40
0.9999455722
 40
0.9999693796
 40
0.999978734
 40
0.9999863884
 40
0.9999923425
 40
0.999996596
 40
0.9999991486
 40
1.0
 40
1.0
 40
1.0
 40
1.0
 10
11.6621291934
 20
6.9103410794
 30
0.0
 10
11.6621290531
 20
6.9103407333
 30
0.0
 10
11.6621279753
 20
6.9103396381
 30
0.0
 10
11.6621261792
 20
6.9103368238
 30
0.0
 10
11.6621227639
 20
6.9103323697
 30
0.0
 10
11.6621181814
 20
6.9103260241
 30
0.0
 10
11.6621122107
 20
6.9103179108
 30
0.0
 10
11.6621016396
 20
6.9103034663
 30
0.0
 10
11.6620851055
 20
6.9102809109
 30
0.0
 10
11.6620613116
 20
6.9102484294
 30
0.0
 10
11.6620322323
 20
6.9102087389
 30
0.0
 10
11.6619978746
 20
6.910161839
 30
0.0
 10
11.6619582392
 20
6.9101077332
 30
0.0
 10
11.6619133288
 20
6.9100464234
 30
0.0
 10
11.6618429037
 20
6.9099502776
 30
0.0
 10
11.6617417073
 20
6.9098121125
 30
0.0
 10
11.6616045027
 20
6.9096247612
 30
0.0
 10
11.6614463091
 20
6.9094087127
 30
0.0
 10
11.6612671803
 20
6.909164025
 30
0.0
 10
11.661067171
 20
6.9088907562
 30
0.0
 10
11.6608463373
 20
6.9085889673
 30
0.0
 10
11.6605104121
 20
6.9081297864
 30
0.0
 10
11.6600390099
 20
6.9074851406
 30
0.0
 10
11.6594120158
 20
6.9066271576
 30
0.0
 10
11.6587037714
 20
6.9056572946
 30
0.0
 10
11.6579151398
 20
6.9045764516
 30
0.0
 10
11.6570470642
 20
6.9033856249
 30
0.0
 10
11.6561005571
 20
6.9020859074
 30
0.0
 10
11.6550767265
 20
6.9006784478
 30
0.0
 10
11.6535597044
 20
6.8985904982
 30
0.0
 10
11.6514791426
 20
6.8957212062
 30
0.0
 10
11.6487689981
 20
6.8919726068
 30
0.0
 10
11.645781278
 20
6.8878262925
 30
0.0
 10
11.6425279384
 20
6.8832946014
 30
0.0
 10
11.6390214239
 20
6.8783902383
 30
0.0
 10
11.6352745156
 20
6.8731261214
 30
0.0
 10
11.6313001813
 20
6.8675152284
 30
0.0
 10
11.627111496
 20
6.861570436
 30
0.0
 10
11.6211223147
 20
6.8530218184
 30
0.0
 10
11.6131922582
 20
6.8415963631
 30
0.0
 10
11.6032255449
 20
6.8270346776
 30
0.0
 10
11.5927033507
 20
6.8114159147
 30
0.0
 10
11.5817194424
 20
6.7948175804
 30
0.0
 10
11.5703634749
 20
6.7773081734
 30
0.0
 10
11.5587214278
 20
6.7589472333
 30
0.0
 10
11.5468763528
 20
6.7397856761
 30
0.0
 10
11.5349093426
 20
6.7198663162
 30
0.0
 10
11.5229006507
 20
6.6992245045
 30
0.0
 10
11.5109309211
 20
6.6778888481
 30
0.0
 10
11.4990825143
 20
6.6558820124
 30
0.0
 10
11.4874408696
 20
6.633221647
 30
0.0
 10
11.4760958712
 20
6.609921482
 30
0.0
 10
11.4651431504
 20
6.5859926634
 30
0.0
 10
11.454685231
 20
6.5614454241
 30
0.0
 10
11.4448323367
 20
6.5362911964
 30
0.0
 10
11.4357025846
 20
6.5105452636
 30
0.0
 10
11.4274211895
 20
6.4842299389
 30
0.0
 10
11.420118254
 20
6.4573782347
 30
0.0
 10
11.413924676
 20
6.4300373421
 30
0.0
 10
11.4089658952
 20
6.4022725625
 30
0.0
 10
11.405958214
 20
6.3788700598
 30
0.0
 10
11.4042671844
 20
6.3600206966
 30
0.0
 10
11.4033645357
 20
6.3458253542
 30
0.0
 10
11.4028348391
 20
6.3315998085
 30
0.0
 10
11.4026817664
 20
6.317359474
 30
0.0
 10
11.4029061514
 20
6.3031201522
 30
0.0
 10
11.4035067588
 20
6.2888976238
 30
0.0
 10
11.4044796139
 20
6.2747072444
 30
0.0
 10
11.4062626897
 20
6.2558669903
 30
0.0
 10
11.4093818624
 20
6.2324800978
 30
0.0
 10
11.4144669187
 20
6.2047394831
 30
0.0
 10
11.4207778937
 20
6.1774267637
 30
0.0
 10
11.4281887692
 20
6.1506057788
 30
0.0
 10
11.4365686556
 20
6.1243224484
 30
0.0
 10
11.4457878428
 20
6.0986087608
 30
0.0
 10
11.455721753
 20
6.0734862663
 30
0.0
 10
11.4662530252
 20
6.0489697182
 30
0.0
 10
11.4772722193
 20
6.0250702093
 30
0.0
 10
11.4886775683
 20
6.0017977782
 30
0.0
 10
11.5003741405
 20
5.979163483
 30
0.0
 10
11.5122726767
 20
5.9571810373
 30
0.0
 10
11.5242882807
 20
5.9358681182
 30
0.0
 10
11.5363390551
 20
5.9152474432
 30
0.0
 10
11.5483447462
 20
5.8953476842
 30
0.0
 10
11.5602254225
 20
5.876204259
 30
0.0
 10
11.5719002515
 20
5.8578600458
 30
0.0
 10
11.5832863873
 20
5.8403660171
 30
0.0
 10
11.5942980062
 20
5.8237817603
 30
0.0
 10
11.6048455633
 20
5.8081758118
 30
0.0
 10
11.6148353616
 20
5.793625705
 30
0.0
 10
11.6227831466
 20
5.7822090945
 30
0.0
 10
11.6287854179
 20
5.7736669566
 30
0.0
 10
11.632983144
 20
5.767726598
 30
0.0
 10
11.6369659502
 20
5.762119837
 30
0.0
 10
11.6407207557
 20
5.7568595504
 30
0.0
 10
11.6442345853
 20
5.7519587152
 30
0.0
 10
11.6474946494
 20
5.747430249
 30
0.0
 10
11.6504884944
 20
5.743286856
 30
0.0
 10
11.6532041544
 20
5.7395408731
 30
0.0
 10
11.6552889223
 20
5.7366735687
 30
0.0
 10
11.6568089984
 20
5.7345870568
 30
0.0
 10
11.6578348857
 20
5.7331805617
 30
0.0
 10
11.6587832899
 20
5.731881732
 30
0.0
 10
11.6596531016
 20
5.7306917162
 30
0.0
 10
11.6604433075
 20
5.7296116071
 30
0.0
 10
11.6611529633
 20
5.7286424008
 30
0.0
 10
11.6617812051
 20
5.7277849976
 30
0.0
 10
11.662253544
 20
5.7271407865
 30
0.0
 10
11.6625901361
 20
5.7266819147
 30
0.0
 10
11.6628114081
 20
5.7263803288
 30
0.0
 10
11.6630118142
 20
5.7261072437
 30
0.0
 10
11.6631912981
 20
5.7258627204
 30
0.0
 10
11.6633498053
 20
5.7256468169
 30
0.0
 10
11.6634872817
 20
5.7254595913
 30
0.0
 10
11.6635886786
 20
5.7253215189
 30
0.0
 10
11.6636592432
 20
5.7252254375
 30
0.0
 10
11.6637042425
 20
5.7251641689
 30
0.0
 10
11.6637439565
 20
5.7251100993
 30
0.0
 10
11.6637783822
 20
5.7250632309
 30
0.0
 10
11.663807519
 20
5.7250235669
 30
0.0
 10
11.6638313601
 20
5.7249911072
 30
0.0
 10
11.6638479268
 20
5.7249685669
 30
0.0
 10
11.6638585189
 20
5.724954132
 30
0.0
 10
11.6638645014
 20
5.7249460242
 30
0.0
 10
11.663869093
 20
5.7249396828
 30
0.0
 10
11.6638725151
 20
5.7249352319
 30
0.0
 10
11.6638743147
 20
5.724932419
 30
0.0
 10
11.6638753947
 20
5.7249313251
 30
0.0
 10
11.6638755352
 20
5.724930979
 30
0.0
  0
SPLINE
  5
2D7
100
AcDbEntity
  8
0
100
AcDbSpline
 62
9
  6
CONTINUOUS
 70
0
 71
3
 72
77
 73
73
 74
0
 42
0.0000001
 43
0.0000001
 44
0.0000000001
 40
0.0
 40
0.0
 40
0.0
 40
0.0
 40
0.0037551814
 40
0.0075275546
 40
0.0113335888
 40
0.0151895641
 40
0.0191110217
 40
0.0231125096
 40
0.0314049723
 40
0.0401656906
 40
0.0494708771
 40
0.0593794197
 40
0.0699348297
 40
0.0811674348
 40
0.0930964468
 40
0.1057317575
 40
0.1190754291
 40
0.1331229049
 40
0.1478639845
 40
0.1632836094
 40
0.179362499
 40
0.1960776727
 40
0.2134028825
 40
0.2313089791
 40
0.2497642264
 40
0.2687345758
 40
0.2881839113
 40
0.3080742708
 40
0.3283660502
 40
0.349018194
 40
0.3699883754
 40
0.3912331683
 40
0.4127082131
 40
0.4343683782
 40
0.456167918
 40
0.4780606283
 40
0.5
 40
0.5219393717
 40
0.543832082
 40
0.5656316218
 40
0.5872917869
 40
0.6087668317
 40
0.6300116246
 40
0.650981806
 40
0.6716339498
 40
0.6919257292
 40
0.7118160887
 40
0.7312654242
 40
0.7502357736
 40
0.7686910209
 40
0.7865971175
 40
0.8039223273
 40
0.820637501
 40
0.8367163906
 40
0.8521360155
 40
0.8668770951
 40
0.8809245709
 40
0.8942682425
 40
0.9069035532
 40
0.9188325652
 40
0.9300651703
 40
0.9406205803
 40
0.9505291229
 40
0.9598343094
 40
0.9685950277
 40
0.9768874904
 40
0.9808889783
 40
0.9848104359
 40
0.9886664112
 40
0.9924724454
 40
0.9962448186
 40
1.0
 40
1.0
 40
1.0
 40
1.0
 10
11.2414422856
 20
11.3711877513
 30
0.0
 10
11.2414422856
 20
11.3720381302
 30
0.0
 10
11.2413809535
 20
11.3737434091
 30
0.0
 10
11.2411053248
 20
11.3762971819
 30
0.0
 10
11.2406461615
 20
11.3788476921
 30
0.0
 10
11.2400038985
 20
11.381393048
 30
0.0
 10
11.2391789969
 20
11.3839317672
 30
0.0
 10
11.2378206776
 20
11.3873456814
 30
0.0
 10
11.2356452192
 20
11.3916021534
 30
0.0
 10
11.2323479146
 20
11.3965904159
 30
0.0
 10
11.2283430794
 20
11.4015107993
 30
0.0
 10
11.2236417359
 20
11.4063527676
 30
0.0
 10
11.2182554753
 20
11.4111066241
 30
0.0
 10
11.2121971448
 20
11.41576222
 30
0.0
 10
11.2054809609
 20
11.4203093429
 30
0.0
 10
11.1981226574
 20
11.424737712
 30
0.0
 10
11.190139518
 20
11.4290371118
 30
0.0
 10
11.1815503729
 20
11.4331974751
 30
0.0
 10
11.1723755655
 20
11.4372089597
 30
0.0
 10
11.1626369028
 20
11.4410620081
 30
0.0
 10
11.1523575991
 20
11.4447473959
 30
0.0
 10
11.1415622123
 20
11.448256271
 30
0.0
 10
11.130276579
 20
11.4515801864
 30
0.0
 10
11.1185277453
 20
11.4547111286
 30
0.0
 10
11.1063438972
 20
11.4576415417
 30
0.0
 10
11.0937542876
 20
11.4603643488
 30
0.0
 10
11.0807891625
 20
11.4628729719
 30
0.0
 10
11.0674796855
 20
11.4651613486
 30
0.0
 10
11.0538578599
 20
11.4672239483
 30
0.0
 10
11.0399564499
 20
11.4690557854
 30
0.0
 10
11.0258088995
 20
11.4706524318
 30
0.0
 10
11.0114492511
 20
11.4720100278
 30
0.0
 10
10.9969120622
 20
11.4731252918
 30
0.0
 10
10.9822323211
 20
11.4739955277
 30
0.0
 10
10.9674453623
 20
11.4746186319
 30
0.0
 10
10.9525867801
 20
11.474993098
 30
0.0
 10
10.9376923428
 20
11.4751180208
 30
0.0
 10
10.9227979054
 20
11.474993098
 30
0.0
 10
10.9079393232
 20
11.4746186319
 30
0.0
 10
10.8931523644
 20
11.4739955277
 30
0.0
 10
10.8784726233
 20
11.4731252918
 30
0.0
 10
10.8639354344
 20
11.4720100278
 30
0.0
 10
10.849575786
 20
11.4706524318
 30
0.0
 10
10.8354282356
 20
11.4690557854
 30
0.0
 10
10.8215268256
 20
11.4672239483
 30
0.0
 10
10.807905
 20
11.4651613486
 30
0.0
 10
10.794595523
 20
11.4628729719
 30
0.0
 10
10.781630398
 20
11.4603643488
 30
0.0
 10
10.7690407883
 20
11.4576415417
 30
0.0
 10
10.7568569402
 20
11.4547111286
 30
0.0
 10
10.7451081066
 20
11.4515801864
 30
0.0
 10
10.7338224732
 20
11.448256271
 30
0.0
 10
10.7230270864
 20
11.4447473959
 30
0.0
 10
10.7127477827
 20
11.4410620081
 30
0.0
 10
10.7030091201
 20
11.4372089597
 30
0.0
 10
10.6938343126
 20
11.4331974751
 30
0.0
 10
10.6852451676
 20
11.4290371118
 30
0.0
 10
10.6772620281
 20
11.424737712
 30
0.0
 10
10.6699037246
 20
11.4203093429
 30
0.0
 10
10.6631875407
 20
11.41576222
 30
0.0
 10
10.6571292102
 20
11.4111066241
 30
0.0
 10
10.6517429496
 20
11.4063527676
 30
0.0
 10
10.6470416061
 20
11.4015107993
 30
0.0
 10
10.6430367709
 20
11.3965904159
 30
0.0
 10
10.6397394663
 20
11.3916021534
 30
0.0
 10
10.6375640079
 20
11.3873456814
 30
0.0
 10
10.6362056886
 20
11.3839317672
 30
0.0
 10
10.635380787
 20
11.381393048
 30
0.0
 10
10.634738524
 20
11.3788476921
 30
0.0
 10
10.6342793607
 20
11.3762971819
 30
0.0
 10
10.634003732
 20
11.3737434091
 30
0.0
 10
10.6339423999
 20
11.3720381302
 30
0.0
 10
10.6339423999
 20
11.3711877513
 30
0.0
  0
SPLINE
  5
2D8
100
AcDbEntity
  8
0
100
AcDbSpline
 62
9
  6
CONTINUOUS
 70
0
 71
3
 72
77
 73
73
 74
0
 42
0.0000001
 43
0.0000001
 44
0.0000000001
 40
0.0
 40
0.0
 40
0.0
 40
0.0
 40
0.0037551765
 40
0.0075275533
 40
0.0113335908
 40
0.0151895644
 40
0.0191110212
 40
0.0231125093
 40
0.0314049721
 40
0.0401656905
 40
0.0494708774
 40
0.0593794203
 40
0.0699348308
 40
0.081167436
 40
0.0930964479
 40
0.105731758
 40
0.1190754285
 40
0.1331229033
 40
0.1478639825
 40
0.1632836075
 40
0.1793624978
 40
0.1960776723
 40
0.213402883
 40
0.2313089804
 40
0.2497642281
 40
0.2687345775
 40
0.2881839125
 40
0.3080742711
 40
0.3283660496
 40
0.3490181929
 40
0.3699883742
 40
0.3912331674
 40
0.4127082125
 40
0.4343683781
 40
0.4561679181
 40
0.4780606285
 40
0.5
 40
0.5219393715
 40
0.5438320819
 40
0.5656316219
 40
0.5872917875
 40
0.6087668326
 40
0.6300116258
 40
0.6509818071
 40
0.6716339504
 40
0.6919257289
 40
0.7118160875
 40
0.7312654225
 40
0.7502357719
 40
0.7686910196
 40
0.786597117
 40
0.8039223277
 40
0.8206375022
 40
0.8367163925
 40
0.8521360175
 40
0.8668770967
 40
0.8809245715
 40
0.894268242
 40
0.9069035521
 40
0.918832564
 40
0.9300651692
 40
0.9406205797
 40
0.9505291226
 40
0.9598343095
 40
0.9685950279
 40
0.9768874907
 40
0.9808889788
 40
0.9848104356
 40
0.9886664092
 40
0.9924724467
 40
0.9962448235
 40
1.0
 40
1.0
 40
1.0
 40
1.0
 10
11.2264848888
 20
11.5985893308
 30
0.0
 10
11.2264848888
 20
11.5993978339
 30
0.0
 10
11.2264265761
 20
11.6010191403
 30
0.0
 10
11.2261645212
 20
11.6034471597
 30
0.0
 10
11.2257279675
 20
11.6058720774
 30
0.0
 10
11.2251173321
 20
11.6082920941
 30
0.0
 10
11.2243330489
 20
11.6107057994
 30
0.0
 10
11.223041619
 20
11.6139516048
 30
0.0
 10
11.2209732843
 20
11.6179984773
 30
0.0
 10
11.2178383473
 20
11.6227411056
 30
0.0
 10
11.2140307195
 20
11.627419197
 30
0.0
 10
11.2095608814
 20
11.6320227348
 30
0.0
 10
11.2044398532
 20
11.6365424996
 30
0.0
 10
11.1986798496
 20
11.6409688424
 30
0.0
 10
11.1922943873
 20
11.6452920537
 30
0.0
 10
11.1852984254
 20
11.6495023591
 30
0.0
 10
11.1777083963
 20
11.6535900462
 30
0.0
 10
11.1695422027
 20
11.6575455432
 30
0.0
 10
11.1608191858
 20
11.6613594925
 30
0.0
 10
11.1515600788
 20
11.6650228073
 30
0.0
 10
11.1417869529
 20
11.6685267173
 30
0.0
 10
11.131523157
 20
11.6718628065
 30
0.0
 10
11.1207932555
 20
11.6750230438
 30
0.0
 10
11.1096229628
 20
11.6779998104
 30
0.0
 10
11.0980390771
 20
11.6807859224
 30
0.0
 10
11.086069411
 20
11.6833746517
 30
0.0
 10
11.073742721
 20
11.6857597442
 30
0.0
 10
11.0610886361
 20
11.6879354361
 30
0.0
 10
11.0481375835
 20
11.6898964689
 30
0.0
 10
11.0349207136
 20
11.6916381022
 30
0.0
 10
11.0214698236
 20
11.693156126
 30
0.0
 10
11.0078172796
 20
11.6944468705
 30
0.0
 10
10.9939959374
 20
11.6955072158
 30
0.0
 10
10.9800390628
 20
11.6963345986
 30
0.0
 10
10.9659802501
 20
11.6969270191
 30
0.0
 10
10.9518533412
 20
11.6972830451
 30
0.0
 10
10.9376923428
 20
11.6974018161
 30
0.0
 10
10.9235313443
 20
11.6972830451
 30
0.0
 10
10.9094044354
 20
11.6969270191
 30
0.0
 10
10.8953456227
 20
11.6963345986
 30
0.0
 10
10.8813887481
 20
11.6955072158
 30
0.0
 10
10.867567406
 20
11.6944468705
 30
0.0
 10
10.8539148619
 20
11.693156126
 30
0.0
 10
10.8404639719
 20
11.6916381022
 30
0.0
 10
10.827247102
 20
11.6898964689
 30
0.0
 10
10.8142960494
 20
11.6879354361
 30
0.0
 10
10.8016419645
 20
11.6857597442
 30
0.0
 10
10.7893152746
 20
11.6833746517
 30
0.0
 10
10.7773456084
 20
11.6807859224
 30
0.0
 10
10.7657617227
 20
11.6779998104
 30
0.0
 10
10.75459143
 20
11.6750230438
 30
0.0
 10
10.7438615285
 20
11.6718628065
 30
0.0
 10
10.7335977326
 20
11.6685267173
 30
0.0
 10
10.7238246067
 20
11.6650228073
 30
0.0
 10
10.7145654998
 20
11.6613594925
 30
0.0
 10
10.7058424828
 20
11.6575455432
 30
0.0
 10
10.6976762892
 20
11.6535900462
 30
0.0
 10
10.6900862601
 20
11.6495023591
 30
0.0
 10
10.6830902982
 20
11.6452920537
 30
0.0
 10
10.6767048359
 20
11.6409688424
 30
0.0
 10
10.6709448323
 20
11.6365424996
 30
0.0
 10
10.6658238041
 20
11.6320227348
 30
0.0
 10
10.661353966
 20
11.627419197
 30
0.0
 10
10.6575463383
 20
11.6227411056
 30
0.0
 10
10.6544114012
 20
11.6179984773
 30
0.0
 10
10.6523430665
 20
11.6139516048
 30
0.0
 10
10.6510516366
 20
11.6107057994
 30
0.0
 10
10.6502673534
 20
11.6082920941
 30
0.0
 10
10.649656718
 20
11.6058720774
 30
0.0
 10
10.6492201643
 20
11.6034471597
 30
0.0
 10
10.6489581094
 20
11.6010191403
 30
0.0
 10
10.6488997968
 20
11.5993978339
 30
0.0
 10
10.6488997968
 20
11.5985893308
 30
0.0
  0
SPLINE
  5
2D9
100
AcDbEntity
  8
0
100
AcDbSpline
 62
9
  6
CONTINUOUS
 70
0
 71
3
 72
18
 73
14
 74
0
 42
0.0000001
 43
0.0000001
 44
0.0000000001
 40
0.0
 40
0.0
 40
0.0
 40
0.0
 40
0.0558897724
 40
0.111957699
 40
0.1683731341
 40
0.2253050481
 40
0.2829184994
 40
0.3413708852
 40
0.4613389145
 40
0.5863362598
 40
0.7172902613
 40
0.8549709761
 40
1.0
 40
1.0
 40
1.0
 40
1.0
 10
11.2414422856
 20
11.3711877513
 30
0.0
 10
11.2414422856
 20
11.3704811985
 30
0.0
 10
11.2413999985
 20
11.3690654798
 30
0.0
 10
11.2412099039
 20
11.3669442396
 30
0.0
 10
11.2408931635
 20
11.3648248029
 30
0.0
 10
11.2404499781
 20
11.3627082595
 30
0.0
 10
11.2398805368
 20
11.3605954445
 30
0.0
 10
11.2389454857
 20
11.3577604707
 30
0.0
 10
11.2374494627
 20
11.3542202092
 30
0.0
 10
11.2351700629
 20
11.350042294
 30
0.0
 10
11.2323958848
 20
11.3459034207
 30
0.0
 10
11.2291327417
 20
11.3418103444
 30
0.0
 10
11.2267007146
 20
11.3391867053
 30
0.0
 10
11.2254111148
 20
11.3378834624
 30
0.0
  0
SPLINE
  5
2DA
100
AcDbEntity
  8
0
100
AcDbSpline
 62
9
  6
CONTINUOUS
 70
0
 71
3
 72
15
 73
11
 74
0
 42
0.0000001
 43
0.0000001
 44
0.0000000001
 40
0.0
 40
0.0
 40
0.0
 40
0.0
 40
0.1373942777
 40
0.2700863781
 40
0.3985773531
 40
0.5234359206
 40
0.6452927926
 40
0.764837515
 40
0.8828220612
 40
1.0
 40
1.0
 40
1.0
 40
1.0
 10
10.6236266
 20
11.6530835163
 30
0.0
 10
10.6228691826
 20
11.6541401637
 30
0.0
 10
10.6214425041
 20
11.6562629703
 30
0.0
 10
10.6195487234
 20
11.6595277703
 30
0.0
 10
10.6179423228
 20
11.662812088
 30
0.0
 10
10.6166252004
 20
11.666112867
 30
0.0
 10
10.6155989096
 20
11.6694270801
 30
0.0
 10
10.6148648716
 20
11.6727517438
 30
0.0
 10
10.6144238853
 20
11.6760830363
 30
0.0
 10
10.6143256482
 20
11.6783094568
 30
0.0
 10
10.6143258053
 20
11.6794182341
 30
0.0
  0
SPLINE
  5
2DB
100
AcDbEntity
  8
0
100
AcDbSpline
 62
9
  6
CONTINUOUS
 70
0
 71
3
 72
18
 73
14
 74
0
 42
0.0000001
 43
0.0000001
 44
0.0000000001
 40
0.0
 40
0.0
 40
0.0
 40
0.0
 40
0.1450290153
 40
0.2827097244
 40
0.413663723
 40
0.5386610679
 40
0.6586290993
 40
0.7170814869
 40
0.7746949405
 40
0.831626857
 40
0.8880422949
 40
0.9441102245
 40
1.0
 40
1.0
 40
1.0
 40
1.0
 10
10.6499735614
 20
11.3378834718
 30
0.0
 10
10.6486839624
 20
11.3391867144
 30
0.0
 10
10.6462519366
 20
11.3418103528
 30
0.0
 10
10.6429887954
 20
11.3459034279
 30
0.0
 10
10.6402146189
 20
11.3500423002
 30
0.0
 10
10.6379352205
 20
11.3542202142
 30
0.0
 10
10.6364391984
 20
11.3577604746
 30
0.0
 10
10.6355041478
 20
11.3605954476
 30
0.0
 10
10.6349347068
 20
11.3627082619
 30
0.0
 10
10.6344915217
 20
11.3648248047
 30
0.0
 10
10.6341747815
 20
11.3669442408
 30
0.0
 10
10.633984687
 20
11.3690654805
 30
0.0
 10
10.6339423999
 20
11.3704811987
 30
0.0
 10
10.6339423999
 20
11.3711877513
 30
0.0
  0
SPLINE
  5
2DC
100
AcDbEntity
  8
0
100
AcDbSpline
 62
9
  6
CONTINUOUS
 70
0
 71
3
 72
133
 73
129
 74
0
 42
0.0000001
 43
0.0000001
 44
0.0000000001
 40
0.0
 40
0.0
 40
0.0
 40
0.0
 40
0.0000008514
 40
0.000003404
 40
0.0000076575
 40
0.0000136116
 40
0.000021266
 40
0.0000306203
 40
0.0000544278
 40
0.0000850314
 40
0.0001224286
 40
0.0001666171
 40
0.0002175942
 40
0.0002753576
 40
0.0003399047
 40
0.0004893389
 40
0.0006658553
 40
0.0008693943
 40
0.0010998958
 40
0.0013572999
 40
0.0016415463
 40
0.0019525671
 40
0.0026545567
 40
0.0034624937
 40
0.0043755769
 40
0.0053928373
 40
0.0065132267
 40
0.007735659
 40
0.0090588948
 40
0.010481655
 40
0.0136203249
 40
0.0171401092
 40
0.0210286503
 40
0.0252729903
 40
0.0298597064
 40
0.0347751332
 40
0.0400054957
 40
0.0455370447
 40
0.0513561928
 40
0.0638041599
 40
0.0772468523
 40
0.0915885759
 40
0.1067414162
 40
0.1226255332
 40
0.1391690239
 40
0.1563075111
 40
0.1739835762
 40
0.1921461219
 40
0.2107497164
 40
0.2297539402
 40
0.2491227389
 40
0.2688237998
 40
0.2888279425
 40
0.3091085009
 40
0.3296406737
 40
0.3504008235
 40
0.3713657186
 40
0.392511732
 40
0.4138140362
 40
0.4352458919
 40
0.4567781788
 40
0.4675731002
 40
0.4783811079
 40
0.489197942
 40
0.5000192279
 40
0.5108405657
 40
0.5216575504
 40
0.5324658024
 40
0.5432610494
 40
0.5647941636
 40
0.5862269725
 40
0.6075302093
 40
0.628677003
 40
0.6496424223
 40
0.6704027712
 40
0.6909347821
 40
0.7112148078
 40
0.7312180571
 40
0.7509178876
 40
0.7702851492
 40
0.7892875629
 40
0.8078891097
 40
0.8260494067
 40
0.8437230578
 40
0.8608590006
 40
0.8773998512
 40
0.8932812665
 40
0.9084313778
 40
0.9227703809
 40
0.9362103988
 40
0.9486557776
 40
0.9544736773
 40
0.9600040162
 40
0.9652332126
 40
0.9701475238
 40
0.974733181
 40
0.9789765253
 40
0.9828641404
 40
0.9863830747
 40
0.9895209771
 40
0.9909433863
 40
0.9922662939
 40
0.9934884216
 40
0.9946085304
 40
0.995625535
 40
0.9965383877
 40
0.9973461201
 40
0.9980479315
 40
0.9983588731
 40
0.9986430471
 40
0.9989003855
 40
0.9991308282
 40
0.9993343152
 40
0.9995107864
 40
0.9996601824
 40
0.9997247129
 40
0.9997824615
 40
0.9998334256
 40
0.9998776027
 40
0.9999149904
 40
0.9999455862
 40
0.9999693875
 40
0.9999787395
 40
0.9999863919
 40
0.9999923445
 40
0.9999965969
 40
0.9999991488
 40
1.0
 40
1.0
 40
1.0
 40
1.0
 10
10.2115091503
 20
5.724930979
 30
0.0
 10
10.2115092912
 20
5.7249313249
 30
0.0
 10
10.2115103702
 20
5.7249324192
 30
0.0
 10
10.2115121708
 20
5.7249352318
 30
0.0
 10
10.2115155923
 20
5.7249396828
 30
0.0
 10
10.2115201841
 20
5.7249460242
 30
0.0
 10
10.2115261665
 20
5.724954132
 30
0.0
 10
10.2115367586
 20
5.7249685669
 30
0.0
 10
10.2115533254
 20
5.7249911072
 30
0.0
 10
10.2115771665
 20
5.7250235669
 30
0.0
 10
10.2116063033
 20
5.7250632308
 30
0.0
 10
10.211640729
 20
5.7251100993
 30
0.0
 10
10.2116804429
 20
5.7251641689
 30
0.0
 10
10.2117254423
 20
5.7252254375
 30
0.0
 10
10.2117960069
 20
5.7253215189
 30
0.0
 10
10.2118974037
 20
5.7254595913
 30
0.0
 10
10.2120348801
 20
5.7256468169
 30
0.0
 10
10.2121933873
 20
5.7258627204
 30
0.0
 10
10.2123728713
 20
5.7261072437
 30
0.0
 10
10.2125732774
 20
5.7263803288
 30
0.0
 10
10.2127945494
 20
5.7266819147
 30
0.0
 10
10.2131311415
 20
5.7271407865
 30
0.0
 10
10.2136034804
 20
5.7277849976
 30
0.0
 10
10.2142317222
 20
5.7286424009
 30
0.0
 10
10.214941378
 20
5.7296116073
 30
0.0
 10
10.2157315839
 20
5.7306917165
 30
0.0
 10
10.2166013957
 20
5.7318817325
 30
0.0
 10
10.2175497998
 20
5.7331805623
 30
0.0
 10
10.2185756871
 20
5.7345870576
 30
0.0
 10
10.2200957633
 20
5.7366735698
 30
0.0
 10
10.2221805312
 20
5.7395408746
 30
0.0
 10
10.2248961912
 20
5.743286858
 30
0.0
 10
10.2278900362
 20
5.7474302515
 30
0.0
 10
10.2311501004
 20
5.7519587182
 30
0.0
 10
10.2346639299
 20
5.7568595539
 30
0.0
 10
10.2384187354
 20
5.7621198409
 30
0.0
 10
10.2424015416
 20
5.7677266021
 30
0.0
 10
10.2465992677
 20
5.7736669609
 30
0.0
 10
10.2526015389
 20
5.7822090987
 30
0.0
 10
10.2605493238
 20
5.7936257087
 30
0.0
 10
10.2705391222
 20
5.8081758142
 30
0.0
 10
10.2810866797
 20
5.8237817606
 30
0.0
 10
10.2920982991
 20
5.8403660147
 30
0.0
 10
10.3034844359
 20
5.85786004
 30
0.0
 10
10.3151592664
 20
5.8762042491
 30
0.0
 10
10.3270399447
 20
5.8953476694
 30
0.0
 10
10.3390456387
 20
5.9152474226
 30
0.0
 10
10.3510964173
 20
5.9358680908
 30
0.0
 10
10.363112026
 20
5.9571810029
 30
0.0
 10
10.3750105679
 20
5.9791634418
 30
0.0
 10
10.386707146
 20
6.0017977316
 30
0.0
 10
10.3981124977
 20
6.0250701614
 30
0.0
 10
10.4091316888
 20
6.0489696738
 30
0.0
 10
10.419662954
 20
6.0734862286
 30
0.0
 10
10.4295968551
 20
6.0986087306
 30
0.0
 10
10.438816033
 20
6.1243224245
 30
0.0
 10
10.4471959122
 20
6.1506057589
 30
0.0
 10
10.4546067899
 20
6.1774267438
 30
0.0
 10
10.4609177628
 20
6.2047394636
 30
0.0
 10
10.4660028299
 20
6.2324800759
 30
0.0
 10
10.4691220039
 20
6.255866969
 30
0.0
 10
10.4709050579
 20
6.2747072257
 30
0.0
 10
10.4718779062
 20
6.2888976056
 30
0.0
 10
10.4724785252
 20
6.3031201334
 30
0.0
 10
10.4727029253
 20
6.3173594549
 30
0.0
 10
10.4725498636
 20
6.3315997896
 30
0.0
 10
10.4720201688
 20
6.3458253353
 30
0.0
 10
10.4711175057
 20
6.3600206764
 30
0.0
 10
10.4694264532
 20
6.3788700371
 30
0.0
 10
10.4664187908
 20
6.4022725418
 30
0.0
 10
10.4614600092
 20
6.4300373221
 30
0.0
 10
10.4552664352
 20
6.4573782157
 30
0.0
 10
10.4479635001
 20
6.4842299196
 30
0.0
 10
10.4396820996
 20
6.5105452411
 30
0.0
 10
10.4305523384
 20
6.5362911679
 30
0.0
 10
10.4206994353
 20
6.5614453883
 30
0.0
 10
10.4102415084
 20
6.5859926209
 30
0.0
 10
10.3992887842
 20
6.6099214354
 30
0.0
 10
10.3879437877
 20
6.6332216011
 30
0.0
 10
10.3763021484
 20
6.6558819713
 30
0.0
 10
10.3644537473
 20
6.6778888137
 30
0.0
 10
10.3524840224
 20
6.699224477
 30
0.0
 10
10.3404753347
 20
6.7198662955
 30
0.0
 10
10.3285083275
 20
6.7397856612
 30
0.0
 10
10.3166632545
 20
6.7589472233
 30
0.0
 10
10.3050212088
 20
6.7773081675
 30
0.0
 10
10.2936652423
 20
6.7948175778
 30
0.0
 10
10.2826813345
 20
6.8114159148
 30
0.0
 10
10.2721591407
 20
6.8270346797
 30
0.0
 10
10.2621924275
 20
6.8415963665
 30
0.0
 10
10.2542623708
 20
6.8530218223
 30
0.0
 10
10.2482731895
 20
6.8615704401
 30
0.0
 10
10.2440845041
 20
6.8675152323
 30
0.0
 10
10.2401101698
 20
6.8731261251
 30
0.0
 10
10.2363632615
 20
6.8783902415
 30
0.0
 10
10.232856747
 20
6.8832946042
 30
0.0
 10
10.2296034074
 20
6.8878262948
 30
0.0
 10
10.2266156872
 20
6.8919726086
 30
0.0
 10
10.2239055428
 20
6.8957212075
 30
0.0
 10
10.221824981
 20
6.8985904992
 30
0.0
 10
10.2203079589
 20
6.9006784485
 30
0.0
 10
10.2192841283
 20
6.902085908
 30
0.0
 10
10.2183376212
 20
6.9033856253
 30
0.0
 10
10.2174695457
 20
6.9045764518
 30
0.0
 10
10.216680914
 20
6.9056572947
 30
0.0
 10
10.2159726697
 20
6.9066271576
 30
0.0
 10
10.2153456755
 20
6.9074851405
 30
0.0
 10
10.2148742733
 20
6.9081297864
 30
0.0
 10
10.2145383482
 20
6.9085889673
 30
0.0
 10
10.2143175145
 20
6.9088907562
 30
0.0
 10
10.2141175051
 20
6.909164025
 30
0.0
 10
10.2139383764
 20
6.9094087127
 30
0.0
 10
10.2137801827
 20
6.9096247612
 30
0.0
 10
10.2136429782
 20
6.9098121125
 30
0.0
 10
10.2135417818
 20
6.9099502776
 30
0.0
 10
10.2134713567
 20
6.9100464234
 30
0.0
 10
10.2134264463
 20
6.9101077331
 30
0.0
 10
10.2133868109
 20
6.910161839
 30
0.0
 10
10.2133524532
 20
6.9102087388
 30
0.0
 10
10.2133233739
 20
6.9102484294
 30
0.0
 10
10.21329958
 20
6.9102809108
 30
0.0
 10
10.2132830459
 20
6.9103034663
 30
0.0
 10
10.2132724748
 20
6.9103179108
 30
0.0
 10
10.213266504
 20
6.9103260241
 30
0.0
 10
10.2132619217
 20
6.9103323697
 30
0.0
 10
10.2132585059
 20
6.9103368237
 30
0.0
 10
10.2132567107
 20
6.9103396383
 30
0.0
 10
10.213255632
 20
6.9103407332
 30
0.0
 10
10.2132554921
 20
6.9103410794
 30
0.0
  0
SPLINE
  5
2DD
100
AcDbEntity
  8
0
100
AcDbSpline
 62
9
  6
CONTINUOUS
 70
0
 71
3
 72
137
 73
133
 74
0
 42
0.0000001
 43
0.0000001
 44
0.0000000001
 40
0.0
 40
0.0
 40
0.0
 40
0.0
 40
0.0000008223
 40
0.000003288
 40
0.0000073966
 40
0.000013148
 40
0.0000205418
 40
0.0000295777
 40
0.0000525747
 40
0.0000821365
 40
0.0001182607
 40
0.0001609449
 40
0.0002101867
 40
0.0002659836
 40
0.0003283332
 40
0.0004726809
 40
0.0006432023
 40
0.0008398442
 40
0.0010625486
 40
0.0013112572
 40
0.0015859119
 40
0.0018864546
 40
0.0025649137
 40
0.0033459215
 40
0.0042287258
 40
0.0052125234
 40
0.0062963418
 40
0.0074791733
 40
0.0087599721
 40
0.0101375499
 40
0.0131781318
 40
0.0165905126
 40
0.0203635096
 40
0.0244852951
 40
0.0289436546
 40
0.0337260475
 40
0.0388198141
 40
0.0442122531
 40
0.0498907767
 40
0.0620566018
 40
0.0752213792
 40
0.0892949919
 40
0.1041941483
 40
0.1198428183
 40
0.1361722558
 40
0.1531207563
 40
0.1706332637
 40
0.1886608732
 40
0.2071603005
 40
0.2260933642
 40
0.2454265062
 40
0.2651303289
 40
0.2851790856
 40
0.3055501536
 40
0.3262234395
 40
0.3471805846
 40
0.368403852
 40
0.3898745745
 40
0.4115710292
 40
0.4224970662
 40
0.4334688159
 40
0.4444814577
 40
0.4555295388
 40
0.4666069706
 40
0.4777070265
 40
0.4888224203
 40
0.499945483
 40
0.5110683604
 40
0.5221832126
 40
0.5332824108
 40
0.5443587195
 40
0.5554054757
 40
0.566416668
 40
0.5773869272
 40
0.588311491
 40
0.610005327
 40
0.6314740849
 40
0.6526962409
 40
0.6736531965
 40
0.694327211
 40
0.7146998802
 40
0.7347510473
 40
0.7544580224
 40
0.7737949957
 40
0.7927325121
 40
0.8112369625
 40
0.8292701205
 40
0.8467886602
 40
0.8637436357
 40
0.8800799458
 40
0.8957358342
 40
0.9106424916
 40
0.9247238098
 40
0.9378963978
 40
0.9500700147
 40
0.9557523806
 40
0.9611485982
 40
0.9662460557
 40
0.971032027
 40
0.9754938255
 40
0.9796188829
 40
0.9833949563
 40
0.9868101886
 40
0.9898533694
 40
0.9912321427
 40
0.9925140638
 40
0.9936979409
 40
0.9947827249
 40
0.9957674057
 40
0.9966510079
 40
0.9974327257
 40
0.9981118049
 40
0.9984126234
 40
0.9986875306
 40
0.9989364682
 40
0.999159378
 40
0.9993562016
 40
0.9995268808
 40
0.9996713622
 40
0.9997337696
 40
0.9997896182
 40
0.9998389057
 40
0.9998816294
 40
0.9999177872
 40
0.9999473764
 40
0.9999703948
 40
0.9999794391
 40
0.9999868398
 40
0.9999925965
 40
0.999996709
 40
0.9999991769
 40
1.0
 40
1.0
 40
1.0
 40
1.0
 10
11.761337426
 20
6.7977821548
 30
0.0
 10
11.7613371393
 20
6.7977820232
 30
0.0
 10
11.761336399
 20
6.7977809119
 30
0.0
 10
11.7613342401
 20
6.7977791232
 30
0.0
 10
11.7613309743
 20
6.7977756645
 30
0.0
 10
11.7613262471
 20
6.7977710471
 30
0.0
 10
11.7613202326
 20
6.797765021
 30
0.0
 10
11.7613095094
 20
6.7977543565
 30
0.0
 10
11.7612927726
 20
6.7977376734
 30
0.0
 10
11.7612686674
 20
6.797713665
 30
0.0
 10
11.7612392147
 20
6.7976843217
 30
0.0
 10
11.7612044131
 20
6.7976496504
 30
0.0
 10
11.761164266
 20
6.7976096511
 30
0.0
 10
11.7611187753
 20
6.7975643262
 30
0.0
 10
11.7610474395
 20
6.7974932471
 30
0.0
 10
11.7609449292
 20
6.7973910992
 30
0.0
 10
11.7608059307
 20
6.7972525799
 30
0.0
 10
11.7606456504
 20
6.7970928303
 30
0.0
 10
11.7604641395
 20
6.7969118912
 30
0.0
 10
11.760261451
 20
6.7967098042
 30
0.0
 10
11.7600376377
 20
6.7964866111
 30
0.0
 10
11.759697118
 20
6.7961469651
 30
0.0
 10
11.7592191442
 20
6.7956700535
 30
0.0
 10
11.7585832188
 20
6.7950351896
 30
0.0
 10
11.7578646175
 20
6.7943173412
 30
0.0
 10
11.7570641007
 20
6.7935171195
 30
0.0
 10
11.7561825244
 20
6.7926351788
 30
0.0
 10
11.755220808
 20
6.7916722417
 30
0.0
 10
11.7541799314
 20
6.7906290878
 30
0.0
 10
11.7526364335
 20
6.7890806428
 30
0.0
 10
11.75051741
 20
6.7869512502
 30
0.0
 10
11.747753627
 20
6.7841670166
 30
0.0
 10
11.7447019443
 20
6.7810841211
 30
0.0
 10
11.7413732497
 20
6.7777108144
 30
0.0
 10
11.7377788768
 20
6.7740556478
 30
0.0
 10
11.7339304995
 20
6.7701272964
 30
0.0
 10
11.7298400174
 20
6.7659344886
 30
0.0
 10
11.7255194146
 20
6.7614859088
 30
0.0
 10
11.7193240618
 20
6.755076052
 30
0.0
 10
11.7110906453
 20
6.7464892126
 30
0.0
 10
11.7006935095
 20
6.7355153895
 30
0.0
 10
11.6896551135
 20
6.7237050678
 30
0.0
 10
11.6780625014
 20
6.7111090353
 30
0.0
 10
11.6659989591
 20
6.6977710997
 30
0.0
 10
11.6535443687
 20
6.6837278663
 30
0.0
 10
11.6407758969
 20
6.6690086998
 30
0.0
 10
11.6277689759
 20
6.6536357809
 30
0.0
 10
11.6145985247
 20
6.6376242179
 30
0.0
 10
11.6013404007
 20
6.6209821854
 30
0.0
 10
11.5880730743
 20
6.603711084
 30
0.0
 10
11.5748795647
 20
6.5858057432
 30
0.0
 10
11.5618497653
 20
6.5672547055
 30
0.0
 10
11.5490832692
 20
6.5480406916
 30
0.0
 10
11.5366924158
 20
6.5281416716
 30
0.0
 10
11.5248058295
 20
6.5075325829
 30
0.0
 10
11.5135721862
 20
6.4861883936
 30
0.0
 10
11.5031635377
 20
6.4640886782
 30
0.0
 10
11.4937774282
 20
6.4412262985
 30
0.0
 10
11.4870072348
 20
6.4215943439
 30
0.0
 10
11.4823241335
 20
6.4055362265
 30
0.0
 10
11.479203065
 20
6.3932996564
 30
0.0
 10
11.4765107215
 20
6.3809135973
 30
0.0
 10
11.474274018
 20
6.3683957486
 30
0.0
 10
11.4725170929
 20
6.3557675336
 30
0.0
 10
11.4712601137
 20
6.3430536739
 30
0.0
 10
11.4705181725
 20
6.3302817353
 30
0.0
 10
11.4703004441
 20
6.3174813012
 30
0.0
 10
11.4706097196
 20
6.3046829648
 30
0.0
 10
11.4714422183
 20
6.2919172336
 30
0.0
 10
11.4727878284
 20
6.2792134458
 30
0.0
 10
11.4746306764
 20
6.2665987957
 30
0.0
 10
11.4769499246
 20
6.2540975345
 30
0.0
 10
11.4797209268
 20
6.2417305514
 30
0.0
 10
11.4829164229
 20
6.2295149993
 30
0.0
 10
11.4876927213
 20
6.2134866357
 30
0.0
 10
11.4945683629
 20
6.1938941092
 30
0.0
 10
11.5040643187
 20
6.171079761
 30
0.0
 10
11.5145676608
 20
6.149026499
 30
0.0
 10
11.5258829339
 20
6.1277258893
 30
0.0
 10
11.537840141
 20
6.1071568737
 30
0.0
 10
11.5502924483
 20
6.0872942038
 30
0.0
 10
11.5631128071
 20
6.0681128553
 30
0.0
 10
11.5761901895
 20
6.0495909736
 30
0.0
 10
11.5894260778
 20
6.0317115193
 30
0.0
 10
11.6027314542
 20
6.014463297
 30
0.0
 10
11.6160240071
 20
5.9978413935
 30
0.0
 10
11.6292258375
 20
5.9818474503
 30
0.0
 10
11.6422615479
 20
5.9664898624
 30
0.0
 10
11.6550565857
 20
5.9517839365
 30
0.0
 10
11.6675358047
 20
5.9377520311
 30
0.0
 10
11.679622256
 20
5.9244236723
 30
0.0
 10
11.6912362132
 20
5.9118356142
 30
0.0
 10
11.70229449
 20
5.9000318053
 30
0.0
 10
11.7127100884
 20
5.8890631718
 30
0.0
 10
11.7209579296
 20
5.8804798394
 30
0.0
 10
11.7271641246
 20
5.8740722455
 30
0.0
 10
11.7314923484
 20
5.8696250227
 30
0.0
 10
11.7355900587
 20
5.8654333497
 30
0.0
 10
11.7394452549
 20
5.8615059314
 30
0.0
 10
11.7430460183
 20
5.8578515165
 30
0.0
 10
11.7463806551
 20
5.8544788015
 30
0.0
 10
11.7494378091
 20
5.8513963587
 30
0.0
 10
11.75220657
 20
5.8486124598
 30
0.0
 10
11.7543294195
 20
5.8464832795
 30
0.0
 10
11.7558757148
 20
5.8449349612
 30
0.0
 10
11.7569184871
 20
5.8438918768
 30
0.0
 10
11.7578819587
 20
5.8429289946
 30
0.0
 10
11.7587651471
 20
5.8420470961
 30
0.0
 10
11.7595671305
 20
5.841246906
 30
0.0
 10
11.7602870507
 20
5.8405290805
 30
0.0
 10
11.760924145
 20
5.8398942326
 30
0.0
 10
11.7614029982
 20
5.8394173305
 30
0.0
 10
11.7617441452
 20
5.8390776899
 30
0.0
 10
11.7619683713
 20
5.8388544995
 30
0.0
 10
11.7621714338
 20
5.8386524146
 30
0.0
 10
11.7623532797
 20
5.8384714769
 30
0.0
 10
11.762513856
 20
5.8383117283
 30
0.0
 10
11.7626531113
 20
5.8381732096
 30
0.0
 10
11.762755811
 20
5.8380710621
 30
0.0
 10
11.7628272788
 20
5.8379999832
 30
0.0
 10
11.7628728536
 20
5.8379546584
 30
0.0
 10
11.7629130748
 20
5.8379146592
 30
0.0
 10
11.7629479408
 20
5.8378799879
 30
0.0
 10
11.7629774479
 20
5.8378506446
 30
0.0
 10
11.7630015978
 20
5.8378266363
 30
0.0
 10
11.7630183655
 20
5.8378099531
 30
0.0
 10
11.7630291085
 20
5.8377992887
 30
0.0
 10
11.7630351342
 20
5.8377932625
 30
0.0
 10
11.7630398701
 20
5.8377886453
 30
0.0
 10
11.7630431421
 20
5.8377851863
 30
0.0
 10
11.7630453047
 20
5.837783398
 30
0.0
 10
11.7630460466
 20
5.8377822863
 30
0.0
 10
11.7630463337
 20
5.8377821548
 30
0.0
  0
SPLINE
  5
2DE
100
AcDbEntity
  8
0
100
AcDbSpline
 62
9
  6
CONTINUOUS
 70
0
 71
3
 72
16
 73
12
 74
0
 42
0.0000001
 43
0.0000001
 44
0.0000000001
 40
0.0
 40
0.0
 40
0.0
 40
0.0
 40
0.1406620834
 40
0.2087743263
 40
0.275489403
 40
0.4050055953
 40
0.5299022124
 40
0.6509481661
 40
0.7690058529
 40
0.8850227414
 40
1.0
 40
1.0
 40
1.0
 40
1.0
 10
10.6198340416
 20
11.6568397893
 30
0.0
 10
10.6188086036
 20
11.6580702564
 30
0.0
 10
10.6173436538
 20
11.6599456593
 30
0.0
 10
10.6155471733
 20
11.6625180412
 30
0.0
 10
10.6139153951
 20
11.665048178
 30
0.0
 10
10.6121095982
 20
11.6682326883
 30
0.0
 10
10.6103136968
 20
11.6721183201
 30
0.0
 10
10.608913265
 20
11.6760256408
 30
0.0
 10
10.6079108796
 20
11.6799497809
 30
0.0
 10
10.6073085909
 20
11.6838849337
 30
0.0
 10
10.6071744362
 20
11.6865172215
 30
0.0
 10
10.6071744362
 20
11.687826485
 30
0.0
  0
SPLINE
  5
2DF
100
AcDbEntity
  8
0
100
AcDbSpline
 62
9
  6
CONTINUOUS
 70
0
 71
3
 72
16
 73
12
 74
0
 42
0.0000001
 43
0.0000001
 44
0.0000000001
 40
0.0
 40
0.0
 40
0.0
 40
0.0
 40
0.1424323322
 40
0.211200235
 40
0.278421131
 40
0.408513292
 40
0.5334477088
 40
0.6540609252
 40
0.771306008
 40
0.8862418109
 40
1.0
 40
1.0
 40
1.0
 40
1.0
 10
10.6197879487
 20
11.6567542427
 30
0.0
 10
10.6186090249
 20
11.6580698678
 30
0.0
 10
10.6169226866
 20
11.66007796
 30
0.0
 10
10.6148501649
 20
11.6628408827
 30
0.0
 10
10.6129710346
 20
11.6655545962
 30
0.0
 10
10.6108904019
 20
11.6689728046
 30
0.0
 10
10.6088179214
 20
11.6731523583
 30
0.0
 10
10.6072010523
 20
11.6773589584
 30
0.0
 10
10.6060432779
 20
11.6815866671
 30
0.0
 10
10.6053473995
 20
11.6858283008
 30
0.0
 10
10.6051923426
 20
11.6886671179
 30
0.0
 10
10.6051923426
 20
11.6900780374
 30
0.0
  0
SPLINE
  5
2E0
100
AcDbEntity
  8
0
100
AcDbSpline
 62
9
  6
CONTINUOUS
 70
0
 71
3
 72
137
 73
133
 74
0
 42
0.0000001
 43
0.0000001
 44
0.0000000001
 40
0.0
 40
0.0
 40
0.0
 40
0.0
 40
0.0000008231
 40
0.000003291
 40
0.0000074035
 40
0.0000131602
 40
0.0000205609
 40
0.0000296052
 40
0.0000526235
 40
0.0000822128
 40
0.0001183705
 40
0.0001610943
 40
0.0002103818
 40
0.0002662304
 40
0.0003286378
 40
0.0004731192
 40
0.0006437984
 40
0.000840622
 40
0.0010635318
 40
0.0013124694
 40
0.0015873766
 40
0.0018881951
 40
0.0025672743
 40
0.0033489921
 40
0.0042325943
 40
0.0052172751
 40
0.0063020591
 40
0.0074859361
 40
0.0087678573
 40
0.0101466305
 40
0.0131898113
 40
0.0166050434
 40
0.0203811166
 40
0.0245061739
 40
0.0289679722
 40
0.0337539433
 40
0.0388514007
 40
0.0442476182
 40
0.0499299842
 40
0.0621036015
 40
0.0752761901
 40
0.0893575092
 40
0.1042641677
 40
0.1199200572
 40
0.1362563685
 40
0.153211345
 40
0.1707298855
 40
0.1887630439
 40
0.2072674945
 40
0.2262050107
 40
0.2455419836
 40
0.2652489584
 40
0.2853001252
 40
0.3056727941
 40
0.3263468083
 40
0.3473037638
 40
0.3685259198
 40
0.3899946776
 40
0.4116885139
 40
0.4226130777
 40
0.433583337
 40
0.4445945293
 40
0.4556412855
 40
0.4667175942
 40
0.4778167924
 40
0.4889316446
 40
0.500054522
 40
0.5111775846
 40
0.5222929785
 40
0.5333930344
 40
0.5444704662
 40
0.5555185472
 40
0.5665311891
 40
0.5775029386
 40
0.5884289756
 40
0.6101254301
 40
0.6315961526
 40
0.6528194201
 40
0.6737765653
 40
0.6944498515
 40
0.7148209198
 40
0.7348696768
 40
0.7545734998
 40
0.7739066421
 40
0.792839706
 40
0.8113391331
 40
0.8293667421
 40
0.8468792487
 40
0.8638277482
 40
0.8801571846
 40
0.8958058535
 40
0.9107050088
 40
0.9247786207
 40
0.9379433974
 40
0.9501092222
 40
0.9557877458
 40
0.9611801849
 40
0.9662739515
 40
0.9710563446
 40
0.9755147043
 40
0.97963649
 40
0.9834094871
 40
0.986821868
 40
0.9898624501
 40
0.9912400278
 40
0.9925208267
 40
0.9937036582
 40
0.9947874766
 40
0.9957712742
 40
0.9966540785
 40
0.9974350863
 40
0.9981135454
 40
0.9984140881
 40
0.9986887428
 40
0.9989374514
 40
0.9991601558
 40
0.9993567977
 40
0.9995273191
 40
0.9996716668
 40
0.9997340164
 40
0.9997898133
 40
0.999839055
 40
0.9998817392
 40
0.9999178635
 40
0.9999474253
 40
0.9999704222
 40
0.9999794582
 40
0.999986852
 40
0.9999926034
 40
0.999996712
 40
0.9999991777
 40
1.0
 40
1.0
 40
1.0
 40
1.0
 10
10.1123383518
 20
5.8377821548
 30
0.0
 10
10.1123386388
 20
5.8377822864
 30
0.0
 10
10.1123393809
 20
5.8377833979
 30
0.0
 10
10.1123415434
 20
5.8377851864
 30
0.0
 10
10.1123448154
 20
5.8377886452
 30
0.0
 10
10.1123495512
 20
5.8377932625
 30
0.0
 10
10.1123555769
 20
5.8377992886
 30
0.0
 10
10.11236632
 20
5.8378099531
 30
0.0
 10
10.1123830877
 20
5.8378266362
 30
0.0
 10
10.1124072375
 20
5.8378506446
 30
0.0
 10
10.1124367447
 20
5.8378799879
 30
0.0
 10
10.1124716106
 20
5.8379146591
 30
0.0
 10
10.1125118319
 20
5.8379546584
 30
0.0
 10
10.1125574067
 20
5.8379999832
 30
0.0
 10
10.1126288744
 20
5.8380710621
 30
0.0
 10
10.1127315742
 20
5.8381732096
 30
0.0
 10
10.1128708294
 20
5.8383117283
 30
0.0
 10
10.1130314058
 20
5.8384714769
 30
0.0
 10
10.1132132517
 20
5.8386524146
 30
0.0
 10
10.1134163142
 20
5.8388544995
 30
0.0
 10
10.1136405403
 20
5.8390776899
 30
0.0
 10
10.1139816872
 20
5.8394173305
 30
0.0
 10
10.1144605404
 20
5.8398942326
 30
0.0
 10
10.1150976348
 20
5.8405290805
 30
0.0
 10
10.115817555
 20
5.841246906
 30
0.0
 10
10.1166195383
 20
5.8420470961
 30
0.0
 10
10.1175027268
 20
5.8429289946
 30
0.0
 10
10.1184661984
 20
5.8438918768
 30
0.0
 10
10.1195089706
 20
5.8449349612
 30
0.0
 10
10.1210552659
 20
5.8464832795
 30
0.0
 10
10.1231781152
 20
5.8486124598
 30
0.0
 10
10.1259468759
 20
5.8513963587
 30
0.0
 10
10.1290040296
 20
5.8544788015
 30
0.0
 10
10.132338666
 20
5.8578515166
 30
0.0
 10
10.1359394292
 20
5.8615059315
 30
0.0
 10
10.1397946251
 20
5.8654333498
 30
0.0
 10
10.1438923352
 20
5.8696250229
 30
0.0
 10
10.1482205589
 20
5.8740722457
 30
0.0
 10
10.1544267541
 20
5.8804798397
 30
0.0
 10
10.1626745958
 20
5.889063172
 30
0.0
 10
10.1730901957
 20
5.9000318051
 30
0.0
 10
10.1841484748
 20
5.9118356134
 30
0.0
 10
10.1957624349
 20
5.9244236704
 30
0.0
 10
10.2078488896
 20
5.9377520279
 30
0.0
 10
10.2203281124
 20
5.9517839317
 30
0.0
 10
10.233123154
 20
5.9664898557
 30
0.0
 10
10.2461588683
 20
5.9818474415
 30
0.0
 10
10.2593607022
 20
5.9978413825
 30
0.0
 10
10.2726532575
 20
6.0144632844
 30
0.0
 10
10.2859586347
 20
6.0317115059
 30
0.0
 10
10.2991945226
 20
6.0495909601
 30
0.0
 10
10.312271904
 20
6.0681128421
 30
0.0
 10
10.3250922606
 20
6.0872941918
 30
0.0
 10
10.3375445639
 20
6.1071568638
 30
0.0
 10
10.3495017656
 20
6.1277258822
 30
0.0
 10
10.3608170331
 20
6.1490264948
 30
0.0
 10
10.3713203701
 20
6.1710797591
 30
0.0
 10
10.3808163229
 20
6.1938941085
 30
0.0
 10
10.3876919636
 20
6.2134866355
 30
0.0
 10
10.3924682625
 20
6.2295149991
 30
0.0
 10
10.3956637524
 20
6.241730553
 30
0.0
 10
10.3984347508
 20
6.2540975369
 30
0.0
 10
10.4007539998
 20
6.2665987978
 30
0.0
 10
10.4025968512
 20
6.2792134475
 30
0.0
 10
10.4039424657
 20
6.2919172348
 30
0.0
 10
10.4047749677
 20
6.3046829659
 30
0.0
 10
10.4050842461
 20
6.3174813022
 30
0.0
 10
10.4048665206
 20
6.3302817363
 30
0.0
 10
10.4041245815
 20
6.3430536751
 30
0.0
 10
10.4028676041
 20
6.3557675349
 30
0.0
 10
10.4011106804
 20
6.3683957502
 30
0.0
 10
10.3988739713
 20
6.380913598
 30
0.0
 10
10.3961816208
 20
6.3932996555
 30
0.0
 10
10.3930605517
 20
6.4055362253
 30
0.0
 10
10.3883774517
 20
6.421594343
 30
0.0
 10
10.3816072574
 20
6.4412262973
 30
0.0
 10
10.3722211456
 20
6.4640886761
 30
0.0
 10
10.3618124922
 20
6.4861883893
 30
0.0
 10
10.3505788432
 20
6.5075325758
 30
0.0
 10
10.3386922513
 20
6.5281416616
 30
0.0
 10
10.3263013935
 20
6.5480406793
 30
0.0
 10
10.313534895
 20
6.567254692
 30
0.0
 10
10.3005050945
 20
6.5858057294
 30
0.0
 10
10.2873115847
 20
6.6037110704
 30
0.0
 10
10.2740442593
 20
6.6209821727
 30
0.0
 10
10.2607861377
 20
6.6376242068
 30
0.0
 10
10.24761569
 20
6.653635772
 30
0.0
 10
10.2346087728
 20
6.6690086931
 30
0.0
 10
10.2218403048
 20
6.6837278613
 30
0.0
 10
10.209385718
 20
6.6977710964
 30
0.0
 10
10.1973221791
 20
6.7111090334
 30
0.0
 10
10.1857295698
 20
6.7237050668
 30
0.0
 10
10.1746911759
 20
6.7355153892
 30
0.0
 10
10.1642940414
 20
6.7464892127
 30
0.0
 10
10.1560606255
 20
6.7550760521
 30
0.0
 10
10.1498652728
 20
6.7614859089
 30
0.0
 10
10.14554467
 20
6.7659344887
 30
0.0
 10
10.1414541876
 20
6.7701272965
 30
0.0
 10
10.1376058101
 20
6.7740556479
 30
0.0
 10
10.1340114369
 20
6.7777108144
 30
0.0
 10
10.130682742
 20
6.7810841212
 30
0.0
 10
10.127631059
 20
6.7841670166
 30
0.0
 10
10.1248672757
 20
6.7869512501
 30
0.0
 10
10.1227482521
 20
6.7890806428
 30
0.0
 10
10.1212047542
 20
6.7906290878
 30
0.0
 10
10.1201638775
 20
6.7916722417
 30
0.0
 10
10.1192021611
 20
6.7926351788
 30
0.0
 10
10.1183205848
 20
6.7935171195
 30
0.0
 10
10.117520068
 20
6.7943173412
 30
0.0
 10
10.1168014667
 20
6.7950351896
 30
0.0
 10
10.1161655413
 20
6.7956700535
 30
0.0
 10
10.1156875675
 20
6.7961469651
 30
0.0
 10
10.1153470478
 20
6.7964866111
 30
0.0
 10
10.1151232345
 20
6.7967098042
 30
0.0
 10
10.1149205459
 20
6.7969118912
 30
0.0
 10
10.1147390351
 20
6.7970928304
 30
0.0
 10
10.1145787547
 20
6.7972525799
 30
0.0
 10
10.1144397563
 20
6.7973910992
 30
0.0
 10
10.114337246
 20
6.7974932471
 30
0.0
 10
10.1142659102
 20
6.7975643262
 30
0.0
 10
10.1142204195
 20
6.7976096511
 30
0.0
 10
10.1141802724
 20
6.7976496504
 30
0.0
 10
10.1141454708
 20
6.7976843217
 30
0.0
 10
10.1141160181
 20
6.797713665
 30
0.0
 10
10.1140919129
 20
6.7977376734
 30
0.0
 10
10.1140751761
 20
6.7977543565
 30
0.0
 10
10.1140644529
 20
6.797765021
 30
0.0
 10
10.1140584384
 20
6.7977710471
 30
0.0
 10
10.1140537112
 20
6.7977756644
 30
0.0
 10
10.1140504454
 20
6.7977791233
 30
0.0
 10
10.1140482864
 20
6.7977809117
 30
0.0
 10
10.1140475463
 20
6.7977820233
 30
0.0
 10
10.1140472595
 20
6.7977821548
 30
0.0
  0
SPLINE
  5
2E1
100
AcDbEntity
  8
0
100
AcDbSpline
 62
9
  6
CONTINUOUS
 70
0
 71
3
 72
41
 73
37
 74
0
 42
0.0000001
 43
0.0000001
 44
0.0000000001
 40
0.0
 40
0.0
 40
0.0
 40
0.0
 40
0.0876613172
 40
0.1312605547
 40
0.1745810116
 40
0.2175312373
 40
0.2600209539
 40
0.3019614465
 40
0.3432658611
 40
0.3838495443
 40
0.4236303853
 40
0.4625291763
 40
0.5004699929
 40
0.5373806027
 40
0.573192908
 40
0.6078434357
 40
0.6412738869
 40
0.6734317656
 40
0.7042711098
 40
0.733753359
 40
0.7618483963
 40
0.7885358216
 40
0.8138065221
 40
0.8376646219
 40
0.8601299041
 40
0.8812407918
 40
0.90105794
 40
0.9196683719
 40
0.9371898618
 40
0.9537748423
 40
0.9617778293
 40
0.9696207678
 40
0.9773327881
 40
0.9849448678
 40
0.9924894428
 40
1.0
 40
1.0
 40
1.0
 40
1.0
 10
10.9376923427
 20
12.4978325131
 30
0.0
 10
10.9295230963
 20
12.4978325131
 30
0.0
 10
10.9172894433
 20
12.4976278939
 30
0.0
 10
10.901033958
 20
12.4969429571
 30
0.0
 10
10.8889518125
 20
12.4962267014
 30
0.0
 10
10.8769870595
 20
12.4953087918
 30
0.0
 10
10.865168413
 20
12.4941914275
 30
0.0
 10
10.8535243376
 20
12.492877315
 30
0.0
 10
10.8420828458
 20
12.4913696295
 30
0.0
 10
10.8308714651
 20
12.489672016
 30
0.0
 10
10.8199171614
 20
12.4877885776
 30
0.0
 10
10.8092462748
 20
12.4857238668
 30
0.0
 10
10.7988844542
 20
12.483482873
 30
0.0
 10
10.7888565935
 20
12.4810710101
 30
0.0
 10
10.7791867695
 20
12.4784941027
 30
0.0
 10
10.7698981804
 20
12.4757583694
 30
0.0
 10
10.7610130867
 20
12.4728704059
 30
0.0
 10
10.7525527529
 20
12.4698371644
 30
0.0
 10
10.7445373916
 20
12.4666659304
 30
0.0
 10
10.7369861088
 20
12.4633642962
 30
0.0
 10
10.7299168528
 20
12.4599401282
 30
0.0
 10
10.7233463666
 20
12.4564015267
 30
0.0
 10
10.7172901484
 20
12.4527567779
 30
0.0
 10
10.7117624233
 20
12.4490142894
 30
0.0
 10
10.7067761411
 20
12.4451825227
 30
0.0
 10
10.7023430031
 20
12.441269883
 30
0.0
 10
10.6984735832
 20
12.4372847233
 30
0.0
 10
10.6951774215
 20
12.4332350243
 30
0.0
 10
10.6924635901
 20
12.4291294575
 30
0.0
 10
10.690673088
 20
12.4256261889
 30
0.0
 10
10.6895551351
 20
12.4228163815
 30
0.0
 10
10.6888761957
 20
12.4207268997
 30
0.0
 10
10.6883475935
 20
12.4186319506
 30
0.0
 10
10.6879696798
 20
12.4165327808
 30
0.0
 10
10.687742818
 20
12.4144309137
 30
0.0
 10
10.6876923427
 20
12.4130273937
 30
0.0
 10
10.6876923427
 20
12.4123274773
 30
0.0
  0
SPLINE
  5
2E2
100
AcDbEntity
  8
0
100
AcDbSpline
 62
9
  6
CONTINUOUS
 70
0
 71
3
 72
75
 73
71
 74
0
 42
0.0000001
 43
0.0000001
 44
0.0000000001
 40
0.0
 40
0.0
 40
0.0
 40
0.0
 40
0.0037551815
 40
0.0075275695
 40
0.0113336197
 40
0.0151896029
 40
0.0191110705
 40
0.023112571
 40
0.0314050599
 40
0.040165806
 40
0.0494710216
 40
0.0593795948
 40
0.0699350379
 40
0.0811676784
 40
0.0930967277
 40
0.1057320772
 40
0.1190757889
 40
0.1331233067
 40
0.1478644308
 40
0.1632841027
 40
0.1793630423
 40
0.1960782686
 40
0.2134035334
 40
0.2313096873
 40
0.2497649934
 40
0.2687354029
 40
0.2881847995
 40
0.308075221
 40
0.3283670634
 40
0.3490192716
 40
0.3699895186
 40
0.3912343781
 40
0.4127094902
 40
0.4343697233
 40
0.4561693316
 40
0.5
 40
0.5438306684
 40
0.5656302767
 40
0.5872905098
 40
0.6087656219
 40
0.6300104814
 40
0.6509807284
 40
0.6716329366
 40
0.691924779
 40
0.7118152005
 40
0.7312645971
 40
0.7502350066
 40
0.7686903127
 40
0.7865964666
 40
0.8039217314
 40
0.8206369577
 40
0.8367158973
 40
0.8521355692
 40
0.8668766933
 40
0.8809242111
 40
0.8942679228
 40
0.9069032723
 40
0.9188323216
 40
0.9300649621
 40
0.9406204052
 40
0.9505289784
 40
0.959834194
 40
0.9685949401
 40
0.976887429
 40
0.9808889295
 40
0.9848103971
 40
0.9886663803
 40
0.9924724305
 40
0.9962448185
 40
1.0
 40
1.0
 40
1.0
 40
1.0
 10
11.2076923423
 20
11.359871742
 30
0.0
 10
11.2076923423
 20
11.3606276322
 30
0.0
 10
11.2076378239
 20
11.3621434341
 30
0.0
 10
11.2073928227
 20
11.3644134542
 30
0.0
 10
11.2069846768
 20
11.3666805753
 30
0.0
 10
11.2064137784
 20
11.3689431145
 30
0.0
 10
11.2056805297
 20
11.371199752
 30
0.0
 10
11.2044731392
 20
11.3742343444
 30
0.0
 10
11.2025393965
 20
11.3780178756
 30
0.0
 10
11.1996084594
 20
11.3824518882
 30
0.0
 10
11.1960486049
 20
11.3868255632
 30
0.0
 10
11.1918696321
 20
11.3911295359
 30
0.0
 10
11.1870818438
 20
11.3953551869
 30
0.0
 10
11.1816966599
 20
11.3994934952
 30
0.0
 10
11.1757267175
 20
11.4035353832
 30
0.0
 10
11.1691860027
 20
11.4074717123
 30
0.0
 10
11.1620898784
 20
11.4112934022
 30
0.0
 10
11.1544550827
 20
11.4149915042
 30
0.0
 10
11.1462996978
 20
11.4185572695
 30
0.0
 10
11.1376431078
 20
11.4219822026
 30
0.0
 10
11.1285059473
 20
11.4252581038
 30
0.0
 10
11.1189100457
 20
11.4283771045
 30
0.0
 10
11.108878369
 20
11.4313316965
 30
0.0
 10
11.0984349584
 20
11.4341147566
 30
0.0
 10
11.0876048682
 20
11.4367195684
 30
0.0
 10
11.0764141012
 20
11.4391398417
 30
0.0
 10
11.064889543
 20
11.4413697293
 30
0.0
 10
11.0530588944
 20
11.4434038427
 30
0.0
 10
11.0409506027
 20
11.4452372653
 30
0.0
 10
11.0285937913
 20
11.4468655657
 30
0.0
 10
11.0160181888
 20
11.4482848073
 30
0.0
 10
11.0032540524
 20
11.4494915608
 30
0.0
 10
10.9903321107
 20
11.4504829035
 30
0.0
 10
10.9772834232
 20
11.4512564594
 30
0.0
 10
10.9597273558
 20
11.4519961921
 30
0.0
 10
10.9376923428
 20
11.452364766
 30
0.0
 10
10.9156573297
 20
11.4519961921
 30
0.0
 10
10.8981012624
 20
11.4512564594
 30
0.0
 10
10.8850525748
 20
11.4504829035
 30
0.0
 10
10.8721306331
 20
11.4494915608
 30
0.0
 10
10.8593664967
 20
11.4482848073
 30
0.0
 10
10.8467908942
 20
11.4468655657
 30
0.0
 10
10.8344340828
 20
11.4452372653
 30
0.0
 10
10.8223257911
 20
11.4434038427
 30
0.0
 10
10.8104951425
 20
11.4413697293
 30
0.0
 10
10.7989705843
 20
11.4391398417
 30
0.0
 10
10.7877798173
 20
11.4367195684
 30
0.0
 10
10.7769497271
 20
11.4341147566
 30
0.0
 10
10.7665063165
 20
11.4313316965
 30
0.0
 10
10.7564746398
 20
11.4283771045
 30
0.0
 10
10.7468787382
 20
11.4252581038
 30
0.0
 10
10.7377415777
 20
11.4219822026
 30
0.0
 10
10.7290849878
 20
11.4185572695
 30
0.0
 10
10.7209296029
 20
11.4149915042
 30
0.0
 10
10.7132948071
 20
11.4112934022
 30
0.0
 10
10.7061986828
 20
11.4074717123
 30
0.0
 10
10.699657968
 20
11.4035353832
 30
0.0
 10
10.6936880256
 20
11.3994934952
 30
0.0
 10
10.6883028417
 20
11.3953551869
 30
0.0
 10
10.6835150534
 20
11.3911295359
 30
0.0
 10
10.6793360806
 20
11.3868255632
 30
0.0
 10
10.6757762261
 20
11.3824518882
 30
0.0
 10
10.672845289
 20
11.3780178756
 30
0.0
 10
10.6709115463
 20
11.3742343444
 30
0.0
 10
10.6697041558
 20
11.371199752
 30
0.0
 10
10.6689709071
 20
11.3689431145
 30
0.0
 10
10.6684000087
 20
11.3666805753
 30
0.0
 10
10.6679918628
 20
11.3644134542
 30
0.0
 10
10.6677468616
 20
11.3621434341
 30
0.0
 10
10.6676923432
 20
11.3606276322
 30
0.0
 10
10.6676923432
 20
11.359871742
 30
0.0
  0
SPLINE
  5
2E3
100
AcDbEntity
  8
0
100
AcDbSpline
 62
9
  6
CONTINUOUS
 70
0
 71
3
 72
75
 73
71
 74
0
 42
0.0000001
 43
0.0000001
 44
0.0000000001
 40
0.0
 40
0.0
 40
0.0
 40
0.0
 40
0.0037551831
 40
0.0075275751
 40
0.011333628
 40
0.0151896119
 40
0.0191110799
 40
0.0231125806
 40
0.0314050692
 40
0.0401658149
 40
0.0494710308
 40
0.0593796048
 40
0.0699350484
 40
0.081167689
 40
0.0930967383
 40
0.1057320878
 40
0.1190757996
 40
0.1331233175
 40
0.1478644415
 40
0.1632841132
 40
0.1793630525
 40
0.1960782786
 40
0.2134035431
 40
0.2313096965
 40
0.2497650022
 40
0.2687354112
 40
0.2881848072
 40
0.3080752281
 40
0.3283670699
 40
0.3490192773
 40
0.3699895235
 40
0.391234382
 40
0.4127094934
 40
0.4343697258
 40
0.4561693334
 40
0.5
 40
0.5438306666
 40
0.5656302742
 40
0.5872905066
 40
0.608765618
 40
0.6300104765
 40
0.6509807227
 40
0.6716329301
 40
0.6919247719
 40
0.7118151928
 40
0.7312645888
 40
0.7502349978
 40
0.7686903035
 40
0.7865964569
 40
0.8039217214
 40
0.8206369475
 40
0.8367158868
 40
0.8521355585
 40
0.8668766825
 40
0.8809242004
 40
0.8942679122
 40
0.9069032617
 40
0.918832311
 40
0.9300649516
 40
0.9406203952
 40
0.9505289692
 40
0.9598341851
 40
0.9685949308
 40
0.9768874194
 40
0.9808889201
 40
0.9848103881
 40
0.988666372
 40
0.9924724249
 40
0.9962448169
 40
1.0
 40
1.0
 40
1.0
 40
1.0
 10
11.2230114903
 20
11.3612628885
 30
0.0
 10
11.2230114903
 20
11.3620616663
 30
0.0
 10
11.2229538783
 20
11.3636634724
 30
0.0
 10
11.2226949763
 20
11.3660622897
 30
0.0
 10
11.2222636725
 20
11.3684580433
 30
0.0
 10
11.2216603823
 20
11.3708489542
 30
0.0
 10
11.2208855301
 20
11.3732336279
 30
0.0
 10
11.2196096351
 20
11.3764403958
 30
0.0
 10
11.2175661758
 20
11.380438595
 30
0.0
 10
11.2144689439
 20
11.3851241823
 30
0.0
 10
11.2107071114
 20
11.3897460088
 30
0.0
 10
11.2062910332
 20
11.3942941784
 30
0.0
 10
11.2012315968
 20
11.3987595825
 30
0.0
 10
11.1955408702
 20
11.4031326882
 30
0.0
 10
11.1892322075
 20
11.4074039028
 30
0.0
 10
11.182320388
 20
11.4115635694
 30
0.0
 10
11.1748216466
 20
11.4156020926
 30
0.0
 10
11.1667536708
 20
11.4195100156
 30
0.0
 10
11.158135569
 20
11.4232780936
 30
0.0
 10
11.1489878251
 20
11.4268973489
 30
0.0
 10
11.1393322442
 20
11.4303591166
 30
0.0
 10
11.1291918945
 20
11.4336550817
 30
0.0
 10
11.1185910448
 20
11.4367773099
 30
0.0
 10
11.1075551005
 20
11.4397182738
 30
0.0
 10
11.0961105374
 20
11.4424708762
 30
0.0
 10
11.0842848336
 20
11.4450284697
 30
0.0
 10
11.0721064001
 20
11.4473848757
 30
0.0
 10
11.0596045095
 20
11.4495343995
 30
0.0
 10
11.046809223
 20
11.451471846
 30
0.0
 10
11.0337513164
 20
11.4531925321
 30
0.0
 10
11.0204622051
 20
11.4546922979
 30
0.0
 10
11.0069738629
 20
11.4559675195
 30
0.0
 10
10.9933187619
 20
11.4570151086
 30
0.0
 10
10.9795297239
 20
11.4578325541
 30
0.0
 10
10.9609775683
 20
11.4586142574
 30
0.0
 10
10.9376923428
 20
11.4590037432
 30
0.0
 10
10.9144071172
 20
11.4586142574
 30
0.0
 10
10.8958549617
 20
11.4578325541
 30
0.0
 10
10.8820659236
 20
11.4570151086
 30
0.0
 10
10.8684108226
 20
11.4559675195
 30
0.0
 10
10.8549224804
 20
11.4546922979
 30
0.0
 10
10.8416333692
 20
11.4531925321
 30
0.0
 10
10.8285754625
 20
11.451471846
 30
0.0
 10
10.815780176
 20
11.4495343995
 30
0.0
 10
10.8032782854
 20
11.4473848757
 30
0.0
 10
10.7910998519
 20
11.4450284697
 30
0.0
 10
10.7792741481
 20
11.4424708762
 30
0.0
 10
10.767829585
 20
11.4397182738
 30
0.0
 10
10.7567936407
 20
11.4367773099
 30
0.0
 10
10.746192791
 20
11.4336550817
 30
0.0
 10
10.7360524413
 20
11.4303591166
 30
0.0
 10
10.7263968604
 20
11.4268973489
 30
0.0
 10
10.7172491165
 20
11.4232780936
 30
0.0
 10
10.7086310147
 20
11.4195100156
 30
0.0
 10
10.7005630389
 20
11.4156020926
 30
0.0
 10
10.6930642975
 20
11.4115635694
 30
0.0
 10
10.6861524781
 20
11.4074039028
 30
0.0
 10
10.6798438154
 20
11.4031326882
 30
0.0
 10
10.6741530887
 20
11.3987595825
 30
0.0
 10
10.6690936523
 20
11.3942941784
 30
0.0
 10
10.6646775741
 20
11.3897460088
 30
0.0
 10
10.6609157416
 20
11.3851241823
 30
0.0
 10
10.6578185097
 20
11.380438595
 30
0.0
 10
10.6557750504
 20
11.3764403958
 30
0.0
 10
10.6544991554
 20
11.3732336279
 30
0.0
 10
10.6537243032
 20
11.3708489542
 30
0.0
 10
10.653121013
 20
11.3684580433
 30
0.0
 10
10.6526897093
 20
11.3660622897
 30
0.0
 10
10.6524308072
 20
11.3636634724
 30
0.0
 10
10.6523731952
 20
11.3620616663
 30
0.0
 10
10.6523731952
 20
11.3612628885
 30
0.0
  0
SPLINE
  5
2E4
100
AcDbEntity
  8
0
100
AcDbSpline
 62
9
  6
CONTINUOUS
 70
0
 71
3
 72
61
 73
57
 74
0
 42
0.0000001
 43
0.0000001
 44
0.0000000001
 40
0.0
 40
0.0
 40
0.0
 40
0.0
 40
0.0088025177
 40
0.0180733573
 40
0.0278344856
 40
0.0381017896
 40
0.0488858856
 40
0.0601928284
 40
0.0720247183
 40
0.0843802145
 40
0.0972549638
 40
0.1106419604
 40
0.1245318469
 40
0.1389131678
 40
0.1537725861
 40
0.169095067
 40
0.1848640392
 40
0.2010615344
 40
0.2176683118
 40
0.23466397
 40
0.2520270483
 40
0.2697351203
 40
0.2877648805
 40
0.3060922251
 40
0.3435386029
 40
0.3818694998
 40
0.4208707955
 40
0.4603223401
 40
0.5
 40
0.5396776599
 40
0.5791292045
 40
0.6181305002
 40
0.6564613971
 40
0.6939077749
 40
0.7122351195
 40
0.7302648797
 40
0.7479729517
 40
0.76533603
 40
0.7823316882
 40
0.7989384656
 40
0.8151359608
 40
0.830904933
 40
0.8462274139
 40
0.8610868322
 40
0.8754681531
 40
0.8893580396
 40
0.9027450362
 40
0.9156197855
 40
0.9279752817
 40
0.9398071716
 40
0.9511141144
 40
0.9618982104
 40
0.9721655144
 40
0.9819266427
 40
0.9911974823
 40
1.0
 40
1.0
 40
1.0
 40
1.0
 10
11.2617647457
 20
11.7867655147
 30
0.0
 10
11.2604610649
 20
11.7882890201
 30
0.0
 10
11.2576656383
 20
11.7913169469
 30
0.0
 10
11.2530627026
 20
11.7956832237
 30
0.0
 10
11.2479521727
 20
11.7999815965
 30
0.0
 10
11.2423425091
 20
11.8042052554
 30
0.0
 10
11.2362425207
 20
11.8083478664
 30
0.0
 10
11.2296619018
 20
11.8124029875
 30
0.0
 10
11.2226110899
 20
11.8163642792
 30
0.0
 10
11.2151013027
 20
11.8202254823
 30
0.0
 10
11.2071445131
 20
11.8239804584
 30
0.0
 10
11.1987534345
 20
11.8276232075
 30
0.0
 10
11.1899414992
 20
11.8311478882
 30
0.0
 10
11.1807228354
 20
11.8345488332
 30
0.0
 10
11.1711122426
 20
11.8378205637
 30
0.0
 10
11.1611251658
 20
11.8409578017
 30
0.0
 10
11.1507776687
 20
11.8439554806
 30
0.0
 10
11.1400864064
 20
11.8468087561
 30
0.0
 10
11.1290685969
 20
11.8495130145
 30
0.0
 10
11.117741993
 20
11.8520638816
 30
0.0
 10
11.1061248493
 20
11.8544572317
 30
0.0
 10
11.0942359038
 20
11.8566891859
 30
0.0
 10
11.0820942998
 20
11.858756155
 30
0.0
 10
11.0654761724
 20
11.8613057684
 30
0.0
 10
11.0442121549
 20
11.8640485675
 30
0.0
 10
11.0181887386
 20
11.8666129538
 30
0.0
 10
10.9916465047
 20
11.8684566743
 30
0.0
 10
10.9647566355
 20
11.8695677367
 30
0.0
 10
10.9376923428
 20
11.8699388962
 30
0.0
 10
10.91062805
 20
11.8695677367
 30
0.0
 10
10.8837381808
 20
11.8684566743
 30
0.0
 10
10.8571959469
 20
11.8666129538
 30
0.0
 10
10.8311725307
 20
11.8640485675
 30
0.0
 10
10.8099085131
 20
11.8613057684
 30
0.0
 10
10.7932903857
 20
11.858756155
 30
0.0
 10
10.7811487817
 20
11.8566891859
 30
0.0
 10
10.7692598363
 20
11.8544572317
 30
0.0
 10
10.7576426925
 20
11.8520638816
 30
0.0
 10
10.7463160887
 20
11.8495130145
 30
0.0
 10
10.7352982791
 20
11.8468087561
 30
0.0
 10
10.7246070168
 20
11.8439554806
 30
0.0
 10
10.7142595197
 20
11.8409578017
 30
0.0
 10
10.7042724429
 20
11.8378205637
 30
0.0
 10
10.6946618501
 20
11.8345488332
 30
0.0
 10
10.6854431864
 20
11.8311478882
 30
0.0
 10
10.6766312511
 20
11.8276232075
 30
0.0
 10
10.6682401725
 20
11.8239804584
 30
0.0
 10
10.6602833828
 20
11.8202254823
 30
0.0
 10
10.6527735956
 20
11.8163642792
 30
0.0
 10
10.6457227837
 20
11.8124029875
 30
0.0
 10
10.6391421648
 20
11.8083478664
 30
0.0
 10
10.6330421764
 20
11.8042052554
 30
0.0
 10
10.6274325128
 20
11.7999815965
 30
0.0
 10
10.6223219829
 20
11.7956832237
 30
0.0
 10
10.6177190472
 20
11.7913169469
 30
0.0
 10
10.6149236206
 20
11.7882890201
 30
0.0
 10
10.6136199398
 20
11.7867655147
 30
0.0
  0
SPLINE
  5
2E5
100
AcDbEntity
  8
0
100
AcDbSpline
 62
9
  6
CONTINUOUS
 70
0
 71
3
 72
75
 73
71
 74
0
 42
0.0000001
 43
0.0000001
 44
0.0000000001
 40
0.0
 40
0.0
 40
0.0
 40
0.0
 40
0.0037540373
 40
0.0075653778
 40
0.0114472955
 40
0.015412211
 40
0.0236329621
 40
0.0323112536
 40
0.0415115257
 40
0.0512836951
 40
0.0616648291
 40
0.072680942
 40
0.0843486713
 40
0.0966767337
 40
0.1096671412
 40
0.1233161981
 40
0.1376153113
 40
0.152551648
 40
0.1681086743
 40
0.1842665983
 40
0.2010027405
 40
0.2182918478
 40
0.236106363
 40
0.2544166608
 40
0.2731912577
 40
0.2923970013
 40
0.3119992445
 40
0.331962007
 40
0.3522481272
 40
0.3728194069
 40
0.3936367509
 40
0.4146603009
 40
0.4358495677
 40
0.4571635594
 40
0.4785609091
 40
0.5
 40
0.5214390909
 40
0.5428364406
 40
0.5641504323
 40
0.5853396991
 40
0.6063632491
 40
0.6271805931
 40
0.6477518728
 40
0.668037993
 40
0.6880007555
 40
0.7076029987
 40
0.7268087423
 40
0.7455833392
 40
0.763893637
 40
0.7817081522
 40
0.7989972595
 40
0.8157334017
 40
0.8318913257
 40
0.847448352
 40
0.8623846887
 40
0.8766838019
 40
0.8903328588
 40
0.9033232663
 40
0.9156513287
 40
0.927319058
 40
0.9383351709
 40
0.9487163049
 40
0.9584884743
 40
0.9676887464
 40
0.9763670379
 40
0.984587789
 40
0.9885527045
 40
0.9924346222
 40
0.9962459627
 40
1.0
 40
1.0
 40
1.0
 40
1.0
 10
11.2822186948
 20
11.7462658929
 30
0.0
 10
11.2820341211
 20
11.7471940106
 30
0.0
 10
11.2815995142
 20
11.7490525264
 30
0.0
 10
11.2807616845
 20
11.7518156866
 30
0.0
 10
11.2797342487
 20
11.7545709939
 30
0.0
 10
11.2780930263
 20
11.7582760159
 30
0.0
 10
11.2755466096
 20
11.7628910406
 30
0.0
 10
11.2717832277
 20
11.7682995737
 30
0.0
 10
11.2672855638
 20
11.7736358791
 30
0.0
 10
11.2620646655
 20
11.7788893438
 30
0.0
 10
11.2561321933
 20
11.7840501331
 30
0.0
 10
11.2495010869
 20
11.7891080155
 30
0.0
 10
11.2421856173
 20
11.7940527334
 30
0.0
 10
11.2342015109
 20
11.7988739922
 30
0.0
 10
11.2255659706
 20
11.8035615771
 30
0.0
 10
11.216297671
 20
11.8081054237
 30
0.0
 10
11.2064167277
 20
11.8124956853
 30
0.0
 10
11.1959446543
 20
11.8167227858
 30
0.0
 10
11.184904311
 20
11.820777463
 30
0.0
 10
11.1733198493
 20
11.8246508051
 30
0.0
 10
11.1612166523
 20
11.8283342799
 30
0.0
 10
11.1486212742
 20
11.8318197619
 30
0.0
 10
11.1355613765
 20
11.8350995543
 30
0.0
 10
11.1220656636
 20
11.8381664098
 30
0.0
 10
11.1081638157
 20
11.8410135485
 30
0.0
 10
11.0938864212
 20
11.8436346745
 30
0.0
 10
11.0792649064
 20
11.8460239906
 30
0.0
 10
11.0643314644
 20
11.8481762117
 30
0.0
 10
11.049118983
 20
11.8500865766
 30
0.0
 10
11.0336609707
 20
11.8517508593
 30
0.0
 10
11.0179914816
 20
11.853165378
 30
0.0
 10
11.0021450398
 20
11.8543270034
 30
0.0
 10
10.9861565621
 20
11.8552331656
 30
0.0
 10
10.9700612808
 20
11.8558818602
 30
0.0
 10
10.9538946652
 20
11.8562716518
 30
0.0
 10
10.9376923428
 20
11.8564016783
 30
0.0
 10
10.9214900203
 20
11.8562716518
 30
0.0
 10
10.9053234047
 20
11.8558818602
 30
0.0
 10
10.8892281234
 20
11.8552331656
 30
0.0
 10
10.8732396457
 20
11.8543270034
 30
0.0
 10
10.8573932039
 20
11.853165378
 30
0.0
 10
10.8417237148
 20
11.8517508593
 30
0.0
 10
10.8262657025
 20
11.8500865766
 30
0.0
 10
10.8110532211
 20
11.8481762117
 30
0.0
 10
10.7961197792
 20
11.8460239906
 30
0.0
 10
10.7814982643
 20
11.8436346745
 30
0.0
 10
10.7672208698
 20
11.8410135485
 30
0.0
 10
10.7533190219
 20
11.8381664098
 30
0.0
 10
10.739823309
 20
11.8350995543
 30
0.0
 10
10.7267634113
 20
11.8318197619
 30
0.0
 10
10.7141680332
 20
11.8283342799
 30
0.0
 10
10.7020648363
 20
11.8246508051
 30
0.0
 10
10.6904803745
 20
11.820777463
 30
0.0
 10
10.6794400313
 20
11.8167227858
 30
0.0
 10
10.6689679578
 20
11.8124956853
 30
0.0
 10
10.6590870145
 20
11.8081054237
 30
0.0
 10
10.6498187149
 20
11.8035615771
 30
0.0
 10
10.6411831746
 20
11.7988739922
 30
0.0
 10
10.6331990682
 20
11.7940527334
 30
0.0
 10
10.6258835986
 20
11.7891080155
 30
0.0
 10
10.6192524922
 20
11.7840501331
 30
0.0
 10
10.61332002
 20
11.7788893438
 30
0.0
 10
10.6080991217
 20
11.7736358791
 30
0.0
 10
10.6036014578
 20
11.7682995737
 30
0.0
 10
10.5998380759
 20
11.7628910406
 30
0.0
 10
10.5972916592
 20
11.7582760159
 30
0.0
 10
10.5956504368
 20
11.7545709939
 30
0.0
 10
10.594623001
 20
11.7518156866
 30
0.0
 10
10.5937851713
 20
11.7490525264
 30
0.0
 10
10.5933505644
 20
11.7471940106
 30
0.0
 10
10.5931659908
 20
11.7462658929
 30
0.0
  0
SPLINE
  5
2E6
100
AcDbEntity
  8
0
100
AcDbSpline
 62
9
  6
CONTINUOUS
 70
0
 71
3
 72
75
 73
71
 74
0
 42
0.0000001
 43
0.0000001
 44
0.0000000001
 40
0.0
 40
0.0
 40
0.0
 40
0.0
 40
0.0037551831
 40
0.0075275751
 40
0.011333628
 40
0.0151896119
 40
0.0191110799
 40
0.0231125806
 40
0.0314050692
 40
0.0401658149
 40
0.0494710308
 40
0.0593796048
 40
0.0699350484
 40
0.081167689
 40
0.0930967383
 40
0.1057320878
 40
0.1190757996
 40
0.1331233175
 40
0.1478644415
 40
0.1632841132
 40
0.1793630525
 40
0.1960782786
 40
0.2134035431
 40
0.2313096965
 40
0.2497650022
 40
0.2687354112
 40
0.2881848072
 40
0.3080752281
 40
0.3283670699
 40
0.3490192773
 40
0.3699895235
 40
0.391234382
 40
0.4127094934
 40
0.4343697258
 40
0.4561693334
 40
0.5
 40
0.5438306666
 40
0.5656302742
 40
0.5872905066
 40
0.608765618
 40
0.6300104765
 40
0.6509807227
 40
0.6716329301
 40
0.6919247719
 40
0.7118151928
 40
0.7312645888
 40
0.7502349978
 40
0.7686903035
 40
0.7865964569
 40
0.8039217214
 40
0.8206369475
 40
0.8367158868
 40
0.8521355585
 40
0.8668766825
 40
0.8809242004
 40
0.8942679122
 40
0.9069032617
 40
0.918832311
 40
0.9300649516
 40
0.9406203952
 40
0.9505289692
 40
0.9598341851
 40
0.9685949308
 40
0.9768874194
 40
0.9808889201
 40
0.9848103881
 40
0.988666372
 40
0.9924724249
 40
0.9962448169
 40
1.0
 40
1.0
 40
1.0
 40
1.0
 10
11.2211197315
 20
11.5148362202
 30
0.0
 10
11.2211197315
 20
11.5156297019
 30
0.0
 10
11.2210625015
 20
11.5172208874
 30
0.0
 10
11.220805316
 20
11.5196037998
 30
0.0
 10
11.220376872
 20
11.5219836688
 30
0.0
 10
11.2197775818
 20
11.5243587272
 30
0.0
 10
11.2190078671
 20
11.5267275897
 30
0.0
 10
11.2177404317
 20
11.5299130957
 30
0.0
 10
11.2157105212
 20
11.5338847855
 30
0.0
 10
11.212633825
 20
11.5385393059
 30
0.0
 10
11.2088969346
 20
11.5431304882
 30
0.0
 10
11.2045101364
 20
11.5476485019
 30
0.0
 10
11.1994842458
 20
11.5520842989
 30
0.0
 10
11.1938312505
 20
11.5564284095
 30
0.0
 10
11.1875644163
 20
11.5606713045
 30
0.0
 10
11.1806984245
 20
11.5648033912
 30
0.0
 10
11.1732494022
 20
11.5688151377
 30
0.0
 10
11.1652349197
 20
11.5726971499
 30
0.0
 10
11.1566739587
 20
11.5764402443
 30
0.0
 10
11.1475868673
 20
11.5800355027
 30
0.0
 10
11.1379953061
 20
11.5834743178
 30
0.0
 10
11.1279221902
 20
11.5867484296
 30
0.0
 10
11.1173916276
 20
11.5898499564
 30
0.0
 10
11.1064288552
 20
11.5927714208
 30
0.0
 10
11.0950601732
 20
11.5955057725
 30
0.0
 10
11.0833128777
 20
11.5980464084
 30
0.0
 10
11.0712151912
 20
11.6003871905
 30
0.0
 10
11.0587961921
 20
11.6025224624
 30
0.0
 10
11.0460857426
 20
11.604447063
 30
0.0
 10
11.0331144141
 20
11.6061563403
 30
0.0
 10
11.019913414
 20
11.6076461622
 30
0.0
 10
11.0065145039
 20
11.6089129287
 30
0.0
 10
10.9929499407
 20
11.6099535719
 30
0.0
 10
10.9792523284
 20
11.6107655975
 30
0.0
 10
10.9608231797
 20
11.6115421179
 30
0.0
 10
10.9376923428
 20
11.6119290212
 30
0.0
 10
10.9145615059
 20
11.6115421179
 30
0.0
 10
10.8961323571
 20
11.6107655975
 30
0.0
 10
10.8824347449
 20
11.6099535719
 30
0.0
 10
10.8688701816
 20
11.6089129287
 30
0.0
 10
10.8554712715
 20
11.6076461622
 30
0.0
 10
10.8422702714
 20
11.6061563403
 30
0.0
 10
10.8292989429
 20
11.604447063
 30
0.0
 10
10.8165884934
 20
11.6025224624
 30
0.0
 10
10.8041694943
 20
11.6003871905
 30
0.0
 10
10.7920718078
 20
11.5980464084
 30
0.0
 10
10.7803245123
 20
11.5955057725
 30
0.0
 10
10.7689558303
 20
11.5927714208
 30
0.0
 10
10.757993058
 20
11.5898499564
 30
0.0
 10
10.7474624953
 20
11.5867484296
 30
0.0
 10
10.7373893794
 20
11.5834743178
 30
0.0
 10
10.7277978182
 20
11.5800355027
 30
0.0
 10
10.7187107268
 20
11.5764402443
 30
0.0
 10
10.7101497658
 20
11.5726971499
 30
0.0
 10
10.7021352833
 20
11.5688151377
 30
0.0
 10
10.6946862611
 20
11.5648033912
 30
0.0
 10
10.6878202692
 20
11.5606713045
 30
0.0
 10
10.681553435
 20
11.5564284095
 30
0.0
 10
10.6759004398
 20
11.5520842989
 30
0.0
 10
10.6708745491
 20
11.5476485019
 30
0.0
 10
10.6664877509
 20
11.5431304882
 30
0.0
 10
10.6627508605
 20
11.5385393059
 30
0.0
 10
10.6596741643
 20
11.5338847855
 30
0.0
 10
10.6576442538
 20
11.5299130957
 30
0.0
 10
10.6563768184
 20
11.5267275897
 30
0.0
 10
10.6556071037
 20
11.5243587272
 30
0.0
 10
10.6550078136
 20
11.5219836688
 30
0.0
 10
10.6545793695
 20
11.5196037998
 30
0.0
 10
10.654322184
 20
11.5172208874
 30
0.0
 10
10.654264954
 20
11.5156297019
 30
0.0
 10
10.654264954
 20
11.5148362202
 30
0.0
  0
SPLINE
  5
2E7
100
AcDbEntity
  8
0
100
AcDbSpline
 62
9
  6
CONTINUOUS
 70
0
 71
3
 72
79
 73
75
 74
0
 42
0.0000001
 43
0.0000001
 44
0.0000000001
 40
0.0
 40
0.0
 40
0.0
 40
0.0
 40
0.0037553299
 40
0.0075274867
 40
0.0113334839
 40
0.0151894713
 40
0.0191108973
 40
0.0231123495
 40
0.0272073598
 40
0.0314083382
 40
0.0401689928
 40
0.0494741123
 40
0.0593825833
 40
0.0699379174
 40
0.0811704421
 40
0.0930993695
 40
0.1057345904
 40
0.1190781666
 40
0.1331255412
 40
0.1478665142
 40
0.1632860274
 40
0.1793648006
 40
0.1960798536
 40
0.213404939
 40
0.2313109079
 40
0.2497660239
 40
0.2687362381
 40
0.2881854342
 40
0.3080756505
 40
0.3283672834
 40
0.3490192781
 40
0.3699893084
 40
0.3912339485
 40
0.4127088393
 40
0.4343688493
 40
0.4561682328
 40
0.478060786
 40
0.5
 40
0.521939214
 40
0.5438317672
 40
0.5656311507
 40
0.5872911607
 40
0.6087660515
 40
0.6300106916
 40
0.6509807219
 40
0.6716327166
 40
0.6919243495
 40
0.7118145658
 40
0.7312637619
 40
0.7502339761
 40
0.7686890921
 40
0.786595061
 40
0.8039201464
 40
0.8206351994
 40
0.8367139726
 40
0.8521334858
 40
0.8668744588
 40
0.8809218334
 40
0.8942654096
 40
0.9069006305
 40
0.9188295579
 40
0.9300620826
 40
0.9406174167
 40
0.9505258877
 40
0.9598310072
 40
0.9685916618
 40
0.9727926402
 40
0.9768876505
 40
0.9808891027
 40
0.9848105287
 40
0.9886665161
 40
0.9924725133
 40
0.9962446701
 40
1.0
 40
1.0
 40
1.0
 40
1.0
 10
11.2610588803
 20
11.6794182341
 30
0.0
 10
11.2610590084
 20
11.6803235739
 30
0.0
 10
11.2609937362
 20
11.6821389896
 30
0.0
 10
11.2607000926
 20
11.6848576578
 30
0.0
 10
11.2602113179
 20
11.687572844
 30
0.0
 10
11.2595276141
 20
11.6902826147
 30
0.0
 10
11.2586494545
 20
11.6929852438
 30
0.0
 10
11.2575775943
 20
11.6956790307
 30
0.0
 10
11.2563127977
 20
11.6983624178
 30
0.0
 10
11.2543430453
 20
11.70197426
 30
0.0
 10
11.2513770032
 20
11.7064618301
 30
0.0
 10
11.2471137627
 20
11.711699472
 30
0.0
 10
11.242108732
 20
11.7168542904
 30
0.0
 10
11.2363746394
 20
11.7219151139
 30
0.0
 10
11.2299250472
 20
11.7268713876
 30
0.0
 10
11.2227751235
 20
11.7317121659
 30
0.0
 10
11.2149416092
 20
11.736426526
 30
0.0
 10
11.2064429073
 20
11.7410035867
 30
0.0
 10
11.1972990635
 20
11.7454326322
 30
0.0
 10
11.1875317348
 20
11.7497031842
 30
0.0
 10
11.1771641365
 20
11.7538050682
 30
0.0
 10
11.1662209817
 20
11.7577284638
 30
0.0
 10
11.1547284143
 20
11.7614639472
 30
0.0
 10
11.1427139389
 20
11.7650025258
 30
0.0
 10
11.1302063486
 20
11.7683356682
 30
0.0
 10
11.1172356496
 20
11.7714553308
 30
0.0
 10
11.1038329847
 20
11.7743539801
 30
0.0
 10
11.0900305535
 20
11.7770246133
 30
0.0
 10
11.0758615321
 20
11.7794607768
 30
0.0
 10
11.0613599906
 20
11.7816565826
 30
0.0
 10
11.0465608087
 20
11.7836067228
 30
0.0
 10
11.0314995902
 20
11.7853064834
 30
0.0
 10
11.0162125758
 20
11.7867517552
 30
0.0
 10
11.0007365548
 20
11.7879390444
 30
0.0
 10
10.9851087753
 20
11.7888654807
 30
0.0
 10
10.9693668538
 20
11.7895288251
 30
0.0
 10
10.9535486836
 20
11.7899274741
 30
0.0
 10
10.9376923428
 20
11.7900604643
 30
0.0
 10
10.9218360019
 20
11.7899274741
 30
0.0
 10
10.9060178317
 20
11.7895288251
 30
0.0
 10
10.8902759102
 20
11.7888654807
 30
0.0
 10
10.8746481307
 20
11.7879390444
 30
0.0
 10
10.8591721097
 20
11.7867517552
 30
0.0
 10
10.8438850953
 20
11.7853064834
 30
0.0
 10
10.8288238768
 20
11.7836067228
 30
0.0
 10
10.8140246949
 20
11.7816565826
 30
0.0
 10
10.7995231534
 20
11.7794607768
 30
0.0
 10
10.7853541321
 20
11.7770246133
 30
0.0
 10
10.7715517009
 20
11.7743539801
 30
0.0
 10
10.7581490359
 20
11.7714553308
 30
0.0
 10
10.7451783369
 20
11.7683356682
 30
0.0
 10
10.7326707466
 20
11.7650025258
 30
0.0
 10
10.7206562712
 20
11.7614639472
 30
0.0
 10
10.7091637038
 20
11.7577284638
 30
0.0
 10
10.698220549
 20
11.7538050682
 30
0.0
 10
10.6878529508
 20
11.7497031842
 30
0.0
 10
10.6780856221
 20
11.7454326322
 30
0.0
 10
10.6689417782
 20
11.7410035867
 30
0.0
 10
10.6604430763
 20
11.736426526
 30
0.0
 10
10.652609562
 20
11.7317121659
 30
0.0
 10
10.6454596384
 20
11.7268713876
 30
0.0
 10
10.6390100461
 20
11.7219151139
 30
0.0
 10
10.6332759535
 20
11.7168542904
 30
0.0
 10
10.6282709228
 20
11.711699472
 30
0.0
 10
10.6240076824
 20
11.7064618301
 30
0.0
 10
10.6210416402
 20
11.70197426
 30
0.0
 10
10.6190718878
 20
11.6983624178
 30
0.0
 10
10.6178070912
 20
11.6956790307
 30
0.0
 10
10.616735231
 20
11.6929852438
 30
0.0
 10
10.6158570714
 20
11.6902826147
 30
0.0
 10
10.6151733676
 20
11.687572844
 30
0.0
 10
10.6146845929
 20
11.6848576578
 30
0.0
 10
10.6143909493
 20
11.6821389896
 30
0.0
 10
10.6143256771
 20
11.6803235739
 30
0.0
 10
10.6143258053
 20
11.6794182341
 30
0.0
  0
SPLINE
  5
2E8
100
AcDbEntity
  8
0
100
AcDbSpline
 62
9
  6
CONTINUOUS
 70
0
 71
3
 72
79
 73
75
 74
0
 42
0.0000001
 43
0.0000001
 44
0.0000000001
 40
0.0
 40
0.0
 40
0.0
 40
0.0
 40
0.0037551591
 40
0.0075275017
 40
0.0113335057
 40
0.0151894551
 40
0.0191108853
 40
0.0231123442
 40
0.0272073528
 40
0.0314083303
 40
0.0401689855
 40
0.0494741051
 40
0.0593825763
 40
0.0699379106
 40
0.0811704355
 40
0.093099363
 40
0.1057345842
 40
0.1190781605
 40
0.1331255354
 40
0.1478665086
 40
0.163286022
 40
0.1793647955
 40
0.1960798488
 40
0.2134049344
 40
0.2313109037
 40
0.24976602
 40
0.2687362344
 40
0.2881854308
 40
0.3080756474
 40
0.3283672807
 40
0.3490192757
 40
0.3699893063
 40
0.3912339468
 40
0.4127088379
 40
0.4343688482
 40
0.4561682321
 40
0.4780607857
 40
0.5
 40
0.5219392143
 40
0.5438317679
 40
0.5656311518
 40
0.5872911621
 40
0.6087660532
 40
0.6300106937
 40
0.6509807243
 40
0.6716327193
 40
0.6919243526
 40
0.7118145692
 40
0.7312637656
 40
0.75023398
 40
0.7686890963
 40
0.7865950656
 40
0.8039201512
 40
0.8206352045
 40
0.836713978
 40
0.8521334914
 40
0.8668744646
 40
0.8809218395
 40
0.8942654158
 40
0.906900637
 40
0.9188295645
 40
0.9300620894
 40
0.9406174237
 40
0.9505258949
 40
0.9598310145
 40
0.9685916697
 40
0.9727926472
 40
0.9768876558
 40
0.9808891147
 40
0.9848105449
 40
0.9886664943
 40
0.9924724983
 40
0.9962448409
 40
1.0
 40
1.0
 40
1.0
 40
1.0
 10
11.2682102493
 20
11.687826485
 30
0.0
 10
11.2682102493
 20
11.6887518047
 30
0.0
 10
11.2681435133
 20
11.6906073614
 30
0.0
 10
11.267843593
 20
11.6933861857
 30
0.0
 10
11.267343969
 20
11.6961614553
 30
0.0
 10
11.266645097
 20
11.6989311328
 30
0.0
 10
11.2657475355
 20
11.7016935298
 30
0.0
 10
11.2646519788
 20
11.7044468969
 30
0.0
 10
11.2633592048
 20
11.7071896264
 30
0.0
 10
11.2613458897
 20
11.7108813446
 30
0.0
 10
11.2583142546
 20
11.7154681602
 30
0.0
 10
11.2539567299
 20
11.7208216338
 30
0.0
 10
11.2488410115
 20
11.7260904532
 30
0.0
 10
11.2429801073
 20
11.7312631985
 30
0.0
 10
11.23638788
 20
11.7363290821
 30
0.0
 10
11.2290798331
 20
11.7412769159
 30
0.0
 10
11.2210730778
 20
11.7460955359
 30
0.0
 10
11.212386424
 20
11.7507738199
 30
0.0
 10
11.2030403607
 20
11.7553008153
 30
0.0
 10
11.193057024
 20
11.7596658122
 30
0.0
 10
11.1824601425
 20
11.7638584108
 30
0.0
 10
11.1712749759
 20
11.7678685738
 30
0.0
 10
11.1595282461
 20
11.7716866687
 30
0.0
 10
11.1472480663
 20
11.7753035043
 30
0.0
 10
11.134463866
 20
11.7787103604
 30
0.0
 10
11.1212063153
 20
11.7818990154
 30
0.0
 10
11.1075072455
 20
11.7848617694
 30
0.0
 10
11.0933995685
 20
11.7875914646
 30
0.0
 10
11.0789171941
 20
11.7900815048
 30
0.0
 10
11.0640949457
 20
11.7923258716
 30
0.0
 10
11.0489684745
 20
11.7943191399
 30
0.0
 10
11.0335741717
 20
11.7960564913
 30
0.0
 10
11.0179490794
 20
11.7975337259
 30
0.0
 10
11.0021308005
 20
11.7987472723
 30
0.0
 10
10.986157407
 20
11.7996941972
 30
0.0
 10
10.9700673472
 20
11.8003722116
 30
0.0
 10
10.9538993524
 20
11.8007796769
 30
0.0
 10
10.9376923428
 20
11.8009156082
 30
0.0
 10
10.9214853331
 20
11.8007796769
 30
0.0
 10
10.9053173383
 20
11.8003722116
 30
0.0
 10
10.8892272785
 20
11.7996941972
 30
0.0
 10
10.873253885
 20
11.7987472723
 30
0.0
 10
10.8574356061
 20
11.7975337259
 30
0.0
 10
10.8418105138
 20
11.7960564913
 30
0.0
 10
10.826416211
 20
11.7943191399
 30
0.0
 10
10.8112897398
 20
11.7923258716
 30
0.0
 10
10.7964674914
 20
11.7900815048
 30
0.0
 10
10.781985117
 20
11.7875914646
 30
0.0
 10
10.76787744
 20
11.7848617694
 30
0.0
 10
10.7541783702
 20
11.7818990154
 30
0.0
 10
10.7409208195
 20
11.7787103604
 30
0.0
 10
10.7281366193
 20
11.7753035043
 30
0.0
 10
10.7158564394
 20
11.7716866687
 30
0.0
 10
10.7041097096
 20
11.7678685738
 30
0.0
 10
10.692924543
 20
11.7638584108
 30
0.0
 10
10.6823276615
 20
11.7596658122
 30
0.0
 10
10.6723443248
 20
11.7553008153
 30
0.0
 10
10.6629982615
 20
11.7507738199
 30
0.0
 10
10.6543116077
 20
11.7460955359
 30
0.0
 10
10.6463048524
 20
11.7412769159
 30
0.0
 10
10.6389968056
 20
11.7363290821
 30
0.0
 10
10.6324045783
 20
11.7312631985
 30
0.0
 10
10.626543674
 20
11.7260904532
 30
0.0
 10
10.6214279556
 20
11.7208216338
 30
0.0
 10
10.6170704309
 20
11.7154681602
 30
0.0
 10
10.6140387958
 20
11.7108813446
 30
0.0
 10
10.6120254807
 20
11.7071896264
 30
0.0
 10
10.6107327067
 20
11.7044468969
 30
0.0
 10
10.60963715
 20
11.7016935298
 30
0.0
 10
10.6087395885
 20
11.6989311328
 30
0.0
 10
10.6080407165
 20
11.6961614553
 30
0.0
 10
10.6075410925
 20
11.6933861857
 30
0.0
 10
10.6072411723
 20
11.6906073614
 30
0.0
 10
10.6071744362
 20
11.6887518047
 30
0.0
 10
10.6071744362
 20
11.687826485
 30
0.0
  0
SPLINE
  5
2E9
100
AcDbEntity
  8
0
100
AcDbSpline
 62
9
  6
CONTINUOUS
 70
0
 71
3
 72
73
 73
69
 74
0
 42
0.0000001
 43
0.0000001
 44
0.0000000001
 40
0.0
 40
0.0
 40
0.0
 40
0.0
 40
0.0037610541
 40
0.007583439
 40
0.0114798931
 40
0.015462364
 40
0.0237257004
 40
0.0324535428
 40
0.0417072935
 40
0.0515343105
 40
0.0619695811
 40
0.0730374709
 40
0.0847533366
 40
0.0971249176
 40
0.1101534979
 40
0.1238348555
 40
0.1381600369
 40
0.153115985
 40
0.1686860552
 40
0.1848504403
 40
0.201586527
 40
0.2188691982
 40
0.2366710934
 40
0.2549628371
 40
0.2737132422
 40
0.2928894944
 40
0.3124573205
 40
0.3323811465
 40
0.3526242449
 40
0.3731488765
 40
0.3939164256
 40
0.4148875317
 40
0.436022218
 40
0.4572800165
 40
0.5
 40
0.5427199835
 40
0.563977782
 40
0.5851124683
 40
0.6060835744
 40
0.6268511235
 40
0.6473757551
 40
0.6676188535
 40
0.6875426795
 40
0.7071105056
 40
0.7262867578
 40
0.7450371629
 40
0.7633289066
 40
0.7811308018
 40
0.798413473
 40
0.8151495597
 40
0.8313139448
 40
0.846884015
 40
0.8618399631
 40
0.8761651445
 40
0.8898465021
 40
0.9028750824
 40
0.9152466634
 40
0.9269625291
 40
0.9380304189
 40
0.9484656895
 40
0.9582927065
 40
0.9675464572
 40
0.9762742996
 40
0.984537636
 40
0.9885201069
 40
0.992416561
 40
0.9962389459
 40
1.0
 40
1.0
 40
1.0
 40
1.0
 10
11.2822034786
 20
11.7462577374
 30
0.0
 10
11.2819986891
 20
11.7471815137
 30
0.0
 10
11.2815241616
 20
11.7490310261
 30
0.0
 10
11.2806292936
 20
11.7517788613
 30
0.0
 10
11.2795468647
 20
11.7545184397
 30
0.0
 10
11.2778338094
 20
11.7582026921
 30
0.0
 10
11.2752031486
 20
11.7627896561
 30
0.0
 10
11.271349368
 20
11.7681628945
 30
0.0
 10
11.2667699592
 20
11.7734632357
 30
0.0
 10
11.2614759236
 20
11.7786802241
 30
0.0
 10
11.2554788886
 20
11.7838041319
 30
0.0
 10
11.2487917721
 20
11.7888248528
 30
0.0
 10
11.2414288121
 20
11.7937322662
 30
0.0
 10
11.2334056808
 20
11.7985162293
 30
0.0
 10
11.2247394977
 20
11.803166689
 30
0.0
 10
11.2154488218
 20
11.8076737489
 30
0.0
 10
11.20555362
 20
11.8120277331
 30
0.0
 10
11.1950752238
 20
11.8162192365
 30
0.0
 10
11.1840362789
 20
11.8202391659
 30
0.0
 10
11.1724606908
 20
11.8240787742
 30
0.0
 10
11.1603735667
 20
11.8277296897
 30
0.0
 10
11.1478011558
 20
11.8311839406
 30
0.0
 10
11.1347707879
 20
11.8344339777
 30
0.0
 10
11.1213108097
 20
11.8374726931
 30
0.0
 10
11.1074505198
 20
11.8402934385
 30
0.0
 10
11.0932201022
 20
11.8428900408
 30
0.0
 10
11.0786505582
 20
11.8452568161
 30
0.0
 10
11.0637736369
 20
11.8473885832
 30
0.0
 10
11.0486217647
 20
11.8492806752
 30
0.0
 10
11.033227974
 20
11.8509289492
 30
0.0
 10
11.0176258253
 20
11.852329798
 30
0.0
 10
11.0018493528
 20
11.853480149
 30
0.0
 10
10.9859329153
 20
11.8543775049
 30
0.0
 10
10.9645367749
 20
11.855235294
 30
0.0
 10
10.9376923428
 20
11.8556628312
 30
0.0
 10
10.9108479106
 20
11.855235294
 30
0.0
 10
10.8894517702
 20
11.8543775049
 30
0.0
 10
10.8735353327
 20
11.853480149
 30
0.0
 10
10.8577588602
 20
11.852329798
 30
0.0
 10
10.8421567116
 20
11.8509289492
 30
0.0
 10
10.8267629208
 20
11.8492806752
 30
0.0
 10
10.8116110486
 20
11.8473885832
 30
0.0
 10
10.7967341274
 20
11.8452568161
 30
0.0
 10
10.7821645833
 20
11.8428900408
 30
0.0
 10
10.7679341657
 20
11.8402934385
 30
0.0
 10
10.7540738758
 20
11.8374726931
 30
0.0
 10
10.7406138976
 20
11.8344339777
 30
0.0
 10
10.7275835297
 20
11.8311839406
 30
0.0
 10
10.7150111188
 20
11.8277296897
 30
0.0
 10
10.7029239947
 20
11.8240787742
 30
0.0
 10
10.6913484066
 20
11.8202391659
 30
0.0
 10
10.6803094618
 20
11.8162192365
 30
0.0
 10
10.6698310656
 20
11.8120277331
 30
0.0
 10
10.6599358637
 20
11.8076737489
 30
0.0
 10
10.6506451878
 20
11.803166689
 30
0.0
 10
10.6419790047
 20
11.7985162293
 30
0.0
 10
10.6339558734
 20
11.7937322662
 30
0.0
 10
10.6265929135
 20
11.7888248528
 30
0.0
 10
10.619905797
 20
11.7838041319
 30
0.0
 10
10.6139087619
 20
11.7786802241
 30
0.0
 10
10.6086147263
 20
11.7734632357
 30
0.0
 10
10.6040353175
 20
11.7681628945
 30
0.0
 10
10.6001815369
 20
11.7627896561
 30
0.0
 10
10.5975508761
 20
11.7582026921
 30
0.0
 10
10.5958378208
 20
11.7545184397
 30
0.0
 10
10.5947553919
 20
11.7517788613
 30
0.0
 10
10.593860524
 20
11.7490310261
 30
0.0
 10
10.5933859965
 20
11.7471815137
 30
0.0
 10
10.5931812069
 20
11.7462577374
 30
0.0
  0
SPLINE
  5
2EA
100
AcDbEntity
  8
0
100
AcDbSpline
 62
9
  6
CONTINUOUS
 70
0
 71
3
 72
79
 73
75
 74
0
 42
0.0000001
 43
0.0000001
 44
0.0000000001
 40
0.0
 40
0.0
 40
0.0
 40
0.0
 40
0.0037551591
 40
0.0075275017
 40
0.0113335057
 40
0.0151894551
 40
0.0191108853
 40
0.0231123442
 40
0.0272073528
 40
0.0314083303
 40
0.0401689855
 40
0.0494741051
 40
0.0593825763
 40
0.0699379106
 40
0.0811704355
 40
0.093099363
 40
0.1057345841
 40
0.1190781605
 40
0.1331255354
 40
0.1478665086
 40
0.163286022
 40
0.1793647955
 40
0.1960798488
 40
0.2134049344
 40
0.2313109037
 40
0.24976602
 40
0.2687362344
 40
0.2881854308
 40
0.3080756474
 40
0.3283672807
 40
0.3490192757
 40
0.3699893063
 40
0.3912339468
 40
0.4127088379
 40
0.4343688482
 40
0.4561682321
 40
0.4780607857
 40
0.5
 40
0.5219392143
 40
0.5438317679
 40
0.5656311518
 40
0.5872911621
 40
0.6087660532
 40
0.6300106937
 40
0.6509807243
 40
0.6716327193
 40
0.6919243526
 40
0.7118145692
 40
0.7312637656
 40
0.75023398
 40
0.7686890963
 40
0.7865950656
 40
0.8039201512
 40
0.8206352045
 40
0.836713978
 40
0.8521334914
 40
0.8668744646
 40
0.8809218395
 40
0.8942654159
 40
0.906900637
 40
0.9188295645
 40
0.9300620894
 40
0.9406174237
 40
0.9505258949
 40
0.9598310145
 40
0.9685916697
 40
0.9727926472
 40
0.9768876558
 40
0.9808891147
 40
0.9848105449
 40
0.9886664943
 40
0.9924724983
 40
0.9962448409
 40
1.0
 40
1.0
 40
1.0
 40
1.0
 10
11.2701923429
 20
11.6900780374
 30
0.0
 10
11.2701923429
 20
11.6910089062
 30
0.0
 10
11.2701252066
 20
11.6928755905
 30
0.0
 10
11.2698234877
 20
11.6956710793
 30
0.0
 10
11.2693208675
 20
11.6984629919
 30
0.0
 10
11.2686178044
 20
11.701249279
 30
0.0
 10
11.2677148603
 20
11.7040282419
 30
0.0
 10
11.2666127337
 20
11.7067981208
 30
0.0
 10
11.265312207
 20
11.7095572983
 30
0.0
 10
11.2632868182
 20
11.7132711554
 30
0.0
 10
11.2602370026
 20
11.7178854779
 30
0.0
 10
11.2558533461
 20
11.7232710559
 30
0.0
 10
11.250706949
 20
11.7285714721
 30
0.0
 10
11.2448108973
 20
11.733775238
 30
0.0
 10
11.2381791369
 20
11.7388715013
 30
0.0
 10
11.2308272642
 20
11.743849007
 30
0.0
 10
11.2227724929
 20
11.7486965238
 30
0.0
 10
11.2140337458
 20
11.7534028632
 30
0.0
 10
11.2046316349
 20
11.7579570067
 30
0.0
 10
11.1945884287
 20
11.7623481802
 30
0.0
 10
11.1839279985
 20
11.7665659216
 30
0.0
 10
11.1726757551
 20
11.7706001332
 30
0.0
 10
11.160858581
 20
11.774441125
 30
0.0
 10
11.1485047578
 20
11.7780796505
 30
0.0
 10
11.1356438915
 20
11.7815069373
 30
0.0
 10
11.1223068362
 20
11.7847147144
 30
0.0
 10
11.108525614
 20
11.7876952358
 30
0.0
 10
11.0943333342
 20
11.7904413009
 30
0.0
 10
11.07976411
 20
11.7929462737
 30
0.0
 10
11.0648529736
 20
11.7952040998
 30
0.0
 10
11.04963579
 20
11.7972093216
 30
0.0
 10
11.0341491685
 20
11.7989570917
 30
0.0
 10
11.0184303736
 20
11.8004431852
 30
0.0
 10
11.0025172336
 20
11.8016640092
 30
0.0
 10
10.9864480487
 20
11.8026166127
 30
0.0
 10
10.9702614979
 20
11.8032986932
 30
0.0
 10
10.9539965447
 20
11.803708602
 30
0.0
 10
10.9376923428
 20
11.8038453485
 30
0.0
 10
10.9213881408
 20
11.803708602
 30
0.0
 10
10.9051231876
 20
11.8032986932
 30
0.0
 10
10.8889366368
 20
11.8026166127
 30
0.0
 10
10.8728674519
 20
11.8016640092
 30
0.0
 10
10.8569543119
 20
11.8004431852
 30
0.0
 10
10.841235517
 20
11.7989570917
 30
0.0
 10
10.8257488955
 20
11.7972093216
 30
0.0
 10
10.8105317119
 20
11.7952040998
 30
0.0
 10
10.7956205755
 20
11.7929462737
 30
0.0
 10
10.7810513513
 20
11.7904413009
 30
0.0
 10
10.7668590715
 20
11.7876952358
 30
0.0
 10
10.7530778493
 20
11.7847147144
 30
0.0
 10
10.739740794
 20
11.7815069373
 30
0.0
 10
10.7268799278
 20
11.7780796505
 30
0.0
 10
10.7145261045
 20
11.774441125
 30
0.0
 10
10.7027089304
 20
11.7706001332
 30
0.0
 10
10.691456687
 20
11.7665659216
 30
0.0
 10
10.6807962568
 20
11.7623481802
 30
0.0
 10
10.6707530507
 20
11.7579570067
 30
0.0
 10
10.6613509397
 20
11.7534028632
 30
0.0
 10
10.6526121926
 20
11.7486965238
 30
0.0
 10
10.6445574213
 20
11.743849007
 30
0.0
 10
10.6372055486
 20
11.7388715013
 30
0.0
 10
10.6305737882
 20
11.733775238
 30
0.0
 10
10.6246777365
 20
11.7285714721
 30
0.0
 10
10.6195313394
 20
11.7232710559
 30
0.0
 10
10.615147683
 20
11.7178854779
 30
0.0
 10
10.6120978674
 20
11.7132711554
 30
0.0
 10
10.6100724786
 20
11.7095572983
 30
0.0
 10
10.6087719518
 20
11.7067981208
 30
0.0
 10
10.6076698252
 20
11.7040282419
 30
0.0
 10
10.6067668811
 20
11.701249279
 30
0.0
 10
10.606063818
 20
11.6984629919
 30
0.0
 10
10.6055611978
 20
11.6956710793
 30
0.0
 10
10.6052594789
 20
11.6928755905
 30
0.0
 10
10.6051923426
 20
11.6910089062
 30
0.0
 10
10.6051923426
 20
11.6900780374
 30
0.0
  0
SPLINE
  5
2EB
100
AcDbEntity
  8
0
100
AcDbSpline
 62
9
  6
CONTINUOUS
 70
0
 71
3
 72
75
 73
71
 74
0
 42
0.0000001
 43
0.0000001
 44
0.0000000001
 40
0.0
 40
0.0
 40
0.0
 40
0.0
 40
0.0037551815
 40
0.0075275695
 40
0.0113336197
 40
0.0151896029
 40
0.0191110705
 40
0.023112571
 40
0.0314050599
 40
0.040165806
 40
0.0494710216
 40
0.0593795948
 40
0.0699350379
 40
0.0811676784
 40
0.0930967277
 40
0.1057320772
 40
0.1190757889
 40
0.1331233067
 40
0.1478644308
 40
0.1632841027
 40
0.1793630423
 40
0.1960782686
 40
0.2134035334
 40
0.2313096873
 40
0.2497649934
 40
0.2687354029
 40
0.2881847995
 40
0.308075221
 40
0.3283670634
 40
0.3490192716
 40
0.3699895186
 40
0.3912343781
 40
0.4127094902
 40
0.4343697233
 40
0.4561693316
 40
0.5
 40
0.5438306684
 40
0.5656302767
 40
0.5872905098
 40
0.6087656219
 40
0.6300104814
 40
0.6509807284
 40
0.6716329366
 40
0.691924779
 40
0.7118152005
 40
0.7312645971
 40
0.7502350066
 40
0.7686903127
 40
0.7865964666
 40
0.8039217314
 40
0.8206369577
 40
0.8367158973
 40
0.8521355692
 40
0.8668766933
 40
0.8809242111
 40
0.8942679228
 40
0.9069032723
 40
0.9188323216
 40
0.9300649621
 40
0.9406204052
 40
0.9505289784
 40
0.959834194
 40
0.9685949401
 40
0.976887429
 40
0.9808889295
 40
0.9848103971
 40
0.9886663803
 40
0.9924724305
 40
0.9962448185
 40
1.0
 40
1.0
 40
1.0
 40
1.0
 10
11.2076923423
 20
11.359871742
 30
0.0
 10
11.2076923423
 20
11.3591158519
 30
0.0
 10
11.2076378239
 20
11.3576000499
 30
0.0
 10
11.2073928227
 20
11.3553300298
 30
0.0
 10
11.2069846768
 20
11.3530629087
 30
0.0
 10
11.2064137784
 20
11.3508003696
 30
0.0
 10
11.2056805297
 20
11.3485437321
 30
0.0
 10
11.2044731392
 20
11.3455091396
 30
0.0
 10
11.2025393965
 20
11.3417256084
 30
0.0
 10
11.1996084594
 20
11.3372915959
 30
0.0
 10
11.1960486049
 20
11.3329179209
 30
0.0
 10
11.1918696321
 20
11.3286139482
 30
0.0
 10
11.1870818438
 20
11.3243882972
 30
0.0
 10
11.1816966599
 20
11.3202499888
 30
0.0
 10
11.1757267175
 20
11.3162081009
 30
0.0
 10
11.1691860027
 20
11.3122717718
 30
0.0
 10
11.1620898784
 20
11.3084500818
 30
0.0
 10
11.1544550827
 20
11.3047519799
 30
0.0
 10
11.1462996978
 20
11.3011862146
 30
0.0
 10
11.1376431078
 20
11.2977612815
 30
0.0
 10
11.1285059473
 20
11.2944853803
 30
0.0
 10
11.1189100457
 20
11.2913663795
 30
0.0
 10
11.108878369
 20
11.2884117875
 30
0.0
 10
11.0984349584
 20
11.2856287275
 30
0.0
 10
11.0876048682
 20
11.2830239157
 30
0.0
 10
11.0764141012
 20
11.2806036424
 30
0.0
 10
11.064889543
 20
11.2783737547
 30
0.0
 10
11.0530588944
 20
11.2763396414
 30
0.0
 10
11.0409506027
 20
11.2745062187
 30
0.0
 10
11.0285937913
 20
11.2728779183
 30
0.0
 10
11.0160181888
 20
11.2714586767
 30
0.0
 10
11.0032540524
 20
11.2702519233
 30
0.0
 10
10.9903321107
 20
11.2692605805
 30
0.0
 10
10.9772834232
 20
11.2684870247
 30
0.0
 10
10.9597273558
 20
11.2677472919
 30
0.0
 10
10.9376923428
 20
11.2673787181
 30
0.0
 10
10.9156573297
 20
11.2677472919
 30
0.0
 10
10.8981012624
 20
11.2684870247
 30
0.0
 10
10.8850525748
 20
11.2692605805
 30
0.0
 10
10.8721306331
 20
11.2702519233
 30
0.0
 10
10.8593664967
 20
11.2714586767
 30
0.0
 10
10.8467908942
 20
11.2728779183
 30
0.0
 10
10.8344340828
 20
11.2745062187
 30
0.0
 10
10.8223257911
 20
11.2763396414
 30
0.0
 10
10.8104951425
 20
11.2783737547
 30
0.0
 10
10.7989705843
 20
11.2806036424
 30
0.0
 10
10.7877798173
 20
11.2830239157
 30
0.0
 10
10.7769497271
 20
11.2856287275
 30
0.0
 10
10.7665063165
 20
11.2884117875
 30
0.0
 10
10.7564746398
 20
11.2913663795
 30
0.0
 10
10.7468787382
 20
11.2944853803
 30
0.0
 10
10.7377415777
 20
11.2977612815
 30
0.0
 10
10.7290849878
 20
11.3011862146
 30
0.0
 10
10.7209296029
 20
11.3047519799
 30
0.0
 10
10.7132948071
 20
11.3084500818
 30
0.0
 10
10.7061986828
 20
11.3122717718
 30
0.0
 10
10.699657968
 20
11.3162081009
 30
0.0
 10
10.6936880256
 20
11.3202499888
 30
0.0
 10
10.6883028417
 20
11.3243882972
 30
0.0
 10
10.6835150534
 20
11.3286139482
 30
0.0
 10
10.6793360806
 20
11.3329179209
 30
0.0
 10
10.6757762261
 20
11.3372915959
 30
0.0
 10
10.672845289
 20
11.3417256084
 30
0.0
 10
10.6709115463
 20
11.3455091396
 30
0.0
 10
10.6697041558
 20
11.3485437321
 30
0.0
 10
10.6689709071
 20
11.3508003696
 30
0.0
 10
10.6684000087
 20
11.3530629087
 30
0.0
 10
10.6679918628
 20
11.3553300298
 30
0.0
 10
10.6677468616
 20
11.3576000499
 30
0.0
 10
10.6676923432
 20
11.3591158519
 30
0.0
 10
10.6676923432
 20
11.359871742
 30
0.0
  0
SPLINE
  5
2EC
100
AcDbEntity
  8
0
100
AcDbSpline
 62
9
  6
CONTINUOUS
 70
0
 71
3
 72
75
 73
71
 74
0
 42
0.0000001
 43
0.0000001
 44
0.0000000001
 40
0.0
 40
0.0
 40
0.0
 40
0.0
 40
0.0037452579
 40
0.0075167658
 40
0.0113305484
 40
0.015202177
 40
0.0191463192
 40
0.0231766611
 40
0.0315420592
 40
0.0403900718
 40
0.0497908107
 40
0.0597980211
 40
0.0704510541
 40
0.0817769653
 40
0.0937924498
 40
0.1065055021
 40
0.1199167899
 40
0.1340207674
 40
0.1488065745
 40
0.1642587612
 40
0.1803578787
 40
0.1970809642
 40
0.2144019462
 40
0.2322919875
 40
0.250719781
 40
0.2696518102
 40
0.2890525804
 40
0.3088848301
 40
0.3291097247
 40
0.3496870389
 40
0.3705753282
 40
0.3917320938
 40
0.4131139415
 40
0.4346767366
 40
0.4563757549
 40
0.4999999965
 40
0.5436242381
 40
0.5653232565
 40
0.5868860516
 40
0.6082678994
 40
0.6294246651
 40
0.6503129545
 40
0.6708902689
 40
0.6911151637
 40
0.7109474136
 40
0.730348184
 40
0.7492802135
 40
0.7677080073
 40
0.7855980488
 40
0.802919031
 40
0.8196421169
 40
0.8357412347
 40
0.8511934218
 40
0.8659792291
 40
0.880083207
 40
0.8934944951
 40
0.9062075478
 40
0.9182230326
 40
0.9295489442
 40
0.9402019775
 40
0.9502091882
 40
0.9596099274
 40
0.9684579402
 40
0.9768233386
 40
0.9808536806
 40
0.9847978229
 40
0.9886694515
 40
0.9924832342
 40
0.9962547421
 40
1.0
 40
1.0
 40
1.0
 40
1.0
 10
11.2216033878
 20
11.4915995309
 30
0.0
 10
11.2215705353
 20
11.492388211
 30
0.0
 10
11.2214481832
 20
11.4939693119
 30
0.0
 10
11.2210965016
 20
11.4963332073
 30
0.0
 10
11.2205765689
 20
11.4986932218
 30
0.0
 10
11.2198888112
 20
11.5010476892
 30
0.0
 10
11.2190337409
 20
11.5033952886
 30
0.0
 10
11.2176545515
 20
11.5065529808
 30
0.0
 10
11.2154931523
 20
11.5104863715
 30
0.0
 10
11.2122750475
 20
11.5150919156
 30
0.0
 10
11.2084098059
 20
11.5196330288
 30
0.0
 10
11.2039076145
 20
11.5241001262
 30
0.0
 10
11.1987792295
 20
11.5284843162
 30
0.0
 10
11.1930366093
 20
11.532776314
 30
0.0
 10
11.1866929772
 20
11.5369667979
 30
0.0
 10
11.1797629383
 20
11.5410464097
 30
0.0
 10
11.1722624957
 20
11.545005871
 30
0.0
 10
11.164209042
 20
11.5488360531
 30
0.0
 10
11.1556213249
 20
11.5525280427
 30
0.0
 10
11.1465194031
 20
11.5560731927
 30
0.0
 10
11.1369245936
 20
11.5594631629
 30
0.0
 10
11.1268594153
 20
11.5626899543
 30
0.0
 10
11.1163475302
 20
11.5657459372
 30
0.0
 10
11.1054136815
 20
11.5686238761
 30
0.0
 10
11.0940836314
 20
11.5713169505
 30
0.0
 10
11.0823840956
 20
11.5738187744
 30
0.0
 10
11.0703426775
 20
11.5761234128
 30
0.0
 10
11.0579878001
 20
11.5782253972
 30
0.0
 10
11.0453486367
 20
11.580119739
 30
0.0
 10
11.0324550401
 20
11.5818019423
 30
0.0
 10
11.0193374719
 20
11.583268014
 30
0.0
 10
11.0060269241
 20
11.5845144756
 30
0.0
 10
10.9925548633
 20
11.5855383632
 30
0.0
 10
10.9789530873
 20
11.5863372669
 30
0.0
 10
10.9606558807
 20
11.5871011827
 30
0.0
 10
10.9376923461
 20
11.58748183
 30
0.0
 10
10.9147288116
 20
11.5871011829
 30
0.0
 10
10.896431605
 20
11.5863372673
 30
0.0
 10
10.8828298289
 20
11.5855383636
 30
0.0
 10
10.869357768
 20
11.5845144762
 30
0.0
 10
10.8560472201
 20
11.5832680147
 30
0.0
 10
10.8429296518
 20
11.5818019431
 30
0.0
 10
10.8300360551
 20
11.5801197399
 30
0.0
 10
10.8173968916
 20
11.5782253982
 30
0.0
 10
10.805042014
 20
11.5761234139
 30
0.0
 10
10.7930005958
 20
11.5738187756
 30
0.0
 10
10.7813010598
 20
11.5713169518
 30
0.0
 10
10.7699710095
 20
11.5686238774
 30
0.0
 10
10.7590371606
 20
11.5657459386
 30
0.0
 10
10.7485252752
 20
11.5626899558
 30
0.0
 10
10.7384600967
 20
11.5594631646
 30
0.0
 10
10.728865287
 20
11.5560731944
 30
0.0
 10
10.719763365
 20
11.5525280445
 30
0.0
 10
10.7111756476
 20
11.5488360549
 30
0.0
 10
10.7031221936
 20
11.5450058729
 30
0.0
 10
10.6956217508
 20
11.5410464116
 30
0.0
 10
10.6886917116
 20
11.5369667999
 30
0.0
 10
10.6823480792
 20
11.5327763161
 30
0.0
 10
10.6766054587
 20
11.5284843184
 30
0.0
 10
10.6714770734
 20
11.5241001284
 30
0.0
 10
10.6669748817
 20
11.519633031
 30
0.0
 10
10.6631096397
 20
11.5150919179
 30
0.0
 10
10.6598915346
 20
11.5104863738
 30
0.0
 10
10.6577301351
 20
11.5065529831
 30
0.0
 10
10.6563509455
 20
11.5033952909
 30
0.0
 10
10.6554958751
 20
11.5010476915
 30
0.0
 10
10.6548081172
 20
11.4986932241
 30
0.0
 10
10.6542881843
 20
11.4963332096
 30
0.0
 10
10.6539365026
 20
11.4939693142
 30
0.0
 10
10.6538141504
 20
11.4923882133
 30
0.0
 10
10.6537812978
 20
11.4915995333
 30
0.0
  0
SPLINE
  5
2ED
100
AcDbEntity
  8
0
100
AcDbSpline
 62
9
  6
CONTINUOUS
 70
0
 71
3
 72
75
 73
71
 74
0
 42
0.0000001
 43
0.0000001
 44
0.0000000001
 40
0.0
 40
0.0
 40
0.0
 40
0.0
 40
0.0037551831
 40
0.0075275751
 40
0.011333628
 40
0.0151896119
 40
0.0191110799
 40
0.0231125806
 40
0.0314050692
 40
0.0401658149
 40
0.0494710308
 40
0.0593796048
 40
0.0699350484
 40
0.081167689
 40
0.0930967383
 40
0.1057320878
 40
0.1190757996
 40
0.1331233175
 40
0.1478644415
 40
0.1632841132
 40
0.1793630525
 40
0.1960782786
 40
0.2134035431
 40
0.2313096965
 40
0.2497650022
 40
0.2687354112
 40
0.2881848072
 40
0.3080752281
 40
0.3283670699
 40
0.3490192773
 40
0.3699895235
 40
0.391234382
 40
0.4127094934
 40
0.4343697258
 40
0.4561693334
 40
0.5
 40
0.5438306666
 40
0.5656302742
 40
0.5872905066
 40
0.608765618
 40
0.6300104765
 40
0.6509807227
 40
0.6716329301
 40
0.6919247719
 40
0.7118151928
 40
0.7312645888
 40
0.7502349978
 40
0.7686903035
 40
0.7865964569
 40
0.8039217214
 40
0.8206369475
 40
0.8367158868
 40
0.8521355585
 40
0.8668766825
 40
0.8809242004
 40
0.8942679122
 40
0.9069032617
 40
0.918832311
 40
0.9300649516
 40
0.9406203952
 40
0.9505289692
 40
0.9598341851
 40
0.9685949308
 40
0.9768874194
 40
0.9808889201
 40
0.9848103881
 40
0.988666372
 40
0.9924724249
 40
0.9962448169
 40
1.0
 40
1.0
 40
1.0
 40
1.0
 10
11.2230114903
 20
11.3612628885
 30
0.0
 10
11.2230114903
 20
11.3604641106
 30
0.0
 10
11.2229538783
 20
11.3588623045
 30
0.0
 10
11.2226949763
 20
11.3564634872
 30
0.0
 10
11.2222636725
 20
11.3540677336
 30
0.0
 10
11.2216603823
 20
11.3516768227
 30
0.0
 10
11.2208855301
 20
11.349292149
 30
0.0
 10
11.2196096351
 20
11.3460853811
 30
0.0
 10
11.2175661758
 20
11.3420871819
 30
0.0
 10
11.2144689439
 20
11.3374015946
 30
0.0
 10
11.2107071114
 20
11.3327797681
 30
0.0
 10
11.2062910332
 20
11.3282315985
 30
0.0
 10
11.2012315968
 20
11.3237661944
 30
0.0
 10
11.1955408702
 20
11.3193930887
 30
0.0
 10
11.1892322075
 20
11.3151218741
 30
0.0
 10
11.182320388
 20
11.3109622075
 30
0.0
 10
11.1748216466
 20
11.3069236843
 30
0.0
 10
11.1667536708
 20
11.3030157613
 30
0.0
 10
11.158135569
 20
11.2992476833
 30
0.0
 10
11.1489878251
 20
11.295628428
 30
0.0
 10
11.1393322442
 20
11.2921666603
 30
0.0
 10
11.1291918945
 20
11.2888706952
 30
0.0
 10
11.1185910448
 20
11.285748467
 30
0.0
 10
11.1075551005
 20
11.2828075031
 30
0.0
 10
11.0961105374
 20
11.2800549007
 30
0.0
 10
11.0842848336
 20
11.2774973072
 30
0.0
 10
11.0721064001
 20
11.2751409013
 30
0.0
 10
11.0596045095
 20
11.2729913774
 30
0.0
 10
11.046809223
 20
11.2710539309
 30
0.0
 10
11.0337513164
 20
11.2693332448
 30
0.0
 10
11.0204622051
 20
11.267833479
 30
0.0
 10
11.0069738629
 20
11.2665582574
 30
0.0
 10
10.9933187619
 20
11.2655106683
 30
0.0
 10
10.9795297239
 20
11.2646932228
 30
0.0
 10
10.9609775683
 20
11.2639115195
 30
0.0
 10
10.9376923428
 20
11.2635220337
 30
0.0
 10
10.9144071172
 20
11.2639115195
 30
0.0
 10
10.8958549617
 20
11.2646932228
 30
0.0
 10
10.8820659236
 20
11.2655106683
 30
0.0
 10
10.8684108226
 20
11.2665582574
 30
0.0
 10
10.8549224804
 20
11.267833479
 30
0.0
 10
10.8416333692
 20
11.2693332448
 30
0.0
 10
10.8285754625
 20
11.2710539309
 30
0.0
 10
10.815780176
 20
11.2729913774
 30
0.0
 10
10.8032782854
 20
11.2751409013
 30
0.0
 10
10.7910998519
 20
11.2774973072
 30
0.0
 10
10.7792741481
 20
11.2800549007
 30
0.0
 10
10.767829585
 20
11.2828075031
 30
0.0
 10
10.7567936407
 20
11.285748467
 30
0.0
 10
10.746192791
 20
11.2888706952
 30
0.0
 10
10.7360524413
 20
11.2921666603
 30
0.0
 10
10.7263968604
 20
11.295628428
 30
0.0
 10
10.7172491165
 20
11.2992476833
 30
0.0
 10
10.7086310147
 20
11.3030157613
 30
0.0
 10
10.7005630389
 20
11.3069236843
 30
0.0
 10
10.6930642975
 20
11.3109622075
 30
0.0
 10
10.6861524781
 20
11.3151218741
 30
0.0
 10
10.6798438154
 20
11.3193930887
 30
0.0
 10
10.6741530887
 20
11.3237661944
 30
0.0
 10
10.6690936523
 20
11.3282315985
 30
0.0
 10
10.6646775741
 20
11.3327797681
 30
0.0
 10
10.6609157416
 20
11.3374015946
 30
0.0
 10
10.6578185097
 20
11.3420871819
 30
0.0
 10
10.6557750504
 20
11.3460853811
 30
0.0
 10
10.6544991554
 20
11.349292149
 30
0.0
 10
10.6537243032
 20
11.3516768227
 30
0.0
 10
10.653121013
 20
11.3540677336
 30
0.0
 10
10.6526897093
 20
11.3564634872
 30
0.0
 10
10.6524308072
 20
11.3588623045
 30
0.0
 10
10.6523731952
 20
11.3604641106
 30
0.0
 10
10.6523731952
 20
11.3612628885
 30
0.0
  0
SPLINE
  5
2EE
100
AcDbEntity
  8
0
100
AcDbSpline
 62
9
  6
CONTINUOUS
 70
0
 71
3
 72
41
 73
37
 74
0
 42
0.0000001
 43
0.0000001
 44
0.0000000001
 40
0.0
 40
0.0
 40
0.0
 40
0.0
 40
0.0075105572
 40
0.0150551322
 40
0.0226672119
 40
0.0303792322
 40
0.0382221707
 40
0.0462251577
 40
0.0628101382
 40
0.0803316281
 40
0.09894206
 40
0.1187592082
 40
0.1398700959
 40
0.1623353781
 40
0.1861934779
 40
0.2114641784
 40
0.2381516037
 40
0.266246641
 40
0.2957288902
 40
0.3265682344
 40
0.3587261131
 40
0.3921565643
 40
0.426807092
 40
0.4626193973
 40
0.4995300071
 40
0.5374708237
 40
0.5763696147
 40
0.6161504557
 40
0.6567341389
 40
0.6980385535
 40
0.7399790461
 40
0.7824687627
 40
0.8254189884
 40
0.8687394453
 40
0.9123386828
 40
1.0
 40
1.0
 40
1.0
 40
1.0
 10
11.1876923427
 20
12.4123274773
 30
0.0
 10
11.1876923427
 20
12.4130273937
 30
0.0
 10
11.1876418674
 20
12.4144309137
 30
0.0
 10
11.1874150057
 20
12.4165327808
 30
0.0
 10
11.187037092
 20
12.4186319506
 30
0.0
 10
11.1865084898
 20
12.4207268997
 30
0.0
 10
11.1858295504
 20
12.4228163815
 30
0.0
 10
11.1847115975
 20
12.4256261889
 30
0.0
 10
11.1829210953
 20
12.4291294575
 30
0.0
 10
11.180207264
 20
12.4332350243
 30
0.0
 10
11.1769111023
 20
12.4372847233
 30
0.0
 10
11.1730416824
 20
12.441269883
 30
0.0
 10
11.1686085443
 20
12.4451825227
 30
0.0
 10
11.1636222622
 20
12.4490142894
 30
0.0
 10
11.1580945371
 20
12.4527567779
 30
0.0
 10
11.1520383189
 20
12.4564015267
 30
0.0
 10
11.1454678327
 20
12.4599401282
 30
0.0
 10
11.1383985767
 20
12.4633642962
 30
0.0
 10
11.1308472939
 20
12.4666659304
 30
0.0
 10
11.1228319325
 20
12.4698371644
 30
0.0
 10
11.1143715988
 20
12.4728704059
 30
0.0
 10
11.105486505
 20
12.4757583694
 30
0.0
 10
11.096197916
 20
12.4784941027
 30
0.0
 10
11.0865280919
 20
12.4810710101
 30
0.0
 10
11.0765002313
 20
12.483482873
 30
0.0
 10
11.0661384107
 20
12.4857238668
 30
0.0
 10
11.0554675241
 20
12.4877885776
 30
0.0
 10
11.0445132203
 20
12.489672016
 30
0.0
 10
11.0333018397
 20
12.4913696295
 30
0.0
 10
11.0218603479
 20
12.492877315
 30
0.0
 10
11.0102162725
 20
12.4941914275
 30
0.0
 10
10.998397626
 20
12.4953087918
 30
0.0
 10
10.986432873
 20
12.4962267014
 30
0.0
 10
10.9743507274
 20
12.4969429571
 30
0.0
 10
10.9580952421
 20
12.4976278939
 30
0.0
 10
10.9458615892
 20
12.4978325131
 30
0.0
 10
10.9376923427
 20
12.4978325131
 30
0.0
  0
SPLINE
  5
2EF
100
AcDbEntity
  8
0
100
AcDbSpline
 62
9
  6
CONTINUOUS
 70
0
 71
3
 72
63
 73
59
 74
0
 42
0.0000001
 43
0.0000001
 44
0.0000000001
 40
0.0
 40
0.0
 40
0.0
 40
0.0
 40
0.0084838723
 40
0.017428162
 40
0.0268638807
 40
0.0368143281
 40
0.0472961011
 40
0.0583200136
 40
0.0698918974
 40
0.0820132827
 40
0.0946819685
 40
0.1078924978
 40
0.1216365524
 40
0.1359032828
 40
0.1506795852
 40
0.1659503367
 40
0.1816985963
 40
0.1979057792
 40
0.2145518094
 40
0.2316152558
 40
0.2490734542
 40
0.2669026186
 40
0.2850779434
 40
0.3035736998
 40
0.3223633258
 40
0.3414195118
 40
0.3802179448
 40
0.4197398268
 40
0.4597478245
 40
0.5000000202
 40
0.5402522157
 40
0.5802602128
 40
0.6197820938
 40
0.6585805254
 40
0.6776367105
 40
0.6964263355
 40
0.7149220909
 40
0.7330974146
 40
0.7509265777
 40
0.7683847749
 40
0.7854482199
 40
0.8020942486
 40
0.8183014299
 40
0.8340496879
 40
0.8493204378
 40
0.8640967385
 40
0.8783634671
 40
0.8921075199
 40
0.9053180474
 40
0.9179867314
 40
0.9301081148
 40
0.9416799967
 40
0.9527039074
 40
0.9631856786
 40
0.9731361241
 40
0.9825718411
 40
0.9915161292
 40
1.0
 40
1.0
 40
1.0
 40
1.0
 10
11.2346424685
 20
11.4512901681
 30
0.0
 10
11.2335948087
 20
11.452730603
 30
0.0
 10
11.2313141872
 20
11.4555977902
 30
0.0
 10
11.2274762328
 20
11.459736555
 30
0.0
 10
11.2231417971
 20
11.4638156554
 30
0.0
 10
11.2183186601
 20
11.4678282854
 30
0.0
 10
11.2130149054
 20
11.4717681982
 30
0.0
 10
11.2072395034
 20
11.4756289694
 30
0.0
 10
11.2010021814
 20
11.4794042533
 30
0.0
 10
11.1943134735
 20
11.483087755
 30
0.0
 10
11.1871847012
 20
11.4866732795
 30
0.0
 10
11.1796279621
 20
11.4901547547
 30
0.0
 10
11.1716561094
 20
11.4935262553
 30
0.0
 10
11.1632827287
 20
11.4967820224
 30
0.0
 10
11.1545221135
 20
11.4999164801
 30
0.0
 10
11.1453892377
 20
11.5029242501
 30
0.0
 10
11.1358997283
 20
11.5058001645
 30
0.0
 10
11.1260698367
 20
11.508539277
 30
0.0
 10
11.1159164087
 20
11.5111368735
 30
0.0
 10
11.105456854
 20
11.513588481
 30
0.0
 10
11.0947091155
 20
11.5158898768
 30
0.0
 10
11.0836916375
 20
11.5180370952
 30
0.0
 10
11.0724233303
 20
11.5200264377
 30
0.0
 10
11.0609235492
 20
11.5218544709
 30
0.0
 10
11.0492120132
 20
11.5235180639
 30
0.0
 10
11.0332461063
 20
11.5255249724
 30
0.0
 10
11.0129042146
 20
11.5275963891
 30
0.0
 10
10.9881221271
 20
11.5293738536
 30
0.0
 10
10.9629939874
 20
11.5304452799
 30
0.0
 10
10.9376923212
 20
11.5308032524
 30
0.0
 10
10.9123906552
 20
11.5304452787
 30
0.0
 10
10.8872625159
 20
11.5293738512
 30
0.0
 10
10.8624804291
 20
11.5275963854
 30
0.0
 10
10.8421385383
 20
11.5255249678
 30
0.0
 10
10.8261726321
 20
11.5235180585
 30
0.0
 10
10.8144610968
 20
11.5218544649
 30
0.0
 10
10.8029613164
 20
11.5200264312
 30
0.0
 10
10.7916930101
 20
11.5180370881
 30
0.0
 10
10.780675533
 20
11.5158898692
 30
0.0
 10
10.7699277954
 20
11.5135884729
 30
0.0
 10
10.7594682417
 20
11.5111368649
 30
0.0
 10
10.7493148147
 20
11.5085392679
 30
0.0
 10
10.7394849243
 20
11.5058001549
 30
0.0
 10
10.7299954162
 20
11.5029242401
 30
0.0
 10
10.7208625416
 20
11.4999164697
 30
0.0
 10
10.7121019276
 20
11.4967820116
 30
0.0
 10
10.7037285483
 20
11.4935262441
 30
0.0
 10
10.695756697
 20
11.4901547431
 30
0.0
 10
10.6881999593
 20
11.4866732675
 30
0.0
 10
10.6810711885
 20
11.4830877426
 30
0.0
 10
10.6743824821
 20
11.4794042406
 30
0.0
 10
10.6681451617
 20
11.4756289564
 30
0.0
 10
10.6623697613
 20
11.471768185
 30
0.0
 10
10.6570660081
 20
11.4678282719
 30
0.0
 10
10.6522428728
 20
11.4638156416
 30
0.0
 10
10.6479084388
 20
11.459736541
 30
0.0
 10
10.6440704861
 20
11.455597776
 30
0.0
 10
10.6417898658
 20
11.4527305887
 30
0.0
 10
10.6407422066
 20
11.4512901538
 30
0.0
  0
SPLINE
  5
2F0
100
AcDbEntity
  8
0
100
AcDbSpline
 62
9
  6
CONTINUOUS
 70
0
 71
3
 72
73
 73
69
 74
0
 42
0.0000001
 43
0.0000001
 44
0.0000000001
 40
0.0
 40
0.0
 40
0.0
 40
0.0
 40
0.0037532424
 40
0.007563274
 40
0.0114434298
 40
0.0154061859
 40
0.0236216315
 40
0.0322936939
 40
0.0414872068
 40
0.0512524201
 40
0.0616266723
 40
0.0726361933
 40
0.0842977883
 40
0.0966203018
 40
0.1096058414
 40
0.1232507803
 40
0.1375465727
 40
0.1524804156
 40
0.1680357895
 40
0.184192905
 40
0.2009290745
 40
0.2182190273
 40
0.2360351812
 40
0.2543478789
 40
0.2731255992
 40
0.2923351466
 40
0.3119418263
 40
0.3319096057
 40
0.3522012677
 40
0.3727785552
 40
0.3936023113
 40
0.4146326138
 40
0.4358289077
 40
0.4571501337
 40
0.5
 40
0.5428498663
 40
0.5641710923
 40
0.5853673862
 40
0.6063976887
 40
0.6272214448
 40
0.6477987323
 40
0.6680903943
 40
0.6880581737
 40
0.7076648534
 40
0.7268744008
 40
0.7456521211
 40
0.7639648188
 40
0.7817809727
 40
0.7990709255
 40
0.815807095
 40
0.8319642105
 40
0.8475195844
 40
0.8624534273
 40
0.8767492197
 40
0.8903941586
 40
0.9033796982
 40
0.9157022117
 40
0.9273638067
 40
0.9383733277
 40
0.9487475799
 40
0.9585127932
 40
0.9677063061
 40
0.9763783685
 40
0.9845938141
 40
0.9885565702
 40
0.992436726
 40
0.9962467576
 40
1.0
 40
1.0
 40
1.0
 40
1.0
 10
11.2512481267
 20
11.4139862974
 30
0.0
 10
11.2510825065
 20
11.4148314788
 30
0.0
 10
11.2506916338
 20
11.4165239572
 30
0.0
 10
11.2499357868
 20
11.4190404924
 30
0.0
 10
11.2490071458
 20
11.4215499333
 30
0.0
 10
11.2475218581
 20
11.4249242897
 30
0.0
 10
11.2452142112
 20
11.429127694
 30
0.0
 10
11.2417997193
 20
11.4340541225
 30
0.0
 10
11.237715945
 20
11.4389148956
 30
0.0
 10
11.2329729484
 20
11.4437003356
 30
0.0
 10
11.2275813459
 20
11.4484014793
 30
0.0
 10
11.2215529165
 20
11.4530090005
 30
0.0
 10
11.2149006516
 20
11.4575135479
 30
0.0
 10
11.20763887
 20
11.4619057346
 30
0.0
 10
11.1997832374
 20
11.4661762453
 30
0.0
 10
11.1913507629
 20
11.4703159006
 30
0.0
 10
11.1823597709
 20
11.474315719
 30
0.0
 10
11.1728298623
 20
11.4781669654
 30
0.0
 10
11.1627818673
 20
11.4818611905
 30
0.0
 10
11.1522377947
 20
11.4853902641
 30
0.0
 10
11.1412207782
 20
11.4887464027
 30
0.0
 10
11.1297550204
 20
11.4919221929
 30
0.0
 10
11.1178657351
 20
11.4949106128
 30
0.0
 10
11.1055790878
 20
11.4977050502
 30
0.0
 10
11.0929221352
 20
11.5002993195
 30
0.0
 10
11.0799227629
 20
11.5026876761
 30
0.0
 10
11.0666096214
 20
11.5048648306
 30
0.0
 10
11.0530120621
 20
11.5068259607
 30
0.0
 10
11.0391600696
 20
11.5085667226
 30
0.0
 10
11.0250841967
 20
11.5100832597
 30
0.0
 10
11.0108154907
 20
11.5113722141
 30
0.0
 10
10.9963854418
 20
11.5124307252
 30
0.0
 10
10.9818258455
 20
11.5132564681
 30
0.0
 10
10.9622517884
 20
11.5140458362
 30
0.0
 10
10.9376923428
 20
11.5144392563
 30
0.0
 10
10.9131328971
 20
11.5140458362
 30
0.0
 10
10.89355884
 20
11.5132564681
 30
0.0
 10
10.8789992437
 20
11.5124307252
 30
0.0
 10
10.8645691949
 20
11.5113722141
 30
0.0
 10
10.8503004888
 20
11.5100832597
 30
0.0
 10
10.8362246159
 20
11.5085667226
 30
0.0
 10
10.8223726235
 20
11.5068259607
 30
0.0
 10
10.8087750641
 20
11.5048648306
 30
0.0
 10
10.7954619227
 20
11.5026876761
 30
0.0
 10
10.7824625503
 20
11.5002993195
 30
0.0
 10
10.7698055977
 20
11.4977050502
 30
0.0
 10
10.7575189504
 20
11.4949106128
 30
0.0
 10
10.7456296651
 20
11.4919221929
 30
0.0
 10
10.7341639073
 20
11.4887464027
 30
0.0
 10
10.7231468909
 20
11.4853902641
 30
0.0
 10
10.7126028183
 20
11.4818611905
 30
0.0
 10
10.7025548232
 20
11.4781669654
 30
0.0
 10
10.6930249146
 20
11.474315719
 30
0.0
 10
10.6840339226
 20
11.4703159006
 30
0.0
 10
10.6756014481
 20
11.4661762453
 30
0.0
 10
10.6677458155
 20
11.4619057346
 30
0.0
 10
10.6604840339
 20
11.4575135479
 30
0.0
 10
10.653831769
 20
11.4530090005
 30
0.0
 10
10.6478033396
 20
11.4484014793
 30
0.0
 10
10.6424117371
 20
11.4437003356
 30
0.0
 10
10.6376687405
 20
11.4389148956
 30
0.0
 10
10.6335849662
 20
11.4340541225
 30
0.0
 10
10.6301704743
 20
11.429127694
 30
0.0
 10
10.6278628274
 20
11.4249242897
 30
0.0
 10
10.6263775397
 20
11.4215499333
 30
0.0
 10
10.6254488987
 20
11.4190404924
 30
0.0
 10
10.6246930517
 20
11.4165239572
 30
0.0
 10
10.624302179
 20
11.4148314788
 30
0.0
 10
10.6241365588
 20
11.4139862974
 30
0.0
  0
ENDSEC
  0
SECTION
  2
OBJECTS
  0
DICTIONARY
  5
C
100
AcDbDictionary
280
0
281
1
  3
ACAD_GROUP
350
D
  3
ACAD_MLINESTYLE
350
17
  3
ACAD_LAYOUT
350
1A
  3
ACAD_PLOTSETTINGS
350
19
  3
ACAD_PLOTSTYLENAME
350
E
  0
DICTIONARY
  5
D
102
{ACAD_REACTORS
330
C
102
}
100
AcDbDictionary
280
0
281
1
  0
ACDBDICTIONARYWDFLT
  5
E
102
{ACAD_REACTORS
330
C
102
}
100
AcDbDictionary
281
1
  3
Normal
350
F
100
AcDbDictionaryWithDefault
340
F
  0
DICTIONARY
  5
17
102
{ACAD_REACTORS
330
C
102
}
100
AcDbDictionary
280
0
281
1
  3
Standard
350
18
  0
DICTIONARY
  5
19
102
{ACAD_REACTORS
330
C
102
}
100
AcDbDictionary
281
1
  0
DICTIONARY
  5
1A
102
{ACAD_REACTORS
330
C
102
}
100
AcDbDictionary
281
1
  3
Model
350
2F1
  3
Layout1
350
2F2
  0
ACDBPLACEHOLDER
  5
F
102
{ACAD_REACTORS
330
E
102
}
  0
MLINESTYLE
  5
18
102
{ACAD_REACTORS
330
17
102
}
100
AcDbMlineStyle
  2
STANDARD
 70
0
  3

 62
256
 51
90.0
 52
90.0
 71
2
 49
0.5
 62
256
  6
BYLAYER
 49
-0.5
 62
256
  6
BYLAYER
  0
LAYOUT
  5
2F1
102
{ACAD_REACTORS
330
1A
102
}
100
AcDbPlotSettings
  1

  2
none_device
  4
ANSI_C_(22.00_x_17.00_Inches)
  6

 40
0.0
 41
0.0
 42
0.0
 43
0.0
 44
558.8
 45
431.8
 46
0.0
 47
0.0
 48
0.0
 49
0.0
140
0.0
141
0.0
142
1.0
143
1.0
 70
1024
 72
0
 73
0
 74
0
  7

 75
0
147
1.0
148
0.0
149
0.0
100
AcDbLayout
  1
Model
 70
0
 71
0
 10
0.0
 20
0.0
 11
22.0
 21
17.0
 12
0.0
 22
0.0
 32
0.0
 14
0.0
 24
0.0
 34
0.0
 15
0.0
 25
0.0
 35
0.0
146
0.0
 13
0.0
 23
0.0
 33
0.0
 16
1.0
 26
0.0
 36
0.0
 17
0.0
 27
1.0
 37
0.0
 76
0
330
205
345
0
346
0
  0
LAYOUT
  5
2F2
102
{ACAD_REACTORS
330
1A
102
}
100
AcDbPlotSettings
  1

  2
none_device
  4
ANSI_C_(22.00_x_17.00_Inches)
  6

 40
0.0
 41
0.0
 42
0.0
 43
0.0
 44
558.8
 45
431.8
 46
0.0
 47
0.0
 48
0.0
 49
0.0
140
0.0
141
0.0
142
1.0
143
1.0
 70
0
 72
0
 73
0
 74
0
  7

 75
0
147
1.0
148
0.0
149
0.0
100
AcDbLayout
  1
Layout1
 70
0
 71
1
 10
0.0
 20
0.0
 11
22.0
 21
17.0
 12
0.0
 22
0.0
 32
0.0
 14
0.0
 24
0.0
 34
0.0
 15
0.0
 25
0.0
 35
0.0
146
0.0
 13
0.0
 23
0.0
 33
0.0
 16
1.0
 26
0.0
 36
0.0
 17
0.0
 27
1.0
 37
0.0
 76
0
330
206
345
0
346
0
  0
ENDSEC
  0
EOF
