999
DXF file: E:\BT Custom\CADOUTPUT\_FRONT.dxf
999
Pro/ENGINEER 2018400 by Parametric Technology Corporation
  0
SECTION
  2
HEADER
  9
$ACADVER
  1
AC1018
  9
$DWGCODEPAGE
  3
ANSI_1252
  9
$EXTMAX
 10
22.0
 20
17.0
 30
0.0
  9
$EXTMIN
 10
0.0
 20
0.0
 30
0.0
  9
$LIMMIN
 10
0.0
 20
0.0
  9
$LIMMAX
 10
22.0
 20
17.0
  9
$VIEWCTR
 10
11.0
 20
8.5
  9
$VIEWSIZE
 40
17.0
  9
$CLAYER
  8
0
  9
$LTSCALE
 40
1.21
  9
$CELTYPE
  6
BYLAYER
  9
$DIMSCALE
 40
1.0
  9
$DIMASZ
 40
0.1
  9
$DIMEXO
 40
0.0625
  9
$DIMDLI
 40
0.836
  9
$DIMEXE
 40
0.125
  9
$DIMCEN
 40
0.198
  9
$DIMLFAC
 40
1.0
  9
$DIMBLK
  1
_FILLED
  9
$DIMALT
 70
1
  9
$DIMALTD
 70
2
  9
$DIMALTTD
 70
2
  9
$DIMALTF
 40
25.4
  9
$DIMTXT
 40
0.08
  9
$DIMTOL
 70
1
  9
$DIMLIM
 70
0
  9
$DIMTFAC
 40
1.0
  9
$DIMTP
 40
0.001
  9
$DIMTM
 40
0.001
  9
$DIMGAP
 40
0.09
  9
$DIMDSEP
 70
46
  9
$AUNITS
 70
0
  9
$PDMODE
 70
3
  9
$PDSIZE
 40
0.06
  9
$HANDSEED
  5
2B6
  9
$TILEMODE
 70
1
  9
$MEASUREMENT
 70
0
  9
$INSUNITS
 70
1
  0
ENDSEC
  0
SECTION
  2
CLASSES
  0
CLASS
  1
ACDBDICTIONARYWDFLT
  2
AcDbDictionaryWithDefault
  3
AutoCAD 2000
 90
0
 91
1
280
0
281
0
  0
CLASS
  1
ACDBPLACEHOLDER
  2
AcDbPlaceHolder
  3
AutoCAD 2000
 90
0
 91
1
280
0
281
0
  0
CLASS
  1
LAYOUT
  2
AcDbLayout
  3
AutoCAD 2000
 90
0
 91
0
280
0
281
0
  0
ENDSEC
  0
SECTION
  2
TABLES
  0
TABLE
  2
VPORT
  5
8
100
AcDbSymbolTable
 70
2
  0
VPORT
  5
1F4
100
AcDbSymbolTableRecord
100
AcDbViewportTableRecord
  2
*ACTIVE
 70
0
 10
0.0
 20
0.0
 11
1.0
 21
1.0
 12
11.0
 22
8.5
 13
0.0
 23
0.0
 14
1.0
 24
1.0
 15
0.0
 25
0.0
 16
0.0
 26
0.0
 36
1.0
 17
0.0
 27
0.0
 37
0.0
 40
17.0
 41
1.2941176471
 42
50.0
 43
0.0
 44
0.0
 50
0.0
 51
0.0
 71
0
 72
100
 73
1
 74
1
 75
0
 76
0
 77
0
 78
0
  0
ENDTAB
  0
TABLE
  2
LTYPE
  5
5
100
AcDbSymbolTable
 70
6
  0
LTYPE
  5
14
100
AcDbSymbolTableRecord
100
AcDbLinetypeTableRecord
  2
BYBLOCK
 70
0
  3

 72
65
 73
0
 40
0.0
  0
LTYPE
  5
15
100
AcDbSymbolTableRecord
100
AcDbLinetypeTableRecord
  2
BYLAYER
 70
0
  3

 72
65
 73
0
 40
0.0
  0
LTYPE
  5
16
100
AcDbSymbolTableRecord
100
AcDbLinetypeTableRecord
  2
CONTINUOUS
 70
64
  3
Solid line
 72
65
 73
0
 40
0.0
  0
LTYPE
  5
1F5
100
AcDbSymbolTableRecord
100
AcDbLinetypeTableRecord
  2
CENTER
 70
64
  3
____ _ ____ _ ____ _ ____ _ ____ _ ____ _ ____
 72
65
 73
4
 40
0.6
 49
0.375
 74
0
 49
-0.075
 74
0
 49
0.075
 74
0
 49
-0.075
 74
0
  0
LTYPE
  5
1F6
100
AcDbSymbolTableRecord
100
AcDbLinetypeTableRecord
  2
HIDDEN
 70
64
  3
- - - - - - - - - - - - - - - - - - - -
 72
65
 73
2
 40
0.2
 49
0.1
 74
0
 49
-0.1
 74
0
  0
LTYPE
  5
1F7
100
AcDbSymbolTableRecord
100
AcDbLinetypeTableRecord
  2
PHANTOM
 70
64
  3
_____ _ _ _____ _ _ _____ _ _ _____
 72
65
 73
6
 40
0.8
 49
0.45
 74
0
 49
-0.05
 74
0
 49
0.1
 74
0
 49
-0.05
 74
0
 49
0.1
 74
0
 49
-0.05
 74
0
  0
LTYPE
  5
1F8
100
AcDbSymbolTableRecord
100
AcDbLinetypeTableRecord
  2
DOT
 70
64
  3
. . . . . . . . . . . . . . . . . . . .
 72
65
 73
2
 40
0.2
 49
0.1
 74
0
 49
-0.1
 74
0
  0
LTYPE
  5
1F9
100
AcDbSymbolTableRecord
100
AcDbLinetypeTableRecord
  2
DASHED
 70
64
  3
- - - - - - - - - - - - - - - - - - - -
 72
65
 73
2
 40
0.2
 49
0.1
 74
0
 49
-0.1
 74
0
  0
ENDTAB
  0
TABLE
  2
LAYER
  5
2
100
AcDbSymbolTable
 70
36
  0
LAYER
  5
10
100
AcDbSymbolTableRecord
100
AcDbLayerTableRecord
  2
0
 70
0
 62
7
  6
CONTINUOUS
370
-3
390
F
  0
LAYER
  5
1FA
100
AcDbSymbolTableRecord
100
AcDbLayerTableRecord
  2
DEFAULT_1
 70
0
 62
7
  6
CENTER
370
-3
390
F
  0
LAYER
  5
1FB
100
AcDbSymbolTableRecord
100
AcDbLayerTableRecord
  2
DEFAULT_2
 70
0
 62
8
  6
HIDDEN
370
-3
390
F
  0
LAYER
  5
1FC
100
AcDbSymbolTableRecord
100
AcDbLayerTableRecord
  2
DEFAULT_3
 70
0
 62
7
  6
PHANTOM
370
-3
390
F
  0
LAYER
  5
1FD
100
AcDbSymbolTableRecord
100
AcDbLayerTableRecord
  2
ALL_FEATURES
 70
0
 62
7
  6
CONTINUOUS
370
-3
390
F
  0
LAYER
  5
1FE
100
AcDbSymbolTableRecord
100
AcDbLayerTableRecord
  2
AXES_FEATURES
 70
0
 62
7
  6
CONTINUOUS
370
-3
390
F
  0
LAYER
  5
1FF
100
AcDbSymbolTableRecord
100
AcDbLayerTableRecord
  2
DEFAULT_COORDINATE_SYSTEM
 70
0
 62
7
  6
CONTINUOUS
370
-3
390
F
  0
LAYER
  5
200
100
AcDbSymbolTableRecord
100
AcDbLayerTableRecord
  2
DEFAULT_DATUM_AXES
 70
0
 62
7
  6
CONTINUOUS
370
-3
390
F
  0
LAYER
  5
201
100
AcDbSymbolTableRecord
100
AcDbLayerTableRecord
  2
DEFAULT_DATUM_PLANES
 70
0
 62
7
  6
CONTINUOUS
370
-3
390
F
  0
LAYER
  5
202
100
AcDbSymbolTableRecord
100
AcDbLayerTableRecord
  2
DIMENSIONS
 70
0
 62
7
  6
CONTINUOUS
370
-3
390
F
  0
ENDTAB
  0
TABLE
  2
STYLE
  5
3
100
AcDbSymbolTable
 70
1
  0
STYLE
  5
11
100
AcDbSymbolTableRecord
100
AcDbTextStyleTableRecord
  2
STANDARD
 70
0
 40
0.0
 41
0.8
 50
0.0
 71
0
 42
0.2
  3
txt
  4

  0
STYLE
  5
203
100
AcDbSymbolTableRecord
100
AcDbTextStyleTableRecord
  2
TEXTSTYLE_1
 70
0
 40
0.0
 41
0.8
 50
0.0
 71
0
 42
0.2
  3
gdt
  4

  0
ENDTAB
  0
TABLE
  2
VIEW
  5
6
100
AcDbSymbolTable
 70
0
  0
ENDTAB
  0
TABLE
  2
UCS
  5
7
100
AcDbSymbolTable
 70
0
  0
ENDTAB
  0
TABLE
  2
APPID
  5
9
100
AcDbSymbolTable
 70
1
  0
APPID
  5
204
100
AcDbSymbolTableRecord
100
AcDbRegAppTableRecord
  2
ACAD
 70
0
  0
ENDTAB
  0
TABLE
  2
BLOCK_RECORD
  5
1
100
AcDbSymbolTable
 70
0
  0
BLOCK_RECORD
  5
205
100
AcDbSymbolTableRecord
100
AcDbBlockTableRecord
  2
*Model_Space
  0
BLOCK_RECORD
  5
206
100
AcDbSymbolTableRecord
100
AcDbBlockTableRecord
  2
*Paper_Space
  0
BLOCK_RECORD
  5
207
100
AcDbSymbolTableRecord
100
AcDbBlockTableRecord
  2
_FILLED
  0
ENDTAB
  0
TABLE
  2
DIMSTYLE
  5
A
100
AcDbSymbolTable
 70
1
100
AcDbDimStyleTable
 71
0
  0
DIMSTYLE
105
208
100
AcDbSymbolTableRecord
100
AcDbDimStyleTableRecord
  2
STANDARD
 70
0
  3

  4

 40
1.0
 41
0.1
 42
0.0625
 43
0.38
 44
0.125
 45
0.0
 46
0.0
 47
0.001
 48
0.001
140
0.08
141
0.09
142
0.0
143
25.4
144
1.0
145
0.0
146
1.0
147
0.09
 71
1.0
 72
0.0
 73
1
 74
1
 75
0
 76
0
 77
0
 78
4
 79
1
170
1
171
2
172
0
173
0
174
0
175
0
176
0
177
0
178
0
270
2
179
3
271
3
272
3
273
2
274
2
275
0
280
0
281
0
282
0
283
1
284
4
285
0
286
0
287
3
288
0
340
11
278
46
341
207
342
207
343
207
344
207
  0
ENDTAB
  0
ENDSEC
  0
SECTION
  2
BLOCKS
  0
BLOCK
  5
20
100
AcDbEntity
  8
0
100
AcDbBlockBegin
  2
*Model_Space
 70
0
 10
0.0
 20
0.0
 30
0.0
  3
*Model_Space
  1

  0
ENDBLK
  5
21
100
AcDbEntity
  8
0
100
AcDbBlockEnd
  0
BLOCK
  5
1C
100
AcDbEntity
  8
0
100
AcDbBlockBegin
  2
*Paper_Space
 70
0
 10
0.0
 20
0.0
 30
0.0
  3
*Paper_Space
  1

  0
ENDBLK
  5
1D
100
AcDbEntity
  8
0
100
AcDbBlockEnd
  0
BLOCK
  5
209
100
AcDbEntity
  8
0
100
AcDbBlockBegin
  2
_FILLED
 70
64
 10
0.0
 20
0.0
  3
_FILLED
  1

  0
SOLID
  5
20A
100
AcDbEntity
  8
0
  6
BYBLOCK
 62
0
100
AcDbTrace
 10
0.0
 20
0.0
 11
-1.0
 21
0.2
 12
-1.0
 22
-0.2
 13
-1.0
 23
-0.2
  0
ENDBLK
  5
20B
100
AcDbEntity
  8
0
  6
BYBLOCK
 62
0
100
AcDbBlockEnd
  0
ENDSEC
  0
SECTION
  2
ENTITIES
  0
LINE
  5
20C
100
AcDbEntity
  8
0
100
AcDbLine
 62
7
  6
CONTINUOUS
 10
12.7767008821
 20
4.3926844682
 11
10.4967008821
 21
4.3926844682
  0
LINE
  5
20D
100
AcDbEntity
  8
0
100
AcDbLine
 62
9
  6
CONTINUOUS
 10
12.7948127253
 20
4.5098855271
 11
10.4785890389
 21
4.5098855271
  0
LINE
  5
20E
100
AcDbEntity
  8
0
100
AcDbLine
 62
9
  6
CONTINUOUS
 10
12.6175459545
 20
4.6607270662
 11
10.6558558098
 21
4.6607270662
  0
LINE
  5
20F
100
AcDbEntity
  8
0
100
AcDbLine
 62
9
  6
CONTINUOUS
 10
12.6255916332
 20
4.7362598047
 11
10.647810131
 21
4.7362598047
  0
LINE
  5
210
100
AcDbEntity
  8
0
100
AcDbLine
 62
7
  6
CONTINUOUS
 10
12.5867008821
 20
4.8176844682
 11
10.6867008821
 21
4.8176844682
  0
LINE
  5
211
100
AcDbEntity
  8
0
100
AcDbLine
 62
9
  6
CONTINUOUS
 10
10.7036838725
 20
4.8308858252
 11
12.5697178918
 21
4.8308858252
  0
LINE
  5
212
100
AcDbEntity
  8
0
100
AcDbLine
 62
7
  6
CONTINUOUS
 10
10.4177008821
 20
5.7226844682
 11
10.5087008821
 21
5.7226844682
  0
LINE
  5
213
100
AcDbEntity
  8
0
100
AcDbLine
 62
7
  6
CONTINUOUS
 10
10.5087008821
 20
5.8376844682
 11
10.8113468911
 21
5.8376844682
  0
LINE
  5
214
100
AcDbEntity
  8
0
100
AcDbLine
 62
7
  6
CONTINUOUS
 10
9.1387008821
 20
5.8676844682
 11
9.8740998018
 21
5.8676844682
  0
LINE
  5
215
100
AcDbEntity
  8
0
100
AcDbLine
 62
7
  6
CONTINUOUS
 10
9.1387008821
 20
6.7676844682
 11
9.2797008821
 21
6.7676844682
  0
LINE
  5
216
100
AcDbEntity
  8
0
100
AcDbLine
 62
7
  6
CONTINUOUS
 10
9.6547008821
 20
6.7676844682
 11
9.8740998018
 21
6.7676844682
  0
LINE
  5
217
100
AcDbEntity
  8
0
100
AcDbLine
 62
7
  6
CONTINUOUS
 10
10.5087008821
 20
6.7976844682
 11
10.8130557989
 21
6.7976844682
  0
LINE
  5
218
100
AcDbEntity
  8
0
100
AcDbLine
 62
7
  6
CONTINUOUS
 10
9.6472008861
 20
6.8976844682
 11
9.2872008782
 21
6.8976844682
  0
LINE
  5
219
100
AcDbEntity
  8
0
100
AcDbLine
 62
7
  6
CONTINUOUS
 10
10.4177008821
 20
6.9126844682
 11
10.5087008821
 21
6.9126844682
  0
LINE
  5
21A
100
AcDbEntity
  8
0
100
AcDbLine
 62
9
  6
CONTINUOUS
 10
9.1992008821
 20
6.9921844682
 11
9.7352008821
 21
6.9921844682
  0
LINE
  5
21B
100
AcDbEntity
  8
0
100
AcDbLine
 62
9
  6
CONTINUOUS
 10
9.1992008821
 20
7.1036844682
 11
9.7352008821
 21
7.1036844682
  0
LINE
  5
21C
100
AcDbEntity
  8
0
100
AcDbLine
 62
7
  6
CONTINUOUS
 10
9.2092009079
 20
7.1136844682
 11
9.7252008564
 21
7.1136844682
  0
LINE
  5
21D
100
AcDbEntity
  8
0
100
AcDbLine
 62
9
  6
CONTINUOUS
 10
9.676469596
 20
7.1239462377
 11
9.2579321682
 21
7.1239462377
  0
LINE
  5
21E
100
AcDbEntity
  8
0
100
AcDbLine
 62
7
  6
CONTINUOUS
 10
9.2579321682
 20
7.1239462377
 11
9.2193421916
 21
8.5976379906
  0
LINE
  5
21F
100
AcDbEntity
  8
0
100
AcDbLine
 62
7
  6
CONTINUOUS
 10
9.0387008821
 20
6.7776844682
 11
9.0387008821
 21
5.8576844682
  0
LINE
  5
220
100
AcDbEntity
  8
0
100
AcDbLine
 62
7
  6
CONTINUOUS
 10
9.1387008821
 20
6.7776844682
 11
9.1387008821
 21
5.8576844682
  0
LINE
  5
221
100
AcDbEntity
  8
0
100
AcDbLine
 62
7
  6
CONTINUOUS
 10
9.1772008821
 20
8.7826844682
 11
9.1772008821
 21
8.8586844682
  0
LINE
  5
222
100
AcDbEntity
  8
0
100
AcDbLine
 62
7
  6
CONTINUOUS
 10
9.1992008821
 20
6.9921844682
 11
9.1992008821
 21
7.1036844682
  0
LINE
  5
223
100
AcDbEntity
  8
0
100
AcDbLine
 62
9
  6
CONTINUOUS
 10
10.8424230284
 20
7.3167564838
 11
12.4309787359
 21
7.3167564838
  0
LINE
  5
224
100
AcDbEntity
  8
0
100
AcDbLine
 62
9
  6
CONTINUOUS
 10
10.8367008821
 20
7.3699385311
 11
12.4367008821
 21
7.3699385311
  0
LINE
  5
225
100
AcDbEntity
  8
0
100
AcDbLine
 62
7
  6
CONTINUOUS
 10
10.8067008821
 20
7.4226844682
 11
12.4667008821
 21
7.4226844682
  0
LINE
  5
226
100
AcDbEntity
  8
0
100
AcDbLine
 62
9
  6
CONTINUOUS
 10
10.7958891793
 20
7.5397965761
 11
12.477512585
 21
7.5397965761
  0
LINE
  5
227
100
AcDbEntity
  8
0
100
AcDbLine
 62
7
  6
CONTINUOUS
 10
9.2872008821
 20
6.8976844682
 11
9.2872008821
 21
6.7646115817
  0
LINE
  5
228
100
AcDbEntity
  8
0
100
AcDbLine
 62
7
  6
CONTINUOUS
 10
9.6472008821
 20
6.8976844682
 11
9.6472008821
 21
6.7646115823
  0
LINE
  5
229
100
AcDbEntity
  8
0
100
AcDbLine
 62
7
  6
CONTINUOUS
 10
9.7352008821
 20
6.9921844682
 11
9.7352008821
 21
7.1036844682
  0
LINE
  5
22A
100
AcDbEntity
  8
0
100
AcDbLine
 62
7
  6
CONTINUOUS
 10
9.7572008821
 20
8.7826844682
 11
9.7572008821
 21
8.8586844682
  0
LINE
  5
22B
100
AcDbEntity
  8
0
100
AcDbLine
 62
9
  6
CONTINUOUS
 10
9.8740998018
 20
5.8676844682
 11
9.8740998018
 21
6.7676844682
  0
LINE
  5
22C
100
AcDbEntity
  8
0
100
AcDbLine
 62
9
  6
CONTINUOUS
 10
9.9186243737
 20
5.8404344682
 11
9.9186243737
 21
6.7949344682
  0
LINE
  5
22D
100
AcDbEntity
  8
0
100
AcDbLine
 62
7
  6
CONTINUOUS
 10
9.676469596
 20
7.1239462377
 11
9.7150595727
 21
8.5976379906
  0
LINE
  5
22E
100
AcDbEntity
  8
0
100
AcDbLine
 62
9
  6
CONTINUOUS
 10
11.1762611039
 20
7.9534246563
 11
12.0971406603
 21
7.9534246563
  0
LINE
  5
22F
100
AcDbEntity
  8
0
100
AcDbLine
 62
9
  6
CONTINUOUS
 10
11.1419562667
 20
8.0260883589
 11
12.1314454975
 21
8.0260883589
  0
LINE
  5
230
100
AcDbEntity
  8
0
100
AcDbLine
 62
7
  6
CONTINUOUS
 10
11.1697008821
 20
8.1176844682
 11
12.1037008821
 21
8.1176844682
  0
LINE
  5
231
100
AcDbEntity
  8
0
100
AcDbLine
 62
9
  6
CONTINUOUS
 10
9.9653753224
 20
5.8132340604
 11
9.9653753224
 21
6.8221348761
  0
LINE
  5
232
100
AcDbEntity
  8
0
100
AcDbLine
 62
7
  6
CONTINUOUS
 10
11.9510107341
 20
11.6527633588
 11
11.9546052781
 21
11.6566565561
  0
LINE
  5
233
100
AcDbEntity
  8
0
100
AcDbLine
 62
9
  6
CONTINUOUS
 10
11.9510107341
 20
11.6527633588
 11
11.9510088306
 21
11.6527613573
  0
LINE
  5
234
100
AcDbEntity
  8
0
100
AcDbLine
 62
9
  6
CONTINUOUS
 10
11.9244198985
 20
11.3377860206
 11
11.9243768387
 21
11.3377425364
  0
LINE
  5
235
100
AcDbEntity
  8
0
100
AcDbLine
 62
9
  6
CONTINUOUS
 10
9.2193421916
 20
8.5976379906
 11
9.7150595727
 21
8.5976379906
  0
LINE
  5
236
100
AcDbEntity
  8
0
100
AcDbLine
 62
9
  6
CONTINUOUS
 10
10.3859892839
 20
5.7297184875
 11
10.3859892839
 21
6.905650449
  0
LINE
  5
237
100
AcDbEntity
  8
0
100
AcDbLine
 62
9
  6
CONTINUOUS
 10
10.4177008821
 20
5.7226844682
 11
10.4177008821
 21
6.9126844682
  0
LINE
  5
238
100
AcDbEntity
  8
0
100
AcDbLine
 62
7
  6
CONTINUOUS
 10
10.5087008821
 20
6.9126844682
 11
10.5087008821
 21
5.7226844682
  0
LINE
  5
239
100
AcDbEntity
  8
0
100
AcDbLine
 62
9
  6
CONTINUOUS
 10
9.2006507957
 20
8.6769723197
 11
9.7337509685
 21
8.6769723197
  0
LINE
  5
23A
100
AcDbEntity
  8
0
100
AcDbLine
 62
9
  6
CONTINUOUS
 10
9.1772008821
 20
8.7826844682
 11
9.7572008821
 21
8.7826844682
  0
LINE
  5
23B
100
AcDbEntity
  8
0
100
AcDbLine
 62
9
  6
CONTINUOUS
 10
9.1772008821
 20
8.8586844682
 11
9.7572008821
 21
8.8586844682
  0
LINE
  5
23C
100
AcDbEntity
  8
0
100
AcDbLine
 62
7
  6
CONTINUOUS
 10
9.3772008821
 20
8.8976844682
 11
9.5572008566
 21
8.8976844682
  0
LINE
  5
23D
100
AcDbEntity
  8
0
100
AcDbLine
 62
7
  6
CONTINUOUS
 10
10.8367008821
 20
7.3699385311
 11
10.8367008821
 21
7.4226844682
  0
LINE
  5
23E
100
AcDbEntity
  8
0
100
AcDbLine
 62
7
  6
CONTINUOUS
 10
11.2921743418
 20
11.7461672908
 11
11.2918904898
 21
11.7446883365
  0
LINE
  5
23F
100
AcDbEntity
  8
0
100
AcDbLine
 62
7
  6
CONTINUOUS
 10
11.3527898322
 20
11.4915018519
 11
11.3532734915
 21
11.5147385326
  0
LINE
  5
240
100
AcDbEntity
  8
0
100
AcDbLine
 62
9
  6
CONTINUOUS
 10
11.3481877483
 20
11.59414777
 11
11.3479083362
 21
11.5984916443
  0
LINE
  5
241
100
AcDbEntity
  8
0
100
AcDbLine
 62
7
  6
CONTINUOUS
 10
11.3867008821
 20
13.8926813599
 11
11.3867008821
 21
11.8363312798
  0
LINE
  5
242
100
AcDbEntity
  8
0
100
AcDbLine
 62
7
  6
CONTINUOUS
 10
11.3867008821
 20
8.1176844682
 11
11.3867008821
 21
11.3107951504
  0
LINE
  5
243
100
AcDbEntity
  8
0
100
AcDbLine
 62
7
  6
CONTINUOUS
 10
11.9201282728
 20
11.5147385326
 11
11.9206119321
 21
11.4915018501
  0
LINE
  5
244
100
AcDbEntity
  8
0
100
AcDbLine
 62
7
  6
CONTINUOUS
 10
11.8867008821
 20
13.8926813599
 11
11.8867008821
 21
11.8363186219
  0
LINE
  5
245
100
AcDbEntity
  8
0
100
AcDbLine
 62
7
  6
CONTINUOUS
 10
11.8867008821
 20
8.1176844682
 11
11.8867008821
 21
11.3108026498
  0
LINE
  5
246
100
AcDbEntity
  8
0
100
AcDbLine
 62
9
  6
CONTINUOUS
 10
11.9254934281
 20
11.5984916443
 11
11.925214016
 21
11.59414777
  0
LINE
  5
247
100
AcDbEntity
  8
0
100
AcDbLine
 62
7
  6
CONTINUOUS
 10
12.4367008821
 20
7.3699385311
 11
12.4367008821
 21
7.4226844682
  0
LINE
  5
248
100
AcDbEntity
  8
0
100
AcDbLine
 62
9
  6
CONTINUOUS
 10
11.3490249256
 20
11.3377425364
 11
11.3489822919
 21
11.33778559
  0
LINE
  5
249
100
AcDbEntity
  8
0
100
AcDbLine
 62
7
  6
CONTINUOUS
 10
11.9815112745
 20
11.7446883365
 11
11.9812274616
 21
11.7461670941
  0
LINE
  5
24A
100
AcDbEntity
  8
0
100
AcDbLine
 62
9
  6
CONTINUOUS
 10
11.32239286
 20
11.6527614348
 11
11.3223888006
 21
11.6527657035
  0
LINE
  5
24B
100
AcDbEntity
  8
0
100
AcDbLine
 62
7
  6
CONTINUOUS
 10
11.3187964862
 20
11.6566565561
 11
11.3223888006
 21
11.6527657035
  0
ARC
  5
24C
100
AcDbEntity
  8
0
100
AcDbCircle
 62
7
  6
CONTINUOUS
 10
6.2840870745
 20
6.3243552697
 40
4.6651138076
100
AcDbArc
 50
341.328868746
 51
352.6163990289
  0
ARC
  5
24D
100
AcDbEntity
  8
0
100
AcDbCircle
 62
7
  6
CONTINUOUS
 10
6.2840870745
 20
6.3243552697
 40
4.6651138076
100
AcDbArc
 50
7.2147852271
 51
12.2822792134
  0
ARC
  5
24E
100
AcDbEntity
  8
0
100
AcDbCircle
 62
7
  6
CONTINUOUS
 10
10.005450105
 20
4.9141267187
 40
0.9
100
AcDbArc
 50
64.9871628475
 51
92.5520837091
  0
ARC
  5
24F
100
AcDbEntity
  8
0
100
AcDbCircle
 62
7
  6
CONTINUOUS
 10
10.005450105
 20
7.7212422178
 40
0.9
100
AcDbArc
 50
267.4479162909
 51
295.0128371525
  0
ARC
  5
250
100
AcDbEntity
  8
0
100
AcDbCircle
 62
7
  6
CONTINUOUS
 10
10.7101163365
 20
8.0003820279
 40
0.468503937
100
AcDbArc
 50
280.5491060217
 51
354.247680581
  0
ARC
  5
251
100
AcDbEntity
  8
0
100
AcDbCircle
 62
7
  6
CONTINUOUS
 10
10.3880298229
 20
4.7958908215
 40
0.3
100
AcDbArc
 50
287.5695969516
 51
333.2212894265
  0
ARC
  5
252
100
AcDbEntity
  8
0
100
AcDbCircle
 62
7
  6
CONTINUOUS
 10
11.0867008821
 20
7.3699385311
 40
0.25
100
AcDbArc
 50
180.0
 51
192.2822792134
  0
ARC
  5
253
100
AcDbEntity
  8
0
100
AcDbCircle
 62
7
  6
CONTINUOUS
 10
9.5072008821
 20
8.7826844682
 40
0.25
100
AcDbArc
 50
334.9854377782
 51
360.0
  0
ARC
  5
254
100
AcDbEntity
  8
0
100
AcDbCircle
 62
7
  6
CONTINUOUS
 10
9.4272008821
 20
8.7826844682
 40
0.25
100
AcDbArc
 50
180.0
 51
205.0145622218
  0
ARC
  5
255
100
AcDbEntity
  8
0
100
AcDbCircle
 62
7
  6
CONTINUOUS
 10
9.9149910377
 20
8.5924026009
 40
0.2
100
AcDbArc
 50
154.9854377782
 51
178.5
  0
ARC
  5
256
100
AcDbEntity
  8
0
100
AcDbCircle
 62
7
  6
CONTINUOUS
 10
9.0194107266
 20
8.5924026009
 40
0.2
100
AcDbArc
 50
1.5
 51
25.0145622218
  0
ARC
  5
257
100
AcDbEntity
  8
0
100
AcDbCircle
 62
7
  6
CONTINUOUS
 10
10.8130557989
 20
6.8976844682
 40
0.1
100
AcDbArc
 50
270.0
 51
7.2147852271
  0
ARC
  5
258
100
AcDbEntity
  8
0
100
AcDbCircle
 62
7
  6
CONTINUOUS
 10
10.8113468911
 20
5.7376844682
 40
0.1
100
AcDbArc
 50
352.6163990289
 51
90.0
  0
ARC
  5
259
100
AcDbEntity
  8
0
100
AcDbCircle
 62
7
  6
CONTINUOUS
 10
9.6407008821
 20
6.9921844682
 40
0.0945
100
AcDbArc
 50
270.0
 51
360.0
  0
ARC
  5
25A
100
AcDbEntity
  8
0
100
AcDbCircle
 62
7
  6
CONTINUOUS
 10
9.2937008821
 20
6.9921844682
 40
0.0945
100
AcDbArc
 50
180.0
 51
270.0
  0
ARC
  5
25B
100
AcDbEntity
  8
0
100
AcDbCircle
 62
7
  6
CONTINUOUS
 10
11.0987008821
 20
7.9612377316
 40
0.0779527559
100
AcDbArc
 50
354.247680581
 51
56.2967024761
  0
ARC
  5
25C
100
AcDbEntity
  8
0
100
AcDbCircle
 62
7
  6
CONTINUOUS
 10
10.4177008821
 20
5.7976844682
 40
0.075
100
AcDbArc
 50
244.9871628475
 51
270.0
  0
ARC
  5
25D
100
AcDbEntity
  8
0
100
AcDbCircle
 62
7
  6
CONTINUOUS
 10
10.4177008821
 20
6.8376844682
 40
0.075
100
AcDbArc
 50
90.0
 51
115.0128371525
  0
ARC
  5
25E
100
AcDbEntity
  8
0
100
AcDbCircle
 62
7
  6
CONTINUOUS
 10
10.5933630795
 20
4.6922652757
 40
0.07
100
AcDbArc
 50
333.2212894265
 51
38.9390460747
  0
ARC
  5
25F
100
AcDbEntity
  8
0
100
AcDbCircle
 62
7
  6
CONTINUOUS
 10
10.4967008821
 20
4.4526844682
 40
0.06
100
AcDbArc
 50
107.5695969516
 51
270.0
  0
ARC
  5
260
100
AcDbEntity
  8
0
100
AcDbCircle
 62
7
  6
CONTINUOUS
 10
10.8067008821
 20
7.4817395864
 40
0.0590551181
100
AcDbArc
 50
100.5491060217
 51
270.0
  0
ARC
  5
261
100
AcDbEntity
  8
0
100
AcDbCircle
 62
7
  6
CONTINUOUS
 10
10.6867008821
 20
4.7676844682
 40
0.05
100
AcDbArc
 50
90.0
 51
218.9390460747
  0
ARC
  5
262
100
AcDbEntity
  8
0
100
AcDbCircle
 62
7
  6
CONTINUOUS
 10
9.0887008821
 20
5.8576844682
 40
0.05
100
AcDbArc
 50
180.0
 51
360.0
  0
ARC
  5
263
100
AcDbEntity
  8
0
100
AcDbCircle
 62
7
  6
CONTINUOUS
 10
9.0887008821
 20
6.7776844682
 40
0.05
100
AcDbArc
 50
0.0
 51
180.0
  0
ARC
  5
264
100
AcDbEntity
  8
0
100
AcDbCircle
 62
7
  6
CONTINUOUS
 10
9.9631489455
 20
5.8631844682
 40
0.05
100
AcDbArc
 50
207.0649342288
 51
272.5520837091
  0
ARC
  5
265
100
AcDbEntity
  8
0
100
AcDbCircle
 62
7
  6
CONTINUOUS
 10
9.9631489455
 20
6.7721844682
 40
0.05
100
AcDbArc
 50
87.4479162909
 51
152.9350657712
  0
ARC
  5
266
100
AcDbEntity
  8
0
100
AcDbCircle
 62
7
  6
CONTINUOUS
 10
9.8740998018
 20
5.8176844682
 40
0.05
100
AcDbArc
 50
27.0649342288
 51
90.0
  0
ARC
  5
267
100
AcDbEntity
  8
0
100
AcDbCircle
 62
7
  6
CONTINUOUS
 10
9.8740998018
 20
6.8176844682
 40
0.05
100
AcDbArc
 50
270.0
 51
332.9350657712
  0
ARC
  5
268
100
AcDbEntity
  8
0
100
AcDbCircle
 62
7
  6
CONTINUOUS
 10
11.1697008821
 20
8.0676844682
 40
0.05
100
AcDbArc
 50
90.0
 51
236.2967024761
  0
ARC
  5
269
100
AcDbEntity
  8
0
100
AcDbCircle
 62
7
  6
CONTINUOUS
 10
10.7131575895
 20
4.8276844682
 40
0.01
100
AcDbArc
 50
161.328868746
 51
270.0
  0
ARC
  5
26A
100
AcDbEntity
  8
0
100
AcDbCircle
 62
7
  6
CONTINUOUS
 10
9.247935595
 20
7.1236844682
 40
0.01
100
AcDbArc
 50
270.0
 51
1.5
  0
ARC
  5
26B
100
AcDbEntity
  8
0
100
AcDbCircle
 62
7
  6
CONTINUOUS
 10
9.6864661693
 20
7.1236844682
 40
0.01
100
AcDbArc
 50
178.5
 51
270.0
  0
ARC
  5
26C
100
AcDbEntity
  8
0
100
AcDbCircle
 62
7
  6
CONTINUOUS
 10
9.2092008821
 20
7.1036844682
 40
0.01
100
AcDbArc
 50
90.0
 51
180.0
  0
ARC
  5
26D
100
AcDbEntity
  8
0
100
AcDbCircle
 62
7
  6
CONTINUOUS
 10
9.7252008821
 20
7.1036844682
 40
0.01
100
AcDbArc
 50
0.0
 51
90.0
  0
ARC
  5
26E
100
AcDbEntity
  8
0
100
AcDbCircle
 62
7
  6
CONTINUOUS
 10
10.73110369
 20
11.5147592613
 40
0.6221698037
100
AcDbArc
 50
359.9980911774
 51
7.3308962808
  0
ARC
  5
26F
100
AcDbEntity
  8
0
100
AcDbCircle
 62
7
  6
CONTINUOUS
 10
11.3868730795
 20
11.7270858319
 40
0.0965997383
100
AcDbArc
 50
169.5012835422
 51
179.9882292637
  0
ARC
  5
270
100
AcDbEntity
  8
0
100
AcDbCircle
 62
9
  6
CONTINUOUS
 10
11.3820446091
 20
11.7095371702
 40
0.0823517745
100
AcDbArc
 50
219.8708602177
 51
223.5808586834
  0
ARC
  5
271
100
AcDbEntity
  8
0
100
AcDbCircle
 62
7
  6
CONTINUOUS
 10
11.3987591051
 20
11.3990374378
 40
0.0770584303
100
AcDbArc
 50
168.8882646819
 51
179.9833630358
  0
ARC
  5
272
100
AcDbEntity
  8
0
100
AcDbCircle
 62
7
  6
CONTINUOUS
 10
11.2692094721
 20
11.6023185288
 40
0.0733004774
100
AcDbArc
 50
39.6495409761
 51
43.4851084092
  0
ARC
  5
273
100
AcDbEntity
  8
0
100
AcDbCircle
 62
9
  6
CONTINUOUS
 10
11.3793640819
 20
11.6937546998
 40
0.0698589596
100
AcDbArc
 50
215.7059080451
 51
219.7425002361
  0
ARC
  5
274
100
AcDbEntity
  8
0
100
AcDbCircle
 62
9
  6
CONTINUOUS
 10
11.3338845948
 20
11.7369155849
 40
0.0427073826
100
AcDbArc
 50
167.49803236
 51
169.5136105762
  0
ARC
  5
275
100
AcDbEntity
  8
0
100
AcDbCircle
 62
7
  6
CONTINUOUS
 10
16.9893146897
 20
6.3243552697
 40
4.6651138076
100
AcDbArc
 50
167.7177207866
 51
198.671131254
  0
ARC
  5
276
100
AcDbEntity
  8
0
100
AcDbCircle
 62
7
  6
CONTINUOUS
 10
12.5632854278
 20
8.0003820279
 40
0.468503937
100
AcDbArc
 50
185.752319419
 51
259.4508939783
  0
ARC
  5
277
100
AcDbEntity
  8
0
100
AcDbCircle
 62
7
  6
CONTINUOUS
 10
12.8853719414
 20
4.7958908215
 40
0.3
100
AcDbArc
 50
206.7787105735
 51
252.4304030484
  0
ARC
  5
278
100
AcDbEntity
  8
0
100
AcDbCircle
 62
7
  6
CONTINUOUS
 10
12.1867008821
 20
7.3699385311
 40
0.25
100
AcDbArc
 50
347.7177207866
 51
360.0
  0
ARC
  5
279
100
AcDbEntity
  8
0
100
AcDbCircle
 62
7
  6
CONTINUOUS
 10
12.1747008821
 20
7.9612377316
 40
0.0779527559
100
AcDbArc
 50
123.7032975239
 51
185.752319419
  0
ARC
  5
27A
100
AcDbEntity
  8
0
100
AcDbCircle
 62
7
  6
CONTINUOUS
 10
12.6800386848
 20
4.6922652757
 40
0.07
100
AcDbArc
 50
141.0609539253
 51
206.7787105735
  0
ARC
  5
27B
100
AcDbEntity
  8
0
100
AcDbCircle
 62
7
  6
CONTINUOUS
 10
12.7767008821
 20
4.4526844682
 40
0.06
100
AcDbArc
 50
270.0
 51
72.4304030484
  0
ARC
  5
27C
100
AcDbEntity
  8
0
100
AcDbCircle
 62
7
  6
CONTINUOUS
 10
12.4667008821
 20
7.4817395864
 40
0.0590551181
100
AcDbArc
 50
270.0
 51
79.4508939783
  0
ARC
  5
27D
100
AcDbEntity
  8
0
100
AcDbCircle
 62
7
  6
CONTINUOUS
 10
12.5867008821
 20
4.7676844682
 40
0.05
100
AcDbArc
 50
321.0609539253
 51
90.0
  0
ARC
  5
27E
100
AcDbEntity
  8
0
100
AcDbCircle
 62
7
  6
CONTINUOUS
 10
12.1037008821
 20
8.0676844682
 40
0.05
100
AcDbArc
 50
303.7032975239
 51
90.0
  0
ARC
  5
27F
100
AcDbEntity
  8
0
100
AcDbCircle
 62
7
  6
CONTINUOUS
 10
12.5602441748
 20
4.8276844682
 40
0.01
100
AcDbArc
 50
270.0
 51
18.671131254
  0
ARC
  5
280
100
AcDbEntity
  8
0
100
AcDbCircle
 62
7
  6
CONTINUOUS
 10
12.5422975325
 20
11.5147592926
 40
0.622169262
100
AcDbArc
 50
172.6691007661
 51
180.0019117079
  0
ARC
  5
281
100
AcDbEntity
  8
0
100
AcDbCircle
 62
7
  6
CONTINUOUS
 10
11.6367008821
 20
13.8926844682
 40
0.25
100
AcDbArc
 50
0.0
 51
180.0
  0
ARC
  5
282
100
AcDbEntity
  8
0
100
AcDbCircle
 62
7
  6
CONTINUOUS
 10
11.886528368
 20
11.7270857944
 40
0.0966000562
100
AcDbArc
 50
0.0117929187
 51
10.4987041293
  0
ARC
  5
283
100
AcDbEntity
  8
0
100
AcDbCircle
 62
9
  6
CONTINUOUS
 10
11.8927871666
 20
11.7082618252
 40
0.0804367044
100
AcDbArc
 50
316.3727054518
 51
320.1749589522
  0
ARC
  5
284
100
AcDbEntity
  8
0
100
AcDbCircle
 62
7
  6
CONTINUOUS
 10
11.8746425045
 20
11.3990374167
 40
0.0770585857
100
AcDbArc
 50
0.0166526768
 51
11.1117546439
  0
ARC
  5
285
100
AcDbEntity
  8
0
100
AcDbCircle
 62
7
  6
CONTINUOUS
 10
12.0041974341
 20
11.6023140137
 40
0.0733073175
100
AcDbArc
 50
136.5150348289
 51
140.3503062631
  0
ARC
  5
286
100
AcDbEntity
  8
0
100
AcDbCircle
 62
9
  6
CONTINUOUS
 10
11.9396481746
 20
11.7369422244
 40
0.0425737172
100
AcDbArc
 50
10.4832250174
 51
12.5051320462
  0
SPLINE
  5
287
100
AcDbEntity
  8
0
100
AcDbSpline
 62
7
  6
CONTINUOUS
 70
0
 71
3
 72
42
 73
38
 74
0
 42
0.0000001
 43
0.0000001
 44
0.0000000001
 40
0.0
 40
0.0
 40
0.0
 40
0.0
 40
0.0042733324
 40
0.0083255486
 40
0.0121940788
 40
0.0159132826
 40
0.0230089955
 40
0.0297699775
 40
0.0363071165
 40
0.0426966082
 40
0.048994498
 40
0.0552404461
 40
0.0676792357
 40
0.0801676408
 40
0.0927822628
 40
0.1055634355
 40
0.1185291236
 40
0.1316869567
 40
0.1450359334
 40
0.1585720383
 40
0.1861769244
 40
0.2144549404
 40
0.2433385406
 40
0.2727755667
 40
0.3027145174
 40
0.3331131757
 40
0.3639308584
 40
0.3951347456
 40
0.4585812
 40
0.5232532895
 40
0.5889915602
 40
0.6556662273
 40
0.7231769019
 40
0.791431898
 40
0.8603609378
 40
0.9299008267
 40
1.0
 40
1.0
 40
1.0
 40
1.0
 10
9.1772008821
 20
8.8586844682
 30
0.0
 10
9.1772008821
 20
8.8589868683
 30
0.0
 10
9.177217899
 20
8.8595761936
 30
0.0
 10
9.1772946391
 20
8.86043617
 30
0.0
 10
9.1774164234
 20
8.8612513116
 30
0.0
 10
9.1776280994
 20
8.8622690145
 30
0.0
 10
9.1779760181
 20
8.8634656344
 30
0.0
 10
9.1785168669
 20
8.8648058906
 30
0.0
 10
9.1791523735
 20
8.8660476082
 30
0.0
 10
9.1798703656
 20
8.8672047161
 30
0.0
 10
9.1806584152
 20
8.8682896018
 30
0.0
 10
9.1817899299
 20
8.8696492481
 30
0.0
 10
9.1833466152
 20
8.8712188736
 30
0.0
 10
9.185393926
 20
8.8729166947
 30
0.0
 10
9.1875838036
 20
8.8744669017
 30
0.0
 10
9.1898976102
 20
8.8758895621
 30
0.0
 10
9.1923174131
 20
8.8772048708
 30
0.0
 10
9.1948309963
 20
8.8784250246
 30
0.0
 10
9.1974269316
 20
8.8795625857
 30
0.0
 10
9.2010097173
 20
8.880989644
 30
0.0
 10
9.2056515521
 20
8.8826052648
 30
0.0
 10
9.2114044251
 20
8.8843096451
 30
0.0
 10
9.2173411486
 20
8.8858338467
 30
0.0
 10
9.2234365534
 20
8.8871992337
 30
0.0
 10
9.2296699332
 20
8.8884285644
 30
0.0
 10
9.2360251332
 20
8.8895362028
 30
0.0
 10
9.242488507
 20
8.8905371025
 30
0.0
 10
9.2512844126
 20
8.8917490531
 30
0.0
 10
9.262485867
 20
8.8930418976
 30
0.0
 10
9.2761474203
 20
8.8942972253
 30
0.0
 10
9.2900581117
 20
8.8953075206
 30
0.0
 10
9.3041834739
 20
8.896107393
 30
0.0
 10
9.3184963042
 20
8.8967206717
 30
0.0
 10
9.3329746823
 20
8.897171536
 30
0.0
 10
9.3476004566
 20
8.8974756473
 30
0.0
 10
9.3623588212
 20
8.897648836
 30
0.0
 10
9.3722403524
 20
8.8976844682
 30
0.0
 10
9.3772008821
 20
8.8976844682
 30
0.0
  0
SPLINE
  5
288
100
AcDbEntity
  8
0
100
AcDbSpline
 62
7
  6
CONTINUOUS
 70
0
 71
3
 72
42
 73
38
 74
0
 42
0.0000001
 43
0.0000001
 44
0.0000000001
 40
0.0
 40
0.0
 40
0.0
 40
0.0
 40
0.0042733324
 40
0.0083255486
 40
0.0121940788
 40
0.0159132826
 40
0.0230089955
 40
0.0297699775
 40
0.0363071165
 40
0.0426966082
 40
0.048994498
 40
0.0552404461
 40
0.0676792357
 40
0.0801676408
 40
0.0927822628
 40
0.1055634355
 40
0.1185291236
 40
0.1316869567
 40
0.1450359334
 40
0.1585720383
 40
0.1861769244
 40
0.2144549404
 40
0.2433385406
 40
0.2727755667
 40
0.3027145174
 40
0.3331131757
 40
0.3639308584
 40
0.3951347456
 40
0.4585812
 40
0.5232532895
 40
0.5889915602
 40
0.6556662273
 40
0.7231769019
 40
0.791431898
 40
0.8603609378
 40
0.9299008267
 40
1.0
 40
1.0
 40
1.0
 40
1.0
 10
9.7572008821
 20
8.8586844682
 30
0.0
 10
9.7572008821
 20
8.8589868683
 30
0.0
 10
9.7571838653
 20
8.8595761936
 30
0.0
 10
9.7571071251
 20
8.86043617
 30
0.0
 10
9.7569853408
 20
8.8612513116
 30
0.0
 10
9.7567736648
 20
8.8622690145
 30
0.0
 10
9.7564257462
 20
8.8634656344
 30
0.0
 10
9.7558848974
 20
8.8648058906
 30
0.0
 10
9.7552493908
 20
8.8660476082
 30
0.0
 10
9.7545313987
 20
8.8672047161
 30
0.0
 10
9.753743349
 20
8.8682896018
 30
0.0
 10
9.7526118344
 20
8.8696492481
 30
0.0
 10
9.751055149
 20
8.8712188736
 30
0.0
 10
9.7490078382
 20
8.8729166947
 30
0.0
 10
9.7468179607
 20
8.8744669017
 30
0.0
 10
9.744504154
 20
8.8758895621
 30
0.0
 10
9.7420843512
 20
8.8772048708
 30
0.0
 10
9.7395707679
 20
8.8784250246
 30
0.0
 10
9.7369748326
 20
8.8795625857
 30
0.0
 10
9.733392047
 20
8.880989644
 30
0.0
 10
9.7287502121
 20
8.8826052648
 30
0.0
 10
9.7229973391
 20
8.8843096451
 30
0.0
 10
9.7170606157
 20
8.8858338467
 30
0.0
 10
9.7109652108
 20
8.8871992337
 30
0.0
 10
9.7047318311
 20
8.8884285644
 30
0.0
 10
9.6983766311
 20
8.8895362028
 30
0.0
 10
9.6919132572
 20
8.8905371025
 30
0.0
 10
9.6831173517
 20
8.8917490531
 30
0.0
 10
9.6719158973
 20
8.8930418976
 30
0.0
 10
9.658254344
 20
8.8942972253
 30
0.0
 10
9.6443436526
 20
8.8953075206
 30
0.0
 10
9.6302182904
 20
8.896107393
 30
0.0
 10
9.6159054601
 20
8.8967206717
 30
0.0
 10
9.601427082
 20
8.897171536
 30
0.0
 10
9.5868013076
 20
8.8974756473
 30
0.0
 10
9.572042943
 20
8.897648836
 30
0.0
 10
9.5621614119
 20
8.8976844682
 30
0.0
 10
9.5572008821
 20
8.8976844682
 30
0.0
  0
SPLINE
  5
289
100
AcDbEntity
  8
0
100
AcDbSpline
 62
7
  6
CONTINUOUS
 70
0
 71
3
 72
17
 73
13
 74
0
 42
0.0000001
 43
0.0000001
 44
0.0000000001
 40
0.0
 40
0.0
 40
0.0
 40
0.0
 40
0.0395640353
 40
0.0833590926
 40
0.1311542306
 40
0.1827026776
 40
0.2960038985
 40
0.421155502
 40
0.5560599691
 40
0.6987172195
 40
0.8472747168
 40
1.0
 40
1.0
 40
1.0
 40
1.0
 10
11.9477537693
 20
11.6490908824
 30
0.0
 10
11.9472469841
 20
11.6484808816
 30
0.0
 10
11.9462002409
 20
11.6471780496
 30
0.0
 10
11.9446193362
 20
11.6450770008
 30
0.0
 10
11.9429693312
 20
11.6427290611
 30
0.0
 10
11.9406352696
 20
11.6391616924
 30
0.0
 10
11.9377081638
 20
11.6341336159
 30
0.0
 10
11.9343982214
 20
11.6274147329
 30
0.0
 10
11.9313533521
 20
11.6199311068
 30
0.0
 10
11.9287152865
 20
11.6117990651
 30
0.0
 10
11.9265993727
 20
11.6031475675
 30
0.0
 10
11.9256048144
 20
11.5971840686
 30
0.0
 10
11.925214016
 20
11.59414777
 30
0.0
  0
SPLINE
  5
28A
100
AcDbEntity
  8
0
100
AcDbSpline
 62
7
  6
CONTINUOUS
 70
0
 71
3
 72
29
 73
25
 74
0
 42
0.0000001
 43
0.0000001
 44
0.0000000001
 40
0.0
 40
0.0
 40
0.0
 40
0.0
 40
0.0404397344
 40
0.0883627649
 40
0.1514277284
 40
0.1877837048
 40
0.2269066392
 40
0.2684636143
 40
0.3121137918
 40
0.3574974679
 40
0.4042261628
 40
0.4518778152
 40
0.4999999985
 40
0.5481221854
 40
0.5957738348
 40
0.6425025321
 40
0.6878862064
 40
0.7315363847
 40
0.7730933594
 40
0.8122162951
 40
0.8485722714
 40
0.9116372356
 40
0.9595602656
 40
1.0
 40
1.0
 40
1.0
 40
1.0
 10
9.6547008821
 20
6.7676844682
 30
0.0
 10
9.6498932065
 20
6.76568133
 30
0.0
 10
9.6393386296
 20
6.7614225954
 30
0.0
 10
9.6210644396
 20
6.7546037929
 30
0.0
 10
9.6030531964
 20
6.74860802
 30
0.0
 10
9.5859335145
 20
6.7435724511
 30
0.0
 10
9.5713566355
 20
6.7397277279
 30
0.0
 10
9.5557490459
 20
6.7361363196
 30
0.0
 10
9.5392323393
 20
6.7329426991
 30
0.0
 10
9.5219459891
 20
6.730284531
 30
0.0
 10
9.5040517172
 20
6.7282847499
 30
0.0
 10
9.485734863
 20
6.7270418796
 30
0.0
 10
9.4672008823
 20
6.7266201381
 30
0.0
 10
9.4486669018
 20
6.7270418796
 30
0.0
 10
9.4303500473
 20
6.7282847499
 30
0.0
 10
9.4124557757
 20
6.7302845309
 30
0.0
 10
9.3951694253
 20
6.7329426991
 30
0.0
 10
9.3786527189
 20
6.7361363194
 30
0.0
 10
9.3630451291
 20
6.7397277278
 30
0.0
 10
9.34846825
 20
6.743572451
 30
0.0
 10
9.3313485678
 20
6.74860802
 30
0.0
 10
9.3133373247
 20
6.7546037929
 30
0.0
 10
9.2950631346
 20
6.7614225954
 30
0.0
 10
9.2845085578
 20
6.76568133
 30
0.0
 10
9.2797008821
 20
6.7676844682
 30
0.0
  0
SPLINE
  5
28B
100
AcDbEntity
  8
0
100
AcDbSpline
 62
7
  6
CONTINUOUS
 70
0
 71
3
 72
17
 73
13
 74
0
 42
0.0000001
 43
0.0000001
 44
0.0000000001
 40
0.0
 40
0.0
 40
0.0
 40
0.0
 40
0.1527226412
 40
0.3012803531
 40
0.4439364643
 40
0.5788412964
 40
0.703993519
 40
0.8172952864
 40
0.8688445036
 40
0.9166400385
 40
0.9604352116
 40
1.0
 40
1.0
 40
1.0
 40
1.0
 10
11.3481877483
 20
11.59414777
 30
0.0
 10
11.3477969588
 20
11.5971839996
 30
0.0
 10
11.3468024101
 20
11.6031474166
 30
0.0
 10
11.3446865609
 20
11.6117988065
 30
0.0
 10
11.3420485081
 20
11.6199307932
 30
0.0
 10
11.3390036626
 20
11.627414375
 30
0.0
 10
11.3356938189
 20
11.6341332974
 30
0.0
 10
11.3327666735
 20
11.6391613592
 30
0.0
 10
11.3304326506
 20
11.642728766
 30
0.0
 10
11.3287826406
 20
11.6450767154
 30
0.0
 10
11.3272017204
 20
11.6471777656
 30
0.0
 10
11.3261549972
 20
11.6484806245
 30
0.0
 10
11.3256482025
 20
11.6490906315
 30
0.0
  0
SPLINE
  5
28C
100
AcDbEntity
  8
0
100
AcDbSpline
 62
7
  6
CONTINUOUS
 70
0
 71
3
 72
20
 73
16
 74
0
 42
0.0000001
 43
0.0000001
 44
0.0000000001
 40
0.0
 40
0.0
 40
0.0
 40
0.0
 40
0.1225653786
 40
0.2451838443
 40
0.3683861916
 40
0.4303537422
 40
0.492601204
 40
0.5551478825
 40
0.6179976602
 40
0.68114041
 40
0.7445514836
 40
0.8081939403
 40
0.8720276675
 40
0.935969236
 40
1.0
 40
1.0
 40
1.0
 40
1.0
 10
11.9244382024
 20
11.3378044741
 30
0.0
 10
11.9264156602
 20
11.3398028623
 30
0.0
 10
11.9302323124
 20
11.3439417923
 30
0.0
 10
11.9354656727
 20
11.3505871764
 30
0.0
 10
11.9393504443
 20
11.3564947556
 30
0.0
 10
11.9421326687
 20
11.3614432714
 30
0.0
 10
11.9440505946
 20
11.3652758629
 30
0.0
 10
11.9457829312
 20
11.3692180053
 30
0.0
 10
11.947317076
 20
11.3732635488
 30
0.0
 10
11.948640615
 20
11.3774037406
 30
0.0
 10
11.9497418922
 20
11.3816274201
 30
0.0
 10
11.9506104665
 20
11.3859212769
 30
0.0
 10
11.9512373045
 20
11.3902694243
 30
0.0
 10
11.9516164559
 20
11.3946549693
 30
0.0
 10
11.9517008974
 20
11.397591085
 30
0.0
 10
11.9517008974
 20
11.3990598132
 30
0.0
  0
SPLINE
  5
28D
100
AcDbEntity
  8
0
100
AcDbSpline
 62
7
  6
CONTINUOUS
 70
0
 71
3
 72
20
 73
16
 74
0
 42
0.0000001
 43
0.0000001
 44
0.0000000001
 40
0.0
 40
0.0
 40
0.0
 40
0.0
 40
0.0640308732
 40
0.1279717215
 40
0.1918054742
 40
0.2554478445
 40
0.318858704
 40
0.3820014541
 40
0.4448512713
 40
0.5073978966
 40
0.5696457308
 40
0.6316135317
 40
0.7548159688
 40
0.8774342676
 40
1.0
 40
1.0
 40
1.0
 40
1.0
 10
11.3217008669
 20
11.3990598132
 30
0.0
 10
11.3217008669
 20
11.3975910648
 30
0.0
 10
11.3217853072
 20
11.3946549275
 30
0.0
 10
11.3221644726
 20
11.3902693441
 30
0.0
 10
11.3227913154
 20
11.3859211621
 30
0.0
 10
11.3236599065
 20
11.381627261
 30
0.0
 10
11.3247612118
 20
11.3774035417
 30
0.0
 10
11.3260847708
 20
11.3732633057
 30
0.0
 10
11.3276189455
 20
11.3692177176
 30
0.0
 10
11.3293513345
 20
11.3652755328
 30
0.0
 10
11.3312692926
 20
11.3614428852
 30
0.0
 10
11.3340515946
 20
11.3564943151
 30
0.0
 10
11.3379364492
 20
11.3505866854
 30
0.0
 10
11.3431699043
 20
11.3439412352
 30
0.0
 10
11.3469866646
 20
11.3398023088
 30
0.0
 10
11.3489641448
 20
11.3378038837
 30
0.0
  0
SPLINE
  5
28E
100
AcDbEntity
  8
0
100
AcDbSpline
 62
7
  6
CONTINUOUS
 70
0
 71
3
 72
19
 73
15
 74
0
 42
0.0000001
 43
0.0000001
 44
0.0000000001
 40
0.0
 40
0.0
 40
0.0
 40
0.0
 40
0.1208346745
 40
0.242659666
 40
0.3657636663
 40
0.4902875834
 40
0.5530982936
 40
0.6162425614
 40
0.6796924828
 40
0.7434106904
 40
0.8073524905
 40
0.8714735899
 40
0.9356973292
 40
1.0
 40
1.0
 40
1.0
 40
1.0
 10
11.9546060439
 20
11.656657409
 30
0.0
 10
11.9566957368
 20
11.6589894331
 30
0.0
 10
11.9607286198
 20
11.6638227822
 30
0.0
 10
11.9662327614
 20
11.6715512211
 30
0.0
 10
11.9711308704
 20
11.6797907136
 30
0.0
 10
11.9746208284
 20
11.6870525537
 30
0.0
 10
11.9770175204
 20
11.6930869974
 30
0.0
 10
11.9786094556
 20
11.6977320259
 30
0.0
 10
11.9799787375
 20
11.7024719636
 30
0.0
 10
11.9811149268
 20
11.7072944544
 30
0.0
 10
11.9820088539
 20
11.7121854053
 30
0.0
 10
11.9826527879
 20
11.7171287989
 30
0.0
 10
11.9830416859
 20
11.7221080383
 30
0.0
 10
11.9831282624
 20
11.7254393333
 30
0.0
 10
11.9831282624
 20
11.7271056771
 30
0.0
  0
SPLINE
  5
28F
100
AcDbEntity
  8
0
100
AcDbSpline
 62
7
  6
CONTINUOUS
 70
0
 71
3
 72
20
 73
16
 74
0
 42
0.0000001
 43
0.0000001
 44
0.0000000001
 40
0.0
 40
0.0
 40
0.0
 40
0.0
 40
0.0643007881
 40
0.1285218095
 40
0.1926410414
 40
0.2565808245
 40
0.3202968931
 40
0.3837448889
 40
0.4468872338
 40
0.5096958514
 40
0.572152157
 40
0.63424824
 40
0.7573482552
 40
0.8791692478
 40
1.0
 40
1.0
 40
1.0
 40
1.0
 10
11.2902735019
 20
11.7271056771
 30
0.0
 10
11.2902735019
 20
11.7254392575
 30
0.0
 10
11.2903600821
 20
11.7221078324
 30
0.0
 10
11.2907490206
 20
11.7171283896
 30
0.0
 10
11.2913929998
 20
11.712184799
 30
0.0
 10
11.2922870025
 20
11.707293641
 30
0.0
 10
11.2934232915
 20
11.7024709603
 30
0.0
 10
11.294792691
 20
11.6977308141
 30
0.0
 10
11.2963847142
 20
11.6930856664
 30
0.0
 10
11.2981878404
 20
11.6885460894
 30
0.0
 10
11.3001899492
 20
11.6841204498
 30
0.0
 10
11.3030991926
 20
11.6783974907
 30
0.0
 10
11.3071704943
 20
11.6715488018
 30
0.0
 10
11.312674884
 20
11.6638205527
 30
0.0
 10
11.3167080806
 20
11.6589870041
 30
0.0
 10
11.3187979214
 20
11.6566549347
 30
0.0
  0
SPLINE
  5
290
100
AcDbEntity
  8
0
100
AcDbSpline
 62
7
  6
CONTINUOUS
 70
0
 71
3
 72
57
 73
53
 74
0
 42
0.0000001
 43
0.0000001
 44
0.0000000001
 40
0.0
 40
0.0
 40
0.0
 40
0.0
 40
0.0225820438
 40
0.0341718044
 40
0.0460060939
 40
0.0581150753
 40
0.0705241099
 40
0.083253593
 40
0.0963192605
 40
0.1097325558
 40
0.1235009672
 40
0.137628352
 40
0.1521153304
 40
0.1669595917
 40
0.1821562006
 40
0.1976978707
 40
0.2135751757
 40
0.2297767808
 40
0.2462896397
 40
0.2630991613
 40
0.2801893737
 40
0.3151407952
 40
0.3509947386
 40
0.3875866848
 40
0.4247412766
 40
0.4622752562
 40
0.5000002006
 40
0.5377251433
 40
0.5752591168
 40
0.6124136983
 40
0.649005632
 40
0.6848595584
 40
0.7198109576
 40
0.7369011588
 40
0.7537106689
 40
0.7702235161
 40
0.7864251075
 40
0.8023023961
 40
0.8178440485
 40
0.8330406425
 40
0.847884889
 40
0.8623718523
 40
0.876499218
 40
0.8902676071
 40
0.9036808846
 40
0.9167465346
 40
0.9294759986
 40
0.9418850068
 40
0.9539939579
 40
0.9658282568
 40
0.9774179087
 40
1.0
 40
1.0
 40
1.0
 40
1.0
 10
11.3490249231
 20
11.3377425339
 30
0.0
 10
11.3522376526
 20
11.3345005008
 30
0.0
 10
11.3574074225
 20
11.3298919148
 30
0.0
 10
11.3647994304
 20
11.3242478488
 30
0.0
 10
11.3707072807
 20
11.3201591895
 30
0.0
 10
11.3769241285
 20
11.3162393908
 30
0.0
 10
11.3834469181
 20
11.3124767321
 30
0.0
 10
11.390272411
 20
11.3088625287
 30
0.0
 10
11.3973974028
 20
11.3053900546
 30
0.0
 10
11.404818162
 20
11.3020544615
 30
0.0
 10
11.4125302665
 20
11.2988524296
 30
0.0
 10
11.420528451
 20
11.2957819114
 30
0.0
 10
11.4288065407
 20
11.2928418723
 30
0.0
 10
11.4373574382
 20
11.2900320789
 30
0.0
 10
11.4461731371
 20
11.2873529285
 30
0.0
 10
11.4552447489
 20
11.2848053031
 30
0.0
 10
11.4645625426
 20
11.2823904481
 30
0.0
 10
11.4741159926
 20
11.2801098677
 30
0.0
 10
11.4838938217
 20
11.2779652487
 30
0.0
 10
11.493884095
 20
11.275958359
 30
0.0
 10
11.5075728358
 20
11.2734500032
 30
0.0
 10
11.5251244827
 20
11.270681488
 30
0.0
 10
11.5466635667
 20
11.2679614084
 30
0.0
 10
11.5687163645
 20
11.2658317469
 30
0.0
 10
11.5911591166
 20
11.264302825
 30
0.0
 10
11.6138641532
 20
11.263382326
 30
0.0
 10
11.6367010035
 20
11.2630749648
 30
0.0
 10
11.6595378524
 20
11.263382332
 30
0.0
 10
11.6822428851
 20
11.2643028382
 30
0.0
 10
11.704685631
 20
11.2658317663
 30
0.0
 10
11.7267384202
 20
11.2679614329
 30
0.0
 10
11.7482774929
 20
11.2706815178
 30
0.0
 10
11.7658291288
 20
11.2734500374
 30
0.0
 10
11.77951786
 20
11.2759583957
 30
0.0
 10
11.7895081258
 20
11.2779652872
 30
0.0
 10
11.7992859469
 20
11.2801099077
 30
0.0
 10
11.8088393879
 20
11.2823904895
 30
0.0
 10
11.8181571714
 20
11.2848053454
 30
0.0
 10
11.8272287729
 20
11.287352971
 30
0.0
 10
11.8360444617
 20
11.2900321215
 30
0.0
 10
11.8445953496
 20
11.2928419153
 30
0.0
 10
11.8528734286
 20
11.2957819546
 30
0.0
 10
11.8608716011
 20
11.2988524721
 30
0.0
 10
11.8685836942
 20
11.3020545003
 30
0.0
 10
11.8760044418
 20
11.305390091
 30
0.0
 10
11.883129422
 20
11.3088625637
 30
0.0
 10
11.8899549012
 20
11.3124767659
 30
0.0
 10
11.8964776771
 20
11.3162394175
 30
0.0
 10
11.9026945195
 20
11.3201592071
 30
0.0
 10
11.9086023402
 20
11.3242478629
 30
0.0
 10
11.9159943497
 20
11.3298919094
 30
0.0
 10
11.9211641049
 20
11.334500494
 30
0.0
 10
11.9243768412
 20
11.3377425339
 30
0.0
  0
SPLINE
  5
291
100
AcDbEntity
  8
0
100
AcDbSpline
 62
7
  6
CONTINUOUS
 70
0
 71
3
 72
63
 73
59
 74
0
 42
0.0000001
 43
0.0000001
 44
0.0000000001
 40
0.0
 40
0.0
 40
0.0
 40
0.0
 40
0.0060166592
 40
0.0120279716
 40
0.0240829841
 40
0.0362147736
 40
0.0484682439
 40
0.060887436
 40
0.0735107229
 40
0.0863720813
 40
0.0994999168
 40
0.1129173512
 40
0.1266423798
 40
0.1406882167
 40
0.155063681
 40
0.1697735634
 40
0.1848189831
 40
0.2001977955
 40
0.2159048821
 40
0.2319324754
 40
0.2482704346
 40
0.2649064735
 40
0.2818263994
 40
0.2990143173
 40
0.3164527976
 40
0.3520040504
 40
0.3883176992
 40
0.425215411
 40
0.4625082388
 40
0.500000325
 40
0.5374924076
 40
0.5747852254
 40
0.6116829226
 40
0.6479965514
 40
0.6835477774
 40
0.700986241
 40
0.7181741406
 40
0.7350940467
 40
0.7517300658
 40
0.7680680055
 40
0.7840955797
 40
0.7998026456
 40
0.8151814358
 40
0.8302268277
 40
0.8449366784
 40
0.859312115
 40
0.8733579281
 40
0.8870829334
 40
0.9005003374
 40
0.9136281334
 40
0.9264894568
 40
0.9391127191
 40
0.9515318352
 40
0.963785346
 40
0.9759169623
 40
0.9879720724
 40
0.9939842073
 40
1.0
 40
1.0
 40
1.0
 40
1.0
 10
11.9607732882
 20
11.7866678285
 30
0.0
 10
11.9598738131
 20
11.7877189726
 30
0.0
 10
11.9580398553
 20
11.7897899957
 30
0.0
 10
11.9542343662
 20
11.7938138816
 30
0.0
 10
11.9492287109
 20
11.7986328544
 30
0.0
 10
11.9428660918
 20
11.8040911162
 30
0.0
 10
11.9361597748
 20
11.8092587251
 30
0.0
 10
11.9291206411
 20
11.8141623842
 30
0.0
 10
11.9217544708
 20
11.8188255645
 30
0.0
 10
11.9140647942
 20
11.8232680685
 30
0.0
 10
11.9060536697
 20
11.8275060198
 30
0.0
 10
11.8977229049
 20
11.8315521681
 30
0.0
 10
11.8890746928
 20
11.835416361
 30
0.0
 10
11.8801120488
 20
11.839105954
 30
0.0
 10
11.8708390711
 20
11.8426262174
 30
0.0
 10
11.8612610933
 20
11.8459807096
 30
0.0
 10
11.8513847451
 20
11.8491716065
 30
0.0
 10
11.841217962
 20
11.8521999893
 30
0.0
 10
11.830769946
 20
11.8550660828
 30
0.0
 10
11.8200511134
 20
11.8577694501
 30
0.0
 10
11.8090730271
 20
11.8603091581
 30
0.0
 10
11.7978483177
 20
11.8626839157
 30
0.0
 10
11.7863906194
 20
11.8648921778
 30
0.0
 10
11.774714441
 20
11.866932274
 30
0.0
 10
11.7587736147
 20
11.8694417606
 30
0.0
 10
11.7384130342
 20
11.8721358585
 30
0.0
 10
11.7135274112
 20
11.8746504347
 30
0.0
 10
11.6881788384
 20
11.8764554344
 30
0.0
 10
11.6625182824
 20
11.8775420925
 30
0.0
 10
11.6367006593
 20
11.8779049268
 30
0.0
 10
11.6108830386
 20
11.8775420794
 30
0.0
 10
11.5852224896
 20
11.8764554092
 30
0.0
 10
11.5598739279
 20
11.8746503982
 30
0.0
 10
11.5349883202
 20
11.8721358111
 30
0.0
 10
11.5146277555
 20
11.8694417044
 30
0.0
 10
11.4986869447
 20
11.8669322111
 30
0.0
 10
11.4870107799
 20
11.8648921105
 30
0.0
 10
11.4755530958
 20
11.8626838446
 30
0.0
 10
11.4643284011
 20
11.8603090837
 30
0.0
 10
11.4533503292
 20
11.8577693726
 30
0.0
 10
11.4426315115
 20
11.8550660021
 30
0.0
 10
11.4321835111
 20
11.8521999057
 30
0.0
 10
11.4220167457
 20
11.8491715203
 30
0.0
 10
11.4121404175
 20
11.8459806229
 30
0.0
 10
11.4025624599
 20
11.8426261337
 30
0.0
 10
11.3932895018
 20
11.8391058723
 30
0.0
 10
11.3843268766
 20
11.8354162789
 30
0.0
 10
11.375678685
 20
11.8315520837
 30
0.0
 10
11.3673479445
 20
11.8275059345
 30
0.0
 10
11.3593368398
 20
11.8232679978
 30
0.0
 10
11.3516471813
 20
11.8188255074
 30
0.0
 10
11.3442810479
 20
11.8141623275
 30
0.0
 10
11.3372419219
 20
11.8092586812
 30
0.0
 10
11.3305356608
 20
11.8040910785
 30
0.0
 10
11.3241730291
 20
11.7986328455
 30
0.0
 10
11.3191672448
 20
11.793813756
 30
0.0
 10
11.3153617935
 20
11.7897898178
 30
0.0
 10
11.3135278217
 20
11.7877188212
 30
0.0
 10
11.3126284761
 20
11.7866678285
 30
0.0
  0
SPLINE
  5
292
100
AcDbEntity
  8
0
100
AcDbSpline
 62
7
  6
CONTINUOUS
 70
0
 71
3
 72
15
 73
11
 74
0
 42
0.0000001
 43
0.0000001
 44
0.0000000001
 40
0.0
 40
0.0
 40
0.0
 40
0.0
 40
0.1243605092
 40
0.2485360243
 40
0.3727660305
 40
0.4972551557
 40
0.6221559837
 40
0.7475736635
 40
0.8735261113
 40
1.0
 40
1.0
 40
1.0
 40
1.0
 10
11.3125767358
 20
11.7866073352
 30
0.0
 10
11.3113436851
 20
11.7851643121
 30
0.0
 10
11.3089522413
 20
11.7822171069
 30
0.0
 10
11.305610575
 20
11.7776089167
 30
0.0
 10
11.3025387547
 20
11.7728136644
 30
0.0
 10
11.2997598391
 20
11.7678298427
 30
0.0
 10
11.2972993099
 20
11.7626608551
 30
0.0
 10
11.2951848392
 20
11.7573163749
 30
0.0
 10
11.2934438381
 20
11.7518136016
 30
0.0
 10
11.2925510417
 20
11.748061473
 30
0.0
 10
11.2921745301
 20
11.7461682063
 30
0.0
  0
SPLINE
  5
293
100
AcDbEntity
  8
0
100
AcDbSpline
 62
7
  6
CONTINUOUS
 70
0
 71
3
 72
15
 73
11
 74
0
 42
0.0000001
 43
0.0000001
 44
0.0000000001
 40
0.0
 40
0.0
 40
0.0
 40
0.0
 40
0.1264740896
 40
0.2524254218
 40
0.377843779
 40
0.5027442529
 40
0.6272337231
 40
0.7514640609
 40
0.8756394208
 40
1.0
 40
1.0
 40
1.0
 40
1.0
 10
11.9812272342
 20
11.7461682063
 30
0.0
 10
11.9808507204
 20
11.7480614839
 30
0.0
 10
11.9799579276
 20
11.7518136159
 30
0.0
 10
11.978216906
 20
11.757316404
 30
0.0
 10
11.9761024415
 20
11.7626608995
 30
0.0
 10
11.9736418842
 20
11.7678299117
 30
0.0
 10
11.9708629579
 20
11.7728137604
 30
0.0
 10
11.9677911086
 20
11.7776090322
 30
0.0
 10
11.964449419
 20
11.7822172391
 30
0.0
 10
11.9620579664
 20
11.785164456
 30
0.0
 10
11.960824909
 20
11.7866074852
 30
0.0
  0
SPLINE
  5
294
100
AcDbEntity
  8
0
100
AcDbSpline
 62
7
  6
CONTINUOUS
 70
0
 71
3
 72
20
 73
16
 74
0
 42
0.0000001
 43
0.0000001
 44
0.0000000001
 40
0.0
 40
0.0
 40
0.0
 40
0.0
 40
0.0386658688
 40
0.0817423221
 40
0.1290064361
 40
0.1802123468
 40
0.2933677719
 40
0.4189896114
 40
0.4857640062
 40
0.5547815395
 40
0.6257510899
 40
0.6983957625
 40
0.7724354087
 40
0.847547634
 40
1.0
 40
1.0
 40
1.0
 40
1.0
 10
11.3397504044
 20
11.451192003
 30
0.0
 10
11.3400759534
 20
11.451639611
 30
0.0
 10
11.3407481452
 20
11.4525976426
 30
0.0
 10
11.3417589091
 20
11.4541434797
 30
0.0
 10
11.3428104007
 20
11.4558758982
 30
0.0
 10
11.3442926185
 20
11.458518379
 30
0.0
 10
11.3461262008
 20
11.4622465524
 30
0.0
 10
11.3477704756
 20
11.4663039826
 30
0.0
 10
11.3489845718
 20
11.4698442586
 30
0.0
 10
11.3498390961
 20
11.4726786363
 30
0.0
 10
11.3506063038
 20
11.4756247925
 30
0.0
 10
11.3512758147
 20
11.4786683454
 30
0.0
 10
11.3518375422
 20
11.4817939982
 30
0.0
 10
11.3524368439
 20
11.4860701878
 30
0.0
 10
11.3526990133
 20
11.4893214725
 30
0.0
 10
11.3527898258
 20
11.4915018336
 30
0.0
  0
SPLINE
  5
295
100
AcDbEntity
  8
0
100
AcDbSpline
 62
7
  6
CONTINUOUS
 70
0
 71
3
 72
18
 73
14
 74
0
 42
0.0000001
 43
0.0000001
 44
0.0000000001
 40
0.0
 40
0.0
 40
0.0
 40
0.0
 40
0.1524576298
 40
0.2275675441
 40
0.3016105895
 40
0.3742591825
 40
0.4452304666
 40
0.5142490647
 40
0.5810257907
 40
0.7066513322
 40
0.8198097403
 40
0.9182669239
 40
1.0
 40
1.0
 40
1.0
 40
1.0
 10
11.9206119385
 20
11.4915018336
 30
0.0
 10
11.9207027525
 20
11.4893214373
 30
0.0
 10
11.9209648964
 20
11.486070167
 30
0.0
 10
11.9215642564
 20
11.4817939742
 30
0.0
 10
11.9221259643
 20
11.4786683049
 30
0.0
 10
11.9227954897
 20
11.4756246808
 30
0.0
 10
11.923562698
 20
11.4726784837
 30
0.0
 10
11.9244172715
 20
11.469844098
 30
0.0
 10
11.9256313394
 20
11.4663037935
 30
0.0
 10
11.9272756774
 20
11.462246229
 30
0.0
 10
11.929407962
 20
11.4579109146
 30
0.0
 10
11.9315202695
 20
11.4542782478
 30
0.0
 10
11.932963407
 20
11.4521379145
 30
0.0
 10
11.9336515412
 20
11.4511917584
 30
0.0
  0
SPLINE
  5
296
100
AcDbEntity
  8
0
100
AcDbSpline
 62
7
  6
CONTINUOUS
 70
0
 71
3
 72
15
 73
11
 74
0
 42
0.0000001
 43
0.0000001
 44
0.0000000001
 40
0.0
 40
0.0
 40
0.0
 40
0.0
 40
0.1222992672
 40
0.2453135891
 40
0.3691155242
 40
0.4937431903
 40
0.6191935257
 40
0.7454443038
 40
0.8723989447
 40
1.0
 40
1.0
 40
1.0
 40
1.0
 10
11.3397509585
 20
11.4511927673
 30
0.0
 10
11.3387641229
 20
11.4498359502
 30
0.0
 10
11.3368480411
 20
11.4470675828
 30
0.0
 10
11.3341718715
 20
11.4427665557
 30
0.0
 10
11.3317025138
 20
11.4383066511
 30
0.0
 10
11.3294580313
 20
11.4336920768
 30
0.0
 10
11.3274567254
 20
11.4289302926
 30
0.0
 10
11.3257173116
 20
11.4240326003
 30
0.0
 10
11.3242569026
 20
11.4190138997
 30
0.0
 10
11.3234817139
 20
11.4156064075
 30
0.0
 10
11.3231450983
 20
11.4138886108
 30
0.0
  0
SPLINE
  5
297
100
AcDbEntity
  8
0
100
AcDbSpline
 62
7
  6
CONTINUOUS
 70
0
 71
3
 72
15
 73
11
 74
0
 42
0.0000001
 43
0.0000001
 44
0.0000000001
 40
0.0
 40
0.0
 40
0.0
 40
0.0
 40
0.1276020911
 40
0.2545533651
 40
0.3808056182
 40
0.506255479
 40
0.6308833183
 40
0.7546853024
 40
0.8776999074
 40
1.0
 40
1.0
 40
1.0
 40
1.0
 10
11.950256666
 20
11.4138886108
 30
0.0
 10
11.9499200474
 20
11.415606423
 30
0.0
 10
11.9491448752
 20
11.41901389
 30
0.0
 10
11.9476844434
 20
11.4240325763
 30
0.0
 10
11.9459450637
 20
11.428930251
 30
0.0
 10
11.9439437429
 20
11.433692052
 30
0.0
 10
11.9416992624
 20
11.4383066286
 30
0.0
 10
11.9392298957
 20
11.4427665413
 30
0.0
 10
11.9365537256
 20
11.4470675925
 30
0.0
 10
11.9346376224
 20
11.4498359674
 30
0.0
 10
11.9336507817
 20
11.4511927967
 30
0.0
  0
SPLINE
  5
298
100
AcDbEntity
  8
0
100
AcDbSpline
 62
9
  6
CONTINUOUS
 70
0
 71
3
 72
135
 73
131
 74
0
 42
0.0000001
 43
0.0000001
 44
0.0000000001
 40
0.0
 40
0.0
 40
0.0
 40
0.0
 40
0.0000008513
 40
0.0000034039
 40
0.0000076573
 40
0.0000136112
 40
0.0000212655
 40
0.0000306197
 40
0.0000544268
 40
0.00008503
 40
0.000122427
 40
0.0001666151
 40
0.0002175921
 40
0.0002753554
 40
0.0003399026
 40
0.0004893372
 40
0.0006658525
 40
0.0008693896
 40
0.0010998893
 40
0.0013572923
 40
0.0016415392
 40
0.0019525594
 40
0.0026545434
 40
0.0034624771
 40
0.0043755586
 40
0.005392811
 40
0.0065131979
 40
0.0077356256
 40
0.0090588519
 40
0.01048161
 40
0.0136202623
 40
0.0171400345
 40
0.0210285602
 40
0.0252728795
 40
0.029859579
 40
0.0347749846
 40
0.0400053277
 40
0.0455368536
 40
0.0513559791
 40
0.0638038945
 40
0.0772465364
 40
0.0915882098
 40
0.1067409985
 40
0.1226250614
 40
0.1391684957
 40
0.1563069254
 40
0.1739829355
 40
0.1921454321
 40
0.2107489798
 40
0.229753149
 40
0.2491218838
 40
0.2688228795
 40
0.2888269613
 40
0.3091074622
 40
0.3296395763
 40
0.3503996624
 40
0.3713644861
 40
0.3925104201
 40
0.413812645
 40
0.4352444373
 40
0.4460007338
 40
0.4567783379
 40
0.4675732034
 40
0.4783811838
 40
0.4891979726
 40
0.500019221
 40
0.5108405199
 40
0.5216574605
 40
0.5324656849
 40
0.5432608777
 40
0.5540388774
 40
0.5647956153
 40
0.5862283618
 40
0.6075315217
 40
0.628678236
 40
0.6496435827
 40
0.6704038667
 40
0.6909358184
 40
0.711215786
 40
0.731218974
 40
0.7509187386
 40
0.7702859355
 40
0.7892882941
 40
0.807889794
 40
0.8260500422
 40
0.8437236389
 40
0.860859525
 40
0.8774003198
 40
0.8932816815
 40
0.9084317418
 40
0.9227706952
 40
0.936210663
 40
0.9486559905
 40
0.9544738679
 40
0.9600041838
 40
0.965233361
 40
0.9701476511
 40
0.9747332917
 40
0.9789766155
 40
0.9828642151
 40
0.9863831373
 40
0.9895210222
 40
0.9909434291
 40
0.9922663274
 40
0.9934884503
 40
0.9946085567
 40
0.9956255532
 40
0.9965384043
 40
0.9973461334
 40
0.9980479391
 40
0.9983588802
 40
0.9986430547
 40
0.998900392
 40
0.9991308328
 40
0.999334318
 40
0.9995107881
 40
0.9996601844
 40
0.9997247151
 40
0.9997824636
 40
0.9998334275
 40
0.9998776044
 40
0.9999149917
 40
0.9999455871
 40
0.9999693881
 40
0.9999787399
 40
0.9999863922
 40
0.9999923447
 40
0.999996597
 40
0.9999991489
 40
1.0
 40
1.0
 40
1.0
 40
1.0
 10
10.9105176897
 20
5.7248332924
 30
0.0
 10
10.9105178307
 20
5.7248336383
 30
0.0
 10
10.9105189095
 20
5.7248347327
 30
0.0
 10
10.9105207101
 20
5.7248375451
 30
0.0
 10
10.9105241315
 20
5.7248419961
 30
0.0
 10
10.9105287233
 20
5.7248483373
 30
0.0
 10
10.9105347056
 20
5.724856445
 30
0.0
 10
10.9105452975
 20
5.7248708797
 30
0.0
 10
10.9105618641
 20
5.7248934199
 30
0.0
 10
10.910585705
 20
5.7249258793
 30
0.0
 10
10.9106148416
 20
5.724965543
 30
0.0
 10
10.9106492672
 20
5.7250124114
 30
0.0
 10
10.9106889812
 20
5.725066481
 30
0.0
 10
10.9107339806
 20
5.7251277498
 30
0.0
 10
10.9108045456
 20
5.7252238316
 30
0.0
 10
10.9109059428
 20
5.7253619041
 30
0.0
 10
10.9110434189
 20
5.7255491295
 30
0.0
 10
10.9112019253
 20
5.7257650321
 30
0.0
 10
10.9113814084
 20
5.7260095546
 30
0.0
 10
10.9115818146
 20
5.7262826398
 30
0.0
 10
10.9118030874
 20
5.7265842261
 30
0.0
 10
10.9121396792
 20
5.7270430973
 30
0.0
 10
10.9126120166
 20
5.7276873077
 30
0.0
 10
10.913240258
 20
5.72854471
 30
0.0
 10
10.9139499134
 20
5.7295139145
 30
0.0
 10
10.9147401177
 20
5.7305940239
 30
0.0
 10
10.9156099294
 20
5.7317840379
 30
0.0
 10
10.9165583325
 20
5.7330828662
 30
0.0
 10
10.9175842178
 20
5.7344893614
 30
0.0
 10
10.9191042936
 20
5.7365758688
 30
0.0
 10
10.9211890579
 20
5.7394431736
 30
0.0
 10
10.9239047168
 20
5.7431891526
 30
0.0
 10
10.9268985603
 20
5.7473325425
 30
0.0
 10
10.9301586199
 20
5.7518610071
 30
0.0
 10
10.9336724477
 20
5.7567618375
 30
0.0
 10
10.9374272522
 20
5.7620221211
 30
0.0
 10
10.9414100533
 20
5.7676288801
 30
0.0
 10
10.9456077797
 20
5.7735692336
 30
0.0
 10
10.9516100449
 20
5.7821113664
 30
0.0
 10
10.9595578282
 20
5.7935279679
 30
0.0
 10
10.9695476227
 20
5.8080780671
 30
0.0
 10
10.9800951792
 20
5.8236840101
 30
0.0
 10
10.9911067989
 20
5.8402682624
 30
0.0
 10
11.0024929367
 20
5.857762286
 30
0.0
 10
11.0141677696
 20
5.8761064932
 30
0.0
 10
11.0260484535
 20
5.8952499121
 30
0.0
 10
11.0380541579
 20
5.9151496676
 30
0.0
 10
11.0501049471
 20
5.9357703462
 30
0.0
 10
11.0621205558
 20
5.9570832772
 30
0.0
 10
11.0740190876
 20
5.9790657348
 30
0.0
 10
11.0857156611
 20
6.0017000328
 30
0.0
 10
11.0971210233
 20
6.0249724617
 30
0.0
 10
11.1081402322
 20
6.0488719748
 30
0.0
 10
11.1186715116
 20
6.0733885373
 30
0.0
 10
11.1286054184
 20
6.0985110482
 30
0.0
 10
11.1378245904
 20
6.1242247586
 30
0.0
 10
11.1462044603
 20
6.1505080685
 30
0.0
 10
11.1536153436
 20
6.1773291427
 30
0.0
 10
11.159926329
 20
6.2046414848
 30
0.0
 10
11.1641587796
 20
6.2277318155
 30
0.0
 10
11.1668790023
 20
6.246384512
 30
0.0
 10
11.1685749527
 20
6.2604664547
 30
0.0
 10
11.169913687
 20
6.2746095952
 30
0.0
 10
11.1708864495
 20
6.2887999106
 30
0.0
 10
11.1714870492
 20
6.3030224535
 30
0.0
 10
11.1717115645
 20
6.3172617657
 30
0.0
 10
11.1715583315
 20
6.331502091
 30
0.0
 10
11.1710286752
 20
6.3457276522
 30
0.0
 10
11.1701261053
 20
6.3599229291
 30
0.0
 10
11.1688564951
 20
6.3740728763
 30
0.0
 10
11.167228254
 20
6.388163334
 30
0.0
 10
11.1645959052
 20
6.4068294402
 30
0.0
 10
11.1604685774
 20
6.4299399262
 30
0.0
 10
11.1542749938
 20
6.4572804431
 30
0.0
 10
11.1469720515
 20
6.4841322369
 30
0.0
 10
11.1386906573
 20
6.5104475317
 30
0.0
 10
11.1295608986
 20
6.5361934724
 30
0.0
 10
11.1197079914
 20
6.5613477014
 30
0.0
 10
11.1092500503
 20
6.5858949409
 30
0.0
 10
11.0982973078
 20
6.609823755
 30
0.0
 10
11.0869523
 20
6.6331239186
 30
0.0
 10
11.0753106636
 20
6.655784295
 30
0.0
 10
11.063462273
 20
6.6777911556
 30
0.0
 10
11.0514925489
 20
6.699126838
 30
0.0
 10
11.039483851
 20
6.7197686676
 30
0.0
 10
11.0275168343
 20
6.7396880371
 30
0.0
 10
11.0156717563
 20
6.7588495992
 30
0.0
 10
11.0040297087
 20
6.7772105425
 30
0.0
 10
10.9926737415
 20
6.7947199523
 30
0.0
 10
10.9816898338
 20
6.8113182887
 30
0.0
 10
10.9711676411
 20
6.826937051
 30
0.0
 10
10.961200932
 20
6.8414987323
 30
0.0
 10
10.9532708769
 20
6.8529241802
 30
0.0
 10
10.9472817017
 20
6.8614727934
 30
0.0
 10
10.9430930158
 20
6.8674175806
 30
0.0
 10
10.9391186867
 20
6.8730284714
 30
0.0
 10
10.9353717793
 20
6.8782925846
 30
0.0
 10
10.9318652665
 20
6.8831969421
 30
0.0
 10
10.9286119314
 20
6.8877286307
 30
0.0
 10
10.9256242128
 20
6.8918749408
 30
0.0
 10
10.9229140695
 20
6.8956235354
 30
0.0
 10
10.9208335113
 20
6.8984928271
 30
0.0
 10
10.9193164896
 20
6.9005807716
 30
0.0
 10
10.918292661
 20
6.901988231
 30
0.0
 10
10.9173461549
 20
6.9032879467
 30
0.0
 10
10.9164780795
 20
6.9044787713
 30
0.0
 10
10.9156894495
 20
6.9055596143
 30
0.0
 10
10.9149812054
 20
6.9065294754
 30
0.0
 10
10.9143542118
 20
6.9073874573
 30
0.0
 10
10.9138828111
 20
6.9080321024
 30
0.0
 10
10.9135468862
 20
6.9084912828
 30
0.0
 10
10.9133260517
 20
6.908793072
 30
0.0
 10
10.9131260423
 20
6.9090663409
 30
0.0
 10
10.9129469144
 20
6.9093110278
 30
0.0
 10
10.9127887215
 20
6.9095270755
 30
0.0
 10
10.9126515173
 20
6.9097144265
 30
0.0
 10
10.9125503206
 20
6.9098525917
 30
0.0
 10
10.9124798951
 20
6.9099487379
 30
0.0
 10
10.9124349845
 20
6.9100100479
 30
0.0
 10
10.9123953491
 20
6.9100641537
 30
0.0
 10
10.9123609915
 20
6.9101110535
 30
0.0
 10
10.9123319124
 20
6.9101507438
 30
0.0
 10
10.9123081187
 20
6.910183225
 30
0.0
 10
10.9122915848
 20
6.9102057803
 30
0.0
 10
10.9122810138
 20
6.9102202246
 30
0.0
 10
10.9122750432
 20
6.9102283378
 30
0.0
 10
10.912270461
 20
6.9102346833
 30
0.0
 10
10.9122670452
 20
6.9102391372
 30
0.0
 10
10.9122652501
 20
6.9102419518
 30
0.0
 10
10.9122641714
 20
6.9102430466
 30
0.0
 10
10.9122640315
 20
6.9102433928
 30
0.0
  0
SPLINE
  5
299
100
AcDbEntity
  8
0
100
AcDbSpline
 62
9
  6
CONTINUOUS
 70
0
 71
3
 72
15
 73
11
 74
0
 42
0.0000001
 43
0.0000001
 44
0.0000000001
 40
0.0
 40
0.0
 40
0.0
 40
0.0
 40
0.1373963323
 40
0.2700897471
 40
0.3985813542
 40
0.5234398799
 40
0.6452963741
 40
0.7648401363
 40
0.8828231624
 40
1.0
 40
1.0
 40
1.0
 40
1.0
 10
11.3226369755
 20
11.6529832683
 30
0.0
 10
11.3218794117
 20
11.6540400121
 30
0.0
 10
11.3204524539
 20
11.6561630116
 30
0.0
 10
11.3185583013
 20
11.6594281243
 30
0.0
 10
11.316951582
 20
11.662712758
 30
0.0
 10
11.3156341976
 20
11.6660138598
 30
0.0
 10
11.3146077025
 20
11.6693283996
 30
0.0
 10
11.3138735176
 20
11.6726533909
 30
0.0
 10
11.3134324491
 20
11.675985015
 30
0.0
 10
11.3133341876
 20
11.6782116577
 30
0.0
 10
11.3133343447
 20
11.6793205475
 30
0.0
  0
SPLINE
  5
29A
100
AcDbEntity
  8
0
100
AcDbSpline
 62
9
  6
CONTINUOUS
 70
0
 71
3
 72
143
 73
139
 74
0
 42
0.0000001
 43
0.0000001
 44
0.0000000001
 40
0.0
 40
0.0
 40
0.0
 40
0.0
 40
0.000000823
 40
0.0000032908
 40
0.0000074032
 40
0.0000131597
 40
0.0000205601
 40
0.0000296041
 40
0.0000526219
 40
0.0000822105
 40
0.0001183677
 40
0.000161091
 40
0.0002103782
 40
0.0002662268
 40
0.0003286345
 40
0.0004731176
 40
0.0006437968
 40
0.0008406179
 40
0.0010635244
 40
0.0013124594
 40
0.0015873662
 40
0.0018881876
 40
0.002567263
 40
0.0033489718
 40
0.0042325773
 40
0.0052172528
 40
0.0063020248
 40
0.0074859047
 40
0.00876782
 40
0.0101465794
 40
0.0131897559
 40
0.0166049699
 40
0.0203810252
 40
0.0245060715
 40
0.0289678464
 40
0.0337538035
 40
0.0388512379
 40
0.0442474419
 40
0.0499297793
 40
0.0621033549
 40
0.0752759028
 40
0.0893571806
 40
0.1042637959
 40
0.1199196419
 40
0.136255917
 40
0.1532108726
 40
0.1707293988
 40
0.1887625299
 40
0.2072669326
 40
0.2262044043
 40
0.2455413521
 40
0.2553504296
 40
0.2652486565
 40
0.2752328841
 40
0.2853002502
 40
0.2954479566
 40
0.3056734889
 40
0.3263474496
 40
0.3473043559
 40
0.3685264642
 40
0.3899951519
 40
0.4116888782
 40
0.4226134226
 40
0.4335836333
 40
0.4445947681
 40
0.4556414761
 40
0.4667177397
 40
0.4778168855
 40
0.488931683
 40
0.5000545075
 40
0.5111775169
 40
0.522292856
 40
0.5333928609
 40
0.5444702464
 40
0.555518277
 40
0.5665308609
 40
0.5775025675
 40
0.5884285805
 40
0.6101249283
 40
0.6315955736
 40
0.6528187919
 40
0.673775888
 40
0.6944491208
 40
0.7046739665
 40
0.7148207729
 40
0.724887037
 40
0.7348699671
 40
0.7447667111
 40
0.7545741271
 40
0.7739072445
 40
0.792840264
 40
0.811339643
 40
0.829367224
 40
0.8468797161
 40
0.8638281956
 40
0.880157597
 40
0.8958062235
 40
0.9107053365
 40
0.9247789079
 40
0.9379436447
 40
0.9501094285
 40
0.9557879237
 40
0.9611803493
 40
0.9662740931
 40
0.9710564721
 40
0.9755148083
 40
0.9796365827
 40
0.9834095619
 40
0.9868219242
 40
0.9898625017
 40
0.9912400655
 40
0.9925208586
 40
0.9937036926
 40
0.9947874989
 40
0.9957712912
 40
0.9966540987
 40
0.9974350975
 40
0.9981135528
 40
0.9984140984
 40
0.9986887528
 40
0.9989374588
 40
0.9991601599
 40
0.9993567994
 40
0.9995273207
 40
0.9996716701
 40
0.99973402
 40
0.9997898169
 40
0.9998390584
 40
0.9998817421
 40
0.9999178657
 40
0.9999474269
 40
0.9999704233
 40
0.999979459
 40
0.9999868525
 40
0.9999926037
 40
0.9999967122
 40
0.9999991777
 40
1.0
 40
1.0
 40
1.0
 40
1.0
 10
10.8113468911
 20
5.8376844682
 30
0.0
 10
10.8113471782
 20
5.8376845998
 30
0.0
 10
10.8113479202
 20
5.8376857112
 30
0.0
 10
10.8113500826
 20
5.8376874997
 30
0.0
 10
10.8113533545
 20
5.8376909584
 30
0.0
 10
10.8113580902
 20
5.8376955756
 30
0.0
 10
10.8113641157
 20
5.8377016015
 30
0.0
 10
10.8113748584
 20
5.8377122658
 30
0.0
 10
10.8113916257
 20
5.8377289485
 30
0.0
 10
10.8114157751
 20
5.8377529565
 30
0.0
 10
10.8114452819
 20
5.8377822995
 30
0.0
 10
10.8114801476
 20
5.8378169705
 30
0.0
 10
10.8115203688
 20
5.8378569696
 30
0.0
 10
10.8115659438
 20
5.8379022945
 30
0.0
 10
10.8116374124
 20
5.8379733741
 30
0.0
 10
10.8117401132
 20
5.8380755221
 30
0.0
 10
10.8118793687
 20
5.838214041
 30
0.0
 10
10.8120399437
 20
5.8383737886
 30
0.0
 10
10.8122217876
 20
5.8385547249
 30
0.0
 10
10.8124248488
 20
5.8387568089
 30
0.0
 10
10.8126490756
 20
5.8389799999
 30
0.0
 10
10.8129902241
 20
5.8393196403
 30
0.0
 10
10.8134690758
 20
5.8397965413
 30
0.0
 10
10.8141061687
 20
5.8404313893
 30
0.0
 10
10.8148260897
 20
5.8411492122
 30
0.0
 10
10.8156280713
 20
5.8419494012
 30
0.0
 10
10.816511257
 20
5.8428312998
 30
0.0
 10
10.8174747293
 20
5.8437941788
 30
0.0
 10
10.8185174998
 20
5.8448372619
 30
0.0
 10
10.8200637914
 20
5.84638558
 30
0.0
 10
10.82218664
 20
5.8485147539
 30
0.0
 10
10.824955397
 20
5.8512986509
 30
0.0
 10
10.8280125453
 20
5.8543810917
 30
0.0
 10
10.8313471813
 20
5.8577537986
 30
0.0
 10
10.8349479377
 20
5.8614082152
 30
0.0
 10
10.8388031308
 20
5.8653356264
 30
0.0
 10
10.8429008405
 20
5.869527297
 30
0.0
 10
10.8472290555
 20
5.8739745189
 30
0.0
 10
10.8534352527
 20
5.8803821026
 30
0.0
 10
10.8616830857
 20
5.8889654328
 30
0.0
 10
10.8720986846
 20
5.8999340628
 30
0.0
 10
10.8831569635
 20
5.9117378705
 30
0.0
 10
10.8947709265
 20
5.9243259265
 30
0.0
 10
10.9068573894
 20
5.9376542842
 30
0.0
 10
10.9193366297
 20
5.9516861948
 30
0.0
 10
10.9321316915
 20
5.9663921406
 30
0.0
 10
10.9451674177
 20
5.9817497639
 30
0.0
 10
10.9583692409
 20
5.9977437436
 30
0.0
 10
10.9716618197
 20
6.0143656651
 30
0.0
 10
10.9849671939
 20
6.0316138466
 30
0.0
 10
10.9959438399
 20
6.0464412056
 30
0.0
 10
11.0046528751
 20
6.0586284475
 30
0.0
 10
11.0111642695
 20
6.0679750832
 30
0.0
 10
11.0176107936
 20
6.0774865653
 30
0.0
 10
11.0239794461
 20
6.0871651923
 30
0.0
 10
11.0302555738
 20
6.0970141447
 30
0.0
 10
11.0385099546
 20
6.1104252945
 30
0.0
 10
11.0485104095
 20
6.1276284259
 30
0.0
 10
11.0598256508
 20
6.1489289553
 30
0.0
 10
11.0703289979
 20
6.1709822538
 30
0.0
 10
11.0798249239
 20
6.1937965901
 30
0.0
 10
11.0867005642
 20
6.2133891026
 30
0.0
 10
11.0914768394
 20
6.2294174534
 30
0.0
 10
11.0946723121
 20
6.2416330001
 30
0.0
 10
11.0974433168
 20
6.25399996
 30
0.0
 10
11.0997625673
 20
6.2665012
 30
0.0
 10
11.101605405
 20
6.2791158331
 30
0.0
 10
11.1029510111
 20
6.2918196002
 30
0.0
 10
11.1037835139
 20
6.3045853073
 30
0.0
 10
11.1040927939
 20
6.3173836196
 30
0.0
 10
11.1038750682
 20
6.3301840297
 30
0.0
 10
11.1031331232
 20
6.3429559445
 30
0.0
 10
11.1018761592
 20
6.3556697847
 30
0.0
 10
11.1001192461
 20
6.3682979822
 30
0.0
 10
11.097882535
 20
6.3808158075
 30
0.0
 10
11.095190176
 20
6.3932018416
 30
0.0
 10
11.0920691257
 20
6.405438405
 30
0.0
 10
11.0873860365
 20
6.4214965076
 30
0.0
 10
11.0806158519
 20
6.4411284469
 30
0.0
 10
11.0712297791
 20
6.4639908152
 30
0.0
 10
11.0608211256
 20
6.4860905644
 30
0.0
 10
11.0495875082
 20
6.5074346676
 30
0.0
 10
11.0396460023
 20
6.5246715059
 30
0.0
 10
11.0314341587
 20
6.5381077163
 30
0.0
 10
11.0251878014
 20
6.547974368
 30
0.0
 10
11.018847014
 20
6.5576697705
 30
0.0
 10
11.0124266312
 20
6.5671971304
 30
0.0
 10
11.0059398048
 20
6.5765587683
 30
0.0
 10
10.9972615571
 20
6.5887646768
 30
0.0
 10
10.9863201576
 20
6.6036133641
 30
0.0
 10
10.973052836
 20
6.6208844256
 30
0.0
 10
10.9597946894
 20
6.6375264781
 30
0.0
 10
10.9466242514
 20
6.6535380805
 30
0.0
 10
10.9336173217
 20
6.6689110384
 30
0.0
 10
10.920848832
 20
6.6836302282
 30
0.0
 10
10.9083942255
 20
6.6976734697
 30
0.0
 10
10.8963306759
 20
6.7110114063
 30
0.0
 10
10.8847380612
 20
6.7236074379
 30
0.0
 10
10.8736996652
 20
6.7354177589
 30
0.0
 10
10.86330253
 20
6.7463915787
 30
0.0
 10
10.8550691216
 20
6.7549784157
 30
0.0
 10
10.8488737663
 20
6.7613882622
 30
0.0
 10
10.8445531718
 20
6.7658368409
 30
0.0
 10
10.8404626901
 20
6.7700296464
 30
0.0
 10
10.8366143152
 20
6.7739579906
 30
0.0
 10
10.8330199492
 20
6.777613159
 30
0.0
 10
10.8296912551
 20
6.7809864576
 30
0.0
 10
10.826639578
 20
6.784069351
 30
0.0
 10
10.823875799
 20
6.7868535829
 30
0.0
 10
10.8217567765
 20
6.788982969
 30
0.0
 10
10.8202132826
 20
6.7905314139
 30
0.0
 10
10.8191724078
 20
6.7915745666
 30
0.0
 10
10.8182106909
 20
6.7925375005
 30
0.0
 10
10.8173291176
 20
6.7934194413
 30
0.0
 10
10.8165286027
 20
6.7942196619
 30
0.0
 10
10.8158100007
 20
6.7949375078
 30
0.0
 10
10.8151740768
 20
6.7955723716
 30
0.0
 10
10.8146961045
 20
6.7960492822
 30
0.0
 10
10.8143555832
 20
6.796388928
 30
0.0
 10
10.8141317692
 20
6.7966121216
 30
0.0
 10
10.8139290819
 20
6.7968142077
 30
0.0
 10
10.8137475731
 20
6.7969951454
 30
0.0
 10
10.8135872941
 20
6.7971548941
 30
0.0
 10
10.8134482954
 20
6.7972934136
 30
0.0
 10
10.813345784
 20
6.797395562
 30
0.0
 10
10.8132744473
 20
6.7974666417
 30
0.0
 10
10.8132289564
 20
6.7975119668
 30
0.0
 10
10.8131888095
 20
6.797551966
 30
0.0
 10
10.8131540081
 20
6.797586637
 30
0.0
 10
10.8131245558
 20
6.7976159799
 30
0.0
 10
10.813100451
 20
6.797639988
 30
0.0
 10
10.8130837146
 20
6.7976566707
 30
0.0
 10
10.8130729916
 20
6.797667335
 30
0.0
 10
10.8130669773
 20
6.7976733609
 30
0.0
 10
10.8130622503
 20
6.7976779781
 30
0.0
 10
10.8130589847
 20
6.7976814368
 30
0.0
 10
10.8130568257
 20
6.7976832252
 30
0.0
 10
10.8130560856
 20
6.7976843367
 30
0.0
 10
10.8130557989
 20
6.7976844682
 30
0.0
  0
SPLINE
  5
29B
100
AcDbEntity
  8
0
100
AcDbSpline
 62
9
  6
CONTINUOUS
 70
0
 71
3
 72
18
 73
14
 74
0
 42
0.0000001
 43
0.0000001
 44
0.0000000001
 40
0.0
 40
0.0
 40
0.0
 40
0.0
 40
0.1450291981
 40
0.2827100301
 40
0.4136640901
 40
0.5386614456
 40
0.6586294163
 40
0.717081773
 40
0.7746952141
 40
0.8316270627
 40
0.8880423689
 40
0.9441102107
 40
1.0
 40
1.0
 40
1.0
 40
1.0
 10
11.3489822944
 20
11.3377855902
 30
0.0
 10
11.3476926807
 20
11.3390888403
 30
0.0
 10
11.3452606251
 20
11.3417124916
 30
0.0
 10
11.3419974448
 20
11.3458055901
 30
0.0
 10
11.3392232342
 20
11.3499444859
 30
0.0
 10
11.3369438086
 20
11.3541224246
 30
0.0
 10
11.335447767
 20
11.357662706
 30
0.0
 10
11.3345127065
 20
11.3604976971
 30
0.0
 10
11.3339432579
 20
11.3626105244
 30
0.0
 10
11.3335000681
 20
11.3647270795
 30
0.0
 10
11.3331833235
 20
11.3668465269
 30
0.0
 10
11.3329932266
 20
11.3689677793
 30
0.0
 10
11.3329509393
 20
11.3703835069
 30
0.0
 10
11.3329509393
 20
11.3710900648
 30
0.0
  0
SPLINE
  5
29C
100
AcDbEntity
  8
0
100
AcDbSpline
 62
9
  6
CONTINUOUS
 70
0
 71
3
 72
41
 73
37
 74
0
 42
0.0000001
 43
0.0000001
 44
0.0000000001
 40
0.0
 40
0.0
 40
0.0
 40
0.0
 40
0.087661307
 40
0.1312605576
 40
0.1745810102
 40
0.2175312366
 40
0.2600209527
 40
0.3019614453
 40
0.34326586
 40
0.3838495437
 40
0.4236303854
 40
0.4625291774
 40
0.5004699954
 40
0.5373806067
 40
0.5731929136
 40
0.6078434426
 40
0.6412738946
 40
0.6734317732
 40
0.7042711167
 40
0.7337533647
 40
0.7618484004
 40
0.7885358241
 40
0.8138065231
 40
0.8376646216
 40
0.8601299028
 40
0.88124079
 40
0.901057938
 40
0.91966837
 40
0.9371898603
 40
0.9537748412
 40
0.9617778299
 40
0.9696207674
 40
0.9773327883
 40
0.9849448676
 40
0.9924894428
 40
1.0
 40
1.0
 40
1.0
 40
1.0
 10
11.6367008821
 20
12.4977348266
 30
0.0
 10
11.6285316366
 20
12.4977348266
 30
0.0
 10
11.6162979834
 20
12.4975302071
 30
0.0
 10
11.6000424983
 20
12.4968452704
 30
0.0
 10
11.5879603519
 20
12.4961290144
 30
0.0
 10
11.5759955992
 20
12.4952111048
 30
0.0
 10
11.5641769527
 20
12.4940937405
 30
0.0
 10
11.5525328774
 20
12.492779628
 30
0.0
 10
11.5410913855
 20
12.4912719426
 30
0.0
 10
11.5298800047
 20
12.4895743291
 30
0.0
 10
11.5189257008
 20
12.487690891
 30
0.0
 10
11.5082548138
 20
12.4856261804
 30
0.0
 10
11.4978929928
 20
12.4833851867
 30
0.0
 10
11.4878651317
 20
12.4809733241
 30
0.0
 10
11.4781953072
 20
12.4783964168
 30
0.0
 10
11.4689067177
 20
12.4756606837
 30
0.0
 10
11.4600216238
 20
12.4727727202
 30
0.0
 10
11.4515612901
 20
12.4697394786
 30
0.0
 10
11.443545929
 20
12.4665682444
 30
0.0
 10
11.4359946466
 20
12.4632666101
 30
0.0
 10
11.4289253911
 20
12.4598424419
 30
0.0
 10
11.4223549056
 20
12.4563038403
 30
0.0
 10
11.4162986879
 20
12.4526590913
 30
0.0
 10
11.4107709633
 20
12.4489166028
 30
0.0
 10
11.4057846815
 20
12.445084836
 30
0.0
 10
11.4013515438
 20
12.4411721963
 30
0.0
 10
11.3974821238
 20
12.4371870366
 30
0.0
 10
11.3941859622
 20
12.4331373375
 30
0.0
 10
11.3914721301
 20
12.429031771
 30
0.0
 10
11.3896816293
 20
12.4255285017
 30
0.0
 10
11.3885636729
 20
12.4227186955
 30
0.0
 10
11.3878847363
 20
12.4206292127
 30
0.0
 10
11.3873561316
 20
12.4185342643
 30
0.0
 10
11.3869782198
 20
12.4164350941
 30
0.0
 10
11.3867513566
 20
12.4143332272
 30
0.0
 10
11.3867008821
 20
12.4129297071
 30
0.0
 10
11.3867008821
 20
12.4122297907
 30
0.0
  0
SPLINE
  5
29D
100
AcDbEntity
  8
0
100
AcDbSpline
 62
9
  6
CONTINUOUS
 70
0
 71
3
 72
75
 73
71
 74
0
 42
0.0000001
 43
0.0000001
 44
0.0000000001
 40
0.0
 40
0.0
 40
0.0
 40
0.0
 40
0.0037551866
 40
0.0075275712
 40
0.0113336178
 40
0.0151896028
 40
0.0191110713
 40
0.0231125716
 40
0.0314050605
 40
0.0401658065
 40
0.0494710219
 40
0.0593795948
 40
0.0699350375
 40
0.0811676776
 40
0.0930967266
 40
0.1057320757
 40
0.1190757876
 40
0.133123306
 40
0.147864431
 40
0.1632841041
 40
0.1793630444
 40
0.196078271
 40
0.2134035358
 40
0.2313096892
 40
0.2497649946
 40
0.2687354034
 40
0.2881847992
 40
0.3080752201
 40
0.3283670622
 40
0.3490192703
 40
0.3699895176
 40
0.3912343775
 40
0.41270949
 40
0.4343697234
 40
0.4561693319
 40
0.5
 40
0.5438306681
 40
0.5656302766
 40
0.58729051
 40
0.6087656225
 40
0.6300104824
 40
0.6509807297
 40
0.6716329378
 40
0.6919247799
 40
0.7118152008
 40
0.7312645966
 40
0.7502350054
 40
0.7686903108
 40
0.7865964642
 40
0.803921729
 40
0.8206369556
 40
0.8367158959
 40
0.852135569
 40
0.866876694
 40
0.8809242124
 40
0.8942679243
 40
0.9069032734
 40
0.9188323224
 40
0.9300649625
 40
0.9406204052
 40
0.9505289781
 40
0.9598341935
 40
0.9685949395
 40
0.9768874284
 40
0.9808889287
 40
0.9848103972
 40
0.9886663822
 40
0.9924724288
 40
0.9962448134
 40
1.0
 40
1.0
 40
1.0
 40
1.0
 10
11.9067008817
 20
11.3597740555
 30
0.0
 10
11.9067008817
 20
11.3605299466
 30
0.0
 10
11.906646364
 20
11.362045749
 30
0.0
 10
11.9064013617
 20
11.3643157686
 30
0.0
 10
11.9059932164
 20
11.3665828887
 30
0.0
 10
11.9054223171
 20
11.3688454274
 30
0.0
 10
11.9046890702
 20
11.371102066
 30
0.0
 10
11.9034816773
 20
11.3741366577
 30
0.0
 10
11.9015479357
 20
11.3779201893
 30
0.0
 10
11.8986169982
 20
11.3823542016
 30
0.0
 10
11.8950571441
 20
11.3867278767
 30
0.0
 10
11.8908781716
 20
11.3910318494
 30
0.0
 10
11.8860903836
 20
11.3952575005
 30
0.0
 10
11.8807052001
 20
11.3993958089
 30
0.0
 10
11.874735258
 20
11.403437697
 30
0.0
 10
11.8681945433
 20
11.4073740262
 30
0.0
 10
11.861098419
 20
11.4111957161
 30
0.0
 10
11.8534636228
 20
11.414893818
 30
0.0
 10
11.8453082372
 20
11.418459583
 30
0.0
 10
11.8366516464
 20
11.4218845158
 30
0.0
 10
11.8275144854
 20
11.4251604168
 30
0.0
 10
11.8179185836
 20
11.4282794174
 30
0.0
 10
11.8078869069
 20
11.4312340094
 30
0.0
 10
11.7974434966
 20
11.4340170695
 30
0.0
 10
11.7866134068
 20
11.4366218815
 30
0.0
 10
11.7754226403
 20
11.4390421551
 30
0.0
 10
11.7638980826
 20
11.4412720431
 30
0.0
 10
11.7520674344
 20
11.4433061567
 30
0.0
 10
11.7399591429
 20
11.4451395797
 30
0.0
 10
11.7276023315
 20
11.4467678802
 30
0.0
 10
11.7150267289
 20
11.4481871217
 30
0.0
 10
11.7022625922
 20
11.4493938748
 30
0.0
 10
11.6893406502
 20
11.4503852172
 30
0.0
 10
11.6762919625
 20
11.4511587726
 30
0.0
 10
11.6587358951
 20
11.4518985048
 30
0.0
 10
11.6367008822
 20
11.4522670782
 30
0.0
 10
11.6146658692
 20
11.4518985048
 30
0.0
 10
11.5971098018
 20
11.4511587726
 30
0.0
 10
11.5840611141
 20
11.4503852172
 30
0.0
 10
11.5711391721
 20
11.4493938748
 30
0.0
 10
11.5583750354
 20
11.4481871217
 30
0.0
 10
11.5457994328
 20
11.4467678802
 30
0.0
 10
11.5334426214
 20
11.4451395797
 30
0.0
 10
11.5213343299
 20
11.4433061567
 30
0.0
 10
11.5095036817
 20
11.4412720431
 30
0.0
 10
11.497979124
 20
11.4390421551
 30
0.0
 10
11.4867883575
 20
11.4366218815
 30
0.0
 10
11.4759582678
 20
11.4340170695
 30
0.0
 10
11.4655148574
 20
11.4312340094
 30
0.0
 10
11.4554831807
 20
11.4282794174
 30
0.0
 10
11.4458872789
 20
11.4251604168
 30
0.0
 10
11.4367501179
 20
11.4218845158
 30
0.0
 10
11.4280935271
 20
11.418459583
 30
0.0
 10
11.4199381416
 20
11.414893818
 30
0.0
 10
11.4123033453
 20
11.4111957161
 30
0.0
 10
11.405207221
 20
11.4073740262
 30
0.0
 10
11.3986665063
 20
11.403437697
 30
0.0
 10
11.3926965642
 20
11.3993958089
 30
0.0
 10
11.3873113807
 20
11.3952575005
 30
0.0
 10
11.3825235927
 20
11.3910318494
 30
0.0
 10
11.3783446202
 20
11.3867278767
 30
0.0
 10
11.3747847661
 20
11.3823542016
 30
0.0
 10
11.3718538286
 20
11.3779201893
 30
0.0
 10
11.369920087
 20
11.3741366577
 30
0.0
 10
11.3687126941
 20
11.371102066
 30
0.0
 10
11.3679794472
 20
11.3688454274
 30
0.0
 10
11.3674085479
 20
11.3665828887
 30
0.0
 10
11.3670004026
 20
11.3643157686
 30
0.0
 10
11.3667554003
 20
11.362045749
 30
0.0
 10
11.3667008826
 20
11.3605299466
 30
0.0
 10
11.3667008826
 20
11.3597740555
 30
0.0
  0
SPLINE
  5
29E
100
AcDbEntity
  8
0
100
AcDbSpline
 62
9
  6
CONTINUOUS
 70
0
 71
3
 72
77
 73
73
 74
0
 42
0.0000001
 43
0.0000001
 44
0.0000000001
 40
0.0
 40
0.0
 40
0.0
 40
0.0
 40
0.0037551814
 40
0.0075275546
 40
0.0113335888
 40
0.0151895641
 40
0.0191110217
 40
0.0231125096
 40
0.0314049723
 40
0.0401656906
 40
0.0494708771
 40
0.0593794197
 40
0.0699348297
 40
0.0811674348
 40
0.0930964468
 40
0.1057317575
 40
0.1190754291
 40
0.1331229049
 40
0.1478639845
 40
0.1632836094
 40
0.179362499
 40
0.1960776727
 40
0.2134028825
 40
0.2313089791
 40
0.2497642264
 40
0.2687345758
 40
0.2881839113
 40
0.3080742708
 40
0.3283660502
 40
0.349018194
 40
0.3699883754
 40
0.3912331683
 40
0.4127082131
 40
0.4343683782
 40
0.456167918
 40
0.4780606283
 40
0.5
 40
0.5219393717
 40
0.543832082
 40
0.5656316218
 40
0.5872917869
 40
0.6087668317
 40
0.6300116246
 40
0.650981806
 40
0.6716339498
 40
0.6919257292
 40
0.7118160887
 40
0.7312654242
 40
0.7502357736
 40
0.7686910209
 40
0.7865971175
 40
0.8039223273
 40
0.820637501
 40
0.8367163906
 40
0.8521360155
 40
0.8668770951
 40
0.8809245709
 40
0.8942682425
 40
0.9069035532
 40
0.9188325652
 40
0.9300651703
 40
0.9406205803
 40
0.9505291229
 40
0.9598343094
 40
0.9685950277
 40
0.9768874904
 40
0.9808889783
 40
0.9848104359
 40
0.9886664112
 40
0.9924724454
 40
0.9962448186
 40
1.0
 40
1.0
 40
1.0
 40
1.0
 10
11.9220200297
 20
11.3611652019
 30
0.0
 10
11.9220200297
 20
11.3619639819
 30
0.0
 10
11.9219624191
 20
11.3635657886
 30
0.0
 10
11.9217035149
 20
11.3659646049
 30
0.0
 10
11.9212722125
 20
11.3683603564
 30
0.0
 10
11.9206689204
 20
11.3707512664
 30
0.0
 10
11.9198940718
 20
11.3731359424
 30
0.0
 10
11.918618172
 20
11.3763427087
 30
0.0
 10
11.916574715
 20
11.3803409086
 30
0.0
 10
11.9134774827
 20
11.3850264956
 30
0.0
 10
11.9097156509
 20
11.3896483223
 30
0.0
 10
11.9052995733
 20
11.3941964919
 30
0.0
 10
11.9002401377
 20
11.3986618962
 30
0.0
 10
11.8945494117
 20
11.4030350021
 30
0.0
 10
11.8882407492
 20
11.4073062168
 30
0.0
 10
11.8813289294
 20
11.4114658834
 30
0.0
 10
11.8738301871
 20
11.4155044063
 30
0.0
 10
11.8657622102
 20
11.419412329
 30
0.0
 10
11.8571441073
 20
11.4231804066
 30
0.0
 10
11.8479963627
 20
11.4267996616
 30
0.0
 10
11.8383407816
 20
11.4302614292
 30
0.0
 10
11.8282004322
 20
11.4335573944
 30
0.0
 10
11.8175995832
 20
11.4366796229
 30
0.0
 10
11.8065636398
 20
11.4396205872
 30
0.0
 10
11.7951190774
 20
11.44237319
 30
0.0
 10
11.7832933741
 20
11.444930784
 30
0.0
 10
11.7711149408
 20
11.44728719
 30
0.0
 10
11.7586130499
 20
11.4494367137
 30
0.0
 10
11.7458177631
 20
11.45137416
 30
0.0
 10
11.7327598562
 20
11.4530948457
 30
0.0
 10
11.7194707442
 20
11.4545946115
 30
0.0
 10
11.7059824037
 20
11.455869832
 30
0.0
 10
11.6923272955
 20
11.4569174245
 30
0.0
 10
11.6785382848
 20
11.4577348567
 30
0.0
 10
11.664648562
 20
11.4583201524
 30
0.0
 10
11.6506915619
 20
11.4586718969
 30
0.0
 10
11.6367008822
 20
11.4587892396
 30
0.0
 10
11.6227102024
 20
11.4586718969
 30
0.0
 10
11.6087532023
 20
11.4583201524
 30
0.0
 10
11.5948634795
 20
11.4577348567
 30
0.0
 10
11.5810744688
 20
11.4569174245
 30
0.0
 10
11.5674193606
 20
11.455869832
 30
0.0
 10
11.5539310201
 20
11.4545946115
 30
0.0
 10
11.5406419081
 20
11.4530948457
 30
0.0
 10
11.5275840012
 20
11.45137416
 30
0.0
 10
11.5147887144
 20
11.4494367137
 30
0.0
 10
11.5022868235
 20
11.44728719
 30
0.0
 10
11.4901083902
 20
11.444930784
 30
0.0
 10
11.4782826869
 20
11.44237319
 30
0.0
 10
11.4668381246
 20
11.4396205872
 30
0.0
 10
11.4558021811
 20
11.4366796229
 30
0.0
 10
11.4452013321
 20
11.4335573944
 30
0.0
 10
11.4350609827
 20
11.4302614292
 30
0.0
 10
11.4254054016
 20
11.4267996616
 30
0.0
 10
11.416257657
 20
11.4231804066
 30
0.0
 10
11.4076395541
 20
11.419412329
 30
0.0
 10
11.3995715772
 20
11.4155044063
 30
0.0
 10
11.3920728349
 20
11.4114658834
 30
0.0
 10
11.3851610151
 20
11.4073062168
 30
0.0
 10
11.3788523526
 20
11.4030350021
 30
0.0
 10
11.3731616266
 20
11.3986618962
 30
0.0
 10
11.368102191
 20
11.3941964919
 30
0.0
 10
11.3636861134
 20
11.3896483223
 30
0.0
 10
11.3599242816
 20
11.3850264956
 30
0.0
 10
11.3568270493
 20
11.3803409086
 30
0.0
 10
11.3547835923
 20
11.3763427087
 30
0.0
 10
11.3535076925
 20
11.3731359424
 30
0.0
 10
11.3527328439
 20
11.3707512664
 30
0.0
 10
11.3521295518
 20
11.3683603564
 30
0.0
 10
11.3516982494
 20
11.3659646049
 30
0.0
 10
11.3514393452
 20
11.3635657886
 30
0.0
 10
11.3513817346
 20
11.3619639819
 30
0.0
 10
11.3513817346
 20
11.3611652019
 30
0.0
  0
SPLINE
  5
29F
100
AcDbEntity
  8
0
100
AcDbSpline
 62
9
  6
CONTINUOUS
 70
0
 71
3
 72
77
 73
73
 74
0
 42
0.0000001
 43
0.0000001
 44
0.0000000001
 40
0.0
 40
0.0
 40
0.0
 40
0.0
 40
0.0037551814
 40
0.0075275546
 40
0.0113335888
 40
0.0151895641
 40
0.0191110217
 40
0.0231125096
 40
0.0314049723
 40
0.0401656906
 40
0.0494708771
 40
0.0593794197
 40
0.0699348297
 40
0.0811674348
 40
0.0930964468
 40
0.1057317575
 40
0.1190754291
 40
0.1331229049
 40
0.1478639845
 40
0.1632836094
 40
0.179362499
 40
0.1960776727
 40
0.2134028825
 40
0.2313089791
 40
0.2497642264
 40
0.2687345758
 40
0.2881839113
 40
0.3080742708
 40
0.3283660502
 40
0.349018194
 40
0.3699883754
 40
0.3912331683
 40
0.4127082131
 40
0.4343683782
 40
0.456167918
 40
0.4780606283
 40
0.5
 40
0.5219393717
 40
0.543832082
 40
0.5656316218
 40
0.5872917869
 40
0.6087668317
 40
0.6300116246
 40
0.650981806
 40
0.6716339498
 40
0.6919257292
 40
0.7118160887
 40
0.7312654242
 40
0.7502357736
 40
0.7686910209
 40
0.7865971175
 40
0.8039223273
 40
0.820637501
 40
0.8367163906
 40
0.8521360155
 40
0.8668770951
 40
0.8809245709
 40
0.8942682425
 40
0.9069035532
 40
0.9188325652
 40
0.9300651703
 40
0.9406205803
 40
0.9505291229
 40
0.9598343094
 40
0.9685950277
 40
0.9768874904
 40
0.9808889783
 40
0.9848104359
 40
0.9886664112
 40
0.9924724454
 40
0.9962448186
 40
1.0
 40
1.0
 40
1.0
 40
1.0
 10
11.9201282709
 20
11.5147385336
 30
0.0
 10
11.9201282709
 20
11.5155320174
 30
0.0
 10
11.9200710423
 20
11.5171232037
 30
0.0
 10
11.9198138547
 20
11.519506115
 30
0.0
 10
11.919385412
 20
11.5218859819
 30
0.0
 10
11.9187861199
 20
11.5242610394
 30
0.0
 10
11.9180164088
 20
11.5266299041
 30
0.0
 10
11.9167489686
 20
11.5298154086
 30
0.0
 10
11.9147190604
 20
11.5337870991
 30
0.0
 10
11.9116423637
 20
11.5384416191
 30
0.0
 10
11.9079054742
 20
11.5430328016
 30
0.0
 10
11.9035186766
 20
11.5475508154
 30
0.0
 10
11.8984927867
 20
11.5519866126
 30
0.0
 10
11.8928397921
 20
11.5563307234
 30
0.0
 10
11.8865729581
 20
11.5605736186
 30
0.0
 10
11.8797069659
 20
11.5647057052
 30
0.0
 10
11.8722579427
 20
11.5687174514
 30
0.0
 10
11.864243459
 20
11.5725994633
 30
0.0
 10
11.855682497
 20
11.5763425573
 30
0.0
 10
11.8465954049
 20
11.5799378155
 30
0.0
 10
11.8370038435
 20
11.5833766304
 30
0.0
 10
11.8269307279
 20
11.5866507423
 30
0.0
 10
11.8164001659
 20
11.5897522694
 30
0.0
 10
11.8054373944
 20
11.5926737342
 30
0.0
 10
11.7940687132
 20
11.5954080863
 30
0.0
 10
11.7823214182
 20
11.5979487226
 30
0.0
 10
11.7702237318
 20
11.6002895049
 30
0.0
 10
11.7578047326
 20
11.6024247766
 30
0.0
 10
11.7450942826
 20
11.6043493769
 30
0.0
 10
11.732122954
 20
11.6060586539
 30
0.0
 10
11.7189219531
 20
11.6075484758
 30
0.0
 10
11.7055230447
 20
11.6088152412
 30
0.0
 10
11.6919584742
 20
11.6098558878
 30
0.0
 10
11.6782608892
 20
11.6106679002
 30
0.0
 10
11.6644632598
 20
11.6112493152
 30
0.0
 10
11.6505987991
 20
11.6115987274
 30
0.0
 10
11.6367008822
 20
11.6117152922
 30
0.0
 10
11.6228029652
 20
11.6115987274
 30
0.0
 10
11.6089385045
 20
11.6112493152
 30
0.0
 10
11.5951408751
 20
11.6106679002
 30
0.0
 10
11.5814432901
 20
11.6098558878
 30
0.0
 10
11.5678787196
 20
11.6088152412
 30
0.0
 10
11.5544798112
 20
11.6075484758
 30
0.0
 10
11.5412788104
 20
11.6060586539
 30
0.0
 10
11.5283074817
 20
11.6043493769
 30
0.0
 10
11.5155970317
 20
11.6024247766
 30
0.0
 10
11.5031780325
 20
11.6002895049
 30
0.0
 10
11.4910803461
 20
11.5979487226
 30
0.0
 10
11.4793330511
 20
11.5954080863
 30
0.0
 10
11.4679643699
 20
11.5926737342
 30
0.0
 10
11.4570015984
 20
11.5897522694
 30
0.0
 10
11.4464710364
 20
11.5866507423
 30
0.0
 10
11.4363979208
 20
11.5833766304
 30
0.0
 10
11.4268063594
 20
11.5799378155
 30
0.0
 10
11.4177192673
 20
11.5763425573
 30
0.0
 10
11.4091583053
 20
11.5725994633
 30
0.0
 10
11.4011438216
 20
11.5687174514
 30
0.0
 10
11.3936947984
 20
11.5647057052
 30
0.0
 10
11.3868288062
 20
11.5605736186
 30
0.0
 10
11.3805619723
 20
11.5563307234
 30
0.0
 10
11.3749089776
 20
11.5519866126
 30
0.0
 10
11.3698830877
 20
11.5475508154
 30
0.0
 10
11.3654962901
 20
11.5430328016
 30
0.0
 10
11.3617594006
 20
11.5384416191
 30
0.0
 10
11.3586827039
 20
11.5337870991
 30
0.0
 10
11.3566527957
 20
11.5298154086
 30
0.0
 10
11.3553853555
 20
11.5266299041
 30
0.0
 10
11.3546156444
 20
11.5242610394
 30
0.0
 10
11.3540163523
 20
11.5218859819
 30
0.0
 10
11.3535879096
 20
11.519506115
 30
0.0
 10
11.353330722
 20
11.5171232037
 30
0.0
 10
11.3532734934
 20
11.5155320174
 30
0.0
 10
11.3532734934
 20
11.5147385336
 30
0.0
  0
SPLINE
  5
2A0
100
AcDbEntity
  8
0
100
AcDbSpline
 62
9
  6
CONTINUOUS
 70
0
 71
3
 72
16
 73
12
 74
0
 42
0.0000001
 43
0.0000001
 44
0.0000000001
 40
0.0
 40
0.0
 40
0.0
 40
0.0
 40
0.1406598864
 40
0.2087713001
 40
0.2754857657
 40
0.405001246
 40
0.5298978079
 40
0.6509443035
 40
0.7690030428
 40
0.8850211525
 40
1.0
 40
1.0
 40
1.0
 40
1.0
 10
11.31884034
 20
11.6567447927
 30
0.0
 10
11.3178150802
 20
11.6579751623
 30
0.0
 10
11.316350385
 20
11.6598504108
 30
0.0
 10
11.3145542261
 20
11.6624225748
 30
0.0
 10
11.3129227321
 20
11.6649524987
 30
0.0
 10
11.311117255
 20
11.668136741
 30
0.0
 10
11.3093216742
 20
11.6720220342
 30
0.0
 10
11.3079214921
 20
11.6759290107
 30
0.0
 10
11.306919287
 20
11.6798528008
 30
0.0
 10
11.3063171054
 20
11.683787601
 30
0.0
 10
11.3061829756
 20
11.686419651
 30
0.0
 10
11.3061829756
 20
11.6877287984
 30
0.0
  0
SPLINE
  5
2A1
100
AcDbEntity
  8
0
100
AcDbSpline
 62
9
  6
CONTINUOUS
 70
0
 71
3
 72
16
 73
12
 74
0
 42
0.0000001
 43
0.0000001
 44
0.0000000001
 40
0.0
 40
0.0
 40
0.0
 40
0.0
 40
0.1424323175
 40
0.2112002229
 40
0.2784210986
 40
0.4085132652
 40
0.5334476952
 40
0.6540608955
 40
0.7713060723
 40
0.8862416774
 40
1.0
 40
1.0
 40
1.0
 40
1.0
 10
11.3187964863
 20
11.6566565559
 30
0.0
 10
11.3176175622
 20
11.6579721805
 30
0.0
 10
11.315931226
 20
11.6599802741
 30
0.0
 10
11.3138587034
 20
11.6627431955
 30
0.0
 10
11.3119795756
 20
11.6654569105
 30
0.0
 10
11.3098989419
 20
11.6688751181
 30
0.0
 10
11.3078264613
 20
11.6730546717
 30
0.0
 10
11.3062095901
 20
11.677261272
 30
0.0
 10
11.3050518182
 20
11.6814889798
 30
0.0
 10
11.3043559374
 20
11.6857306133
 30
0.0
 10
11.304200882
 20
11.6885694298
 30
0.0
 10
11.304200882
 20
11.6899803509
 30
0.0
  0
SPLINE
  5
2A2
100
AcDbEntity
  8
0
100
AcDbSpline
 62
9
  6
CONTINUOUS
 70
0
 71
3
 72
79
 73
75
 74
0
 42
0.0000001
 43
0.0000001
 44
0.0000000001
 40
0.0
 40
0.0
 40
0.0
 40
0.0
 40
0.0037553296
 40
0.0075274849
 40
0.0113334841
 40
0.0151894715
 40
0.0191108966
 40
0.0231123493
 40
0.0272073594
 40
0.031408338
 40
0.0401689923
 40
0.0494741115
 40
0.0593825824
 40
0.0699379169
 40
0.0811704427
 40
0.0930993707
 40
0.1057345916
 40
0.1190781671
 40
0.1331255408
 40
0.1478665129
 40
0.1632860255
 40
0.1793647991
 40
0.1960798534
 40
0.2134049402
 40
0.2313109096
 40
0.2497660252
 40
0.2687362384
 40
0.2881854335
 40
0.3080756491
 40
0.3283672821
 40
0.3490192775
 40
0.3699893086
 40
0.3912339492
 40
0.41270884
 40
0.4343688496
 40
0.4561682329
 40
0.4780607859
 40
0.5
 40
0.5219392141
 40
0.5438317671
 40
0.5656311504
 40
0.58729116
 40
0.6087660508
 40
0.6300106914
 40
0.6509807225
 40
0.6716327179
 40
0.6919243509
 40
0.7118145665
 40
0.7312637616
 40
0.7502339748
 40
0.7686890904
 40
0.7865950598
 40
0.8039201466
 40
0.8206352009
 40
0.8367139745
 40
0.8521334871
 40
0.8668744592
 40
0.8809218329
 40
0.8942654084
 40
0.9069006293
 40
0.9188295573
 40
0.9300620831
 40
0.9406174176
 40
0.9505258885
 40
0.9598310077
 40
0.968591662
 40
0.9727926406
 40
0.9768876507
 40
0.9808891034
 40
0.9848105285
 40
0.9886665159
 40
0.9924725151
 40
0.9962446704
 40
1.0
 40
1.0
 40
1.0
 40
1.0
 10
11.9600674197
 20
11.6793205475
 30
0.0
 10
11.9600675478
 20
11.6802258873
 30
0.0
 10
11.960002272
 20
11.6820413024
 30
0.0
 10
11.9597086292
 20
11.6847599705
 30
0.0
 10
11.9592198614
 20
11.6874751582
 30
0.0
 10
11.9585361529
 20
11.6901849282
 30
0.0
 10
11.9576579936
 20
11.6928875571
 30
0.0
 10
11.9565861334
 20
11.6955813438
 30
0.0
 10
11.9553213381
 20
11.6982647317
 30
0.0
 10
11.9533515842
 20
11.701876573
 30
0.0
 10
11.9503855433
 20
11.7063641437
 30
0.0
 10
11.9461223029
 20
11.7116017855
 30
0.0
 10
11.9411172724
 20
11.7167566041
 30
0.0
 10
11.9353831793
 20
11.7218174276
 30
0.0
 10
11.9289335861
 20
11.7267737008
 30
0.0
 10
11.9217836618
 20
11.731614479
 30
0.0
 10
11.9139501475
 20
11.7363288391
 30
0.0
 10
11.9054514462
 20
11.7409059
 30
0.0
 10
11.8963076031
 20
11.7453349457
 30
0.0
 10
11.8865402752
 20
11.7496054981
 30
0.0
 10
11.8761726773
 20
11.7537073823
 30
0.0
 10
11.8652295222
 20
11.7576307779
 30
0.0
 10
11.8537369538
 20
11.7613662606
 30
0.0
 10
11.8417224775
 20
11.7649048386
 30
0.0
 10
11.8292148867
 20
11.7682379809
 30
0.0
 10
11.8162441881
 20
11.7713576436
 30
0.0
 10
11.8028415238
 20
11.7742562934
 30
0.0
 10
11.7890390933
 20
11.7769269272
 30
0.0
 10
11.7748700725
 20
11.7793630912
 30
0.0
 10
11.760368531
 20
11.781558897
 30
0.0
 10
11.7455693486
 20
11.7835090367
 30
0.0
 10
11.7305081295
 20
11.7852087965
 30
0.0
 10
11.7152211148
 20
11.7866540677
 30
0.0
 10
11.6997450937
 20
11.7878413567
 30
0.0
 10
11.6841173144
 20
11.7887677936
 30
0.0
 10
11.6683753931
 20
11.7894311387
 30
0.0
 10
11.652557223
 20
11.7898297884
 30
0.0
 10
11.6367008822
 20
11.789962779
 30
0.0
 10
11.6208445413
 20
11.7898297884
 30
0.0
 10
11.6050263712
 20
11.7894311387
 30
0.0
 10
11.5892844499
 20
11.7887677936
 30
0.0
 10
11.5736566706
 20
11.7878413567
 30
0.0
 10
11.5581806495
 20
11.7866540677
 30
0.0
 10
11.5428936348
 20
11.7852087965
 30
0.0
 10
11.5278324157
 20
11.7835090367
 30
0.0
 10
11.5130332333
 20
11.781558897
 30
0.0
 10
11.4985316918
 20
11.7793630912
 30
0.0
 10
11.484362671
 20
11.7769269272
 30
0.0
 10
11.4705602405
 20
11.7742562934
 30
0.0
 10
11.4571575763
 20
11.7713576436
 30
0.0
 10
11.4441868776
 20
11.7682379809
 30
0.0
 10
11.4316792868
 20
11.7649048386
 30
0.0
 10
11.4196648105
 20
11.7613662606
 30
0.0
 10
11.4081722421
 20
11.7576307779
 30
0.0
 10
11.397229087
 20
11.7537073823
 30
0.0
 10
11.3868614891
 20
11.7496054981
 30
0.0
 10
11.3770941612
 20
11.7453349457
 30
0.0
 10
11.3679503181
 20
11.7409059
 30
0.0
 10
11.3594516168
 20
11.7363288391
 30
0.0
 10
11.3516181025
 20
11.731614479
 30
0.0
 10
11.3444681783
 20
11.7267737008
 30
0.0
 10
11.338018585
 20
11.7218174276
 30
0.0
 10
11.3322844919
 20
11.7167566041
 30
0.0
 10
11.3272794614
 20
11.7116017855
 30
0.0
 10
11.323016221
 20
11.7063641437
 30
0.0
 10
11.3200501802
 20
11.701876573
 30
0.0
 10
11.3180804262
 20
11.6982647317
 30
0.0
 10
11.3168156309
 20
11.6955813438
 30
0.0
 10
11.3157437707
 20
11.6928875571
 30
0.0
 10
11.3148656114
 20
11.6901849282
 30
0.0
 10
11.3141819029
 20
11.6874751582
 30
0.0
 10
11.3136931351
 20
11.6847599705
 30
0.0
 10
11.3133994923
 20
11.6820413024
 30
0.0
 10
11.3133342165
 20
11.6802258873
 30
0.0
 10
11.3133343447
 20
11.6793205475
 30
0.0
  0
SPLINE
  5
2A3
100
AcDbEntity
  8
0
100
AcDbSpline
 62
9
  6
CONTINUOUS
 70
0
 71
3
 72
91
 73
87
 74
0
 42
0.0000001
 43
0.0000001
 44
0.0000000001
 40
0.0
 40
0.0
 40
0.0
 40
0.0
 40
0.0037550881
 40
0.0075273516
 40
0.0113332765
 40
0.0151891503
 40
0.0191105023
 40
0.0231118805
 40
0.0272068066
 40
0.0314077002
 40
0.0401681793
 40
0.0447498489
 40
0.049475648
 40
0.0543524135
 40
0.0593860207
 40
0.0645814587
 40
0.069942881
 40
0.0754737019
 40
0.0811766233
 40
0.087053731
 40
0.0931065159
 40
0.0993359447
 40
0.1057424964
 40
0.1190858044
 40
0.1331328965
 40
0.147873573
 40
0.1632927765
 40
0.1793712277
 40
0.1960859469
 40
0.2134106863
 40
0.2313162967
 40
0.2497710423
 40
0.2687408751
 40
0.2881896803
 40
0.3080794971
 40
0.3283707232
 40
0.3490223046
 40
0.3699919153
 40
0.3912361299
 40
0.4127105901
 40
0.4343701655
 40
0.4561691117
 40
0.4780612258
 40
0.5
 40
0.5219387742
 40
0.5438308883
 40
0.5656298345
 40
0.5872894099
 40
0.6087638701
 40
0.6300080847
 40
0.6509776954
 40
0.6716292768
 40
0.6919205029
 40
0.7118103197
 40
0.7312591249
 40
0.7502289577
 40
0.7686837033
 40
0.7865893137
 40
0.8039140531
 40
0.8206287723
 40
0.8367072235
 40
0.852126427
 40
0.8668671035
 40
0.8809141956
 40
0.8942575036
 40
0.9006640553
 40
0.9068934841
 40
0.912946269
 40
0.9188233767
 40
0.9245262981
 40
0.930057119
 40
0.9354185413
 40
0.9406139793
 40
0.9456475865
 40
0.950524352
 40
0.9552501511
 40
0.9598318207
 40
0.9685922998
 40
0.9727931934
 40
0.9768881195
 40
0.9808894977
 40
0.9848108497
 40
0.9886667235
 40
0.9924726484
 40
0.9962449119
 40
1.0
 40
1.0
 40
1.0
 40
1.0
 10
11.9672187887
 20
11.6877287984
 30
0.0
 10
11.9672187887
 20
11.6886541192
 30
0.0
 10
11.9671520534
 20
11.6905096761
 30
0.0
 10
11.966852132
 20
11.6932884999
 30
0.0
 10
11.9663525087
 20
11.6960637686
 30
0.0
 10
11.9656536359
 20
11.6988334454
 30
0.0
 10
11.9647560755
 20
11.7015958447
 30
0.0
 10
11.9636605197
 20
11.7043492065
 30
0.0
 10
11.9623677366
 20
11.7070919539
 30
0.0
 10
11.9603544751
 20
11.7107835802
 30
0.0
 10
11.957965578
 20
11.7143980033
 30
0.0
 10
11.9552446302
 20
11.7179233958
 30
0.0
 10
11.9529814689
 20
11.7205887648
 30
0.0
 10
11.9505281444
 20
11.7232338333
 30
0.0
 10
11.9478860191
 20
11.7258572689
 30
0.0
 10
11.9450567204
 20
11.7284574838
 30
0.0
 10
11.9420419515
 20
11.7310329922
 30
0.0
 10
11.9388435106
 20
11.7335822636
 30
0.0
 10
11.9354633247
 20
11.736103818
 30
0.0
 10
11.9319034059
 20
11.7385961531
 30
0.0
 10
11.9281658927
 20
11.7410577972
 30
0.0
 10
11.9242530069
 20
11.7434873088
 30
0.0
 10
11.9187301236
 20
11.746725766
 30
0.0
 10
11.9113948714
 20
11.7506761617
 30
0.0
 10
11.9020489268
 20
11.7552031206
 30
0.0
 10
11.8920655569
 20
11.7595681284
 30
0.0
 10
11.8814686856
 20
11.7637607242
 30
0.0
 10
11.8702835158
 20
11.767770888
 30
0.0
 10
11.8585367858
 20
11.7715889821
 30
0.0
 10
11.8462566047
 20
11.7752058171
 30
0.0
 10
11.8334724041
 20
11.778612673
 30
0.0
 10
11.8202148537
 20
11.7818013282
 30
0.0
 10
11.8065157846
 20
11.7847640827
 30
0.0
 10
11.7924081084
 20
11.7874937785
 30
0.0
 10
11.7779257345
 20
11.7899838192
 30
0.0
 10
11.7631034861
 20
11.7922281861
 30
0.0
 10
11.7479770144
 20
11.7942214538
 30
0.0
 10
11.732582711
 20
11.7959588044
 30
0.0
 10
11.7169576183
 20
11.7974360383
 30
0.0
 10
11.7011393394
 20
11.7986495847
 30
0.0
 10
11.6851659461
 20
11.79959651
 30
0.0
 10
11.6690758865
 20
11.8002745252
 30
0.0
 10
11.6529078918
 20
11.8006819913
 30
0.0
 10
11.6367008822
 20
11.8008179229
 30
0.0
 10
11.6204938725
 20
11.8006819913
 30
0.0
 10
11.6043258778
 20
11.8002745252
 30
0.0
 10
11.5882358182
 20
11.79959651
 30
0.0
 10
11.5722624249
 20
11.7986495847
 30
0.0
 10
11.556444146
 20
11.7974360383
 30
0.0
 10
11.5408190533
 20
11.7959588044
 30
0.0
 10
11.5254247499
 20
11.7942214538
 30
0.0
 10
11.5102982782
 20
11.7922281861
 30
0.0
 10
11.4954760298
 20
11.7899838192
 30
0.0
 10
11.4809936559
 20
11.7874937785
 30
0.0
 10
11.4668859797
 20
11.7847640827
 30
0.0
 10
11.4531869106
 20
11.7818013282
 30
0.0
 10
11.4399293602
 20
11.778612673
 30
0.0
 10
11.4271451596
 20
11.7752058171
 30
0.0
 10
11.4148649785
 20
11.7715889821
 30
0.0
 10
11.4031182485
 20
11.767770888
 30
0.0
 10
11.3919330787
 20
11.7637607242
 30
0.0
 10
11.3813362074
 20
11.7595681284
 30
0.0
 10
11.3713528375
 20
11.7552031206
 30
0.0
 10
11.3620068929
 20
11.7506761617
 30
0.0
 10
11.3546716408
 20
11.746725766
 30
0.0
 10
11.3491487574
 20
11.7434873088
 30
0.0
 10
11.3452358716
 20
11.7410577972
 30
0.0
 10
11.3414983584
 20
11.7385961531
 30
0.0
 10
11.3379384396
 20
11.736103818
 30
0.0
 10
11.3345582537
 20
11.7335822636
 30
0.0
 10
11.3313598129
 20
11.7310329922
 30
0.0
 10
11.3283450439
 20
11.7284574838
 30
0.0
 10
11.3255157452
 20
11.7258572689
 30
0.0
 10
11.3228736199
 20
11.7232338333
 30
0.0
 10
11.3204202954
 20
11.7205887648
 30
0.0
 10
11.3181571341
 20
11.7179233958
 30
0.0
 10
11.3154361863
 20
11.7143980033
 30
0.0
 10
11.3130472892
 20
11.7107835802
 30
0.0
 10
11.3110340277
 20
11.7070919539
 30
0.0
 10
11.3097412446
 20
11.7043492065
 30
0.0
 10
11.3086456888
 20
11.7015958447
 30
0.0
 10
11.3077481284
 20
11.6988334454
 30
0.0
 10
11.3070492556
 20
11.6960637686
 30
0.0
 10
11.3065496323
 20
11.6932884999
 30
0.0
 10
11.3062497109
 20
11.6905096761
 30
0.0
 10
11.3061829756
 20
11.6886541192
 30
0.0
 10
11.3061829756
 20
11.6877287984
 30
0.0
  0
SPLINE
  5
2A4
100
AcDbEntity
  8
0
100
AcDbSpline
 62
9
  6
CONTINUOUS
 70
0
 71
3
 72
89
 73
85
 74
0
 42
0.0000001
 43
0.0000001
 44
0.0000000001
 40
0.0
 40
0.0
 40
0.0
 40
0.0
 40
0.0037550998
 40
0.0075273675
 40
0.0113332977
 40
0.0151891811
 40
0.0191105414
 40
0.0231119274
 40
0.0272068615
 40
0.0314077638
 40
0.0401682603
 40
0.0447499402
 40
0.0494757476
 40
0.0543525241
 40
0.0593861406
 40
0.0645815896
 40
0.0699430233
 40
0.0754738541
 40
0.0811767889
 40
0.0870539063
 40
0.0931067055
 40
0.1057416979
 40
0.119085032
 40
0.1331321518
 40
0.1478728583
 40
0.1632920943
 40
0.1793705795
 40
0.1960853329
 40
0.2134101067
 40
0.2313157522
 40
0.2497705341
 40
0.2687404051
 40
0.2881892504
 40
0.3080791088
 40
0.3283703767
 40
0.3490219998
 40
0.3699916522
 40
0.3912359092
 40
0.4127104126
 40
0.4343700321
 40
0.4561690228
 40
0.4780611814
 40
0.5
 40
0.5219388186
 40
0.5438309772
 40
0.5656299679
 40
0.5872895874
 40
0.6087640908
 40
0.6300083478
 40
0.6509780002
 40
0.6716296233
 40
0.6919208912
 40
0.7118107496
 40
0.7312595949
 40
0.7502294659
 40
0.7686842478
 40
0.7865898933
 40
0.8039146671
 40
0.8206294205
 40
0.8367079057
 40
0.8521271417
 40
0.8668678482
 40
0.880914968
 40
0.8942583021
 40
0.9068932945
 40
0.9129460937
 40
0.9188232111
 40
0.9245261459
 40
0.9300569767
 40
0.9354184104
 40
0.9406138594
 40
0.9456474759
 40
0.9505242524
 40
0.9552500598
 40
0.9598317397
 40
0.9685922362
 40
0.9727931385
 40
0.9768880726
 40
0.9808894586
 40
0.9848108189
 40
0.9886667023
 40
0.9924726325
 40
0.9962449002
 40
1.0
 40
1.0
 40
1.0
 40
1.0
 10
11.9692008823
 20
11.6899803509
 30
0.0
 10
11.9692008823
 20
11.6909112217
 30
0.0
 10
11.9691337474
 20
11.6927779065
 30
0.0
 10
11.9688320262
 20
11.6955733942
 30
0.0
 10
11.9683294075
 20
11.698365305
 30
0.0
 10
11.9676263429
 20
11.7011515911
 30
0.0
 10
11.9667234013
 20
11.7039305573
 30
0.0
 10
11.965621274
 20
11.7067004302
 30
0.0
 10
11.9643207389
 20
11.7094596259
 30
0.0
 10
11.962295404
 20
11.7131733904
 30
0.0
 10
11.959892182
 20
11.7168094902
 30
0.0
 10
11.9571549145
 20
11.7203560221
 30
0.0
 10
11.9548781835
 20
11.7230373774
 30
0.0
 10
11.9524101445
 20
11.725698306
 30
0.0
 10
11.949752176
 20
11.7283374758
 30
0.0
 10
11.9469059096
 20
11.7309532835
 30
0.0
 10
11.9438730607
 20
11.7335442359
 30
0.0
 10
11.9406554401
 20
11.7361087985
 30
0.0
 10
11.9372549833
 20
11.7386454668
 30
0.0
 10
11.9336737108
 20
11.741152769
 30
0.0
 10
11.9285875391
 20
11.7445026122
 30
0.0
 10
11.9217809236
 20
11.7485988783
 30
0.0
 10
11.9130423165
 20
11.7533051647
 30
0.0
 10
11.9036401669
 20
11.7578593243
 30
0.0
 10
11.8935969729
 20
11.7622504937
 30
0.0
 10
11.8829365387
 20
11.766468236
 30
0.0
 10
11.871684295
 20
11.7705024465
 30
0.0
 10
11.8598671193
 20
11.7743434378
 30
0.0
 10
11.8475132956
 20
11.7779819629
 30
0.0
 10
11.8346524298
 20
11.78140925
 30
0.0
 10
11.8213153755
 20
11.7846170279
 30
0.0
 10
11.8075341543
 20
11.7875975501
 30
0.0
 10
11.7933418747
 20
11.7903436153
 30
0.0
 10
11.7787726501
 20
11.7928485877
 30
0.0
 10
11.7638615132
 20
11.7951064133
 30
0.0
 10
11.7486443292
 20
11.7971116346
 30
0.0
 10
11.7331577076
 20
11.7988594046
 30
0.0
 10
11.7174389128
 20
11.8003454982
 30
0.0
 10
11.7015257729
 20
11.8015663227
 30
0.0
 10
11.6854565882
 20
11.8025189265
 30
0.0
 10
11.6692700374
 20
11.8032010069
 30
0.0
 10
11.6530050841
 20
11.8036109156
 30
0.0
 10
11.6367008822
 20
11.803747662
 30
0.0
 10
11.6203966802
 20
11.8036109156
 30
0.0
 10
11.6041317269
 20
11.8032010069
 30
0.0
 10
11.5879451761
 20
11.8025189265
 30
0.0
 10
11.5718759914
 20
11.8015663227
 30
0.0
 10
11.5559628515
 20
11.8003454982
 30
0.0
 10
11.5402440567
 20
11.7988594046
 30
0.0
 10
11.5247574351
 20
11.7971116346
 30
0.0
 10
11.5095402511
 20
11.7951064133
 30
0.0
 10
11.4946291142
 20
11.7928485877
 30
0.0
 10
11.4800598896
 20
11.7903436153
 30
0.0
 10
11.46586761
 20
11.7875975501
 30
0.0
 10
11.4520863888
 20
11.7846170279
 30
0.0
 10
11.4387493345
 20
11.78140925
 30
0.0
 10
11.4258884687
 20
11.7779819629
 30
0.0
 10
11.413534645
 20
11.7743434378
 30
0.0
 10
11.4017174693
 20
11.7705024465
 30
0.0
 10
11.3904652256
 20
11.766468236
 30
0.0
 10
11.3798047914
 20
11.7622504937
 30
0.0
 10
11.3697615974
 20
11.7578593243
 30
0.0
 10
11.3603594478
 20
11.7533051647
 30
0.0
 10
11.3516208407
 20
11.7485988783
 30
0.0
 10
11.3448142252
 20
11.7445026122
 30
0.0
 10
11.3397280535
 20
11.741152769
 30
0.0
 10
11.336146781
 20
11.7386454668
 30
0.0
 10
11.3327463242
 20
11.7361087985
 30
0.0
 10
11.3295287036
 20
11.7335442359
 30
0.0
 10
11.3264958547
 20
11.7309532835
 30
0.0
 10
11.3236495883
 20
11.7283374758
 30
0.0
 10
11.3209916198
 20
11.725698306
 30
0.0
 10
11.3185235808
 20
11.7230373774
 30
0.0
 10
11.3162468498
 20
11.7203560221
 30
0.0
 10
11.3135095823
 20
11.7168094902
 30
0.0
 10
11.3111063603
 20
11.7131733904
 30
0.0
 10
11.3090810254
 20
11.7094596259
 30
0.0
 10
11.3077804903
 20
11.7067004302
 30
0.0
 10
11.306678363
 20
11.7039305573
 30
0.0
 10
11.3057754214
 20
11.7011515911
 30
0.0
 10
11.3050723568
 20
11.698365305
 30
0.0
 10
11.3045697381
 20
11.6955733942
 30
0.0
 10
11.3042680169
 20
11.6927779065
 30
0.0
 10
11.304200882
 20
11.6909112217
 30
0.0
 10
11.304200882
 20
11.6899803509
 30
0.0
  0
SPLINE
  5
2A5
100
AcDbEntity
  8
0
100
AcDbSpline
 62
9
  6
CONTINUOUS
 70
0
 71
3
 72
75
 73
71
 74
0
 42
0.0000001
 43
0.0000001
 44
0.0000000001
 40
0.0
 40
0.0
 40
0.0
 40
0.0
 40
0.0037551866
 40
0.0075275712
 40
0.0113336178
 40
0.0151896028
 40
0.0191110713
 40
0.0231125716
 40
0.0314050605
 40
0.0401658065
 40
0.0494710219
 40
0.0593795948
 40
0.0699350375
 40
0.0811676776
 40
0.0930967266
 40
0.1057320757
 40
0.1190757876
 40
0.133123306
 40
0.147864431
 40
0.1632841041
 40
0.1793630444
 40
0.196078271
 40
0.2134035358
 40
0.2313096892
 40
0.2497649946
 40
0.2687354034
 40
0.2881847992
 40
0.3080752201
 40
0.3283670622
 40
0.3490192703
 40
0.3699895176
 40
0.3912343775
 40
0.41270949
 40
0.4343697234
 40
0.4561693319
 40
0.5
 40
0.5438306681
 40
0.5656302766
 40
0.58729051
 40
0.6087656225
 40
0.6300104824
 40
0.6509807297
 40
0.6716329378
 40
0.6919247799
 40
0.7118152008
 40
0.7312645966
 40
0.7502350054
 40
0.7686903108
 40
0.7865964642
 40
0.803921729
 40
0.8206369556
 40
0.8367158959
 40
0.852135569
 40
0.866876694
 40
0.8809242124
 40
0.8942679243
 40
0.9069032734
 40
0.9188323224
 40
0.9300649625
 40
0.9406204052
 40
0.9505289781
 40
0.9598341935
 40
0.9685949395
 40
0.9768874284
 40
0.9808889287
 40
0.9848103972
 40
0.9886663822
 40
0.9924724288
 40
0.9962448134
 40
1.0
 40
1.0
 40
1.0
 40
1.0
 10
11.9067008817
 20
11.3597740555
 30
0.0
 10
11.9067008817
 20
11.3590181643
 30
0.0
 10
11.906646364
 20
11.3575023619
 30
0.0
 10
11.9064013617
 20
11.3552323423
 30
0.0
 10
11.9059932164
 20
11.3529652222
 30
0.0
 10
11.9054223171
 20
11.3507026835
 30
0.0
 10
11.9046890702
 20
11.3484460449
 30
0.0
 10
11.9034816773
 20
11.3454114532
 30
0.0
 10
11.9015479357
 20
11.3416279216
 30
0.0
 10
11.8986169982
 20
11.3371939093
 30
0.0
 10
11.8950571441
 20
11.3328202342
 30
0.0
 10
11.8908781716
 20
11.3285162615
 30
0.0
 10
11.8860903836
 20
11.3242906104
 30
0.0
 10
11.8807052001
 20
11.320152302
 30
0.0
 10
11.874735258
 20
11.3161104139
 30
0.0
 10
11.8681945433
 20
11.3121740847
 30
0.0
 10
11.861098419
 20
11.3083523948
 30
0.0
 10
11.8534636228
 20
11.3046542929
 30
0.0
 10
11.8453082372
 20
11.3010885279
 30
0.0
 10
11.8366516464
 20
11.2976635951
 30
0.0
 10
11.8275144854
 20
11.2943876941
 30
0.0
 10
11.8179185836
 20
11.2912686935
 30
0.0
 10
11.8078869069
 20
11.2883141015
 30
0.0
 10
11.7974434966
 20
11.2855310414
 30
0.0
 10
11.7866134068
 20
11.2829262294
 30
0.0
 10
11.7754226403
 20
11.2805059558
 30
0.0
 10
11.7638980826
 20
11.2782760678
 30
0.0
 10
11.7520674344
 20
11.2762419542
 30
0.0
 10
11.7399591429
 20
11.2744085312
 30
0.0
 10
11.7276023315
 20
11.2727802307
 30
0.0
 10
11.7150267289
 20
11.2713609892
 30
0.0
 10
11.7022625922
 20
11.2701542361
 30
0.0
 10
11.6893406502
 20
11.2691628937
 30
0.0
 10
11.6762919625
 20
11.2683893383
 30
0.0
 10
11.6587358951
 20
11.2676496061
 30
0.0
 10
11.6367008822
 20
11.2672810327
 30
0.0
 10
11.6146658692
 20
11.2676496061
 30
0.0
 10
11.5971098018
 20
11.2683893383
 30
0.0
 10
11.5840611141
 20
11.2691628937
 30
0.0
 10
11.5711391721
 20
11.2701542361
 30
0.0
 10
11.5583750354
 20
11.2713609892
 30
0.0
 10
11.5457994328
 20
11.2727802307
 30
0.0
 10
11.5334426214
 20
11.2744085312
 30
0.0
 10
11.5213343299
 20
11.2762419542
 30
0.0
 10
11.5095036817
 20
11.2782760678
 30
0.0
 10
11.497979124
 20
11.2805059558
 30
0.0
 10
11.4867883575
 20
11.2829262294
 30
0.0
 10
11.4759582678
 20
11.2855310414
 30
0.0
 10
11.4655148574
 20
11.2883141015
 30
0.0
 10
11.4554831807
 20
11.2912686935
 30
0.0
 10
11.4458872789
 20
11.2943876941
 30
0.0
 10
11.4367501179
 20
11.2976635951
 30
0.0
 10
11.4280935271
 20
11.3010885279
 30
0.0
 10
11.4199381416
 20
11.3046542929
 30
0.0
 10
11.4123033453
 20
11.3083523948
 30
0.0
 10
11.405207221
 20
11.3121740847
 30
0.0
 10
11.3986665063
 20
11.3161104139
 30
0.0
 10
11.3926965642
 20
11.320152302
 30
0.0
 10
11.3873113807
 20
11.3242906104
 30
0.0
 10
11.3825235927
 20
11.3285162615
 30
0.0
 10
11.3783446202
 20
11.3328202342
 30
0.0
 10
11.3747847661
 20
11.3371939093
 30
0.0
 10
11.3718538286
 20
11.3416279216
 30
0.0
 10
11.369920087
 20
11.3454114532
 30
0.0
 10
11.3687126941
 20
11.3484460449
 30
0.0
 10
11.3679794472
 20
11.3507026835
 30
0.0
 10
11.3674085479
 20
11.3529652222
 30
0.0
 10
11.3670004026
 20
11.3552323423
 30
0.0
 10
11.3667554003
 20
11.3575023619
 30
0.0
 10
11.3667008826
 20
11.3590181643
 30
0.0
 10
11.3667008826
 20
11.3597740555
 30
0.0
  0
SPLINE
  5
2A6
100
AcDbEntity
  8
0
100
AcDbSpline
 62
9
  6
CONTINUOUS
 70
0
 71
3
 72
63
 73
59
 74
0
 42
0.0000001
 43
0.0000001
 44
0.0000000001
 40
0.0
 40
0.0
 40
0.0
 40
0.0
 40
0.0088024986
 40
0.0180733183
 40
0.0278344254
 40
0.0381017067
 40
0.0488857782
 40
0.0601926945
 40
0.0720245565
 40
0.0843800237
 40
0.0972547435
 40
0.1106417101
 40
0.1245315661
 40
0.138912856
 40
0.1537722423
 40
0.1690946902
 40
0.1848636279
 40
0.201061087
 40
0.2176678267
 40
0.234663446
 40
0.2520264846
 40
0.2697345164
 40
0.2877642358
 40
0.3060915394
 40
0.3246916024
 40
0.3435389523
 40
0.3818697643
 40
0.4208709727
 40
0.4603224289
 40
0.5
 40
0.5396775711
 40
0.5791290273
 40
0.6181302357
 40
0.6564610477
 40
0.6753083976
 40
0.6939084606
 40
0.7122357642
 40
0.7302654836
 40
0.7479735154
 40
0.765336554
 40
0.7823321733
 40
0.798938913
 40
0.8151363721
 40
0.8309053098
 40
0.8462277577
 40
0.861087144
 40
0.8754684339
 40
0.8893582899
 40
0.9027452565
 40
0.9156199763
 40
0.9279754435
 40
0.9398073055
 40
0.9511142218
 40
0.9618982933
 40
0.9721655746
 40
0.9819266817
 40
0.9911975014
 40
1.0
 40
1.0
 40
1.0
 40
1.0
 10
11.9607732856
 20
11.7866678282
 30
0.0
 10
11.9594696065
 20
11.7881913351
 30
0.0
 10
11.9566741766
 20
11.7912192596
 30
0.0
 10
11.9520712412
 20
11.7955855372
 30
0.0
 10
11.9469607103
 20
11.7998839095
 30
0.0
 10
11.9413510465
 20
11.8041075683
 30
0.0
 10
11.9352510585
 20
11.8082501793
 30
0.0
 10
11.9286704406
 20
11.8123053007
 30
0.0
 10
11.9216196299
 20
11.8162665927
 30
0.0
 10
11.9141098438
 20
11.8201277962
 30
0.0
 10
11.9061530548
 20
11.8238827726
 30
0.0
 10
11.8977619763
 20
11.8275255218
 30
0.0
 10
11.8889500405
 20
11.8310502023
 30
0.0
 10
11.8797313759
 20
11.8344511471
 30
0.0
 10
11.8701207821
 20
11.8377228772
 30
0.0
 10
11.8601337044
 20
11.8408601147
 30
0.0
 10
11.8497862067
 20
11.8438577933
 30
0.0
 10
11.8390949442
 20
11.8467110686
 30
0.0
 10
11.8280771351
 20
11.8494153272
 30
0.0
 10
11.8167505315
 20
11.8519661948
 30
0.0
 10
11.8051333896
 20
11.8543595443
 30
0.0
 10
11.7932444401
 20
11.8565915025
 30
0.0
 10
11.7811028539
 20
11.8586584582
 30
0.0
 10
11.7687282233
 20
11.8605570611
 30
0.0
 10
11.7561404817
 20
11.8622842568
 30
0.0
 10
11.7390041284
 20
11.864366456
 30
0.0
 10
11.7171971639
 20
11.8665152547
 30
0.0
 10
11.6906550751
 20
11.8683589908
 30
0.0
 10
11.663765167
 20
11.8694700491
 30
0.0
 10
11.6367008822
 20
11.8698412103
 30
0.0
 10
11.6096365973
 20
11.8694700491
 30
0.0
 10
11.5827466892
 20
11.8683589908
 30
0.0
 10
11.5562046004
 20
11.8665152547
 30
0.0
 10
11.5343976359
 20
11.864366456
 30
0.0
 10
11.5172612826
 20
11.8622842568
 30
0.0
 10
11.504673541
 20
11.8605570611
 30
0.0
 10
11.4922989104
 20
11.8586584582
 30
0.0
 10
11.4801573242
 20
11.8565915025
 30
0.0
 10
11.4682683747
 20
11.8543595443
 30
0.0
 10
11.4566512328
 20
11.8519661948
 30
0.0
 10
11.4453246292
 20
11.8494153272
 30
0.0
 10
11.4343068201
 20
11.8467110686
 30
0.0
 10
11.4236155576
 20
11.8438577933
 30
0.0
 10
11.4132680599
 20
11.8408601147
 30
0.0
 10
11.4032809822
 20
11.8377228772
 30
0.0
 10
11.3936703884
 20
11.8344511471
 30
0.0
 10
11.3844517238
 20
11.8310502023
 30
0.0
 10
11.375639788
 20
11.8275255218
 30
0.0
 10
11.3672487095
 20
11.8238827726
 30
0.0
 10
11.3592919205
 20
11.8201277962
 30
0.0
 10
11.3517821344
 20
11.8162665927
 30
0.0
 10
11.3447313237
 20
11.8123053007
 30
0.0
 10
11.3381507058
 20
11.8082501793
 30
0.0
 10
11.3320507178
 20
11.8041075683
 30
0.0
 10
11.326441054
 20
11.7998839095
 30
0.0
 10
11.3213305231
 20
11.7955855372
 30
0.0
 10
11.3167275877
 20
11.7912192596
 30
0.0
 10
11.3139321578
 20
11.7881913351
 30
0.0
 10
11.3126284787
 20
11.7866678282
 30
0.0
  0
SPLINE
  5
2A7
100
AcDbEntity
  8
0
100
AcDbSpline
 62
9
  6
CONTINUOUS
 70
0
 71
3
 72
77
 73
73
 74
0
 42
0.0000001
 43
0.0000001
 44
0.0000000001
 40
0.0
 40
0.0
 40
0.0
 40
0.0
 40
0.0037551814
 40
0.0075275546
 40
0.0113335888
 40
0.0151895641
 40
0.0191110217
 40
0.0231125096
 40
0.0314049723
 40
0.0401656906
 40
0.0494708771
 40
0.0593794197
 40
0.0699348297
 40
0.0811674348
 40
0.0930964468
 40
0.1057317575
 40
0.1190754291
 40
0.1331229049
 40
0.1478639845
 40
0.1632836094
 40
0.179362499
 40
0.1960776727
 40
0.2134028825
 40
0.2313089791
 40
0.2497642264
 40
0.2687345758
 40
0.2881839113
 40
0.3080742708
 40
0.3283660502
 40
0.349018194
 40
0.3699883754
 40
0.3912331683
 40
0.4127082131
 40
0.4343683782
 40
0.456167918
 40
0.4780606283
 40
0.5
 40
0.5219393717
 40
0.543832082
 40
0.5656316218
 40
0.5872917869
 40
0.6087668317
 40
0.6300116246
 40
0.650981806
 40
0.6716339498
 40
0.6919257292
 40
0.7118160887
 40
0.7312654242
 40
0.7502357736
 40
0.7686910209
 40
0.7865971175
 40
0.8039223273
 40
0.820637501
 40
0.8367163906
 40
0.8521360155
 40
0.8668770951
 40
0.8809245709
 40
0.8942682425
 40
0.9069035532
 40
0.9188325652
 40
0.9300651703
 40
0.9406205803
 40
0.9505291229
 40
0.9598343094
 40
0.9685950277
 40
0.9768874904
 40
0.9808889783
 40
0.9848104359
 40
0.9886664112
 40
0.9924724454
 40
0.9962448186
 40
1.0
 40
1.0
 40
1.0
 40
1.0
 10
11.9220200297
 20
11.3611652019
 30
0.0
 10
11.9220200297
 20
11.3603664219
 30
0.0
 10
11.9219624191
 20
11.3587646151
 30
0.0
 10
11.9217035149
 20
11.3563657989
 30
0.0
 10
11.9212722125
 20
11.3539700474
 30
0.0
 10
11.9206689204
 20
11.3515791374
 30
0.0
 10
11.9198940718
 20
11.3491944614
 30
0.0
 10
11.918618172
 20
11.3459876951
 30
0.0
 10
11.916574715
 20
11.3419894952
 30
0.0
 10
11.9134774827
 20
11.3373039082
 30
0.0
 10
11.9097156509
 20
11.3326820815
 30
0.0
 10
11.9052995733
 20
11.3281339118
 30
0.0
 10
11.9002401377
 20
11.3236685076
 30
0.0
 10
11.8945494117
 20
11.3192954017
 30
0.0
 10
11.8882407492
 20
11.315024187
 30
0.0
 10
11.8813289294
 20
11.3108645204
 30
0.0
 10
11.8738301871
 20
11.3068259975
 30
0.0
 10
11.8657622102
 20
11.3029180748
 30
0.0
 10
11.8571441073
 20
11.2991499972
 30
0.0
 10
11.8479963627
 20
11.2955307422
 30
0.0
 10
11.8383407816
 20
11.2920689746
 30
0.0
 10
11.8282004322
 20
11.2887730094
 30
0.0
 10
11.8175995832
 20
11.2856507809
 30
0.0
 10
11.8065636398
 20
11.2827098165
 30
0.0
 10
11.7951190774
 20
11.2799572137
 30
0.0
 10
11.7832933741
 20
11.2773996198
 30
0.0
 10
11.7711149408
 20
11.2750432138
 30
0.0
 10
11.7586130499
 20
11.2728936901
 30
0.0
 10
11.7458177631
 20
11.2709562438
 30
0.0
 10
11.7327598562
 20
11.2692355581
 30
0.0
 10
11.7194707442
 20
11.2677357923
 30
0.0
 10
11.7059824037
 20
11.2664605718
 30
0.0
 10
11.6923272955
 20
11.2654129792
 30
0.0
 10
11.6785382848
 20
11.2645955471
 30
0.0
 10
11.664648562
 20
11.2640102513
 30
0.0
 10
11.6506915619
 20
11.2636585069
 30
0.0
 10
11.6367008822
 20
11.2635411642
 30
0.0
 10
11.6227102024
 20
11.2636585069
 30
0.0
 10
11.6087532023
 20
11.2640102513
 30
0.0
 10
11.5948634795
 20
11.2645955471
 30
0.0
 10
11.5810744688
 20
11.2654129792
 30
0.0
 10
11.5674193606
 20
11.2664605718
 30
0.0
 10
11.5539310201
 20
11.2677357923
 30
0.0
 10
11.5406419081
 20
11.2692355581
 30
0.0
 10
11.5275840012
 20
11.2709562438
 30
0.0
 10
11.5147887144
 20
11.2728936901
 30
0.0
 10
11.5022868235
 20
11.2750432138
 30
0.0
 10
11.4901083902
 20
11.2773996198
 30
0.0
 10
11.4782826869
 20
11.2799572137
 30
0.0
 10
11.4668381246
 20
11.2827098165
 30
0.0
 10
11.4558021811
 20
11.2856507809
 30
0.0
 10
11.4452013321
 20
11.2887730094
 30
0.0
 10
11.4350609827
 20
11.2920689746
 30
0.0
 10
11.4254054016
 20
11.2955307422
 30
0.0
 10
11.416257657
 20
11.2991499972
 30
0.0
 10
11.4076395541
 20
11.3029180748
 30
0.0
 10
11.3995715772
 20
11.3068259975
 30
0.0
 10
11.3920728349
 20
11.3108645204
 30
0.0
 10
11.3851610151
 20
11.315024187
 30
0.0
 10
11.3788523526
 20
11.3192954017
 30
0.0
 10
11.3731616266
 20
11.3236685076
 30
0.0
 10
11.368102191
 20
11.3281339118
 30
0.0
 10
11.3636861134
 20
11.3326820815
 30
0.0
 10
11.3599242816
 20
11.3373039082
 30
0.0
 10
11.3568270493
 20
11.3419894952
 30
0.0
 10
11.3547835923
 20
11.3459876951
 30
0.0
 10
11.3535076925
 20
11.3491944614
 30
0.0
 10
11.3527328439
 20
11.3515791374
 30
0.0
 10
11.3521295518
 20
11.3539700474
 30
0.0
 10
11.3516982494
 20
11.3563657989
 30
0.0
 10
11.3514393452
 20
11.3587646151
 30
0.0
 10
11.3513817346
 20
11.3603664219
 30
0.0
 10
11.3513817346
 20
11.3611652019
 30
0.0
  0
SPLINE
  5
2A8
100
AcDbEntity
  8
0
100
AcDbSpline
 62
9
  6
CONTINUOUS
 70
0
 71
3
 72
75
 73
71
 74
0
 42
0.0000001
 43
0.0000001
 44
0.0000000001
 40
0.0
 40
0.0
 40
0.0
 40
0.0
 40
0.0037540384
 40
0.0075653799
 40
0.0114472974
 40
0.0154122122
 40
0.0236329636
 40
0.032311255
 40
0.0415115275
 40
0.0512836976
 40
0.061664832
 40
0.072680945
 40
0.0843486742
 40
0.0966767362
 40
0.1096671431
 40
0.1233161993
 40
0.1376153119
 40
0.1525516482
 40
0.1681086745
 40
0.184266599
 40
0.2010027422
 40
0.2182918504
 40
0.2361063662
 40
0.254416664
 40
0.2731912604
 40
0.2923970033
 40
0.3119992458
 40
0.3319620076
 40
0.3522481273
 40
0.3728194068
 40
0.3936367508
 40
0.4146603011
 40
0.435849568
 40
0.4571635598
 40
0.4785609093
 40
0.5
 40
0.5214390907
 40
0.5428364402
 40
0.564150432
 40
0.5853396989
 40
0.6063632492
 40
0.6271805932
 40
0.6477518727
 40
0.6680379924
 40
0.6880007542
 40
0.7076029967
 40
0.7268087396
 40
0.745583336
 40
0.7638936338
 40
0.7817081496
 40
0.7989972578
 40
0.815733401
 40
0.8318913255
 40
0.8474483518
 40
0.8623846881
 40
0.8766838007
 40
0.8903328569
 40
0.9033232638
 40
0.9156513258
 40
0.927319055
 40
0.938335168
 40
0.9487163024
 40
0.9584884725
 40
0.967688745
 40
0.9763670364
 40
0.9845877878
 40
0.9885527026
 40
0.9924346201
 40
0.9962459616
 40
1.0
 40
1.0
 40
1.0
 40
1.0
 10
11.9812272342
 20
11.7461682063
 30
0.0
 10
11.9810426605
 20
11.7470963243
 30
0.0
 10
11.9806080525
 20
11.7489548403
 30
0.0
 10
11.9797702247
 20
11.7517180016
 30
0.0
 10
11.9787427867
 20
11.7544733082
 30
0.0
 10
11.9771015663
 20
11.7581783309
 30
0.0
 10
11.9745551488
 20
11.7627933551
 30
0.0
 10
11.9707917669
 20
11.7682018883
 30
0.0
 10
11.9662941024
 20
11.7735381935
 30
0.0
 10
11.9610732033
 20
11.7787916581
 30
0.0
 10
11.9551407306
 20
11.7839524472
 30
0.0
 10
11.9485096241
 20
11.7890103295
 30
0.0
 10
11.9411941545
 20
11.7939550474
 30
0.0
 10
11.9332100486
 20
11.7987763062
 30
0.0
 10
11.9245745088
 20
11.8034638913
 30
0.0
 10
11.9153062097
 20
11.808007738
 30
0.0
 10
11.9054252669
 20
11.8123979997
 30
0.0
 10
11.8949531938
 20
11.8166251003
 30
0.0
 10
11.8839128505
 20
11.8206797775
 30
0.0
 10
11.8723283883
 20
11.8245531193
 30
0.0
 10
11.8602251906
 20
11.8282365937
 30
0.0
 10
11.8476298117
 20
11.8317220752
 30
0.0
 10
11.8345699135
 20
11.8350018673
 30
0.0
 10
11.8210742006
 20
11.8380687226
 30
0.0
 10
11.807172353
 20
11.8409158615
 30
0.0
 10
11.792894959
 20
11.8435369878
 30
0.0
 10
11.7782734448
 20
11.8459263042
 30
0.0
 10
11.7633400033
 20
11.8480785257
 30
0.0
 10
11.7481275224
 20
11.849988891
 30
0.0
 10
11.7326695103
 20
11.8516531739
 30
0.0
 10
11.7170000211
 20
11.8530676924
 30
0.0
 10
11.7011535791
 20
11.8542293174
 30
0.0
 10
11.6851651013
 20
11.8551354791
 30
0.0
 10
11.66906982
 20
11.8557841731
 30
0.0
 10
11.6529032044
 20
11.8561739643
 30
0.0
 10
11.6367008822
 20
11.8563039906
 30
0.0
 10
11.6204985599
 20
11.8561739643
 30
0.0
 10
11.6043319443
 20
11.8557841731
 30
0.0
 10
11.588236663
 20
11.8551354791
 30
0.0
 10
11.5722481852
 20
11.8542293174
 30
0.0
 10
11.5564017432
 20
11.8530676924
 30
0.0
 10
11.5407322541
 20
11.8516531739
 30
0.0
 10
11.5252742419
 20
11.849988891
 30
0.0
 10
11.510061761
 20
11.8480785257
 30
0.0
 10
11.4951283195
 20
11.8459263042
 30
0.0
 10
11.4805068053
 20
11.8435369878
 30
0.0
 10
11.4662294113
 20
11.8409158615
 30
0.0
 10
11.4523275637
 20
11.8380687226
 30
0.0
 10
11.4388318508
 20
11.8350018673
 30
0.0
 10
11.4257719526
 20
11.8317220752
 30
0.0
 10
11.4131765737
 20
11.8282365937
 30
0.0
 10
11.401073376
 20
11.8245531193
 30
0.0
 10
11.3894889138
 20
11.8206797775
 30
0.0
 10
11.3784485705
 20
11.8166251003
 30
0.0
 10
11.3679764974
 20
11.8123979997
 30
0.0
 10
11.3580955546
 20
11.808007738
 30
0.0
 10
11.3488272555
 20
11.8034638913
 30
0.0
 10
11.3401917158
 20
11.7987763062
 30
0.0
 10
11.3322076098
 20
11.7939550474
 30
0.0
 10
11.3248921402
 20
11.7890103295
 30
0.0
 10
11.3182610337
 20
11.7839524472
 30
0.0
 10
11.312328561
 20
11.7787916581
 30
0.0
 10
11.3071076619
 20
11.7735381935
 30
0.0
 10
11.3026099974
 20
11.7682018883
 30
0.0
 10
11.2988466155
 20
11.7627933551
 30
0.0
 10
11.296300198
 20
11.7581783309
 30
0.0
 10
11.2946589776
 20
11.7544733082
 30
0.0
 10
11.2936315396
 20
11.7517180016
 30
0.0
 10
11.2927937118
 20
11.7489548403
 30
0.0
 10
11.2923591038
 20
11.7470963243
 30
0.0
 10
11.2921745302
 20
11.7461682063
 30
0.0
  0
SPLINE
  5
2A9
100
AcDbEntity
  8
0
100
AcDbSpline
 62
9
  6
CONTINUOUS
 70
0
 71
3
 72
75
 73
71
 74
0
 42
0.0000001
 43
0.0000001
 44
0.0000000001
 40
0.0
 40
0.0
 40
0.0
 40
0.0
 40
0.0037610558
 40
0.0075834405
 40
0.0114798899
 40
0.0154623593
 40
0.0237257
 40
0.0324535479
 40
0.0417073052
 40
0.0515343278
 40
0.0619696016
 40
0.0730374913
 40
0.0847533526
 40
0.0971249247
 40
0.1101534908
 40
0.1238348293
 40
0.1381599862
 40
0.1531159047
 40
0.1686859401
 40
0.1848502853
 40
0.2015863267
 40
0.2188689469
 40
0.2366707856
 40
0.2549624675
 40
0.273712806
 40
0.2928889871
 40
0.3124567383
 40
0.3323804858
 40
0.3526235027
 40
0.3731480501
 40
0.3939155127
 40
0.4148865304
 40
0.4360211263
 40
0.4572788331
 40
0.4786188169
 40
0.5
 40
0.5213811831
 40
0.5427211669
 40
0.5639788737
 40
0.5851134696
 40
0.6060844873
 40
0.6268519499
 40
0.6473764973
 40
0.6676195142
 40
0.6875432617
 40
0.7071110129
 40
0.726287194
 40
0.7450375325
 40
0.7633292144
 40
0.7811310531
 40
0.7984136733
 40
0.8151497147
 40
0.8313140599
 40
0.8468840953
 40
0.8618400138
 40
0.8761651707
 40
0.8898465092
 40
0.9028750753
 40
0.9152466474
 40
0.9269625087
 40
0.9380303984
 40
0.9484656722
 40
0.9582926948
 40
0.9675464521
 40
0.9762743
 40
0.9845376407
 40
0.9885201101
 40
0.9924165595
 40
0.9962389442
 40
1.0
 40
1.0
 40
1.0
 40
1.0
 10
11.9812118992
 20
11.7461605862
 30
0.0
 10
11.9810070974
 20
11.7470843615
 30
0.0
 10
11.9805325456
 20
11.7489338705
 30
0.0
 10
11.9796376459
 20
11.7516816985
 30
0.0
 10
11.9785551827
 20
11.7544212656
 30
0.0
 10
11.9768420872
 20
11.7581055045
 30
0.0
 10
11.9742113773
 20
11.7626924503
 30
0.0
 10
11.970357544
 20
11.7680656662
 30
0.0
 10
11.9657780883
 20
11.7733659844
 30
0.0
 10
11.9604840112
 20
11.7785829496
 30
0.0
 10
11.9544869401
 20
11.7837068339
 30
0.0
 10
11.9477997931
 20
11.7887275313
 30
0.0
 10
11.940436808
 20
11.7936349212
 30
0.0
 10
11.9324136569
 20
11.7984188609
 30
0.0
 10
11.923747459
 20
11.8030692974
 30
0.0
 10
11.9144567734
 20
11.8075763343
 30
0.0
 10
11.9045615666
 20
11.8119302959
 30
0.0
 10
11.89408317
 20
11.816121777
 30
0.0
 10
11.8830442291
 20
11.8201416844
 30
0.0
 10
11.8714686491
 20
11.8239812712
 30
0.0
 10
11.8593815376
 20
11.827632166
 30
0.0
 10
11.8468091438
 20
11.8310863971
 30
0.0
 10
11.8337787973
 20
11.8343364155
 30
0.0
 10
11.8203188447
 20
11.8373751135
 30
0.0
 10
11.8064585841
 20
11.8401958427
 30
0.0
 10
11.7922281993
 20
11.84279243
 30
0.0
 10
11.777658691
 20
11.8451591917
 30
0.0
 10
11.7627818081
 20
11.8472909465
 30
0.0
 10
11.7476299768
 20
11.8491830273
 30
0.0
 10
11.7322362282
 20
11.8508312917
 30
0.0
 10
11.7166341261
 20
11.8522321309
 30
0.0
 10
11.7008576919
 20
11.853382478
 30
0.0
 10
11.6849413304
 20
11.8542798146
 30
0.0
 10
11.6689197539
 20
11.8549221761
 30
0.0
 10
11.6528279053
 20
11.8553081565
 30
0.0
 10
11.6367008822
 20
11.8554369105
 30
0.0
 10
11.620573859
 20
11.8553081565
 30
0.0
 10
11.6044820104
 20
11.8549221761
 30
0.0
 10
11.5884604339
 20
11.8542798146
 30
0.0
 10
11.5725440724
 20
11.853382478
 30
0.0
 10
11.5567676382
 20
11.8522321309
 30
0.0
 10
11.5411655361
 20
11.8508312917
 30
0.0
 10
11.5257717875
 20
11.8491830273
 30
0.0
 10
11.5106199562
 20
11.8472909465
 30
0.0
 10
11.4957430733
 20
11.8451591917
 30
0.0
 10
11.481173565
 20
11.84279243
 30
0.0
 10
11.4669431802
 20
11.8401958427
 30
0.0
 10
11.4530829196
 20
11.8373751135
 30
0.0
 10
11.439622967
 20
11.8343364155
 30
0.0
 10
11.4265926205
 20
11.8310863971
 30
0.0
 10
11.4140202267
 20
11.827632166
 30
0.0
 10
11.4019331152
 20
11.8239812712
 30
0.0
 10
11.3903575353
 20
11.8201416844
 30
0.0
 10
11.3793185943
 20
11.816121777
 30
0.0
 10
11.3688401977
 20
11.8119302959
 30
0.0
 10
11.3589449909
 20
11.8075763343
 30
0.0
 10
11.3496543053
 20
11.8030692974
 30
0.0
 10
11.3409881074
 20
11.7984188609
 30
0.0
 10
11.3329649563
 20
11.7936349212
 30
0.0
 10
11.3256019712
 20
11.7887275313
 30
0.0
 10
11.3189148242
 20
11.7837068339
 30
0.0
 10
11.3129177531
 20
11.7785829496
 30
0.0
 10
11.307623676
 20
11.7733659844
 30
0.0
 10
11.3030442203
 20
11.7680656662
 30
0.0
 10
11.299190387
 20
11.7626924503
 30
0.0
 10
11.2965596771
 20
11.7581055045
 30
0.0
 10
11.2948465816
 20
11.7544212656
 30
0.0
 10
11.2937641184
 20
11.7516816985
 30
0.0
 10
11.2928692188
 20
11.7489338705
 30
0.0
 10
11.2923946669
 20
11.7470843615
 30
0.0
 10
11.2921898651
 20
11.7461605862
 30
0.0
  0
SPLINE
  5
2AA
100
AcDbEntity
  8
0
100
AcDbSpline
 62
9
  6
CONTINUOUS
 70
0
 71
3
 72
16
 73
12
 74
0
 42
0.0000001
 43
0.0000001
 44
0.0000000001
 40
0.0
 40
0.0
 40
0.0
 40
0.0
 40
0.1150250623
 40
0.2310888602
 40
0.3491783078
 40
0.4702425321
 40
0.5951377468
 40
0.724630591
 40
0.7913250861
 40
0.8594105182
 40
1.0
 40
1.0
 40
1.0
 40
1.0
 10
11.9600674197
 20
11.6793205475
 30
0.0
 10
11.9600676005
 20
11.6780433924
 30
0.0
 10
11.9599369463
 20
11.6754756774
 30
0.0
 10
11.9593511336
 20
11.6716370291
 30
0.0
 10
11.9583762498
 20
11.6678089923
 30
0.0
 10
11.9570141425
 20
11.6639973108
 30
0.0
 10
11.9552673851
 20
11.6602066302
 30
0.0
 10
11.9535108851
 20
11.6570996789
 30
0.0
 10
11.9519236154
 20
11.6546310872
 30
0.0
 10
11.9501762715
 20
11.6521214255
 30
0.0
 10
11.9487512573
 20
11.6502915191
 30
0.0
 10
11.947753722
 20
11.6490908291
 30
0.0
  0
SPLINE
  5
2AB
100
AcDbEntity
  8
0
100
AcDbSpline
 62
9
  6
CONTINUOUS
 70
0
 71
3
 72
16
 73
12
 74
0
 42
0.0000001
 43
0.0000001
 44
0.0000000001
 40
0.0
 40
0.0
 40
0.0
 40
0.0
 40
0.1149798089
 40
0.2309987724
 40
0.3490581553
 40
0.4701049966
 40
0.5950015329
 40
0.7245165609
 40
0.7912306268
 40
0.859341521
 40
1.0
 40
1.0
 40
1.0
 40
1.0
 10
11.9672187887
 20
11.6877287984
 30
0.0
 10
11.9672187887
 20
11.6864197255
 30
0.0
 10
11.9670846743
 20
11.6837878268
 30
0.0
 10
11.9664825616
 20
11.6798532512
 30
0.0
 10
11.9654804711
 20
11.6759296836
 30
0.0
 10
11.9640804485
 20
11.6720229267
 30
0.0
 10
11.9622850716
 20
11.668137849
 30
0.0
 10
11.9604797974
 20
11.6649537782
 30
0.0
 10
11.9588484859
 20
11.662423989
 30
0.0
 10
11.9570525306
 20
11.6598519649
 30
0.0
 10
11.9555879989
 20
11.6579768138
 30
0.0
 10
11.9545628525
 20
11.6567465066
 30
0.0
  0
SPLINE
  5
2AC
100
AcDbEntity
  8
0
100
AcDbSpline
 62
9
  6
CONTINUOUS
 70
0
 71
3
 72
75
 73
71
 74
0
 42
0.0000001
 43
0.0000001
 44
0.0000000001
 40
0.0
 40
0.0
 40
0.0
 40
0.0
 40
0.0037452578
 40
0.0075167557
 40
0.0113305373
 40
0.0152021702
 40
0.0191463126
 40
0.023176653
 40
0.0315420516
 40
0.0403900638
 40
0.0497908025
 40
0.0597980129
 40
0.0704510463
 40
0.0817769586
 40
0.0937924445
 40
0.1065054984
 40
0.1199167874
 40
0.1340207658
 40
0.1488065731
 40
0.1642587595
 40
0.1803578763
 40
0.197080961
 40
0.2144019422
 40
0.2322919828
 40
0.2507197762
 40
0.2696518058
 40
0.2890525767
 40
0.3088848273
 40
0.3291097227
 40
0.3496870376
 40
0.3705753274
 40
0.3917320934
 40
0.4131139414
 40
0.4346767367
 40
0.4563757552
 40
0.4999999972
 40
0.5436242393
 40
0.5653232579
 40
0.5868860532
 40
0.6082679013
 40
0.6294246673
 40
0.6503129572
 40
0.6708902723
 40
0.6911151679
 40
0.7109474186
 40
0.7303481897
 40
0.7492802195
 40
0.7677080131
 40
0.7855980539
 40
0.8029190353
 40
0.8196421202
 40
0.8357412373
 40
0.851193424
 40
0.8659792315
 40
0.8800832102
 40
0.8934944995
 40
0.9062075536
 40
0.9182230398
 40
0.9295489523
 40
0.940201986
 40
0.9502091966
 40
0.9596099355
 40
0.968457948
 40
0.9768233467
 40
0.9808536872
 40
0.9847978297
 40
0.9886694626
 40
0.9924832443
 40
0.9962547422
 40
1.0
 40
1.0
 40
1.0
 40
1.0
 10
11.9206119274
 20
11.4915018501
 30
0.0
 10
11.9205790751
 20
11.4922905301
 30
0.0
 10
11.9204567234
 20
11.493871629
 30
0.0
 10
11.9201050402
 20
11.4962355217
 30
0.0
 10
11.9195851082
 20
11.4985955348
 30
0.0
 10
11.918897351
 20
11.5009500031
 30
0.0
 10
11.9180422803
 20
11.5032976031
 30
0.0
 10
11.9166630908
 20
11.506455295
 30
0.0
 10
11.9145016924
 20
11.5103886857
 30
0.0
 10
11.9112835878
 20
11.5149942297
 30
0.0
 10
11.9074183466
 20
11.5195353431
 30
0.0
 10
11.9029161553
 20
11.5240024405
 30
0.0
 10
11.8977877701
 20
11.5283866306
 30
0.0
 10
11.8920451491
 20
11.5326786282
 30
0.0
 10
11.885701516
 20
11.5368691118
 30
0.0
 10
11.878771476
 20
11.5409487233
 30
0.0
 10
11.8712710326
 20
11.5449081843
 30
0.0
 10
11.8632175783
 20
11.5487383662
 30
0.0
 10
11.8546298612
 20
11.5524303558
 30
0.0
 10
11.8455279398
 20
11.5559755059
 30
0.0
 10
11.835933131
 20
11.5593654763
 30
0.0
 10
11.8258679535
 20
11.5625922679
 30
0.0
 10
11.8153560691
 20
11.5656482512
 30
0.0
 10
11.804422221
 20
11.5685261904
 30
0.0
 10
11.7930921712
 20
11.5712192651
 30
0.0
 10
11.7813926354
 20
11.573721089
 30
0.0
 10
11.7693512171
 20
11.5760257272
 30
0.0
 10
11.7569963392
 20
11.5781277113
 30
0.0
 10
11.7443571755
 20
11.5800220528
 30
0.0
 10
11.7314635787
 20
11.5817042559
 30
0.0
 10
11.7183460103
 20
11.5831703273
 30
0.0
 10
11.7050354625
 20
11.5844167888
 30
0.0
 10
11.6915634017
 20
11.5854406763
 30
0.0
 10
11.6779616257
 20
11.5862395801
 30
0.0
 10
11.6596644193
 20
11.587003496
 30
0.0
 10
11.6367008848
 20
11.5873841435
 30
0.0
 10
11.6137373503
 20
11.5870034962
 30
0.0
 10
11.5954401439
 20
11.5862395804
 30
0.0
 10
11.5818383679
 20
11.5854406767
 30
0.0
 10
11.568366307
 20
11.5844167893
 30
0.0
 10
11.5550557591
 20
11.5831703279
 30
0.0
 10
11.5419381906
 20
11.5817042565
 30
0.0
 10
11.5290445937
 20
11.5800220535
 30
0.0
 10
11.5164054299
 20
11.5781277121
 30
0.0
 10
11.504050552
 20
11.5760257281
 30
0.0
 10
11.4920091335
 20
11.5737210899
 30
0.0
 10
11.4803095975
 20
11.5712192661
 30
0.0
 10
11.4689795476
 20
11.5685261915
 30
0.0
 10
11.4580456994
 20
11.5656482524
 30
0.0
 10
11.4475338148
 20
11.5625922692
 30
0.0
 10
11.4374686371
 20
11.5593654776
 30
0.0
 10
11.4278738281
 20
11.5559755073
 30
0.0
 10
11.4187719065
 20
11.5524303572
 30
0.0
 10
11.4101841892
 20
11.5487383677
 30
0.0
 10
11.4021307347
 20
11.5449081858
 30
0.0
 10
11.3946302911
 20
11.5409487248
 30
0.0
 10
11.3877002509
 20
11.5368691134
 30
0.0
 10
11.3813566175
 20
11.5326786298
 30
0.0
 10
11.3756139963
 20
11.5283866323
 30
0.0
 10
11.3704856109
 20
11.5240024423
 30
0.0
 10
11.3659834193
 20
11.5195353448
 30
0.0
 10
11.3621181779
 20
11.5149942315
 30
0.0
 10
11.358900073
 20
11.5103886875
 30
0.0
 10
11.3567386744
 20
11.5064552968
 30
0.0
 10
11.3553594847
 20
11.5032976049
 30
0.0
 10
11.3545044139
 20
11.5009500049
 30
0.0
 10
11.3538166566
 20
11.4985955367
 30
0.0
 10
11.3532967245
 20
11.4962355235
 30
0.0
 10
11.3529450411
 20
11.4938716308
 30
0.0
 10
11.3528226893
 20
11.492290532
 30
0.0
 10
11.352789837
 20
11.4915018519
 30
0.0
  0
SPLINE
  5
2AD
100
AcDbEntity
  8
0
100
AcDbSpline
 62
9
  6
CONTINUOUS
 70
0
 71
3
 72
16
 73
12
 74
0
 42
0.0000001
 43
0.0000001
 44
0.0000000001
 40
0.0
 40
0.0
 40
0.0
 40
0.0
 40
0.1137586518
 40
0.2286945484
 40
0.3459399437
 40
0.4665532594
 40
0.5914876778
 40
0.7215796881
 40
0.7888004276
 40
0.8575681566
 40
1.0
 40
1.0
 40
1.0
 40
1.0
 10
11.9692008823
 20
11.6899803509
 30
0.0
 10
11.9692008823
 20
11.6885694548
 30
0.0
 10
11.9690458325
 20
11.6857306893
 30
0.0
 10
11.9683499765
 20
11.6814891313
 30
0.0
 10
11.9671922459
 20
11.6772614982
 30
0.0
 10
11.965575432
 20
11.6730549713
 30
0.0
 10
11.9635030248
 20
11.6688754898
 30
0.0
 10
11.9614224639
 20
11.6654573391
 30
0.0
 10
11.9595434015
 20
11.6627436688
 30
0.0
 10
11.9574709521
 20
11.6599807938
 30
0.0
 10
11.9557846743
 20
11.6579727322
 30
0.0
 10
11.9546057908
 20
11.6566571282
 30
0.0
  0
SPLINE
  5
2AE
100
AcDbEntity
  8
0
100
AcDbSpline
 62
9
  6
CONTINUOUS
 70
0
 71
3
 72
63
 73
59
 74
0
 42
0.0000001
 43
0.0000001
 44
0.0000000001
 40
0.0
 40
0.0
 40
0.0
 40
0.0
 40
0.0084838726
 40
0.0174281626
 40
0.0268638816
 40
0.0368143291
 40
0.047296102
 40
0.058320014
 40
0.0698918969
 40
0.0820132813
 40
0.0946819665
 40
0.1078924957
 40
0.1216365505
 40
0.1359032813
 40
0.1506795844
 40
0.1659503367
 40
0.1816985971
 40
0.1979057805
 40
0.2145518111
 40
0.2316152576
 40
0.2490734557
 40
0.2669026193
 40
0.2850779433
 40
0.303573699
 40
0.3223633245
 40
0.3414195104
 40
0.380217944
 40
0.4197398269
 40
0.4597478248
 40
0.5000000202
 40
0.5402522154
 40
0.5802602128
 40
0.6197820946
 40
0.6585805268
 40
0.6776367118
 40
0.6964263363
 40
0.714922091
 40
0.7330974138
 40
0.7509265762
 40
0.768384773
 40
0.7854482181
 40
0.8020942473
 40
0.8183014292
 40
0.834049688
 40
0.8493204386
 40
0.86409674
 40
0.8783634691
 40
0.8921075221
 40
0.9053180494
 40
0.9179867328
 40
0.9301081153
 40
0.9416799963
 40
0.9527039065
 40
0.9631856775
 40
0.9731361232
 40
0.9825718405
 40
0.9915161289
 40
1.0
 40
1.0
 40
1.0
 40
1.0
 10
11.933651008
 20
11.4511924815
 30
0.0
 10
11.9326033489
 20
11.452632917
 30
0.0
 10
11.9303227258
 20
11.4555001033
 30
0.0
 10
11.9264847717
 20
11.4596388684
 30
0.0
 10
11.9221503356
 20
11.4637179687
 30
0.0
 10
11.9173271985
 20
11.4677305986
 30
0.0
 10
11.9120234438
 20
11.4716705114
 30
0.0
 10
11.9062480423
 20
11.4755312826
 30
0.0
 10
11.900010721
 20
11.4793065668
 30
0.0
 10
11.8933220138
 20
11.4829900687
 30
0.0
 10
11.8861932419
 20
11.4865755934
 30
0.0
 10
11.878636503
 20
11.4900570686
 30
0.0
 10
11.8706646502
 20
11.4934285693
 30
0.0
 10
11.8622912692
 20
11.4966843363
 30
0.0
 10
11.8535306535
 20
11.4998187938
 30
0.0
 10
11.8443977771
 20
11.5028265636
 30
0.0
 10
11.8349082672
 20
11.5057024777
 30
0.0
 10
11.8250783752
 20
11.50844159
 30
0.0
 10
11.8149249468
 20
11.5110391863
 30
0.0
 10
11.8044653921
 20
11.5134907937
 30
0.0
 10
11.7937176538
 20
11.5157921894
 30
0.0
 10
11.7827001763
 20
11.5179394081
 30
0.0
 10
11.7714318697
 20
11.5199287511
 30
0.0
 10
11.7599320891
 20
11.5217567847
 30
0.0
 10
11.7482205534
 20
11.523420378
 30
0.0
 10
11.7322546465
 20
11.5254272869
 30
0.0
 10
11.7119127545
 20
11.5274987035
 30
0.0
 10
11.6871306666
 20
11.5292761673
 30
0.0
 10
11.6620025267
 20
11.5303475926
 30
0.0
 10
11.6367008606
 20
11.5307055646
 30
0.0
 10
11.6113991946
 20
11.5303475914
 30
0.0
 10
11.5862710552
 20
11.5292761648
 30
0.0
 10
11.561488968
 20
11.5274986998
 30
0.0
 10
11.5411470768
 20
11.5254272823
 30
0.0
 10
11.5251811707
 20
11.5234203726
 30
0.0
 10
11.5134696357
 20
11.5217567787
 30
0.0
 10
11.5019698559
 20
11.5199287446
 30
0.0
 10
11.4907015501
 20
11.5179394011
 30
0.0
 10
11.4796840734
 20
11.5157921819
 30
0.0
 10
11.4689363361
 20
11.5134907856
 30
0.0
 10
11.4584767824
 20
11.5110391777
 30
0.0
 10
11.4483233551
 20
11.5084415809
 30
0.0
 10
11.4384934642
 20
11.5057024682
 30
0.0
 10
11.4290039555
 20
11.5028265536
 30
0.0
 10
11.4198710804
 20
11.4998187834
 30
0.0
 10
11.4111104659
 20
11.4966843254
 30
0.0
 10
11.4027370863
 20
11.493428558
 30
0.0
 10
11.3947652348
 20
11.490057057
 30
0.0
 10
11.3872084974
 20
11.4865755813
 30
0.0
 10
11.380079727
 20
11.4829900563
 30
0.0
 10
11.3733910213
 20
11.4793065541
 30
0.0
 10
11.3671537015
 20
11.4755312696
 30
0.0
 10
11.3613783016
 20
11.4716704981
 30
0.0
 10
11.3560745485
 20
11.4677305851
 30
0.0
 10
11.3512514131
 20
11.4637179549
 30
0.0
 10
11.3469169787
 20
11.4596388544
 30
0.0
 10
11.3430790262
 20
11.4555000891
 30
0.0
 10
11.3407984044
 20
11.4526329028
 30
0.0
 10
11.3397507459
 20
11.4511924672
 30
0.0
  0
SPLINE
  5
2AF
100
AcDbEntity
  8
0
100
AcDbSpline
 62
9
  6
CONTINUOUS
 70
0
 71
3
 72
73
 73
69
 74
0
 42
0.0000001
 43
0.0000001
 44
0.0000000001
 40
0.0
 40
0.0
 40
0.0
 40
0.0
 40
0.0037532439
 40
0.0075632783
 40
0.0114434338
 40
0.0154061883
 40
0.0236216343
 40
0.0322936964
 40
0.0414872093
 40
0.0512524229
 40
0.0616266758
 40
0.0726361978
 40
0.0842977939
 40
0.0966203082
 40
0.1096058482
 40
0.1232507872
 40
0.1375465792
 40
0.1524804213
 40
0.1680357942
 40
0.1841929087
 40
0.2009290771
 40
0.2182190291
 40
0.2360351825
 40
0.2543478802
 40
0.2731256007
 40
0.2923351484
 40
0.3119418284
 40
0.331909608
 40
0.3522012699
 40
0.3727785573
 40
0.3936023131
 40
0.4146326153
 40
0.4358289088
 40
0.4571501344
 40
0.5
 40
0.5428498656
 40
0.5641710912
 40
0.5853673847
 40
0.6063976869
 40
0.6272214427
 40
0.6477987301
 40
0.668090392
 40
0.6880581716
 40
0.7076648516
 40
0.7268743993
 40
0.7456521198
 40
0.7639648175
 40
0.7817809709
 40
0.7990709229
 40
0.8158070913
 40
0.8319642058
 40
0.8475195787
 40
0.8624534208
 40
0.8767492128
 40
0.8903941518
 40
0.9033796918
 40
0.9157022061
 40
0.9273638022
 40
0.9383733242
 40
0.9487475771
 40
0.9585127907
 40
0.9677063036
 40
0.9763783657
 40
0.9845938117
 40
0.9885565662
 40
0.9924367217
 40
0.9962467561
 40
1.0
 40
1.0
 40
1.0
 40
1.0
 10
11.950256666
 20
11.4138886108
 30
0.0
 10
11.9500910459
 20
11.4147337926
 30
0.0
 10
11.9497001715
 20
11.4164262715
 30
0.0
 10
11.9489443274
 20
11.4189428086
 30
0.0
 10
11.948015683
 20
11.4214522485
 30
0.0
 10
11.9465303983
 20
11.4248266057
 30
0.0
 10
11.9442227505
 20
11.4290300094
 30
0.0
 10
11.9408082589
 20
11.433956438
 30
0.0
 10
11.9367244845
 20
11.4388172111
 30
0.0
 10
11.9319814874
 20
11.443602651
 30
0.0
 10
11.9265898842
 20
11.4483037945
 30
0.0
 10
11.9205614538
 20
11.4529113154
 30
0.0
 10
11.9139091878
 20
11.4574158624
 30
0.0
 10
11.9066474054
 20
11.4618080489
 30
0.0
 10
11.8987917723
 20
11.4660785593
 30
0.0
 10
11.8903592977
 20
11.4702182145
 30
0.0
 10
11.881368306
 20
11.4742180329
 30
0.0
 10
11.8718383979
 20
11.4780692793
 30
0.0
 10
11.8617904036
 20
11.4817635046
 30
0.0
 10
11.8512463318
 20
11.4852925784
 30
0.0
 10
11.8402293161
 20
11.4886487172
 30
0.0
 10
11.8287635589
 20
11.4918245076
 30
0.0
 10
11.8168742739
 20
11.4948129277
 30
0.0
 10
11.8045876267
 20
11.497607365
 30
0.0
 10
11.7919306739
 20
11.500201634
 30
0.0
 10
11.7789313013
 20
11.5025899904
 30
0.0
 10
11.7656181597
 20
11.5047671446
 30
0.0
 10
11.7520206001
 20
11.5067282744
 30
0.0
 10
11.7381686076
 20
11.5084690361
 30
0.0
 10
11.7240927348
 20
11.509985573
 30
0.0
 10
11.7098240289
 20
11.5112745273
 30
0.0
 10
11.6953939802
 20
11.5123330384
 30
0.0
 10
11.6808343842
 20
11.5131587813
 30
0.0
 10
11.6612603274
 20
11.5139481495
 30
0.0
 10
11.6367008822
 20
11.5143415698
 30
0.0
 10
11.6121414369
 20
11.5139481495
 30
0.0
 10
11.5925673801
 20
11.5131587813
 30
0.0
 10
11.5780077841
 20
11.5123330384
 30
0.0
 10
11.5635777354
 20
11.5112745273
 30
0.0
 10
11.5493090295
 20
11.509985573
 30
0.0
 10
11.5352331567
 20
11.5084690361
 30
0.0
 10
11.5213811642
 20
11.5067282744
 30
0.0
 10
11.5077836046
 20
11.5047671446
 30
0.0
 10
11.494470463
 20
11.5025899904
 30
0.0
 10
11.4814710904
 20
11.500201634
 30
0.0
 10
11.4688141376
 20
11.497607365
 30
0.0
 10
11.4565274904
 20
11.4948129277
 30
0.0
 10
11.4446382054
 20
11.4918245076
 30
0.0
 10
11.4331724482
 20
11.4886487172
 30
0.0
 10
11.4221554325
 20
11.4852925784
 30
0.0
 10
11.4116113607
 20
11.4817635046
 30
0.0
 10
11.4015633664
 20
11.4780692793
 30
0.0
 10
11.3920334583
 20
11.4742180329
 30
0.0
 10
11.3830424666
 20
11.4702182145
 30
0.0
 10
11.374609992
 20
11.4660785593
 30
0.0
 10
11.3667543589
 20
11.4618080489
 30
0.0
 10
11.3594925765
 20
11.4574158624
 30
0.0
 10
11.3528403106
 20
11.4529113154
 30
0.0
 10
11.3468118801
 20
11.4483037945
 30
0.0
 10
11.3414202769
 20
11.443602651
 30
0.0
 10
11.3366772798
 20
11.4388172111
 30
0.0
 10
11.3325935054
 20
11.433956438
 30
0.0
 10
11.3291790138
 20
11.4290300094
 30
0.0
 10
11.326871366
 20
11.4248266057
 30
0.0
 10
11.3253860813
 20
11.4214522485
 30
0.0
 10
11.3244574369
 20
11.4189428086
 30
0.0
 10
11.3237015928
 20
11.4164262715
 30
0.0
 10
11.3233107184
 20
11.4147337926
 30
0.0
 10
11.3231450983
 20
11.4138886108
 30
0.0
  0
SPLINE
  5
2B0
100
AcDbEntity
  8
0
100
AcDbSpline
 62
9
  6
CONTINUOUS
 70
0
 71
3
 72
77
 73
73
 74
0
 42
0.0000001
 43
0.0000001
 44
0.0000000001
 40
0.0
 40
0.0
 40
0.0
 40
0.0
 40
0.003755186
 40
0.0075275557
 40
0.0113335869
 40
0.015189564
 40
0.0191110222
 40
0.0231125098
 40
0.0314049724
 40
0.0401656904
 40
0.0494708767
 40
0.0593794189
 40
0.0699348288
 40
0.0811674342
 40
0.0930964472
 40
0.1057317589
 40
0.1190754309
 40
0.1331229064
 40
0.1478639853
 40
0.1632836092
 40
0.1793624979
 40
0.1960776709
 40
0.2134028807
 40
0.2313089783
 40
0.2497642268
 40
0.2687345772
 40
0.288183913
 40
0.3080742721
 40
0.3283660508
 40
0.3490181938
 40
0.3699883747
 40
0.3912331674
 40
0.4127082124
 40
0.4343683779
 40
0.4561679181
 40
0.4780606284
 40
0.5
 40
0.5219393716
 40
0.5438320819
 40
0.5656316221
 40
0.5872917876
 40
0.6087668326
 40
0.6300116253
 40
0.6509818062
 40
0.6716339492
 40
0.6919257279
 40
0.711816087
 40
0.7312654228
 40
0.7502357732
 40
0.7686910217
 40
0.7865971193
 40
0.8039223291
 40
0.8206375021
 40
0.8367163908
 40
0.8521360147
 40
0.8668770936
 40
0.8809245691
 40
0.8942682411
 40
0.9069035528
 40
0.9188325658
 40
0.9300651712
 40
0.9406205811
 40
0.9505291233
 40
0.9598343096
 40
0.9685950276
 40
0.9768874902
 40
0.9808889778
 40
0.984810436
 40
0.9886664131
 40
0.9924724443
 40
0.996244814
 40
1.0
 40
1.0
 40
1.0
 40
1.0
 10
11.940450825
 20
11.3710900648
 30
0.0
 10
11.940450825
 20
11.3719404447
 30
0.0
 10
11.9403894936
 20
11.3736457238
 30
0.0
 10
11.9401138638
 20
11.3761994962
 30
0.0
 10
11.9396547013
 20
11.3787500053
 30
0.0
 10
11.9390124373
 20
11.3812953609
 30
0.0
 10
11.9381875375
 20
11.3838340811
 30
0.0
 10
11.9368292159
 20
11.3872479945
 30
0.0
 10
11.9346537588
 20
11.391504467
 30
0.0
 10
11.9313564541
 20
11.3964927292
 30
0.0
 10
11.9273516194
 20
11.4014131128
 30
0.0
 10
11.9226502763
 20
11.4062550812
 30
0.0
 10
11.9172640158
 20
11.4110089378
 30
0.0
 10
11.9112056849
 20
11.4156645337
 30
0.0
 10
11.9044895001
 20
11.4202116563
 30
0.0
 10
11.8971311959
 20
11.4246400251
 30
0.0
 10
11.8891480561
 20
11.4289394248
 30
0.0
 10
11.8805589113
 20
11.4330997882
 30
0.0
 10
11.8713841044
 20
11.4371112729
 30
0.0
 10
11.8616454425
 20
11.4409643217
 30
0.0
 10
11.8513661394
 20
11.4446497098
 30
0.0
 10
11.8405707531
 20
11.4481585851
 30
0.0
 10
11.8292851197
 20
11.4514825006
 30
0.0
 10
11.8175362854
 20
11.4546134425
 30
0.0
 10
11.8053524364
 20
11.4575438549
 30
0.0
 10
11.7927628261
 20
11.4602666615
 30
0.0
 10
11.7797977008
 20
11.4627752844
 30
0.0
 10
11.766488224
 20
11.4650636613
 30
0.0
 10
11.7528663989
 20
11.4671262615
 30
0.0
 10
11.7389649895
 20
11.4689580991
 30
0.0
 10
11.7248174395
 20
11.470554746
 30
0.0
 10
11.7104577912
 20
11.4719123424
 30
0.0
 10
11.6959206021
 20
11.4730276062
 30
0.0
 10
11.6812408608
 20
11.4738978416
 30
0.0
 10
11.6664539017
 20
11.474520945
 30
0.0
 10
11.6515953195
 20
11.4748954106
 30
0.0
 10
11.6367008822
 20
11.4750203331
 30
0.0
 10
11.6218064448
 20
11.4748954106
 30
0.0
 10
11.6069478626
 20
11.474520945
 30
0.0
 10
11.5921609035
 20
11.4738978416
 30
0.0
 10
11.5774811622
 20
11.4730276062
 30
0.0
 10
11.5629439731
 20
11.4719123424
 30
0.0
 10
11.5485843248
 20
11.470554746
 30
0.0
 10
11.5344367749
 20
11.4689580991
 30
0.0
 10
11.5205353654
 20
11.4671262615
 30
0.0
 10
11.5069135403
 20
11.4650636613
 30
0.0
 10
11.4936040636
 20
11.4627752844
 30
0.0
 10
11.4806389382
 20
11.4602666615
 30
0.0
 10
11.4680493279
 20
11.4575438549
 30
0.0
 10
11.4558654789
 20
11.4546134425
 30
0.0
 10
11.4441166446
 20
11.4514825006
 30
0.0
 10
11.4328310112
 20
11.4481585851
 30
0.0
 10
11.4220356249
 20
11.4446497098
 30
0.0
 10
11.4117563218
 20
11.4409643217
 30
0.0
 10
11.4020176599
 20
11.4371112729
 30
0.0
 10
11.392842853
 20
11.4330997882
 30
0.0
 10
11.3842537082
 20
11.4289394248
 30
0.0
 10
11.3762705684
 20
11.4246400251
 30
0.0
 10
11.3689122642
 20
11.4202116563
 30
0.0
 10
11.3621960794
 20
11.4156645337
 30
0.0
 10
11.3561377485
 20
11.4110089378
 30
0.0
 10
11.350751488
 20
11.4062550812
 30
0.0
 10
11.3460501449
 20
11.4014131128
 30
0.0
 10
11.3420453102
 20
11.3964927292
 30
0.0
 10
11.3387480055
 20
11.391504467
 30
0.0
 10
11.3365725484
 20
11.3872479945
 30
0.0
 10
11.3352142268
 20
11.3838340811
 30
0.0
 10
11.334389327
 20
11.3812953609
 30
0.0
 10
11.333747063
 20
11.3787500053
 30
0.0
 10
11.3332879005
 20
11.3761994962
 30
0.0
 10
11.3330122707
 20
11.3736457238
 30
0.0
 10
11.3329509393
 20
11.3719404447
 30
0.0
 10
11.3329509393
 20
11.3710900648
 30
0.0
  0
SPLINE
  5
2B1
100
AcDbEntity
  8
0
100
AcDbSpline
 62
9
  6
CONTINUOUS
 70
0
 71
3
 72
77
 73
73
 74
0
 42
0.0000001
 43
0.0000001
 44
0.0000000001
 40
0.0
 40
0.0
 40
0.0
 40
0.0
 40
0.0037551814
 40
0.0075275546
 40
0.0113335888
 40
0.0151895641
 40
0.0191110217
 40
0.0231125096
 40
0.0314049723
 40
0.0401656906
 40
0.0494708771
 40
0.0593794197
 40
0.0699348297
 40
0.0811674348
 40
0.0930964468
 40
0.1057317575
 40
0.1190754291
 40
0.1331229049
 40
0.1478639845
 40
0.1632836094
 40
0.179362499
 40
0.1960776727
 40
0.2134028825
 40
0.2313089791
 40
0.2497642264
 40
0.2687345758
 40
0.2881839113
 40
0.3080742708
 40
0.3283660502
 40
0.349018194
 40
0.3699883754
 40
0.3912331683
 40
0.4127082131
 40
0.4343683782
 40
0.456167918
 40
0.4780606283
 40
0.5
 40
0.5219393717
 40
0.543832082
 40
0.5656316218
 40
0.5872917869
 40
0.6087668317
 40
0.6300116246
 40
0.650981806
 40
0.6716339498
 40
0.6919257292
 40
0.7118160887
 40
0.7312654242
 40
0.7502357736
 40
0.7686910209
 40
0.7865971175
 40
0.8039223273
 40
0.820637501
 40
0.8367163906
 40
0.8521360155
 40
0.8668770951
 40
0.8809245709
 40
0.8942682425
 40
0.9069035532
 40
0.9188325652
 40
0.9300651703
 40
0.9406205803
 40
0.9505291229
 40
0.9598343094
 40
0.9685950277
 40
0.9768874904
 40
0.9808889783
 40
0.9848104359
 40
0.9886664112
 40
0.9924724454
 40
0.9962448186
 40
1.0
 40
1.0
 40
1.0
 40
1.0
 10
11.9254934281
 20
11.5984916443
 30
0.0
 10
11.9254934281
 20
11.5993001484
 30
0.0
 10
11.9254351162
 20
11.6009214551
 30
0.0
 10
11.9251730602
 20
11.6033494739
 30
0.0
 10
11.9247365072
 20
11.6057743906
 30
0.0
 10
11.9241258708
 20
11.6081944069
 30
0.0
 10
11.9233415894
 20
11.6106081133
 30
0.0
 10
11.9220501571
 20
11.613853918
 30
0.0
 10
11.9199818237
 20
11.6179007908
 30
0.0
 10
11.9168468865
 20
11.6226434189
 30
0.0
 10
11.9130392592
 20
11.6273215105
 30
0.0
 10
11.9085694215
 20
11.6319250483
 30
0.0
 10
11.9034483937
 20
11.6364448132
 30
0.0
 10
11.8976883903
 20
11.6408711561
 30
0.0
 10
11.8913029278
 20
11.6451943675
 30
0.0
 10
11.8843069654
 20
11.6494046727
 30
0.0
 10
11.8767169354
 20
11.6534923595
 30
0.0
 10
11.8685507411
 20
11.6574478562
 30
0.0
 10
11.8598277238
 20
11.6612618054
 30
0.0
 10
11.850568617
 20
11.6649251202
 30
0.0
 10
11.8407954915
 20
11.6684290304
 30
0.0
 10
11.8305316962
 20
11.6717651198
 30
0.0
 10
11.8198017953
 20
11.6749253575
 30
0.0
 10
11.8086315032
 20
11.6779021244
 30
0.0
 10
11.7970476179
 20
11.6806882366
 30
0.0
 10
11.7850779516
 20
11.683276966
 30
0.0
 10
11.7727512613
 20
11.6856620583
 30
0.0
 10
11.7600971758
 20
11.6878377497
 30
0.0
 10
11.7471461226
 20
11.6897987819
 30
0.0
 10
11.7339292523
 20
11.6915404148
 30
0.0
 10
11.7204783622
 20
11.6930584384
 30
0.0
 10
11.7068258183
 20
11.6943491831
 30
0.0
 10
11.6930044764
 20
11.6954095287
 30
0.0
 10
11.6790476021
 20
11.696236912
 30
0.0
 10
11.6649887896
 20
11.696829333
 30
0.0
 10
11.6508618806
 20
11.6971853595
 30
0.0
 10
11.6367008822
 20
11.6973041307
 30
0.0
 10
11.6225398837
 20
11.6971853595
 30
0.0
 10
11.6084129747
 20
11.696829333
 30
0.0
 10
11.5943541622
 20
11.696236912
 30
0.0
 10
11.5803972879
 20
11.6954095287
 30
0.0
 10
11.566575946
 20
11.6943491831
 30
0.0
 10
11.5529234021
 20
11.6930584384
 30
0.0
 10
11.539472512
 20
11.6915404148
 30
0.0
 10
11.5262556417
 20
11.6897987819
 30
0.0
 10
11.5133045885
 20
11.6878377497
 30
0.0
 10
11.500650503
 20
11.6856620583
 30
0.0
 10
11.4883238127
 20
11.683276966
 30
0.0
 10
11.4763541465
 20
11.6806882366
 30
0.0
 10
11.4647702611
 20
11.6779021244
 30
0.0
 10
11.453599969
 20
11.6749253575
 30
0.0
 10
11.4428700681
 20
11.6717651198
 30
0.0
 10
11.4326062728
 20
11.6684290304
 30
0.0
 10
11.4228331473
 20
11.6649251202
 30
0.0
 10
11.4135740405
 20
11.6612618054
 30
0.0
 10
11.4048510232
 20
11.6574478562
 30
0.0
 10
11.3966848289
 20
11.6534923595
 30
0.0
 10
11.3890947989
 20
11.6494046727
 30
0.0
 10
11.3820988365
 20
11.6451943675
 30
0.0
 10
11.375713374
 20
11.6408711561
 30
0.0
 10
11.3699533706
 20
11.6364448132
 30
0.0
 10
11.3648323428
 20
11.6319250483
 30
0.0
 10
11.3603625051
 20
11.6273215105
 30
0.0
 10
11.3565548778
 20
11.6226434189
 30
0.0
 10
11.3534199406
 20
11.6179007908
 30
0.0
 10
11.3513516072
 20
11.613853918
 30
0.0
 10
11.3500601749
 20
11.6106081133
 30
0.0
 10
11.3492758935
 20
11.6081944069
 30
0.0
 10
11.3486652571
 20
11.6057743906
 30
0.0
 10
11.3482287041
 20
11.6033494739
 30
0.0
 10
11.3479666481
 20
11.6009214551
 30
0.0
 10
11.3479083362
 20
11.5993001484
 30
0.0
 10
11.3479083362
 20
11.5984916443
 30
0.0
  0
SPLINE
  5
2B2
100
AcDbEntity
  8
0
100
AcDbSpline
 62
9
  6
CONTINUOUS
 70
0
 71
3
 72
18
 73
14
 74
0
 42
0.0000001
 43
0.0000001
 44
0.0000000001
 40
0.0
 40
0.0
 40
0.0
 40
0.0
 40
0.0558899316
 40
0.1119579114
 40
0.1683733474
 40
0.2253053134
 40
0.2829188558
 40
0.3413712944
 40
0.4613393602
 40
0.5863367024
 40
0.7172906279
 40
0.8549711966
 40
1.0
 40
1.0
 40
1.0
 40
1.0
 10
11.940450825
 20
11.3710900648
 30
0.0
 10
11.940450825
 20
11.3703835164
 30
0.0
 10
11.9404085389
 20
11.3689678078
 30
0.0
 10
11.9402184471
 20
11.366846584
 30
0.0
 10
11.9399017109
 20
11.3647271649
 30
0.0
 10
11.9394585331
 20
11.3626106382
 30
0.0
 10
11.9388890997
 20
11.360497839
 30
0.0
 10
11.9379540645
 20
11.3576628861
 30
0.0
 10
11.9364580635
 20
11.3541226521
 30
0.0
 10
11.9341786989
 20
11.3499447676
 30
0.0
 10
11.9314045623
 20
11.3458059242
 30
0.0
 10
11.9281414685
 20
11.3417128766
 30
0.0
 10
11.9257094762
 20
11.3390892558
 30
0.0
 10
11.924419896
 20
11.3377860209
 30
0.0
  0
SPLINE
  5
2B3
100
AcDbEntity
  8
0
100
AcDbSpline
 62
9
  6
CONTINUOUS
 70
0
 71
3
 72
41
 73
37
 74
0
 42
0.0000001
 43
0.0000001
 44
0.0000000001
 40
0.0
 40
0.0
 40
0.0
 40
0.0
 40
0.0075105572
 40
0.0150551324
 40
0.0226672117
 40
0.0303792326
 40
0.0382221701
 40
0.0462251588
 40
0.0628101397
 40
0.08033163
 40
0.098942062
 40
0.11875921
 40
0.1398700972
 40
0.1623353784
 40
0.1861934769
 40
0.2114641759
 40
0.2381515996
 40
0.2662466353
 40
0.2957288833
 40
0.3265682268
 40
0.3587261054
 40
0.3921565574
 40
0.4268070864
 40
0.4626193933
 40
0.4995300046
 40
0.5374708226
 40
0.5763696146
 40
0.6161504563
 40
0.65673414
 40
0.6980385547
 40
0.7399790473
 40
0.7824687634
 40
0.8254189898
 40
0.8687394424
 40
0.912338693
 40
1.0
 40
1.0
 40
1.0
 40
1.0
 10
11.8867008821
 20
12.4122297907
 30
0.0
 10
11.8867008821
 20
12.4129297071
 30
0.0
 10
11.8866504077
 20
12.4143332272
 30
0.0
 10
11.8864235444
 20
12.4164350941
 30
0.0
 10
11.8860456326
 20
12.4185342643
 30
0.0
 10
11.885517028
 20
12.4206292127
 30
0.0
 10
11.8848380913
 20
12.4227186955
 30
0.0
 10
11.8837201349
 20
12.4255285017
 30
0.0
 10
11.8819296342
 20
12.429031771
 30
0.0
 10
11.879215802
 20
12.4331373375
 30
0.0
 10
11.8759196404
 20
12.4371870366
 30
0.0
 10
11.8720502205
 20
12.4411721963
 30
0.0
 10
11.8676170827
 20
12.445084836
 30
0.0
 10
11.862630801
 20
12.4489166028
 30
0.0
 10
11.8571030764
 20
12.4526590913
 30
0.0
 10
11.8510468587
 20
12.4563038403
 30
0.0
 10
11.8444763731
 20
12.4598424419
 30
0.0
 10
11.8374071176
 20
12.4632666101
 30
0.0
 10
11.8298558353
 20
12.4665682444
 30
0.0
 10
11.8218404742
 20
12.4697394786
 30
0.0
 10
11.8133801405
 20
12.4727727202
 30
0.0
 10
11.8044950465
 20
12.4756606837
 30
0.0
 10
11.7952064571
 20
12.4783964168
 30
0.0
 10
11.7855366326
 20
12.4809733241
 30
0.0
 10
11.7755087715
 20
12.4833851867
 30
0.0
 10
11.7651469505
 20
12.4856261804
 30
0.0
 10
11.7544760635
 20
12.487690891
 30
0.0
 10
11.7435217595
 20
12.4895743291
 30
0.0
 10
11.7323103787
 20
12.4912719426
 30
0.0
 10
11.7208688869
 20
12.492779628
 30
0.0
 10
11.7092248115
 20
12.4940937405
 30
0.0
 10
11.697406165
 20
12.4952111048
 30
0.0
 10
11.6854414124
 20
12.4961290144
 30
0.0
 10
11.673359266
 20
12.4968452704
 30
0.0
 10
11.6571037808
 20
12.4975302071
 30
0.0
 10
11.6448701276
 20
12.4977348266
 30
0.0
 10
11.6367008821
 20
12.4977348266
 30
0.0
  0
ENDSEC
  0
SECTION
  2
OBJECTS
  0
DICTIONARY
  5
C
100
AcDbDictionary
280
0
281
1
  3
ACAD_GROUP
350
D
  3
ACAD_MLINESTYLE
350
17
  3
ACAD_LAYOUT
350
1A
  3
ACAD_PLOTSETTINGS
350
19
  3
ACAD_PLOTSTYLENAME
350
E
  0
DICTIONARY
  5
D
102
{ACAD_REACTORS
330
C
102
}
100
AcDbDictionary
280
0
281
1
  0
ACDBDICTIONARYWDFLT
  5
E
102
{ACAD_REACTORS
330
C
102
}
100
AcDbDictionary
281
1
  3
Normal
350
F
100
AcDbDictionaryWithDefault
340
F
  0
DICTIONARY
  5
17
102
{ACAD_REACTORS
330
C
102
}
100
AcDbDictionary
280
0
281
1
  3
Standard
350
18
  0
DICTIONARY
  5
19
102
{ACAD_REACTORS
330
C
102
}
100
AcDbDictionary
281
1
  0
DICTIONARY
  5
1A
102
{ACAD_REACTORS
330
C
102
}
100
AcDbDictionary
281
1
  3
Model
350
2B4
  3
Layout1
350
2B5
  0
ACDBPLACEHOLDER
  5
F
102
{ACAD_REACTORS
330
E
102
}
  0
MLINESTYLE
  5
18
102
{ACAD_REACTORS
330
17
102
}
100
AcDbMlineStyle
  2
STANDARD
 70
0
  3

 62
256
 51
90.0
 52
90.0
 71
2
 49
0.5
 62
256
  6
BYLAYER
 49
-0.5
 62
256
  6
BYLAYER
  0
LAYOUT
  5
2B4
102
{ACAD_REACTORS
330
1A
102
}
100
AcDbPlotSettings
  1

  2
none_device
  4
ANSI_C_(22.00_x_17.00_Inches)
  6

 40
0.0
 41
0.0
 42
0.0
 43
0.0
 44
558.8
 45
431.8
 46
0.0
 47
0.0
 48
0.0
 49
0.0
140
0.0
141
0.0
142
1.0
143
1.0
 70
1024
 72
0
 73
0
 74
0
  7

 75
0
147
1.0
148
0.0
149
0.0
100
AcDbLayout
  1
Model
 70
0
 71
0
 10
0.0
 20
0.0
 11
22.0
 21
17.0
 12
0.0
 22
0.0
 32
0.0
 14
0.0
 24
0.0
 34
0.0
 15
0.0
 25
0.0
 35
0.0
146
0.0
 13
0.0
 23
0.0
 33
0.0
 16
1.0
 26
0.0
 36
0.0
 17
0.0
 27
1.0
 37
0.0
 76
0
330
205
345
0
346
0
  0
LAYOUT
  5
2B5
102
{ACAD_REACTORS
330
1A
102
}
100
AcDbPlotSettings
  1

  2
none_device
  4
ANSI_C_(22.00_x_17.00_Inches)
  6

 40
0.0
 41
0.0
 42
0.0
 43
0.0
 44
558.8
 45
431.8
 46
0.0
 47
0.0
 48
0.0
 49
0.0
140
0.0
141
0.0
142
1.0
143
1.0
 70
0
 72
0
 73
0
 74
0
  7

 75
0
147
1.0
148
0.0
149
0.0
100
AcDbLayout
  1
Layout1
 70
0
 71
1
 10
0.0
 20
0.0
 11
22.0
 21
17.0
 12
0.0
 22
0.0
 32
0.0
 14
0.0
 24
0.0
 34
0.0
 15
0.0
 25
0.0
 35
0.0
146
0.0
 13
0.0
 23
0.0
 33
0.0
 16
1.0
 26
0.0
 36
0.0
 17
0.0
 27
1.0
 37
0.0
 76
0
330
206
345
0
346
0
  0
ENDSEC
  0
EOF
