ISO-10303-21;
HEADER;
FILE_DESCRIPTION((''),'2;1');
FILE_NAME('36-13','2021-10-28T10:22:45',('jinson.thomas'),(''),
'CREO PARAMETRIC BY PTC INC, 2018400','CREO PARAMETRIC BY PTC INC, 2018400','');
FILE_SCHEMA(('CONFIG_CONTROL_DESIGN'));
ENDSEC;
DATA;
#2=CARTESIAN_POINT('',(0.E0,0.E0,2.4E-1));
#3=DIRECTION('',(0.E0,0.E0,1.E0));
#4=DIRECTION('',(0.E0,-1.E0,0.E0));
#5=AXIS2_PLACEMENT_3D('',#2,#3,#4);
#7=CARTESIAN_POINT('',(0.E0,0.E0,0.E0));
#8=DIRECTION('',(0.E0,0.E0,-1.E0));
#9=DIRECTION('',(0.E0,1.E0,0.E0));
#10=AXIS2_PLACEMENT_3D('',#7,#8,#9);
#12=CARTESIAN_POINT('',(0.E0,-8.55E-1,2.4E-1));
#13=DIRECTION('',(1.E0,0.E0,0.E0));
#14=DIRECTION('',(0.E0,0.E0,1.E0));
#15=AXIS2_PLACEMENT_3D('',#12,#13,#14);
#17=CARTESIAN_POINT('',(0.E0,0.E0,2.6E-1));
#18=DIRECTION('',(0.E0,0.E0,1.E0));
#19=DIRECTION('',(0.E0,1.E0,0.E0));
#20=AXIS2_PLACEMENT_3D('',#17,#18,#19);
#22=CARTESIAN_POINT('',(0.E0,0.E0,2.6E-1));
#23=DIRECTION('',(0.E0,0.E0,1.E0));
#24=DIRECTION('',(0.E0,-1.E0,0.E0));
#25=AXIS2_PLACEMENT_3D('',#22,#23,#24);
#27=CARTESIAN_POINT('',(0.E0,0.E0,2.6E-1));
#28=DIRECTION('',(0.E0,0.E0,-1.E0));
#29=DIRECTION('',(-1.E0,0.E0,0.E0));
#30=AXIS2_PLACEMENT_3D('',#27,#28,#29);
#32=CARTESIAN_POINT('',(0.E0,0.E0,2.6E-1));
#33=DIRECTION('',(0.E0,0.E0,-1.E0));
#34=DIRECTION('',(1.E0,0.E0,0.E0));
#35=AXIS2_PLACEMENT_3D('',#32,#33,#34);
#37=CARTESIAN_POINT('',(0.E0,8.55E-1,2.4E-1));
#38=DIRECTION('',(-1.E0,0.E0,0.E0));
#39=DIRECTION('',(0.E0,0.E0,1.E0));
#40=AXIS2_PLACEMENT_3D('',#37,#38,#39);
#42=CARTESIAN_POINT('',(0.E0,0.E0,2.4E-1));
#43=DIRECTION('',(0.E0,0.E0,1.E0));
#44=DIRECTION('',(0.E0,1.E0,0.E0));
#45=AXIS2_PLACEMENT_3D('',#42,#43,#44);
#47=DIRECTION('',(-9.653391100766E-14,0.E0,1.E0));
#48=VECTOR('',#47,2.4E-1);
#49=CARTESIAN_POINT('',(0.E0,-8.75E-1,0.E0));
#50=LINE('',#49,#48);
#51=CARTESIAN_POINT('',(0.E0,0.E0,0.E0));
#52=DIRECTION('',(0.E0,0.E0,1.E0));
#53=DIRECTION('',(0.E0,1.E0,0.E0));
#54=AXIS2_PLACEMENT_3D('',#51,#52,#53);
#56=DIRECTION('',(9.810641692920E-14,0.E0,1.E0));
#57=VECTOR('',#56,2.4E-1);
#58=CARTESIAN_POINT('',(0.E0,8.75E-1,0.E0));
#59=LINE('',#58,#57);
#60=DIRECTION('',(0.E0,0.E0,1.E0));
#61=VECTOR('',#60,1.595E0);
#62=CARTESIAN_POINT('',(-4.05E-1,0.E0,2.6E-1));
#63=LINE('',#62,#61);
#64=DIRECTION('',(0.E0,0.E0,1.E0));
#65=VECTOR('',#64,1.595E0);
#66=CARTESIAN_POINT('',(4.05E-1,0.E0,2.6E-1));
#67=LINE('',#66,#65);
#68=CARTESIAN_POINT('',(1.6E0,0.E0,2.26E0));
#69=DIRECTION('',(-1.E0,0.E0,0.E0));
#70=DIRECTION('',(0.E0,-2.294753714474E-13,-1.E0));
#71=AXIS2_PLACEMENT_3D('',#68,#69,#70);
#73=DIRECTION('',(-1.E0,2.593783085957E-14,0.E0));
#74=VECTOR('',#73,1.195E0);
#75=CARTESIAN_POINT('',(1.6E0,-3.094609968183E-14,1.855E0));
#76=LINE('',#75,#74);
#77=CARTESIAN_POINT('',(4.05E-1,0.E0,1.855E0));
#78=CARTESIAN_POINT('',(4.050282145911E-1,-1.283951091932E-2,1.855E0));
#79=CARTESIAN_POINT('',(4.037751009073E-1,-3.880731720855E-2,1.856224248855E0));
#80=CARTESIAN_POINT('',(3.980568508783E-1,-7.816703729390E-2,1.861935778867E0));
#81=CARTESIAN_POINT('',(3.882298740612E-1,-1.177819154418E-1,1.871772266171E0));
#82=CARTESIAN_POINT('',(3.740433354093E-1,-1.572379831785E-1,1.885956539551E0));
#83=CARTESIAN_POINT('',(3.550277039558E-1,-1.965891542365E-1,1.904972694603E0));
#84=CARTESIAN_POINT('',(3.306414424992E-1,-2.354510545510E-1,1.929358258055E0));
#85=CARTESIAN_POINT('',(3.004413859522E-1,-2.730872206110E-1,1.959559254419E0));
#86=CARTESIAN_POINT('',(2.640284250692E-1,-3.085768142372E-1,1.995971834337E0));
#87=CARTESIAN_POINT('',(2.212741664572E-1,-3.406758419256E-1,2.038727025440E0));
#88=CARTESIAN_POINT('',(1.724351794888E-1,-3.679302400262E-1,2.087560055826E0));
#89=CARTESIAN_POINT('',(1.183000583168E-1,-3.888326004415E-1,2.141717873441E0));
#90=CARTESIAN_POINT('',(6.013147332553E-2,-4.019910916567E-1,2.199803350612E0));
#91=CARTESIAN_POINT('',(2.030913245811E-2,-4.05E-1,2.239830565030E0));
#92=CARTESIAN_POINT('',(0.E0,-4.05E-1,2.26E0));
#94=CARTESIAN_POINT('',(0.E0,-4.05E-1,2.26E0));
#95=CARTESIAN_POINT('',(-2.030940780553E-2,-4.05E-1,2.239830291441E0));
#96=CARTESIAN_POINT('',(-6.013216046403E-2,-4.019910098863E-1,
2.199802663459E0));
#97=CARTESIAN_POINT('',(-1.183009241178E-1,-3.888323363654E-1,
2.141717007422E0));
#98=CARTESIAN_POINT('',(-1.724358518663E-1,-3.679299142446E-1,
2.087559384174E0));
#99=CARTESIAN_POINT('',(-2.212746547924E-1,-3.406755193992E-1,
2.038726536818E0));
#100=CARTESIAN_POINT('',(-2.640288668241E-1,-3.085764440283E-1,
1.995971395873E0));
#101=CARTESIAN_POINT('',(-3.004418390753E-1,-2.730867178642E-1,
1.959558795812E0));
#102=CARTESIAN_POINT('',(-3.306419256331E-1,-2.354504172884E-1,
1.929357781427E0));
#103=CARTESIAN_POINT('',(-3.550283568262E-1,-1.965879463192E-1,
1.904972020092E0));
#104=CARTESIAN_POINT('',(-3.740437590015E-1,-1.572370393947E-1,
1.885956155828E0));
#105=CARTESIAN_POINT('',(-3.882302419885E-1,-1.177806810044E-1,
1.871771856569E0));
#106=CARTESIAN_POINT('',(-3.980572652911E-1,-7.816480590759E-2,
1.861935335637E0));
#107=CARTESIAN_POINT('',(-4.037753211608E-1,-3.880591124468E-2,
1.856224155056E0));
#108=CARTESIAN_POINT('',(-4.050282977701E-1,-1.283894526354E-2,1.855E0));
#109=CARTESIAN_POINT('',(-4.05E-1,0.E0,1.855E0));
#111=DIRECTION('',(-1.E0,-2.588593983818E-14,0.E0));
#112=VECTOR('',#111,1.195E0);
#113=CARTESIAN_POINT('',(-4.05E-1,0.E0,1.855E0));
#114=LINE('',#113,#112);
#115=CARTESIAN_POINT('',(-1.6E0,0.E0,2.26E0));
#116=DIRECTION('',(-1.E0,0.E0,0.E0));
#117=DIRECTION('',(0.E0,-2.294752823633E-13,-1.E0));
#118=AXIS2_PLACEMENT_3D('',#115,#116,#117);
#120=CARTESIAN_POINT('',(-1.6E0,0.E0,2.26E0));
#121=DIRECTION('',(-1.E0,0.E0,0.E0));
#122=DIRECTION('',(0.E0,0.E0,1.E0));
#123=AXIS2_PLACEMENT_3D('',#120,#121,#122);
#125=CARTESIAN_POINT('',(-4.05E-1,0.E0,1.855E0));
#126=CARTESIAN_POINT('',(-4.050281979186E-1,1.283958346884E-2,1.855E0));
#127=CARTESIAN_POINT('',(-4.037750570665E-1,3.880750478125E-2,
1.856224259208E0));
#128=CARTESIAN_POINT('',(-3.980567750791E-1,7.816742319321E-2,
1.861935853649E0));
#129=CARTESIAN_POINT('',(-3.882298043077E-1,1.177821608447E-1,
1.871772345708E0));
#130=CARTESIAN_POINT('',(-3.740432444822E-1,1.572381827861E-1,
1.885956622842E0));
#131=CARTESIAN_POINT('',(-3.550276217284E-1,1.965892986020E-1,
1.904972782410E0));
#132=CARTESIAN_POINT('',(-3.306414760053E-1,2.354509958777E-1,
1.929358222170E0));
#133=CARTESIAN_POINT('',(-3.004414264658E-1,2.730871806436E-1,
1.959559217175E0));
#134=CARTESIAN_POINT('',(-2.640284938979E-1,3.085767512105E-1,
1.995971762715E0));
#135=CARTESIAN_POINT('',(-2.212742237603E-1,3.406758087123E-1,
2.038726968172E0));
#136=CARTESIAN_POINT('',(-1.724351885429E-1,3.679302352927E-1,
2.087560046968E0));
#137=CARTESIAN_POINT('',(-1.183001288416E-1,3.888325761100E-1,
2.141717802588E0));
#138=CARTESIAN_POINT('',(-6.013154807848E-2,4.019910824027E-1,
2.199803276143E0));
#139=CARTESIAN_POINT('',(-2.030916454924E-2,4.05E-1,2.239830533044E0));
#140=CARTESIAN_POINT('',(0.E0,4.05E-1,2.26E0));
#142=CARTESIAN_POINT('',(0.E0,4.05E-1,2.26E0));
#143=CARTESIAN_POINT('',(2.030924705066E-2,4.05E-1,2.239830450302E0));
#144=CARTESIAN_POINT('',(6.013174903875E-2,4.019910539629E-1,2.199803074636E0));
#145=CARTESIAN_POINT('',(1.183002847814E-1,3.888325285382E-1,2.141717647771E0));
#146=CARTESIAN_POINT('',(1.724353259840E-1,3.679301630429E-1,2.087559909078E0));
#147=CARTESIAN_POINT('',(2.212741020861E-1,3.406758718850E-1,2.038727089876E0));
#148=CARTESIAN_POINT('',(2.640283153699E-1,3.085769190908E-1,1.995971951261E0));
#149=CARTESIAN_POINT('',(3.004413509176E-1,2.730872476704E-1,1.959559280321E0));
#150=CARTESIAN_POINT('',(3.306414311074E-1,2.354511034819E-1,1.929358276200E0));
#151=CARTESIAN_POINT('',(3.550279814409E-1,1.965886584906E-1,1.904972401340E0));
#152=CARTESIAN_POINT('',(3.740435971314E-1,1.572374056258E-1,1.885956300773E0));
#153=CARTESIAN_POINT('',(3.882300756340E-1,1.177812145888E-1,1.871772037361E0));
#154=CARTESIAN_POINT('',(3.980570776346E-1,7.816586169958E-2,1.861935548230E0));
#155=CARTESIAN_POINT('',(4.037752296469E-1,3.880666977428E-2,1.856224209360E0));
#156=CARTESIAN_POINT('',(4.050282636592E-1,1.283925522945E-2,1.855E0));
#157=CARTESIAN_POINT('',(4.05E-1,0.E0,1.855E0));
#159=CARTESIAN_POINT('',(1.6E0,0.E0,2.26E0));
#160=DIRECTION('',(-1.E0,0.E0,0.E0));
#161=DIRECTION('',(0.E0,0.E0,1.E0));
#162=AXIS2_PLACEMENT_3D('',#159,#160,#161);
#164=DIRECTION('',(-1.E0,0.E0,0.E0));
#165=VECTOR('',#164,3.2E0);
#166=CARTESIAN_POINT('',(1.6E0,0.E0,2.665E0));
#167=LINE('',#166,#165);
#168=CARTESIAN_POINT('',(-1.6E0,0.E0,2.26E0));
#169=DIRECTION('',(1.E0,0.E0,0.E0));
#170=DIRECTION('',(0.E0,-1.E0,0.E0));
#171=AXIS2_PLACEMENT_3D('',#168,#169,#170);
#173=CARTESIAN_POINT('',(-1.6E0,0.E0,2.26E0));
#174=DIRECTION('',(-1.E0,0.E0,0.E0));
#175=DIRECTION('',(0.E0,-1.E0,0.E0));
#176=AXIS2_PLACEMENT_3D('',#173,#174,#175);
#178=DIRECTION('',(1.E0,0.E0,0.E0));
#179=VECTOR('',#178,1.5748E-1);
#180=CARTESIAN_POINT('',(-1.75748E0,-6.79135E-1,2.26E0));
#181=LINE('',#180,#179);
#182=DIRECTION('',(1.E0,0.E0,0.E0));
#183=VECTOR('',#182,1.5748E-1);
#184=CARTESIAN_POINT('',(-1.75748E0,6.79135E-1,2.26E0));
#185=LINE('',#184,#183);
#186=CARTESIAN_POINT('',(-1.75748E0,0.E0,2.26E0));
#187=DIRECTION('',(1.E0,0.E0,0.E0));
#188=DIRECTION('',(0.E0,-1.E0,0.E0));
#189=AXIS2_PLACEMENT_3D('',#186,#187,#188);
#191=CARTESIAN_POINT('',(-1.75748E0,0.E0,2.26E0));
#192=DIRECTION('',(-1.E0,0.E0,0.E0));
#193=DIRECTION('',(0.E0,-1.E0,0.E0));
#194=AXIS2_PLACEMENT_3D('',#191,#192,#193);
#196=CARTESIAN_POINT('',(1.6E0,0.E0,2.26E0));
#197=DIRECTION('',(-1.E0,0.E0,0.E0));
#198=DIRECTION('',(0.E0,1.E0,0.E0));
#199=AXIS2_PLACEMENT_3D('',#196,#197,#198);
#201=CARTESIAN_POINT('',(1.6E0,0.E0,2.26E0));
#202=DIRECTION('',(1.E0,0.E0,0.E0));
#203=DIRECTION('',(0.E0,1.E0,0.E0));
#204=AXIS2_PLACEMENT_3D('',#201,#202,#203);
#206=DIRECTION('',(-1.E0,0.E0,0.E0));
#207=VECTOR('',#206,1.5748E-1);
#208=CARTESIAN_POINT('',(1.75748E0,6.79135E-1,2.26E0));
#209=LINE('',#208,#207);
#210=DIRECTION('',(-1.E0,0.E0,0.E0));
#211=VECTOR('',#210,1.5748E-1);
#212=CARTESIAN_POINT('',(1.75748E0,-6.79135E-1,2.26E0));
#213=LINE('',#212,#211);
#214=CARTESIAN_POINT('',(1.75748E0,0.E0,2.26E0));
#215=DIRECTION('',(-1.E0,0.E0,0.E0));
#216=DIRECTION('',(0.E0,1.E0,0.E0));
#217=AXIS2_PLACEMENT_3D('',#214,#215,#216);
#219=CARTESIAN_POINT('',(1.75748E0,0.E0,2.26E0));
#220=DIRECTION('',(1.E0,0.E0,0.E0));
#221=DIRECTION('',(0.E0,1.E0,0.E0));
#222=AXIS2_PLACEMENT_3D('',#219,#220,#221);
#224=CARTESIAN_POINT('',(0.E0,8.75E-1,0.E0));
#225=CARTESIAN_POINT('',(0.E0,-8.75E-1,0.E0));
#226=VERTEX_POINT('',#224);
#227=VERTEX_POINT('',#225);
#228=CARTESIAN_POINT('',(0.E0,8.55E-1,2.6E-1));
#229=CARTESIAN_POINT('',(0.E0,-8.55E-1,2.6E-1));
#230=VERTEX_POINT('',#228);
#231=VERTEX_POINT('',#229);
#232=CARTESIAN_POINT('',(0.E0,8.75E-1,2.4E-1));
#233=CARTESIAN_POINT('',(0.E0,-8.75E-1,2.4E-1));
#234=VERTEX_POINT('',#232);
#235=VERTEX_POINT('',#233);
#236=VERTEX_POINT('',#142);
#237=VERTEX_POINT('',#157);
#238=VERTEX_POINT('',#125);
#239=VERTEX_POINT('',#92);
#240=CARTESIAN_POINT('',(-4.05E-1,0.E0,2.6E-1));
#241=CARTESIAN_POINT('',(4.05E-1,0.E0,2.6E-1));
#242=VERTEX_POINT('',#240);
#243=VERTEX_POINT('',#241);
#244=CARTESIAN_POINT('',(1.75748E0,6.79135E-1,2.26E0));
#245=CARTESIAN_POINT('',(1.6E0,6.79135E-1,2.26E0));
#246=VERTEX_POINT('',#244);
#247=VERTEX_POINT('',#245);
#248=CARTESIAN_POINT('',(1.75748E0,-6.79135E-1,2.26E0));
#249=CARTESIAN_POINT('',(1.6E0,-6.79135E-1,2.26E0));
#250=VERTEX_POINT('',#248);
#251=VERTEX_POINT('',#249);
#252=CARTESIAN_POINT('',(1.6E0,0.E0,2.665E0));
#253=CARTESIAN_POINT('',(1.6E0,-9.288738518930E-14,1.855E0));
#254=VERTEX_POINT('',#252);
#255=VERTEX_POINT('',#253);
#256=CARTESIAN_POINT('',(-1.75748E0,-6.79135E-1,2.26E0));
#257=CARTESIAN_POINT('',(-1.6E0,-6.79135E-1,2.26E0));
#258=VERTEX_POINT('',#256);
#259=VERTEX_POINT('',#257);
#260=CARTESIAN_POINT('',(-1.75748E0,6.79135E-1,2.26E0));
#261=CARTESIAN_POINT('',(-1.6E0,6.79135E-1,2.26E0));
#262=VERTEX_POINT('',#260);
#263=VERTEX_POINT('',#261);
#264=CARTESIAN_POINT('',(-1.6E0,0.E0,2.665E0));
#265=CARTESIAN_POINT('',(-1.6E0,-9.288738518930E-14,1.855E0));
#266=VERTEX_POINT('',#264);
#267=VERTEX_POINT('',#265);
#268=CARTESIAN_POINT('',(0.E0,0.E0,0.E0));
#269=DIRECTION('',(0.E0,0.E0,-1.E0));
#270=DIRECTION('',(0.E0,-1.E0,0.E0));
#271=AXIS2_PLACEMENT_3D('',#268,#269,#270);
#272=PLANE('',#271);
#274=ORIENTED_EDGE('',*,*,#273,.F.);
#276=ORIENTED_EDGE('',*,*,#275,.T.);
#277=EDGE_LOOP('',(#274,#276));
#278=FACE_OUTER_BOUND('',#277,.F.);
#279=ADVANCED_FACE('',(#278),#272,.T.);
#280=CARTESIAN_POINT('',(0.E0,0.E0,2.73E-1));
#281=DIRECTION('',(0.E0,0.E0,-1.E0));
#282=DIRECTION('',(0.E0,-1.E0,0.E0));
#283=AXIS2_PLACEMENT_3D('',#280,#281,#282);
#284=CYLINDRICAL_SURFACE('',#283,8.75E-1);
#286=ORIENTED_EDGE('',*,*,#285,.T.);
#288=ORIENTED_EDGE('',*,*,#287,.F.);
#289=ORIENTED_EDGE('',*,*,#273,.T.);
#291=ORIENTED_EDGE('',*,*,#290,.T.);
#292=EDGE_LOOP('',(#286,#288,#289,#291));
#293=FACE_OUTER_BOUND('',#292,.F.);
#294=ADVANCED_FACE('',(#293),#284,.T.);
#295=CARTESIAN_POINT('',(0.E0,0.E0,2.4E-1));
#296=DIRECTION('',(0.E0,0.E0,-1.E0));
#297=DIRECTION('',(-6.212937224872E-3,-9.999806995193E-1,0.E0));
#298=AXIS2_PLACEMENT_3D('',#295,#296,#297);
#299=TOROIDAL_SURFACE('',#298,8.55E-1,2.E-2);
#301=ORIENTED_EDGE('',*,*,#300,.T.);
#303=ORIENTED_EDGE('',*,*,#302,.T.);
#304=ORIENTED_EDGE('',*,*,#285,.F.);
#306=ORIENTED_EDGE('',*,*,#305,.F.);
#307=EDGE_LOOP('',(#301,#303,#304,#306));
#308=FACE_OUTER_BOUND('',#307,.F.);
#309=ADVANCED_FACE('',(#308),#299,.T.);
#310=CARTESIAN_POINT('',(0.E0,0.E0,2.6E-1));
#311=DIRECTION('',(0.E0,0.E0,-1.E0));
#312=DIRECTION('',(0.E0,-1.E0,0.E0));
#313=AXIS2_PLACEMENT_3D('',#310,#311,#312);
#314=PLANE('',#313);
#316=ORIENTED_EDGE('',*,*,#315,.F.);
#317=ORIENTED_EDGE('',*,*,#300,.F.);
#318=EDGE_LOOP('',(#316,#317));
#319=FACE_OUTER_BOUND('',#318,.F.);
#321=ORIENTED_EDGE('',*,*,#320,.F.);
#323=ORIENTED_EDGE('',*,*,#322,.F.);
#324=EDGE_LOOP('',(#321,#323));
#325=FACE_BOUND('',#324,.F.);
#326=ADVANCED_FACE('',(#319,#325),#314,.F.);
#327=CARTESIAN_POINT('',(0.E0,0.E0,2.4E-1));
#328=DIRECTION('',(0.E0,0.E0,-1.E0));
#329=DIRECTION('',(6.212937224872E-3,9.999806995193E-1,0.E0));
#330=AXIS2_PLACEMENT_3D('',#327,#328,#329);
#331=TOROIDAL_SURFACE('',#330,8.55E-1,2.E-2);
#332=ORIENTED_EDGE('',*,*,#315,.T.);
#333=ORIENTED_EDGE('',*,*,#305,.T.);
#335=ORIENTED_EDGE('',*,*,#334,.F.);
#336=ORIENTED_EDGE('',*,*,#302,.F.);
#337=EDGE_LOOP('',(#332,#333,#335,#336));
#338=FACE_OUTER_BOUND('',#337,.F.);
#339=ADVANCED_FACE('',(#338),#331,.T.);
#340=CARTESIAN_POINT('',(0.E0,0.E0,2.73E-1));
#341=DIRECTION('',(0.E0,0.E0,-1.E0));
#342=DIRECTION('',(0.E0,-1.E0,0.E0));
#343=AXIS2_PLACEMENT_3D('',#340,#341,#342);
#344=CYLINDRICAL_SURFACE('',#343,8.75E-1);
#345=ORIENTED_EDGE('',*,*,#334,.T.);
#346=ORIENTED_EDGE('',*,*,#290,.F.);
#347=ORIENTED_EDGE('',*,*,#275,.F.);
#348=ORIENTED_EDGE('',*,*,#287,.T.);
#349=EDGE_LOOP('',(#345,#346,#347,#348));
#350=FACE_OUTER_BOUND('',#349,.F.);
#351=ADVANCED_FACE('',(#350),#344,.T.);
#352=CARTESIAN_POINT('',(0.E0,0.E0,2.6E-1));
#353=DIRECTION('',(0.E0,0.E0,-1.E0));
#354=DIRECTION('',(-1.E0,0.E0,0.E0));
#355=AXIS2_PLACEMENT_3D('',#352,#353,#354);
#356=CYLINDRICAL_SURFACE('',#355,4.05E-1);
#357=ORIENTED_EDGE('',*,*,#320,.T.);
#359=ORIENTED_EDGE('',*,*,#358,.T.);
#361=ORIENTED_EDGE('',*,*,#360,.F.);
#363=ORIENTED_EDGE('',*,*,#362,.F.);
#365=ORIENTED_EDGE('',*,*,#364,.F.);
#366=EDGE_LOOP('',(#357,#359,#361,#363,#365));
#367=FACE_OUTER_BOUND('',#366,.F.);
#368=ADVANCED_FACE('',(#367),#356,.T.);
#369=CARTESIAN_POINT('',(0.E0,0.E0,2.6E-1));
#370=DIRECTION('',(0.E0,0.E0,-1.E0));
#371=DIRECTION('',(-1.E0,0.E0,0.E0));
#372=AXIS2_PLACEMENT_3D('',#369,#370,#371);
#373=CYLINDRICAL_SURFACE('',#372,4.05E-1);
#374=ORIENTED_EDGE('',*,*,#364,.T.);
#376=ORIENTED_EDGE('',*,*,#375,.F.);
#378=ORIENTED_EDGE('',*,*,#377,.F.);
#379=ORIENTED_EDGE('',*,*,#358,.F.);
#380=ORIENTED_EDGE('',*,*,#322,.T.);
#381=EDGE_LOOP('',(#374,#376,#378,#379,#380));
#382=FACE_OUTER_BOUND('',#381,.F.);
#383=ADVANCED_FACE('',(#382),#373,.T.);
#384=CARTESIAN_POINT('',(1.6E0,0.E0,2.26E0));
#385=DIRECTION('',(-1.E0,0.E0,0.E0));
#386=DIRECTION('',(0.E0,0.E0,1.E0));
#387=AXIS2_PLACEMENT_3D('',#384,#385,#386);
#388=CYLINDRICAL_SURFACE('',#387,4.05E-1);
#390=ORIENTED_EDGE('',*,*,#389,.F.);
#392=ORIENTED_EDGE('',*,*,#391,.F.);
#394=ORIENTED_EDGE('',*,*,#393,.T.);
#395=ORIENTED_EDGE('',*,*,#377,.T.);
#396=ORIENTED_EDGE('',*,*,#375,.T.);
#398=ORIENTED_EDGE('',*,*,#397,.T.);
#400=ORIENTED_EDGE('',*,*,#399,.T.);
#401=EDGE_LOOP('',(#390,#392,#394,#395,#396,#398,#400));
#402=FACE_OUTER_BOUND('',#401,.F.);
#403=ADVANCED_FACE('',(#402),#388,.T.);
#404=CARTESIAN_POINT('',(1.6E0,0.E0,2.26E0));
#405=DIRECTION('',(-1.E0,0.E0,0.E0));
#406=DIRECTION('',(0.E0,0.E0,1.E0));
#407=AXIS2_PLACEMENT_3D('',#404,#405,#406);
#408=CYLINDRICAL_SURFACE('',#407,4.05E-1);
#410=ORIENTED_EDGE('',*,*,#409,.T.);
#411=ORIENTED_EDGE('',*,*,#397,.F.);
#412=ORIENTED_EDGE('',*,*,#362,.T.);
#413=ORIENTED_EDGE('',*,*,#360,.T.);
#414=ORIENTED_EDGE('',*,*,#393,.F.);
#416=ORIENTED_EDGE('',*,*,#415,.F.);
#417=ORIENTED_EDGE('',*,*,#389,.T.);
#418=EDGE_LOOP('',(#410,#411,#412,#413,#414,#416,#417));
#419=FACE_OUTER_BOUND('',#418,.F.);
#420=ADVANCED_FACE('',(#419),#408,.T.);
#421=CARTESIAN_POINT('',(-1.6E0,0.E0,2.26E0));
#422=DIRECTION('',(-1.E0,0.E0,0.E0));
#423=DIRECTION('',(0.E0,1.E0,0.E0));
#424=AXIS2_PLACEMENT_3D('',#421,#422,#423);
#425=PLANE('',#424);
#427=ORIENTED_EDGE('',*,*,#426,.F.);
#429=ORIENTED_EDGE('',*,*,#428,.T.);
#430=EDGE_LOOP('',(#427,#429));
#431=FACE_OUTER_BOUND('',#430,.F.);
#432=ORIENTED_EDGE('',*,*,#409,.F.);
#433=ORIENTED_EDGE('',*,*,#399,.F.);
#434=EDGE_LOOP('',(#432,#433));
#435=FACE_BOUND('',#434,.F.);
#436=ADVANCED_FACE('',(#431,#435),#425,.F.);
#437=CARTESIAN_POINT('',(-1.23248E0,0.E0,2.26E0));
#438=DIRECTION('',(-1.E0,0.E0,0.E0));
#439=DIRECTION('',(0.E0,1.E0,0.E0));
#440=AXIS2_PLACEMENT_3D('',#437,#438,#439);
#441=CYLINDRICAL_SURFACE('',#440,6.79135E-1);
#443=ORIENTED_EDGE('',*,*,#442,.T.);
#444=ORIENTED_EDGE('',*,*,#426,.T.);
#446=ORIENTED_EDGE('',*,*,#445,.F.);
#448=ORIENTED_EDGE('',*,*,#447,.F.);
#449=EDGE_LOOP('',(#443,#444,#446,#448));
#450=FACE_OUTER_BOUND('',#449,.F.);
#451=ADVANCED_FACE('',(#450),#441,.T.);
#452=CARTESIAN_POINT('',(-1.23248E0,0.E0,2.26E0));
#453=DIRECTION('',(-1.E0,0.E0,0.E0));
#454=DIRECTION('',(0.E0,1.E0,0.E0));
#455=AXIS2_PLACEMENT_3D('',#452,#453,#454);
#456=CYLINDRICAL_SURFACE('',#455,6.79135E-1);
#457=ORIENTED_EDGE('',*,*,#442,.F.);
#459=ORIENTED_EDGE('',*,*,#458,.T.);
#460=ORIENTED_EDGE('',*,*,#445,.T.);
#461=ORIENTED_EDGE('',*,*,#428,.F.);
#462=EDGE_LOOP('',(#457,#459,#460,#461));
#463=FACE_OUTER_BOUND('',#462,.F.);
#464=ADVANCED_FACE('',(#463),#456,.T.);
#465=CARTESIAN_POINT('',(-1.75748E0,0.E0,2.26E0));
#466=DIRECTION('',(-1.E0,0.E0,0.E0));
#467=DIRECTION('',(0.E0,1.E0,0.E0));
#468=AXIS2_PLACEMENT_3D('',#465,#466,#467);
#469=PLANE('',#468);
#470=ORIENTED_EDGE('',*,*,#458,.F.);
#471=ORIENTED_EDGE('',*,*,#447,.T.);
#472=EDGE_LOOP('',(#470,#471));
#473=FACE_OUTER_BOUND('',#472,.F.);
#474=ADVANCED_FACE('',(#473),#469,.T.);
#475=CARTESIAN_POINT('',(1.6E0,0.E0,2.26E0));
#476=DIRECTION('',(1.E0,0.E0,0.E0));
#477=DIRECTION('',(0.E0,-1.E0,0.E0));
#478=AXIS2_PLACEMENT_3D('',#475,#476,#477);
#479=PLANE('',#478);
#481=ORIENTED_EDGE('',*,*,#480,.F.);
#483=ORIENTED_EDGE('',*,*,#482,.T.);
#484=EDGE_LOOP('',(#481,#483));
#485=FACE_OUTER_BOUND('',#484,.F.);
#486=ORIENTED_EDGE('',*,*,#415,.T.);
#487=ORIENTED_EDGE('',*,*,#391,.T.);
#488=EDGE_LOOP('',(#486,#487));
#489=FACE_BOUND('',#488,.F.);
#490=ADVANCED_FACE('',(#485,#489),#479,.F.);
#491=CARTESIAN_POINT('',(1.23248E0,0.E0,2.26E0));
#492=DIRECTION('',(1.E0,0.E0,0.E0));
#493=DIRECTION('',(0.E0,-1.E0,0.E0));
#494=AXIS2_PLACEMENT_3D('',#491,#492,#493);
#495=CYLINDRICAL_SURFACE('',#494,6.79135E-1);
#497=ORIENTED_EDGE('',*,*,#496,.T.);
#498=ORIENTED_EDGE('',*,*,#480,.T.);
#500=ORIENTED_EDGE('',*,*,#499,.F.);
#502=ORIENTED_EDGE('',*,*,#501,.F.);
#503=EDGE_LOOP('',(#497,#498,#500,#502));
#504=FACE_OUTER_BOUND('',#503,.F.);
#505=ADVANCED_FACE('',(#504),#495,.T.);
#506=CARTESIAN_POINT('',(1.23248E0,0.E0,2.26E0));
#507=DIRECTION('',(1.E0,0.E0,0.E0));
#508=DIRECTION('',(0.E0,-1.E0,0.E0));
#509=AXIS2_PLACEMENT_3D('',#506,#507,#508);
#510=CYLINDRICAL_SURFACE('',#509,6.79135E-1);
#511=ORIENTED_EDGE('',*,*,#496,.F.);
#513=ORIENTED_EDGE('',*,*,#512,.T.);
#514=ORIENTED_EDGE('',*,*,#499,.T.);
#515=ORIENTED_EDGE('',*,*,#482,.F.);
#516=EDGE_LOOP('',(#511,#513,#514,#515));
#517=FACE_OUTER_BOUND('',#516,.F.);
#518=ADVANCED_FACE('',(#517),#510,.T.);
#519=CARTESIAN_POINT('',(1.75748E0,0.E0,2.26E0));
#520=DIRECTION('',(1.E0,0.E0,0.E0));
#521=DIRECTION('',(0.E0,-1.E0,0.E0));
#522=AXIS2_PLACEMENT_3D('',#519,#520,#521);
#523=PLANE('',#522);
#524=ORIENTED_EDGE('',*,*,#512,.F.);
#525=ORIENTED_EDGE('',*,*,#501,.T.);
#526=EDGE_LOOP('',(#524,#525));
#527=FACE_OUTER_BOUND('',#526,.F.);
#528=ADVANCED_FACE('',(#527),#523,.T.);
#529=CLOSED_SHELL('',(#279,#294,#309,#326,#339,#351,#368,#383,#403,#420,#436,
#451,#464,#474,#490,#505,#518,#528));
#530=MANIFOLD_SOLID_BREP('',#529);
#531=DIMENSIONAL_EXPONENTS(1.E0,0.E0,0.E0,0.E0,0.E0,0.E0,0.E0);
#533=LENGTH_MEASURE_WITH_UNIT(LENGTH_MEASURE(2.54E1),#532);
#534=(CONVERSION_BASED_UNIT('INCH',#533)LENGTH_UNIT()NAMED_UNIT(#531));
#535=DIMENSIONAL_EXPONENTS(0.E0,0.E0,0.E0,0.E0,0.E0,0.E0,0.E0);
#537=PLANE_ANGLE_MEASURE_WITH_UNIT(PLANE_ANGLE_MEASURE(1.745329251994E-2),#536);
#538=(CONVERSION_BASED_UNIT('DEGREE',#537)NAMED_UNIT(*)PLANE_ANGLE_UNIT());
#540=UNCERTAINTY_MEASURE_WITH_UNIT(LENGTH_MEASURE(2.009721576904E-4),#534,
'closure',
'Maximum model space distance between geometric entities at asserted connectivities');
#541=(GEOMETRIC_REPRESENTATION_CONTEXT(3)GLOBAL_UNCERTAINTY_ASSIGNED_CONTEXT((
#540))GLOBAL_UNIT_ASSIGNED_CONTEXT((#534,#538,#539))REPRESENTATION_CONTEXT
('ID1','3'));
#543=APPLICATION_CONTEXT(
'CONFIGURATION CONTROLLED 3D DESIGNS OF MECHANICAL PARTS AND ASSEMBLIES');
#544=APPLICATION_PROTOCOL_DEFINITION('international standard',
'config_control_design',1994,#543);
#545=DESIGN_CONTEXT('',#543,'design');
#546=MECHANICAL_CONTEXT('',#543,'mechanical');
#547=PRODUCT('36-13','36-13','NOT SPECIFIED',(#546));
#548=PRODUCT_DEFINITION_FORMATION_WITH_SPECIFIED_SOURCE('1','LAST_VERSION',#547,
.MADE.);
#552=PRODUCT_CATEGORY('part','');
#553=PRODUCT_RELATED_PRODUCT_CATEGORY('detail','',(#547));
#554=PRODUCT_CATEGORY_RELATIONSHIP('','',#552,#553);
#555=SECURITY_CLASSIFICATION_LEVEL('unclassified');
#556=SECURITY_CLASSIFICATION('','',#555);
#557=CC_DESIGN_SECURITY_CLASSIFICATION(#556,(#548));
#558=APPROVAL_STATUS('approved');
#559=APPROVAL(#558,'');
#560=CC_DESIGN_APPROVAL(#559,(#556,#548,#549));
#561=CALENDAR_DATE(121,28,10);
#562=COORDINATED_UNIVERSAL_TIME_OFFSET(5,30,.AHEAD.);
#563=LOCAL_TIME(10,22,4.5E1,#562);
#564=DATE_AND_TIME(#561,#563);
#565=APPROVAL_DATE_TIME(#564,#559);
#566=DATE_TIME_ROLE('creation_date');
#567=CC_DESIGN_DATE_AND_TIME_ASSIGNMENT(#564,#566,(#549));
#568=DATE_TIME_ROLE('classification_date');
#569=CC_DESIGN_DATE_AND_TIME_ASSIGNMENT(#564,#568,(#556));
#570=PERSON('UNSPECIFIED','UNSPECIFIED',$,$,$,$);
#571=ORGANIZATION('UNSPECIFIED','UNSPECIFIED','UNSPECIFIED');
#572=PERSON_AND_ORGANIZATION(#570,#571);
#573=APPROVAL_ROLE('approver');
#574=APPROVAL_PERSON_ORGANIZATION(#572,#559,#573);
#575=PERSON_AND_ORGANIZATION_ROLE('creator');
#576=CC_DESIGN_PERSON_AND_ORGANIZATION_ASSIGNMENT(#572,#575,(#548,#549));
#577=PERSON_AND_ORGANIZATION_ROLE('design_supplier');
#578=CC_DESIGN_PERSON_AND_ORGANIZATION_ASSIGNMENT(#572,#577,(#548));
#579=PERSON_AND_ORGANIZATION_ROLE('classification_officer');
#580=CC_DESIGN_PERSON_AND_ORGANIZATION_ASSIGNMENT(#572,#579,(#556));
#581=PERSON_AND_ORGANIZATION_ROLE('design_owner');
#582=CC_DESIGN_PERSON_AND_ORGANIZATION_ASSIGNMENT(#572,#581,(#547));
#6=CIRCLE('',#5,8.75E-1);
#11=CIRCLE('',#10,8.75E-1);
#16=CIRCLE('',#15,2.E-2);
#21=CIRCLE('',#20,8.55E-1);
#26=CIRCLE('',#25,8.55E-1);
#31=CIRCLE('',#30,4.05E-1);
#36=CIRCLE('',#35,4.05E-1);
#41=CIRCLE('',#40,2.E-2);
#46=CIRCLE('',#45,8.75E-1);
#55=CIRCLE('',#54,8.75E-1);
#72=CIRCLE('',#71,4.05E-1);
#93=B_SPLINE_CURVE_WITH_KNOTS('',3,(#77,#78,#79,#80,#81,#82,#83,#84,#85,#86,#87,
#88,#89,#90,#91,#92),.UNSPECIFIED.,.F.,.F.,(4,1,1,1,1,1,1,1,1,1,1,1,1,4),(0.E0,
7.692307692308E-2,1.538461538462E-1,2.307692307692E-1,3.076923076923E-1,
3.846153846154E-1,4.615384615385E-1,5.384615384615E-1,6.153846153846E-1,
6.923076923077E-1,7.692307692308E-1,8.461538461538E-1,9.230769230769E-1,1.E0),
.UNSPECIFIED.);
#110=B_SPLINE_CURVE_WITH_KNOTS('',3,(#94,#95,#96,#97,#98,#99,#100,#101,#102,
#103,#104,#105,#106,#107,#108,#109),.UNSPECIFIED.,.F.,.F.,(4,1,1,1,1,1,1,1,1,1,
1,1,1,4),(0.E0,7.692307692308E-2,1.538461538462E-1,2.307692307692E-1,
3.076923076923E-1,3.846153846154E-1,4.615384615385E-1,5.384615384615E-1,
6.153846153846E-1,6.923076923077E-1,7.692307692308E-1,8.461538461538E-1,
9.230769230769E-1,1.E0),.UNSPECIFIED.);
#119=CIRCLE('',#118,4.05E-1);
#124=CIRCLE('',#123,4.05E-1);
#141=B_SPLINE_CURVE_WITH_KNOTS('',3,(#125,#126,#127,#128,#129,#130,#131,#132,
#133,#134,#135,#136,#137,#138,#139,#140),.UNSPECIFIED.,.F.,.F.,(4,1,1,1,1,1,1,1,
1,1,1,1,1,4),(0.E0,7.692307692308E-2,1.538461538462E-1,2.307692307692E-1,
3.076923076923E-1,3.846153846154E-1,4.615384615385E-1,5.384615384615E-1,
6.153846153846E-1,6.923076923077E-1,7.692307692308E-1,8.461538461538E-1,
9.230769230769E-1,1.E0),.UNSPECIFIED.);
#158=B_SPLINE_CURVE_WITH_KNOTS('',3,(#142,#143,#144,#145,#146,#147,#148,#149,
#150,#151,#152,#153,#154,#155,#156,#157),.UNSPECIFIED.,.F.,.F.,(4,1,1,1,1,1,1,1,
1,1,1,1,1,4),(0.E0,7.692307692308E-2,1.538461538462E-1,2.307692307692E-1,
3.076923076923E-1,3.846153846154E-1,4.615384615385E-1,5.384615384615E-1,
6.153846153846E-1,6.923076923077E-1,7.692307692308E-1,8.461538461538E-1,
9.230769230769E-1,1.E0),.UNSPECIFIED.);
#163=CIRCLE('',#162,4.05E-1);
#172=CIRCLE('',#171,6.79135E-1);
#177=CIRCLE('',#176,6.79135E-1);
#190=CIRCLE('',#189,6.79135E-1);
#195=CIRCLE('',#194,6.79135E-1);
#200=CIRCLE('',#199,6.79135E-1);
#205=CIRCLE('',#204,6.79135E-1);
#218=CIRCLE('',#217,6.79135E-1);
#223=CIRCLE('',#222,6.79135E-1);
#273=EDGE_CURVE('',#226,#227,#11,.T.);
#275=EDGE_CURVE('',#226,#227,#55,.T.);
#285=EDGE_CURVE('',#235,#234,#6,.T.);
#287=EDGE_CURVE('',#226,#234,#59,.T.);
#290=EDGE_CURVE('',#227,#235,#50,.T.);
#300=EDGE_CURVE('',#231,#230,#26,.T.);
#302=EDGE_CURVE('',#230,#234,#41,.T.);
#305=EDGE_CURVE('',#231,#235,#16,.T.);
#315=EDGE_CURVE('',#230,#231,#21,.T.);
#320=EDGE_CURVE('',#242,#243,#31,.T.);
#322=EDGE_CURVE('',#243,#242,#36,.T.);
#334=EDGE_CURVE('',#234,#235,#46,.T.);
#358=EDGE_CURVE('',#243,#237,#67,.T.);
#360=EDGE_CURVE('',#236,#237,#158,.T.);
#362=EDGE_CURVE('',#238,#236,#141,.T.);
#364=EDGE_CURVE('',#242,#238,#63,.T.);
#375=EDGE_CURVE('',#239,#238,#110,.T.);
#377=EDGE_CURVE('',#237,#239,#93,.T.);
#389=EDGE_CURVE('',#254,#266,#167,.T.);
#391=EDGE_CURVE('',#255,#254,#72,.T.);
#393=EDGE_CURVE('',#255,#237,#76,.T.);
#397=EDGE_CURVE('',#238,#267,#114,.T.);
#399=EDGE_CURVE('',#267,#266,#119,.T.);
#409=EDGE_CURVE('',#266,#267,#124,.T.);
#415=EDGE_CURVE('',#254,#255,#163,.T.);
#426=EDGE_CURVE('',#259,#263,#172,.T.);
#428=EDGE_CURVE('',#259,#263,#177,.T.);
#442=EDGE_CURVE('',#258,#259,#181,.T.);
#445=EDGE_CURVE('',#262,#263,#185,.T.);
#447=EDGE_CURVE('',#258,#262,#190,.T.);
#458=EDGE_CURVE('',#258,#262,#195,.T.);
#480=EDGE_CURVE('',#247,#251,#200,.T.);
#482=EDGE_CURVE('',#247,#251,#205,.T.);
#496=EDGE_CURVE('',#246,#247,#209,.T.);
#499=EDGE_CURVE('',#250,#251,#213,.T.);
#501=EDGE_CURVE('',#246,#250,#218,.T.);
#512=EDGE_CURVE('',#246,#250,#223,.T.);
#532=(LENGTH_UNIT()NAMED_UNIT(*)SI_UNIT(.MILLI.,.METRE.));
#536=(NAMED_UNIT(*)PLANE_ANGLE_UNIT()SI_UNIT($,.RADIAN.));
#539=(NAMED_UNIT(*)SI_UNIT($,.STERADIAN.)SOLID_ANGLE_UNIT());
#542=ADVANCED_BREP_SHAPE_REPRESENTATION('',(#530),#541);
#549=PRODUCT_DEFINITION('design','',#548,#545);
#550=PRODUCT_DEFINITION_SHAPE('','SHAPE FOR 36-13.',#549);
#551=SHAPE_DEFINITION_REPRESENTATION(#550,#542);
ENDSEC;
END-ISO-10303-21;
