999
DXF file: E:\BT Custom\CADOUTPUT\_FRONT.dxf
999
Pro/ENGINEER 2018400 by Parametric Technology Corporation
  0
SECTION
  2
HEADER
  9
$ACADVER
  1
AC1018
  9
$DWGCODEPAGE
  3
ANSI_1252
  9
$EXTMAX
 10
22.0
 20
17.0
 30
0.0
  9
$EXTMIN
 10
0.0
 20
0.0
 30
0.0
  9
$LIMMIN
 10
0.0
 20
0.0
  9
$LIMMAX
 10
22.0
 20
17.0
  9
$VIEWCTR
 10
11.0
 20
8.5
  9
$VIEWSIZE
 40
17.0
  9
$CLAYER
  8
0
  9
$LTSCALE
 40
1.21
  9
$CELTYPE
  6
BYLAYER
  9
$DIMSCALE
 40
1.0
  9
$DIMASZ
 40
0.1
  9
$DIMEXO
 40
0.0625
  9
$DIMDLI
 40
0.836
  9
$DIMEXE
 40
0.125
  9
$DIMCEN
 40
0.198
  9
$DIMLFAC
 40
1.0
  9
$DIMBLK
  1
_FILLED
  9
$DIMALT
 70
1
  9
$DIMALTD
 70
2
  9
$DIMALTTD
 70
2
  9
$DIMALTF
 40
25.4
  9
$DIMTXT
 40
0.08
  9
$DIMTOL
 70
1
  9
$DIMLIM
 70
0
  9
$DIMTFAC
 40
1.0
  9
$DIMTP
 40
0.001
  9
$DIMTM
 40
0.001
  9
$DIMGAP
 40
0.09
  9
$DIMDSEP
 70
46
  9
$AUNITS
 70
0
  9
$PDMODE
 70
3
  9
$PDSIZE
 40
0.06
  9
$HANDSEED
  5
247
  9
$TILEMODE
 70
1
  9
$MEASUREMENT
 70
0
  9
$INSUNITS
 70
1
  0
ENDSEC
  0
SECTION
  2
CLASSES
  0
CLASS
  1
ACDBDICTIONARYWDFLT
  2
AcDbDictionaryWithDefault
  3
AutoCAD 2000
 90
0
 91
1
280
0
281
0
  0
CLASS
  1
ACDBPLACEHOLDER
  2
AcDbPlaceHolder
  3
AutoCAD 2000
 90
0
 91
1
280
0
281
0
  0
CLASS
  1
LAYOUT
  2
AcDbLayout
  3
AutoCAD 2000
 90
0
 91
0
280
0
281
0
  0
ENDSEC
  0
SECTION
  2
TABLES
  0
TABLE
  2
VPORT
  5
8
100
AcDbSymbolTable
 70
2
  0
VPORT
  5
1F4
100
AcDbSymbolTableRecord
100
AcDbViewportTableRecord
  2
*ACTIVE
 70
0
 10
0.0
 20
0.0
 11
1.0
 21
1.0
 12
11.0
 22
8.5
 13
0.0
 23
0.0
 14
1.0
 24
1.0
 15
0.0
 25
0.0
 16
0.0
 26
0.0
 36
1.0
 17
0.0
 27
0.0
 37
0.0
 40
17.0
 41
1.2941176471
 42
50.0
 43
0.0
 44
0.0
 50
0.0
 51
0.0
 71
0
 72
100
 73
1
 74
1
 75
0
 76
0
 77
0
 78
0
  0
ENDTAB
  0
TABLE
  2
LTYPE
  5
5
100
AcDbSymbolTable
 70
6
  0
LTYPE
  5
14
100
AcDbSymbolTableRecord
100
AcDbLinetypeTableRecord
  2
BYBLOCK
 70
0
  3

 72
65
 73
0
 40
0.0
  0
LTYPE
  5
15
100
AcDbSymbolTableRecord
100
AcDbLinetypeTableRecord
  2
BYLAYER
 70
0
  3

 72
65
 73
0
 40
0.0
  0
LTYPE
  5
16
100
AcDbSymbolTableRecord
100
AcDbLinetypeTableRecord
  2
CONTINUOUS
 70
64
  3
Solid line
 72
65
 73
0
 40
0.0
  0
LTYPE
  5
1F5
100
AcDbSymbolTableRecord
100
AcDbLinetypeTableRecord
  2
CENTER
 70
64
  3
____ _ ____ _ ____ _ ____ _ ____ _ ____ _ ____
 72
65
 73
4
 40
0.6
 49
0.375
 74
0
 49
-0.075
 74
0
 49
0.075
 74
0
 49
-0.075
 74
0
  0
LTYPE
  5
1F6
100
AcDbSymbolTableRecord
100
AcDbLinetypeTableRecord
  2
HIDDEN
 70
64
  3
- - - - - - - - - - - - - - - - - - - -
 72
65
 73
2
 40
0.2
 49
0.1
 74
0
 49
-0.1
 74
0
  0
LTYPE
  5
1F7
100
AcDbSymbolTableRecord
100
AcDbLinetypeTableRecord
  2
PHANTOM
 70
64
  3
_____ _ _ _____ _ _ _____ _ _ _____
 72
65
 73
6
 40
0.8
 49
0.45
 74
0
 49
-0.05
 74
0
 49
0.1
 74
0
 49
-0.05
 74
0
 49
0.1
 74
0
 49
-0.05
 74
0
  0
LTYPE
  5
1F8
100
AcDbSymbolTableRecord
100
AcDbLinetypeTableRecord
  2
DOT
 70
64
  3
. . . . . . . . . . . . . . . . . . . .
 72
65
 73
2
 40
0.2
 49
0.1
 74
0
 49
-0.1
 74
0
  0
LTYPE
  5
1F9
100
AcDbSymbolTableRecord
100
AcDbLinetypeTableRecord
  2
DASHED
 70
64
  3
- - - - - - - - - - - - - - - - - - - -
 72
65
 73
2
 40
0.2
 49
0.1
 74
0
 49
-0.1
 74
0
  0
ENDTAB
  0
TABLE
  2
LAYER
  5
2
100
AcDbSymbolTable
 70
36
  0
LAYER
  5
10
100
AcDbSymbolTableRecord
100
AcDbLayerTableRecord
  2
0
 70
0
 62
7
  6
CONTINUOUS
370
-3
390
F
  0
LAYER
  5
1FA
100
AcDbSymbolTableRecord
100
AcDbLayerTableRecord
  2
DEFAULT_1
 70
0
 62
7
  6
CENTER
370
-3
390
F
  0
LAYER
  5
1FB
100
AcDbSymbolTableRecord
100
AcDbLayerTableRecord
  2
DEFAULT_2
 70
0
 62
8
  6
HIDDEN
370
-3
390
F
  0
LAYER
  5
1FC
100
AcDbSymbolTableRecord
100
AcDbLayerTableRecord
  2
DEFAULT_3
 70
0
 62
7
  6
PHANTOM
370
-3
390
F
  0
LAYER
  5
1FD
100
AcDbSymbolTableRecord
100
AcDbLayerTableRecord
  2
ALL_FEATURES
 70
0
 62
7
  6
CONTINUOUS
370
-3
390
F
  0
LAYER
  5
1FE
100
AcDbSymbolTableRecord
100
AcDbLayerTableRecord
  2
AXES_FEATURES
 70
0
 62
7
  6
CONTINUOUS
370
-3
390
F
  0
LAYER
  5
1FF
100
AcDbSymbolTableRecord
100
AcDbLayerTableRecord
  2
DEFAULT_COORDINATE_SYSTEM
 70
0
 62
7
  6
CONTINUOUS
370
-3
390
F
  0
LAYER
  5
200
100
AcDbSymbolTableRecord
100
AcDbLayerTableRecord
  2
DEFAULT_DATUM_AXES
 70
0
 62
7
  6
CONTINUOUS
370
-3
390
F
  0
LAYER
  5
201
100
AcDbSymbolTableRecord
100
AcDbLayerTableRecord
  2
DEFAULT_DATUM_PLANES
 70
0
 62
7
  6
CONTINUOUS
370
-3
390
F
  0
LAYER
  5
202
100
AcDbSymbolTableRecord
100
AcDbLayerTableRecord
  2
DIMENSIONS
 70
0
 62
7
  6
CONTINUOUS
370
-3
390
F
  0
ENDTAB
  0
TABLE
  2
STYLE
  5
3
100
AcDbSymbolTable
 70
1
  0
STYLE
  5
11
100
AcDbSymbolTableRecord
100
AcDbTextStyleTableRecord
  2
STANDARD
 70
0
 40
0.0
 41
0.8
 50
0.0
 71
0
 42
0.2
  3
txt
  4

  0
STYLE
  5
203
100
AcDbSymbolTableRecord
100
AcDbTextStyleTableRecord
  2
TEXTSTYLE_1
 70
0
 40
0.0
 41
0.8
 50
0.0
 71
0
 42
0.2
  3
gdt
  4

  0
ENDTAB
  0
TABLE
  2
VIEW
  5
6
100
AcDbSymbolTable
 70
0
  0
ENDTAB
  0
TABLE
  2
UCS
  5
7
100
AcDbSymbolTable
 70
0
  0
ENDTAB
  0
TABLE
  2
APPID
  5
9
100
AcDbSymbolTable
 70
1
  0
APPID
  5
204
100
AcDbSymbolTableRecord
100
AcDbRegAppTableRecord
  2
ACAD
 70
0
  0
ENDTAB
  0
TABLE
  2
BLOCK_RECORD
  5
1
100
AcDbSymbolTable
 70
0
  0
BLOCK_RECORD
  5
205
100
AcDbSymbolTableRecord
100
AcDbBlockTableRecord
  2
*Model_Space
  0
BLOCK_RECORD
  5
206
100
AcDbSymbolTableRecord
100
AcDbBlockTableRecord
  2
*Paper_Space
  0
BLOCK_RECORD
  5
207
100
AcDbSymbolTableRecord
100
AcDbBlockTableRecord
  2
_FILLED
  0
ENDTAB
  0
TABLE
  2
DIMSTYLE
  5
A
100
AcDbSymbolTable
 70
1
100
AcDbDimStyleTable
 71
0
  0
DIMSTYLE
105
208
100
AcDbSymbolTableRecord
100
AcDbDimStyleTableRecord
  2
STANDARD
 70
0
  3

  4

 40
1.0
 41
0.1
 42
0.0625
 43
0.38
 44
0.125
 45
0.0
 46
0.0
 47
0.001
 48
0.001
140
0.08
141
0.09
142
0.0
143
25.4
144
1.0
145
0.0
146
1.0
147
0.09
 71
1.0
 72
0.0
 73
1
 74
1
 75
0
 76
0
 77
0
 78
4
 79
1
170
1
171
2
172
0
173
0
174
0
175
0
176
0
177
0
178
0
270
2
179
3
271
3
272
3
273
2
274
2
275
0
280
0
281
0
282
0
283
1
284
4
285
0
286
0
287
3
288
0
340
11
278
46
341
207
342
207
343
207
344
207
  0
ENDTAB
  0
ENDSEC
  0
SECTION
  2
BLOCKS
  0
BLOCK
  5
20
100
AcDbEntity
  8
0
100
AcDbBlockBegin
  2
*Model_Space
 70
0
 10
0.0
 20
0.0
 30
0.0
  3
*Model_Space
  1

  0
ENDBLK
  5
21
100
AcDbEntity
  8
0
100
AcDbBlockEnd
  0
BLOCK
  5
1C
100
AcDbEntity
  8
0
100
AcDbBlockBegin
  2
*Paper_Space
 70
0
 10
0.0
 20
0.0
 30
0.0
  3
*Paper_Space
  1

  0
ENDBLK
  5
1D
100
AcDbEntity
  8
0
100
AcDbBlockEnd
  0
BLOCK
  5
209
100
AcDbEntity
  8
0
100
AcDbBlockBegin
  2
_FILLED
 70
64
 10
0.0
 20
0.0
  3
_FILLED
  1

  0
SOLID
  5
20A
100
AcDbEntity
  8
0
  6
BYBLOCK
 62
0
100
AcDbTrace
 10
0.0
 20
0.0
 11
-1.0
 21
0.2
 12
-1.0
 22
-0.2
 13
-1.0
 23
-0.2
  0
ENDBLK
  5
20B
100
AcDbEntity
  8
0
  6
BYBLOCK
 62
0
100
AcDbBlockEnd
  0
ENDSEC
  0
SECTION
  2
ENTITIES
  0
LINE
  5
20C
100
AcDbEntity
  8
0
100
AcDbLine
 62
9
  6
CONTINUOUS
 10
10.1576923595
 20
9.774121882
 11
10.1577385059
 21
9.7743428656
  0
LINE
  5
20D
100
AcDbEntity
  8
0
100
AcDbLine
 62
7
  6
CONTINUOUS
 10
10.1276923436
 20
9.7657562334
 11
10.1276923436
 21
8.8278045439
  0
LINE
  5
20E
100
AcDbEntity
  8
0
100
AcDbLine
 62
9
  6
CONTINUOUS
 10
10.1576923436
 20
9.8076694777
 11
10.1576923436
 21
9.7743428656
  0
LINE
  5
20F
100
AcDbEntity
  8
0
100
AcDbLine
 62
9
  6
CONTINUOUS
 10
10.1576920864
 20
9.7741219587
 11
10.1576795905
 21
9.7045976168
  0
LWPOLYLINE
  5
210
100
AcDbEntity
  8
0
100
AcDbPolyline
 62
7
  6
CONTINUOUS
 90
13
 70
0
 10
11.1827185861
 20
8.761167269
 10
11.1827014625
 20
8.7611643122
 10
11.183331103
 20
8.7612641667
 10
11.1849954943
 20
8.7615078196
 10
11.1877281796
 20
8.7618742322
 10
11.1915681694
 20
8.7623441878
 10
11.1965910724
 20
8.762903812
 10
11.2028884531
 20
8.7635412378
 10
11.2106127515
 20
8.7642504371
 10
11.2201478359
 20
8.7650446291
 10
11.2313249927
 20
8.76589135
 10
11.2436257651
 20
8.7667387332
 10
11.2578980972
 20
8.7676343782
  0
LWPOLYLINE
  5
211
100
AcDbEntity
  8
0
100
AcDbPolyline
 62
7
  6
CONTINUOUS
 90
6
 70
0
 10
11.4109320289
 20
8.775942461
 10
11.4682909845
 20
8.7793399312
 10
11.5308361252
 20
8.7833675018
 10
11.598540096
 20
8.7881455462
 10
11.6714768549
 20
8.7938114271
 10
11.7202843422
 20
8.7979161003
  0
LWPOLYLINE
  5
212
100
AcDbEntity
  8
0
100
AcDbPolyline
 62
7
  6
CONTINUOUS
 90
3
 70
0
 10
11.2578980972
 20
8.7676343782
 10
11.2982411111
 20
8.7698736312
 10
11.4109320289
 20
8.775942461
  0
LWPOLYLINE
  5
213
100
AcDbEntity
  8
0
100
AcDbPolyline
 62
7
  6
CONTINUOUS
 90
14
 70
0
 10
10.5147248137
 20
8.7731630362
 10
10.6002010898
 20
8.768630289
 10
10.6171928745
 20
8.767652018
 10
10.6312992996
 20
8.7667688975
 10
10.643376549
 20
8.7659405815
 10
10.6543786536
 20
8.7651125742
 10
10.6639116255
 20
8.7643253862
 10
10.6717084091
 20
8.763616882
 10
10.6781125965
 20
8.7629758418
 10
10.6832686063
 20
8.7624079331
 10
10.6872504827
 20
8.7619260927
 10
10.6901232351
 20
8.7615450286
 10
10.6919200761
 20
8.7612845768
 10
10.6923361508
 20
8.7612202431
  0
LWPOLYLINE
  5
214
100
AcDbEntity
  8
0
100
AcDbPolyline
 62
7
  6
CONTINUOUS
 90
7
 70
0
 10
10.1551003452
 20
8.7979161002
 10
10.203429188
 20
8.7938504452
 10
10.2763408674
 20
8.7881827997
 10
10.3440259924
 20
8.7834026749
 10
10.4065612618
 20
8.7793727401
 10
10.4639242949
 20
8.7759725822
 10
10.5147248137
 20
8.7731630362
  0
LINE
  5
215
100
AcDbEntity
  8
0
100
AcDbLine
 62
9
  6
CONTINUOUS
 10
10.5522449972
 20
8.7711783394
 11
10.5562656217
 21
8.7720581581
  0
LINE
  5
216
100
AcDbEntity
  8
0
100
AcDbLine
 62
9
  6
CONTINUOUS
 10
11.3231387238
 20
8.7711782892
 11
11.3191190655
 21
8.7720581581
  0
LINE
  5
217
100
AcDbEntity
  8
0
100
AcDbLine
 62
9
  6
CONTINUOUS
 10
10.5570667183
 20
9.738947075
 11
10.5570628718
 21
9.7046873343
  0
LINE
  5
218
100
AcDbEntity
  8
0
100
AcDbLine
 62
9
  6
CONTINUOUS
 10
11.3183179688
 20
9.738947075
 11
11.3183218154
 21
9.7046873342
  0
LINE
  5
219
100
AcDbEntity
  8
0
100
AcDbLine
 62
7
  6
CONTINUOUS
 10
11.7176923436
 20
9.7743429958
 11
10.1576923435
 21
9.7743429958
  0
LINE
  5
21A
100
AcDbEntity
  8
0
100
AcDbLine
 62
7
  6
CONTINUOUS
 10
10.15769609
 20
9.8076694278
 11
11.7176909478
 21
9.8076692139
  0
LINE
  5
21B
100
AcDbEntity
  8
0
100
AcDbLine
 62
9
  6
CONTINUOUS
 10
11.7177050971
 20
9.7045976916
 11
11.7176925999
 21
9.774121959
  0
LINE
  5
21C
100
AcDbEntity
  8
0
100
AcDbLine
 62
9
  6
CONTINUOUS
 10
11.7176923436
 20
9.8076693717
 11
11.7176923436
 21
9.7743428157
  0
LINE
  5
21D
100
AcDbEntity
  8
0
100
AcDbLine
 62
7
  6
CONTINUOUS
 10
11.7476923436
 20
8.8278045439
 11
11.7476923436
 21
9.7657562334
  0
LINE
  5
21E
100
AcDbEntity
  8
0
100
AcDbLine
 62
9
  6
CONTINUOUS
 10
11.7176923278
 20
9.7741218827
 11
11.7176462136
 21
9.7743428157
  0
ARC
  5
21F
100
AcDbEntity
  8
0
100
AcDbCircle
 62
9
  6
CONTINUOUS
 10
10.1577060656
 20
9.7438221499
 40
0.0302997356
100
AcDbArc
 50
90.0264342209
 51
105.9449587246
  0
ARC
  5
220
100
AcDbEntity
  8
0
100
AcDbCircle
 62
9
  6
CONTINUOUS
 10
10.1576574583
 20
9.7440201764
 40
0.0300964492
100
AcDbArc
 50
108.9985275636
 51
124.0860578962
  0
ARC
  5
221
100
AcDbEntity
  8
0
100
AcDbCircle
 62
9
  6
CONTINUOUS
 10
10.1576311093
 20
9.7440935869
 40
0.0300213137
100
AcDbArc
 50
126.7135926681
 51
142.1986062824
  0
ARC
  5
222
100
AcDbEntity
  8
0
100
AcDbCircle
 62
7
  6
CONTINUOUS
 10
10.1576923436
 20
8.8278045504
 40
0.03
100
AcDbArc
 50
180.0000123728
 51
265.0463586943
  0
ARC
  5
223
100
AcDbEntity
  8
0
100
AcDbCircle
 62
7
  6
CONTINUOUS
 10
10.1576918883
 20
9.7443434712
 40
0.029998926
100
AcDbArc
 50
89.9109312408
 51
180.0015415557
  0
ARC
  5
224
100
AcDbEntity
  8
0
100
AcDbCircle
 62
9
  6
CONTINUOUS
 10
10.1576083826
 20
9.7441464404
 40
0.0299610873
100
AcDbArc
 50
105.9357074872
 51
108.9883961356
  0
ARC
  5
225
100
AcDbEntity
  8
0
100
AcDbCircle
 62
9
  6
CONTINUOUS
 10
10.1575093143
 20
9.7442487918
 40
0.0298240857
100
AcDbArc
 50
124.0964939437
 51
126.7042731454
  0
ARC
  5
226
100
AcDbEntity
  8
0
100
AcDbCircle
 62
9
  6
CONTINUOUS
 10
10.1574050449
 20
9.744320452
 40
0.0297127097
100
AcDbArc
 50
162.1930410023
 51
179.9569987937
  0
ARC
  5
227
100
AcDbEntity
  8
0
100
AcDbCircle
 62
9
  6
CONTINUOUS
 10
10.1573256671
 20
9.7443416809
 40
0.0296279096
100
AcDbArc
 50
142.2156539934
 51
161.0600309819
  0
ARC
  5
228
100
AcDbEntity
  8
0
100
AcDbCircle
 62
9
  6
CONTINUOUS
 10
10.1570782582
 20
9.7444161492
 40
0.0293723147
100
AcDbArc
 50
161.0801256967
 51
162.1758314494
  0
ARC
  5
229
100
AcDbEntity
  8
0
100
AcDbCircle
 62
9
  6
CONTINUOUS
 10
10.9357176884
 20
17.8447871586
 40
9.0808264578
100
AcDbArc
 50
272.4448773149
 51
274.956419515
  0
ARC
  5
22A
100
AcDbEntity
  8
0
100
AcDbCircle
 62
7
  6
CONTINUOUS
 10
10.9376922894
 20
9.6676594681
 40
0.9399827015
100
AcDbArc
 50
254.8543695839
 51
285.1253053064
  0
ARC
  5
22B
100
AcDbEntity
  8
0
100
AcDbCircle
 62
7
  6
CONTINUOUS
 10
11.7176923436
 20
8.8278039294
 40
0.03
100
AcDbArc
 50
274.9565772644
 51
360.0
  0
ARC
  5
22C
100
AcDbEntity
  8
0
100
AcDbCircle
 62
7
  6
CONTINUOUS
 10
11.7176940535
 20
9.7443439744
 40
0.0299982833
100
AcDbArc
 50
359.9979130093
 51
90.0913791709
  0
ARC
  5
22D
100
AcDbEntity
  8
0
100
AcDbCircle
 62
9
  6
CONTINUOUS
 10
10.9404977891
 20
17.857632088
 40
9.0936951392
100
AcDbArc
 50
265.0453578372
 51
267.5533451684
  0
ARC
  5
22E
100
AcDbEntity
  8
0
100
AcDbCircle
 62
9
  6
CONTINUOUS
 10
10.9376923436
 20
17.7972150723
 40
9.0332133634
100
AcDbArc
 50
267.5799707353
 51
272.4200292647
  0
SPLINE
  5
22F
100
AcDbEntity
  8
0
100
AcDbSpline
 62
7
  6
CONTINUOUS
 70
0
 71
3
 72
15
 73
11
 74
0
 42
0.0000001
 43
0.0000001
 44
0.0000000001
 40
0.0
 40
0.0
 40
0.0
 40
0.0
 40
0.1248859782
 40
0.2498479428
 40
0.3748336545
 40
0.4998640206
 40
0.6248874121
 40
0.7498982627
 40
0.8750111361
 40
1.0
 40
1.0
 40
1.0
 40
1.0
 10
11.7176909478
 20
9.8076692139
 30
0.0
 10
11.7200528305
 20
9.8076692139
 30
0.0
 10
11.7248108023
 20
9.8068571859
 30
0.0
 10
11.7311762537
 20
9.8035363011
 30
0.0
 10
11.7364830234
 20
9.7987394118
 30
0.0
 10
11.740693562
 20
9.7929820981
 30
0.0
 10
11.7438710174
 20
9.7866083512
 30
0.0
 10
11.7460902228
 20
9.7798458481
 30
0.0
 10
11.7474021905
 20
9.7728554126
 30
0.0
 10
11.7476923427
 20
9.7681202486
 30
0.0
 10
11.7476923436
 20
9.7657564201
 30
0.0
  0
SPLINE
  5
230
100
AcDbEntity
  8
0
100
AcDbSpline
 62
7
  6
CONTINUOUS
 70
0
 71
3
 72
15
 73
11
 74
0
 42
0.0000001
 43
0.0000001
 44
0.0000000001
 40
0.0
 40
0.0
 40
0.0
 40
0.0
 40
0.1249888632
 40
0.2501017443
 40
0.3751125957
 40
0.5001360248
 40
0.6251663302
 40
0.7501521173
 40
0.8751140319
 40
1.0
 40
1.0
 40
1.0
 40
1.0
 10
10.1276923436
 20
9.7657563817
 30
0.0
 10
10.1276923436
 20
9.7681203116
 30
0.0
 10
10.127982517
 20
9.7728556794
 30
0.0
 10
10.1292945886
 20
9.7798464076
 30
0.0
 10
10.1315139778
 20
9.7866091754
 30
0.0
 10
10.1346917047
 20
9.792983131
 30
0.0
 10
10.1389026237
 20
9.7987405587
 30
0.0
 10
10.1442098637
 20
9.8035373827
 30
0.0
 10
10.1505758768
 20
9.8068579841
 30
0.0
 10
10.1553341062
 20
9.8076694278
 30
0.0
 10
10.15769609
 20
9.8076694278
 30
0.0
  0
LINE
  5
231
100
AcDbEntity
  8
0
100
AcDbLine
 62
7
  6
CONTINUOUS
 10
10.6906494422
 20
8.7607136727
 11
10.6920980535
 21
8.7603204526
  0
LINE
  5
232
100
AcDbEntity
  8
0
100
AcDbLine
 62
7
  6
CONTINUOUS
 10
11.1829646403
 20
8.7602333876
 11
11.184745493
 21
8.7607164633
  0
LINE
  5
233
100
AcDbEntity
  8
0
100
AcDbLine
 62
9
  6
CONTINUOUS
 10
11.3183179688
 20
9.738947075
 11
11.7176923436
 21
9.7389572711
  0
LINE
  5
234
100
AcDbEntity
  8
0
100
AcDbLine
 62
9
  6
CONTINUOUS
 10
10.5570667183
 20
9.738947075
 11
11.3183179688
 21
9.738947075
  0
LINE
  5
235
100
AcDbEntity
  8
0
100
AcDbLine
 62
9
  6
CONTINUOUS
 10
11.3191190655
 20
8.7720581581
 11
11.3230894964
 21
8.772226757
  0
LINE
  5
236
100
AcDbEntity
  8
0
100
AcDbLine
 62
9
  6
CONTINUOUS
 10
10.1576923436
 20
9.7389572889
 11
10.5570667183
 21
9.738947075
  0
SPLINE
  5
237
100
AcDbEntity
  8
0
100
AcDbSpline
 62
9
  6
CONTINUOUS
 70
0
 71
3
 72
22
 73
18
 74
0
 42
0.0000001
 43
0.0000001
 44
0.0000000001
 40
0.0
 40
0.0
 40
0.0
 40
0.0
 40
0.1888781056
 40
0.3710157596
 40
0.5390263736
 40
0.6158414791
 40
0.6869391232
 40
0.7516994365
 40
0.809523146
 40
0.8599397094
 40
0.902656504
 40
0.9374875651
 40
0.9645324283
 40
0.9753633042
 40
0.9846307093
 40
0.9926689831
 40
1.0
 40
1.0
 40
1.0
 40
1.0
 10
11.7177050971
 20
9.7045976916
 30
0.0
 10
11.7196539779
 20
9.7045978199
 30
0.0
 10
11.7234824563
 20
9.7046549976
 30
0.0
 10
11.7290393493
 20
9.704907036
 30
0.0
 10
11.7334321379
 20
9.7052571547
 30
0.0
 10
11.73667172
 20
9.7056215978
 30
0.0
 10
11.7388459448
 20
9.7059204109
 30
0.0
 10
11.7408174879
 20
9.7062491401
 30
0.0
 10
11.7425672769
 20
9.7066047237
 30
0.0
 10
11.7440786533
 20
9.7069837572
 30
0.0
 10
11.7453391268
 20
9.7073814648
 30
0.0
 10
11.74633763
 20
9.7077938791
 30
0.0
 10
11.7469918617
 20
9.7081713503
 30
0.0
 10
11.7473617824
 20
9.708489608
 30
0.0
 10
11.7475487964
 20
9.7087140122
 30
0.0
 10
11.7476650574
 20
9.708943163
 30
0.0
 10
11.7476923548
 20
9.7091026121
 30
0.0
 10
11.7476923546
 20
9.709178255
 30
0.0
  0
LINE
  5
238
100
AcDbEntity
  8
0
100
AcDbLine
 62
9
  6
CONTINUOUS
 10
10.5570628718
 20
9.7046873343
 11
11.3183218154
 21
9.7046873343
  0
SPLINE
  5
239
100
AcDbEntity
  8
0
100
AcDbSpline
 62
9
  6
CONTINUOUS
 70
0
 71
3
 72
35
 73
31
 74
0
 42
0.0000001
 43
0.0000001
 44
0.0000000001
 40
0.0
 40
0.0
 40
0.0
 40
0.0
 40
0.0985397302
 40
0.1942011357
 40
0.2869086494
 40
0.3765409979
 40
0.4629182934
 40
0.5457536629
 40
0.6246444288
 40
0.6989593342
 40
0.7678854317
 40
0.8303083035
 40
0.8587253215
 40
0.8849635284
 40
0.9087075049
 40
0.9295451329
 40
0.9472077252
 40
0.9618133221
 40
0.9735705969
 40
0.9784727088
 40
0.982775892
 40
0.9865177409
 40
0.9897315463
 40
0.9924508295
 40
0.994710705
 40
0.9965485155
 40
0.9980051258
 40
0.998606329
 40
0.9991327814
 40
1.0
 40
1.0
 40
1.0
 40
1.0
 10
11.3183218154
 20
9.7046873343
 30
0.0
 10
11.317535125
 20
9.6740273119
 30
0.0
 10
11.3160605079
 20
9.6136008622
 30
0.0
 10
11.3141216265
 20
9.5243225874
 30
0.0
 10
11.3124882133
 20
9.4378110535
 30
0.0
 10
11.3111600812
 20
9.3541842812
 30
0.0
 10
11.3101372237
 20
9.2736261117
 30
0.0
 10
11.3094189445
 20
9.1964080504
 30
0.0
 10
11.3090047215
 20
9.1229421722
 30
0.0
 10
11.3088926493
 20
9.0538043865
 30
0.0
 10
11.3090803199
 20
8.9897923355
 30
0.0
 10
11.3094950564
 20
8.9400671514
 30
0.0
 10
11.3099951712
 20
8.9036303911
 30
0.0
 10
11.3104326461
 20
8.8792327755
 30
0.0
 10
11.310942063
 20
8.8571961404
 30
0.0
 10
11.3115234697
 20
8.8378313946
 30
0.0
 10
11.312183004
 20
8.821315173
 30
0.0
 10
11.3129163351
 20
8.8076315901
 30
0.0
 10
11.3136250011
 20
8.797925196
 30
0.0
 10
11.3142488607
 20
8.7914302897
 30
0.0
 10
11.3147067054
 20
8.7874263635
 30
0.0
 10
11.3151826614
 20
8.7839542039
 30
0.0
 10
11.3156768651
 20
8.7809831992
 30
0.0
 10
11.3161891537
 20
8.7784844204
 30
0.0
 10
11.316719184
 20
8.7764285683
 30
0.0
 10
11.3172669826
 20
8.7747872464
 30
0.0
 10
11.3177654117
 20
8.7736778703
 30
0.0
 10
11.3181850275
 20
8.7729897916
 30
0.0
 10
11.3185600184
 20
8.7724952454
 30
0.0
 10
11.3188864776
 20
8.7721951211
 30
0.0
 10
11.3191190655
 20
8.7720581581
 30
0.0
  0
LINE
  5
23A
100
AcDbEntity
  8
0
100
AcDbLine
 62
9
  6
CONTINUOUS
 10
11.3183218154
 20
9.7046873343
 11
11.7177050977
 21
9.7045976771
  0
SPLINE
  5
23B
100
AcDbEntity
  8
0
100
AcDbSpline
 62
9
  6
CONTINUOUS
 70
0
 71
3
 72
49
 73
45
 74
0
 42
0.0000001
 43
0.0000001
 44
0.0000000001
 40
0.0
 40
0.0
 40
0.0
 40
0.0
 40
0.0995631503
 40
0.1970071445
 40
0.2917121375
 40
0.3832395612
 40
0.4711385946
 40
0.5549208874
 40
0.6339775774
 40
0.7076094917
 40
0.7421330027
 40
0.7749811293
 40
0.8060203762
 40
0.8351117222
 40
0.8621154007
 40
0.8868878406
 40
0.9092842696
 40
0.9291847934
 40
0.9465490933
 40
0.9542725217
 40
0.9613532611
 40
0.9677964176
 40
0.973612803
 40
0.978813367
 40
0.98340906
 40
0.9874108331
 40
0.9908299681
 40
0.9923254984
 40
0.9936810968
 40
0.9948988398
 40
0.9959808042
 40
0.9969290678
 40
0.9977457094
 40
0.9984328106
 40
0.9989924567
 40
0.9992251385
 40
0.9994267435
 40
0.9995975372
 40
0.999737789
 40
0.9998477768
 40
0.9999277986
 40
0.9999782203
 40
0.9999925452
 40
1.0
 40
1.0
 40
1.0
 40
1.0
 10
11.7177050977
 20
9.7045976771
 30
0.0
 10
11.7177200663
 20
9.6745067186
 30
0.0
 10
11.7177648923
 20
9.6149652806
 30
0.0
 10
11.7178668689
 20
9.5268012038
 30
0.0
 10
11.717994293
 20
9.4410657999
 30
0.0
 10
11.7181419533
 20
9.3582152059
 30
0.0
 10
11.7183054791
 20
9.2786658153
 30
0.0
 10
11.7184808834
 20
9.2028854884
 30
0.0
 10
11.718666972
 20
9.1314171508
 30
0.0
 10
11.7188331553
 20
9.074836292
 30
0.0
 10
11.7189705834
 20
9.0322210221
 30
0.0
 10
11.7190726039
 20
9.0024784837
 30
0.0
 10
11.7191751719
 20
8.9743777203
 30
0.0
 10
11.7192776442
 20
8.948043336
 30
0.0
 10
11.7193793239
 20
8.9236029804
 30
0.0
 10
11.7194798769
 20
8.9011860428
 30
0.0
 10
11.719579021
 20
8.8809159078
 30
0.0
 10
11.7196766286
 20
8.8628847558
 30
0.0
 10
11.7197580414
 20
8.849288203
 30
0.0
 10
11.719821292
 20
8.8395661354
 30
0.0
 10
11.7198654153
 20
8.8331447098
 30
0.0
 10
11.7199080169
 20
8.8272996533
 30
0.0
 10
11.7199490924
 20
8.8220228467
 30
0.0
 10
11.7199886348
 20
8.8173044044
 30
0.0
 10
11.720026634
 20
8.8131343996
 30
0.0
 10
11.7200630846
 20
8.8095028057
 30
0.0
 10
11.7200933528
 20
8.8068081602
 30
0.0
 10
11.7201170799
 20
8.8049132472
 30
0.0
 10
11.7201336998
 20
8.8036836246
 30
0.0
 10
11.7201499523
 20
8.802579001
 30
0.0
 10
11.7201658398
 20
8.8015974952
 30
0.0
 10
11.7201813625
 20
8.8007372254
 30
0.0
 10
11.7201965112
 20
8.7999963098
 30
0.0
 10
11.7202112851
 20
8.7993728651
 30
0.0
 10
11.7202238989
 20
8.7989259141
 30
0.0
 10
11.7202340661
 20
8.7986256863
 30
0.0
 10
11.7202411252
 20
8.7984429549
 30
0.0
 10
11.7202480612
 20
8.7982881512
 30
0.0
 10
11.7202549284
 20
8.7981611389
 30
0.0
 10
11.7202615061
 20
8.798061399
 30
0.0
 10
11.7202681707
 20
8.797989345
 30
0.0
 10
11.7202734438
 20
8.7979453365
 30
0.0
 10
11.7202786557
 20
8.7979246435
 30
0.0
 10
11.72028105
 20
8.7979179887
 30
0.0
 10
11.7202828333
 20
8.7979166118
 30
0.0
  0
SPLINE
  5
23C
100
AcDbEntity
  8
0
100
AcDbSpline
 62
9
  6
CONTINUOUS
 70
0
 71
3
 72
22
 73
18
 74
0
 42
0.0000001
 43
0.0000001
 44
0.0000000001
 40
0.0
 40
0.0
 40
0.0
 40
0.0
 40
0.0073313785
 40
0.0153699967
 40
0.0246377157
 40
0.0354688707
 40
0.0625141804
 40
0.0973455299
 40
0.1400624731
 40
0.1904790774
 40
0.2483027481
 40
0.313062967
 40
0.3841604773
 40
0.4609754174
 40
0.6289855637
 40
0.8111225529
 40
1.0
 40
1.0
 40
1.0
 40
1.0
 10
10.1276923446
 20
9.7091782867
 30
0.0
 10
10.1276923446
 20
9.70910264
 30
0.0
 10
10.1277196426
 20
9.7089431834
 30
0.0
 10
10.1278359051
 20
9.708714021
 30
0.0
 10
10.1280229214
 20
9.7084896054
 30
0.0
 10
10.1283928444
 20
9.7081713326
 30
0.0
 10
10.1290470793
 20
9.7077938429
 30
0.0
 10
10.1300455864
 20
9.7073814083
 30
0.0
 10
10.131306062
 20
9.7069836825
 30
0.0
 10
10.1328174392
 20
9.7066046333
 30
0.0
 10
10.1345672281
 20
9.7062490371
 30
0.0
 10
10.1365387703
 20
9.705920297
 30
0.0
 10
10.1387129935
 20
9.7056214722
 30
0.0
 10
10.1419525714
 20
9.705257008
 30
0.0
 10
10.1463453526
 20
9.7049068574
 30
0.0
 10
10.1519022408
 20
9.7046548695
 30
0.0
 10
10.1557307129
 20
9.7045977421
 30
0.0
 10
10.1576795905
 20
9.7045976168
 30
0.0
  0
SPLINE
  5
23D
100
AcDbEntity
  8
0
100
AcDbSpline
 62
9
  6
CONTINUOUS
 70
0
 71
3
 72
16
 73
12
 74
0
 42
0.0000001
 43
0.0000001
 44
0.0000000001
 40
0.0
 40
0.0
 40
0.0
 40
0.0
 40
0.1253340619
 40
0.2508316489
 40
0.3760547645
 40
0.5011191035
 40
0.6260060713
 40
0.7507146568
 40
0.8131407519
 40
0.8755808784
 40
1.0
 40
1.0
 40
1.0
 40
1.0
 10
11.7176923436
 20
9.7389572632
 30
0.0
 10
11.7196509607
 20
9.7389572635
 30
0.0
 10
11.7235810157
 20
9.7385707628
 30
0.0
 10
11.7292433459
 20
9.7368702613
 30
0.0
 10
11.7344649107
 20
9.734100203
 30
0.0
 10
11.7390379704
 20
9.730371669
 30
0.0
 10
11.7427955293
 20
9.7258334901
 30
0.0
 10
11.7451230793
 20
9.7215097372
 30
0.0
 10
11.7464472954
 20
9.717835133
 30
0.0
 10
11.747398819
 20
9.7140528598
 30
0.0
 10
11.7476923436
 20
9.7111225741
 30
0.0
 10
11.7476923436
 20
9.709178255
 30
0.0
  0
SPLINE
  5
23E
100
AcDbEntity
  8
0
100
AcDbSpline
 62
9
  6
CONTINUOUS
 70
0
 71
3
 72
16
 73
12
 74
0
 42
0.0000001
 43
0.0000001
 44
0.0000000001
 40
0.0
 40
0.0
 40
0.0
 40
0.0
 40
0.1253340387
 40
0.2508315845
 40
0.3760546914
 40
0.5011190257
 40
0.6260059662
 40
0.7507145237
 40
0.8131406359
 40
0.8755808093
 40
1.0
 40
1.0
 40
1.0
 40
1.0
 10
10.1576923436
 20
9.738957295
 30
0.0
 10
10.1557337266
 20
9.738957295
 30
0.0
 10
10.1518036721
 20
9.7385707987
 30
0.0
 10
10.1461413403
 20
9.7368703019
 30
0.0
 10
10.1409197764
 20
9.7341002418
 30
0.0
 10
10.1363467172
 20
9.7303717074
 30
0.0
 10
10.1325891578
 20
9.7258335291
 30
0.0
 10
10.1302616073
 20
9.7215097764
 30
0.0
 10
10.1289373915
 20
9.717835171
 30
0.0
 10
10.1279858683
 20
9.7140528951
 30
0.0
 10
10.1276923436
 20
9.7111226072
 30
0.0
 10
10.1276923436
 20
9.7091782867
 30
0.0
  0
SPLINE
  5
23F
100
AcDbEntity
  8
0
100
AcDbSpline
 62
9
  6
CONTINUOUS
 70
0
 71
3
 72
16
 73
12
 74
0
 42
0.0000001
 43
0.0000001
 44
0.0000000001
 40
0.0
 40
0.0
 40
0.0
 40
0.0
 40
0.1253338908
 40
0.2508312222
 40
0.3760540251
 40
0.5011182351
 40
0.6260049528
 40
0.7507133275
 40
0.8131396884
 40
0.8755802972
 40
1.0
 40
1.0
 40
1.0
 40
1.0
 10
11.7176925999
 20
9.7741218829
 30
0.0
 10
11.7196512146
 20
9.7741218917
 30
0.0
 10
11.723581265
 20
9.7737353583
 30
0.0
 10
11.72924356
 20
9.7720347862
 30
0.0
 10
11.7344650996
 20
9.7692647051
 30
0.0
 10
11.7390381232
 20
9.7655361411
 30
0.0
 10
11.7427956433
 20
9.7609979433
 30
0.0
 10
11.7451231734
 20
9.7566741813
 30
0.0
 10
11.7464473528
 20
9.7529995542
 30
0.0
 10
11.7473988472
 20
9.7492172524
 30
0.0
 10
11.7476923605
 20
9.7462869483
 30
0.0
 10
11.7476923436
 20
9.7443426198
 30
0.0
  0
LINE
  5
240
100
AcDbEntity
  8
0
100
AcDbLine
 62
9
  6
CONTINUOUS
 10
10.5522951647
 20
8.7722267582
 11
10.5562656217
 21
8.7720581581
  0
LINE
  5
241
100
AcDbEntity
  8
0
100
AcDbLine
 62
9
  6
CONTINUOUS
 10
11.7176925999
 20
9.774121959
 11
10.1576920864
 21
9.7741219587
  0
LINE
  5
242
100
AcDbEntity
  8
0
100
AcDbLine
 62
9
  6
CONTINUOUS
 10
10.1576795884
 20
9.7045976028
 11
10.5570628718
 21
9.7046873343
  0
SPLINE
  5
243
100
AcDbEntity
  8
0
100
AcDbSpline
 62
9
  6
CONTINUOUS
 70
0
 71
3
 72
35
 73
31
 74
0
 42
0.0000001
 43
0.0000001
 44
0.0000000001
 40
0.0
 40
0.0
 40
0.0
 40
0.0
 40
0.0985397302
 40
0.1942011357
 40
0.2869086494
 40
0.3765409979
 40
0.4629182934
 40
0.5457536629
 40
0.6246444288
 40
0.6989593342
 40
0.7678854317
 40
0.8303083035
 40
0.8587253215
 40
0.8849635284
 40
0.9087075049
 40
0.9295451329
 40
0.9472077252
 40
0.9618133221
 40
0.9735705969
 40
0.9784727088
 40
0.982775892
 40
0.9865177409
 40
0.9897315463
 40
0.9924508295
 40
0.994710705
 40
0.9965485155
 40
0.9980051258
 40
0.998606329
 40
0.9991327814
 40
1.0
 40
1.0
 40
1.0
 40
1.0
 10
10.5570628718
 20
9.7046873343
 30
0.0
 10
10.5578495621
 20
9.6740273119
 30
0.0
 10
10.5593241793
 20
9.6136008622
 30
0.0
 10
10.5612630607
 20
9.5243225874
 30
0.0
 10
10.5628964738
 20
9.4378110535
 30
0.0
 10
10.564224606
 20
9.3541842812
 30
0.0
 10
10.5652474634
 20
9.2736261117
 30
0.0
 10
10.5659657426
 20
9.1964080504
 30
0.0
 10
10.5663799656
 20
9.1229421722
 30
0.0
 10
10.5664920378
 20
9.0538043865
 30
0.0
 10
10.5663043673
 20
8.9897923355
 30
0.0
 10
10.5658896308
 20
8.9400671514
 30
0.0
 10
10.5653895159
 20
8.9036303911
 30
0.0
 10
10.5649520411
 20
8.8792327755
 30
0.0
 10
10.5644426242
 20
8.8571961404
 30
0.0
 10
10.5638612175
 20
8.8378313946
 30
0.0
 10
10.5632016832
 20
8.821315173
 30
0.0
 10
10.5624683521
 20
8.8076315901
 30
0.0
 10
10.5617596861
 20
8.797925196
 30
0.0
 10
10.5611358265
 20
8.7914302897
 30
0.0
 10
10.5606779817
 20
8.7874263635
 30
0.0
 10
10.5602020257
 20
8.7839542039
 30
0.0
 10
10.5597078221
 20
8.7809831992
 30
0.0
 10
10.5591955335
 20
8.7784844204
 30
0.0
 10
10.5586655032
 20
8.7764285683
 30
0.0
 10
10.5581177045
 20
8.7747872464
 30
0.0
 10
10.5576192754
 20
8.7736778703
 30
0.0
 10
10.5571996596
 20
8.7729897916
 30
0.0
 10
10.5568246688
 20
8.7724952454
 30
0.0
 10
10.5564982096
 20
8.7721951211
 30
0.0
 10
10.5562656217
 20
8.7720581581
 30
0.0
  0
SPLINE
  5
244
100
AcDbEntity
  8
0
100
AcDbSpline
 62
9
  6
CONTINUOUS
 70
0
 71
3
 72
49
 73
45
 74
0
 42
0.0000001
 43
0.0000001
 44
0.0000000001
 40
0.0
 40
0.0
 40
0.0
 40
0.0
 40
0.0995630974
 40
0.1970071308
 40
0.2917123517
 40
0.3832400557
 40
0.471139286
 40
0.5549218474
 40
0.6339785999
 40
0.7076104296
 40
0.7421338314
 40
0.7749818991
 40
0.806021214
 40
0.835112576
 40
0.8621161163
 40
0.8868884235
 40
0.9092849237
 40
0.9291853614
 40
0.9465493396
 40
0.9542726478
 40
0.9613533409
 40
0.9677964668
 40
0.9736128301
 40
0.9788133813
 40
0.9834090713
 40
0.9874108518
 40
0.9908299997
 40
0.9923255326
 40
0.9936811314
 40
0.9948988728
 40
0.9959808342
 40
0.9969290936
 40
0.9977457305
 40
0.9984328265
 40
0.9989924676
 40
0.9992251471
 40
0.9994267499
 40
0.9995975416
 40
0.9997377918
 40
0.9998477783
 40
0.9999277992
 40
0.9999782203
 40
0.9999925452
 40
1.0
 40
1.0
 40
1.0
 40
1.0
 10
10.1576795884
 20
9.7045976028
 30
0.0
 10
10.1576646203
 20
9.6745066626
 30
0.0
 10
10.1576197802
 20
9.6149652337
 30
0.0
 10
10.1575177722
 20
9.5268010994
 30
0.0
 10
10.1573903327
 20
9.4410655372
 30
0.0
 10
10.1572427167
 20
9.3582147368
 30
0.0
 10
10.1570792436
 20
9.2786651272
 30
0.0
 10
10.1569037993
 20
9.202884647
 30
0.0
 10
10.1567176699
 20
9.1314162408
 30
0.0
 10
10.1565514986
 20
9.0748354264
 30
0.0
 10
10.1564140847
 20
9.0322202363
 30
0.0
 10
10.1563120709
 20
9.0024777305
 30
0.0
 10
10.1562095071
 20
8.9743769618
 30
0.0
 10
10.1561070388
 20
8.9480425961
 30
0.0
 10
10.1560053679
 20
8.9236023195
 30
0.0
 10
10.1559048269
 20
8.9011854441
 30
0.0
 10
10.1558056959
 20
8.8809153552
 30
0.0
 10
10.1557080865
 20
8.8628843065
 30
0.0
 10
10.155626661
 20
8.8492879145
 30
0.0
 10
10.1555634003
 20
8.8395659953
 30
0.0
 10
10.1555192712
 20
8.8331446299
 30
0.0
 10
10.1554766667
 20
8.8272996038
 30
0.0
 10
10.1554355904
 20
8.8220228173
 30
0.0
 10
10.1553960486
 20
8.8173043869
 30
0.0
 10
10.1553580506
 20
8.813134385
 30
0.0
 10
10.1553216016
 20
8.8095027861
 30
0.0
 10
10.1552913343
 20
8.8068081339
 30
0.0
 10
10.1552676075
 20
8.8049132163
 30
0.0
 10
10.1552509878
 20
8.8036835933
 30
0.0
 10
10.1552347354
 20
8.8025789711
 30
0.0
 10
10.1552188479
 20
8.801597468
 30
0.0
 10
10.1552033251
 20
8.8007372019
 30
0.0
 10
10.1551881764
 20
8.7999962906
 30
0.0
 10
10.1551734025
 20
8.7993728505
 30
0.0
 10
10.1551607885
 20
8.7989259033
 30
0.0
 10
10.1551506212
 20
8.7986256784
 30
0.0
 10
10.1551435621
 20
8.798442949
 30
0.0
 10
10.155136626
 20
8.798288147
 30
0.0
 10
10.1551297588
 20
8.7981611362
 30
0.0
 10
10.1551231811
 20
8.7980613976
 30
0.0
 10
10.1551165165
 20
8.7979893443
 30
0.0
 10
10.1551112433
 20
8.7979453364
 30
0.0
 10
10.1551060315
 20
8.7979246435
 30
0.0
 10
10.1551036372
 20
8.7979179887
 30
0.0
 10
10.1551018538
 20
8.7979166118
 30
0.0
  0
ENDSEC
  0
SECTION
  2
OBJECTS
  0
DICTIONARY
  5
C
100
AcDbDictionary
280
0
281
1
  3
ACAD_GROUP
350
D
  3
ACAD_MLINESTYLE
350
17
  3
ACAD_LAYOUT
350
1A
  3
ACAD_PLOTSETTINGS
350
19
  3
ACAD_PLOTSTYLENAME
350
E
  0
DICTIONARY
  5
D
102
{ACAD_REACTORS
330
C
102
}
100
AcDbDictionary
280
0
281
1
  0
ACDBDICTIONARYWDFLT
  5
E
102
{ACAD_REACTORS
330
C
102
}
100
AcDbDictionary
281
1
  3
Normal
350
F
100
AcDbDictionaryWithDefault
340
F
  0
DICTIONARY
  5
17
102
{ACAD_REACTORS
330
C
102
}
100
AcDbDictionary
280
0
281
1
  3
Standard
350
18
  0
DICTIONARY
  5
19
102
{ACAD_REACTORS
330
C
102
}
100
AcDbDictionary
281
1
  0
DICTIONARY
  5
1A
102
{ACAD_REACTORS
330
C
102
}
100
AcDbDictionary
281
1
  3
Model
350
245
  3
Layout1
350
246
  0
ACDBPLACEHOLDER
  5
F
102
{ACAD_REACTORS
330
E
102
}
  0
MLINESTYLE
  5
18
102
{ACAD_REACTORS
330
17
102
}
100
AcDbMlineStyle
  2
STANDARD
 70
0
  3

 62
256
 51
90.0
 52
90.0
 71
2
 49
0.5
 62
256
  6
BYLAYER
 49
-0.5
 62
256
  6
BYLAYER
  0
LAYOUT
  5
245
102
{ACAD_REACTORS
330
1A
102
}
100
AcDbPlotSettings
  1

  2
none_device
  4
ANSI_C_(22.00_x_17.00_Inches)
  6

 40
0.0
 41
0.0
 42
0.0
 43
0.0
 44
558.8
 45
431.8
 46
0.0
 47
0.0
 48
0.0
 49
0.0
140
0.0
141
0.0
142
1.0
143
1.0
 70
1024
 72
0
 73
0
 74
0
  7

 75
0
147
1.0
148
0.0
149
0.0
100
AcDbLayout
  1
Model
 70
0
 71
0
 10
0.0
 20
0.0
 11
22.0
 21
17.0
 12
0.0
 22
0.0
 32
0.0
 14
0.0
 24
0.0
 34
0.0
 15
0.0
 25
0.0
 35
0.0
146
0.0
 13
0.0
 23
0.0
 33
0.0
 16
1.0
 26
0.0
 36
0.0
 17
0.0
 27
1.0
 37
0.0
 76
0
330
205
345
0
346
0
  0
LAYOUT
  5
246
102
{ACAD_REACTORS
330
1A
102
}
100
AcDbPlotSettings
  1

  2
none_device
  4
ANSI_C_(22.00_x_17.00_Inches)
  6

 40
0.0
 41
0.0
 42
0.0
 43
0.0
 44
558.8
 45
431.8
 46
0.0
 47
0.0
 48
0.0
 49
0.0
140
0.0
141
0.0
142
1.0
143
1.0
 70
0
 72
0
 73
0
 74
0
  7

 75
0
147
1.0
148
0.0
149
0.0
100
AcDbLayout
  1
Layout1
 70
0
 71
1
 10
0.0
 20
0.0
 11
22.0
 21
17.0
 12
0.0
 22
0.0
 32
0.0
 14
0.0
 24
0.0
 34
0.0
 15
0.0
 25
0.0
 35
0.0
146
0.0
 13
0.0
 23
0.0
 33
0.0
 16
1.0
 26
0.0
 36
0.0
 17
0.0
 27
1.0
 37
0.0
 76
0
330
206
345
0
346
0
  0
ENDSEC
  0
EOF
