  0
SECTION
  2
HEADER
  9
$ACADVER
  1
AC1015
  9
$DWGCODEPAGE
  3
ANSI_1252
  9
$EXTMAX
 10
33.1102362205
 20
23.3858267717
 30
0.0
  9
$EXTMIN
 10
0.0
 20
0.0
 30
0.0
  9
$LIMMIN
 10
0.0
 20
0.0
  9
$LIMMAX
 10
33.1102362205
 20
23.3858267717
  9
$VIEWCTR
 10
16.5551181102
 20
11.6929133858
  9
$VIEWSIZE
 40
23.3858267717
  9
$CLAYER
  8
0
  9
$LTSCALE
 40
1.8210629921
  9
$CELTYPE
  6
BYLAYER
  9
$DIMSCALE
 40
1.0
  9
$DIMASZ
 40
0.1875
  9
$DIMEXO
 40
0.2069389764
  9
$DIMDLI
 40
1.2581889764
  9
$DIMEXE
 40
0.595984252
  9
$DIMCEN
 40
0.297992126
  9
$DIMLFAC
 40
1.0
  9
$DIMBLK
  1
_CLOSED
  9
$DIMTXT
 40
0.15625
  9
$DIMTOL
 70
0
  9
$DIMLIM
 70
0
  9
$DIMTFAC
 40
1.0
  9
$PDMODE
 70
3
  9
$PDSIZE
 40
0.3125
  9
$HANDSEED
  5
29A
  9
$TILEMODE
 70
1
  9
$MEASUREMENT
 70
0
  9
$INSUNITS
 70
1
  0
ENDSEC
  0
SECTION
  2
CLASSES
  0
CLASS
  1
ACDBDICTIONARYWDFLT
  2
AcDbDictionaryWithDefault
  3
AutoCAD 2000
 90
0
280
0
281
0
  0
CLASS
  1
ACDBPLACEHOLDER
  2
AcDbPlaceHolder
  3
AutoCAD 2000
 90
0
280
0
281
0
  0
CLASS
  1
LAYOUT
  2
AcDbLayout
  3
AutoCAD 2000
 90
0
280
0
281
0
  0
ENDSEC
  0
SECTION
  2
TABLES
  0
TABLE
  2
VPORT
  5
8
100
AcDbSymbolTable
 70
2
  0
VPORT
  5
1F4
100
AcDbSymbolTableRecord
100
AcDbViewportTableRecord
  2
*ACTIVE
 70
0
 10
0.0
 20
0.0
 11
1.0
 21
1.0
 12
16.5551181102
 22
11.6929133858
 13
0.0
 23
0.0
 14
1.0
 24
1.0
 15
0.0
 25
0.0
 16
0.0
 26
0.0
 36
1.0
 17
0.0
 27
0.0
 37
0.0
 40
23.3858267717
 41
1.4158249158
 42
50.0
 43
0.0
 44
0.0
 50
0.0
 51
0.0
 71
0
 72
100
 73
1
 74
1
 75
0
 76
0
 77
0
 78
0
  0
ENDTAB
  0
TABLE
  2
LTYPE
  5
5
100
AcDbSymbolTable
 70
6
  0
LTYPE
  5
14
100
AcDbSymbolTableRecord
100
AcDbLinetypeTableRecord
  2
BYBLOCK
 70
0
  3

 72
65
 73
0
 40
0.0
  0
LTYPE
  5
15
100
AcDbSymbolTableRecord
100
AcDbLinetypeTableRecord
  2
BYLAYER
 70
0
  3

 72
65
 73
0
 40
0.0
  0
LTYPE
  5
16
100
AcDbSymbolTableRecord
100
AcDbLinetypeTableRecord
  2
CONTINUOUS
 70
64
  3
Solid line
 72
65
 73
0
 40
0.0
  0
LTYPE
  5
1F5
100
AcDbSymbolTableRecord
100
AcDbLinetypeTableRecord
  2
CENTER
 70
64
  3
____ _ ____ _ ____ _ ____ _ ____ _ ____ _ ____
 72
65
 73
4
 40
0.6
 49
0.375
 74
0
 49
-0.075
 74
0
 49
0.075
 74
0
 49
-0.075
 74
0
  0
LTYPE
  5
1F6
100
AcDbSymbolTableRecord
100
AcDbLinetypeTableRecord
  2
HIDDEN
 70
64
  3
- - - - - - - - - - - - - - - - - - - -
 72
65
 73
2
 40
0.2
 49
0.1
 74
0
 49
-0.1
 74
0
  0
LTYPE
  5
1F7
100
AcDbSymbolTableRecord
100
AcDbLinetypeTableRecord
  2
PHANTOM
 70
64
  3
_____ _ _ _____ _ _ _____ _ _ _____
 72
65
 73
6
 40
0.8
 49
0.45
 74
0
 49
-0.05
 74
0
 49
0.1
 74
0
 49
-0.05
 74
0
 49
0.1
 74
0
 49
-0.05
 74
0
  0
LTYPE
  5
1F8
100
AcDbSymbolTableRecord
100
AcDbLinetypeTableRecord
  2
DOT
 70
64
  3
. . . . . . . . . . . . . . . . . . . .
 72
65
 73
2
 40
0.2
 49
0.1
 74
0
 49
-0.1
 74
0
  0
LTYPE
  5
1F9
100
AcDbSymbolTableRecord
100
AcDbLinetypeTableRecord
  2
DASHED
 70
64
  3
- - - - - - - - - - - - - - - - - - - -
 72
65
 73
2
 40
0.2
 49
0.1
 74
0
 49
-0.1
 74
0
  0
ENDTAB
  0
TABLE
  2
LAYER
  5
2
100
AcDbSymbolTable
 70
36
  0
LAYER
  5
10
100
AcDbSymbolTableRecord
100
AcDbLayerTableRecord
  2
0
 70
0
 62
7
  6
CONTINUOUS
370
-3
390
F
  0
LAYER
  5
1FA
100
AcDbSymbolTableRecord
100
AcDbLayerTableRecord
  2
DEFAULT_1
 70
0
 62
7
  6
CENTER
370
-3
390
F
  0
LAYER
  5
1FB
100
AcDbSymbolTableRecord
100
AcDbLayerTableRecord
  2
DEFAULT_2
 70
0
 62
8
  6
HIDDEN
370
-3
390
F
  0
LAYER
  5
1FC
100
AcDbSymbolTableRecord
100
AcDbLayerTableRecord
  2
DEFAULT_3
 70
0
 62
7
  6
PHANTOM
370
-3
390
F
  0
LAYER
  5
1FD
100
AcDbSymbolTableRecord
100
AcDbLayerTableRecord
  2
DEFAULT_COORDINATE_SYSTEM
 70
0
 62
7
  6
CONTINUOUS
370
-3
390
F
  0
LAYER
  5
1FE
100
AcDbSymbolTableRecord
100
AcDbLayerTableRecord
  2
DEFAULT_DATUM_AXES
 70
0
 62
7
  6
CONTINUOUS
370
-3
390
F
  0
LAYER
  5
1FF
100
AcDbSymbolTableRecord
100
AcDbLayerTableRecord
  2
DEFAULT_DATUM_CURVES
 70
0
 62
7
  6
CONTINUOUS
370
-3
390
F
  0
LAYER
  5
200
100
AcDbSymbolTableRecord
100
AcDbLayerTableRecord
  2
DEFAULT_DATUM_PLANES
 70
0
 62
7
  6
CONTINUOUS
370
-3
390
F
  0
ENDTAB
  0
TABLE
  2
STYLE
  5
3
100
AcDbSymbolTable
 70
1
  0
STYLE
  5
11
100
AcDbSymbolTableRecord
100
AcDbTextStyleTableRecord
  2
STANDARD
 70
0
 40
0.0
 41
0.8
 50
0.0
 71
0
 42
0.2
  3
txt
  4

  0
STYLE
  5
201
100
AcDbSymbolTableRecord
100
AcDbTextStyleTableRecord
  2
TEXTSTYLE_1
 70
0
 40
0.0
 41
0.8
 50
0.0
 71
0
 42
0.2
  3
gdt
  4

  0
ENDTAB
  0
TABLE
  2
VIEW
  5
6
100
AcDbSymbolTable
 70
0
  0
ENDTAB
  0
TABLE
  2
UCS
  5
7
100
AcDbSymbolTable
 70
0
  0
ENDTAB
  0
TABLE
  2
APPID
  5
9
100
AcDbSymbolTable
 70
1
  0
APPID
  5
202
100
AcDbSymbolTableRecord
100
AcDbRegAppTableRecord
  2
ACAD
 70
0
  0
ENDTAB
  0
TABLE
  2
BLOCK_RECORD
  5
1
100
AcDbSymbolTable
 70
0
  0
BLOCK_RECORD
  5
203
100
AcDbSymbolTableRecord
100
AcDbBlockTableRecord
  2
*Model_Space
  0
BLOCK_RECORD
  5
204
100
AcDbSymbolTableRecord
100
AcDbBlockTableRecord
  2
*Paper_Space
  0
ENDTAB
  0
TABLE
  2
DIMSTYLE
  5
A
100
AcDbSymbolTable
 70
1
100
AcDbDimStyleTable
 71
0
  0
DIMSTYLE
105
205
100
AcDbSymbolTableRecord
100
AcDbDimStyleTableRecord
  2
STANDARD
 70
0
  3

  4

 40
1.0
 41
0.1875
 42
0.0625
 43
0.38
 44
0.18
 45
0.0
 46
0.0
 47
0.01
 48
0.01
140
0.15625
141
0.09
142
0.0
143
25.4
144
1.0
145
0.0
146
1.0
147
0.09
 71
0.0
 72
0.0
 73
1
 74
1
 75
0
 76
0
 77
0
 78
4
170
0
171
2
172
0
173
0
174
0
175
0
176
0
177
0
178
0
270
2
271
2
272
2
273
2
274
2
275
0
280
0
281
0
282
0
283
1
284
4
285
0
286
0
287
3
288
0
340
11
  0
ENDTAB
  0
ENDSEC
  0
SECTION
  2
BLOCKS
  0
BLOCK
  5
20
100
AcDbEntity
  8
0
100
AcDbBlockBegin
  2
*Model_Space
 70
0
 10
0.0
 20
0.0
 30
0.0
  3
*Model_Space
  1

  0
ENDBLK
  5
21
100
AcDbEntity
  8
0
100
AcDbBlockEnd
  0
BLOCK
  5
1C
100
AcDbEntity
  8
0
100
AcDbBlockBegin
  2
*Paper_Space
 70
0
 10
0.0
 20
0.0
 30
0.0
  3
*Paper_Space
  1

  0
ENDBLK
  5
1D
100
AcDbEntity
  8
0
100
AcDbBlockEnd
  0
ENDSEC
  0
SECTION
  2
ENTITIES
  0
LINE
  5
206
100
AcDbEntity
  8
0
100
AcDbLine
 62
6
  6
CONTINUOUS
 10
3.9207825318
 20
13.4670472441
 11
3.9207825318
 21
13.3570472441
  0
LINE
  5
207
100
AcDbEntity
  8
0
100
AcDbLine
 62
6
  6
CONTINUOUS
 10
4.4207825318
 20
12.9790056075
 11
4.4207825318
 21
12.9370472441
  0
LINE
  5
208
100
AcDbEntity
  8
0
100
AcDbLine
 62
6
  6
CONTINUOUS
 10
4.4207825318
 20
12.8070472441
 11
4.4207825318
 21
12.7667322835
  0
LINE
  5
209
100
AcDbEntity
  8
0
100
AcDbLine
 62
6
  6
CONTINUOUS
 10
4.4384990673
 20
11.2488582677
 11
4.4384990673
 21
11.2187007874
  0
LINE
  5
20A
100
AcDbEntity
  8
0
100
AcDbLine
 62
6
  6
CONTINUOUS
 10
4.4384990673
 20
11.1287007874
 11
4.4384990673
 21
11.0985433071
  0
LINE
  5
20B
100
AcDbEntity
  8
0
100
AcDbLine
 62
6
  6
CONTINUOUS
 10
4.4982825318
 20
12.7470472441
 11
4.4982825318
 21
11.2587007874
  0
LINE
  5
20C
100
AcDbEntity
  8
0
100
AcDbLine
 62
7
  6
CONTINUOUS
 10
5.3093375473
 20
10.0837795276
 11
5.3093375473
 21
10.8337795276
  0
LINE
  5
20D
100
AcDbEntity
  8
0
100
AcDbLine
 62
7
  6
CONTINUOUS
 10
5.3243258389
 20
10.852480315
 11
5.3243258389
 21
10.0650787402
  0
LINE
  5
20E
100
AcDbEntity
  8
0
100
AcDbLine
 62
6
  6
CONTINUOUS
 10
5.3432825318
 20
12.7470472441
 11
5.3432825318
 21
11.2587007874
  0
LINE
  5
20F
100
AcDbEntity
  8
0
100
AcDbLine
 62
6
  6
CONTINUOUS
 10
5.3479478862
 20
10.0650787402
 11
5.3479478862
 21
10.852480315
  0
LINE
  5
210
100
AcDbEntity
  8
0
100
AcDbLine
 62
6
  6
CONTINUOUS
 10
5.4030659964
 20
11.2488582677
 11
5.4030659964
 21
11.2187007874
  0
LINE
  5
211
100
AcDbEntity
  8
0
100
AcDbLine
 62
6
  6
CONTINUOUS
 10
5.4030659964
 20
11.1287007874
 11
5.4030659964
 21
11.0985433071
  0
LINE
  5
212
100
AcDbEntity
  8
0
100
AcDbLine
 62
6
  6
CONTINUOUS
 10
5.4207825318
 20
12.9790056075
 11
5.4207825318
 21
12.9370472441
  0
LINE
  5
213
100
AcDbEntity
  8
0
100
AcDbLine
 62
6
  6
CONTINUOUS
 10
5.4207825318
 20
12.8070472441
 11
5.4207825318
 21
12.7667322835
  0
LINE
  5
214
100
AcDbEntity
  8
0
100
AcDbLine
 62
6
  6
CONTINUOUS
 10
5.4286565476
 20
10.0650787402
 11
5.4286565476
 21
10.852480315
  0
LINE
  5
215
100
AcDbEntity
  8
0
100
AcDbLine
 62
9
  6
CONTINUOUS
 10
5.4522785948
 20
10.852480315
 11
5.4522785948
 21
10.0650787402
  0
LINE
  5
216
100
AcDbEntity
  8
0
100
AcDbLine
 62
9
  6
CONTINUOUS
 10
5.4621211145
 20
10.8426377874
 11
5.4621211145
 21
10.0749212677
  0
LINE
  5
217
100
AcDbEntity
  8
0
100
AcDbLine
 62
6
  6
CONTINUOUS
 10
5.9207825318
 20
13.4670472441
 11
5.9207825318
 21
13.3570472441
  0
LINE
  5
218
100
AcDbEntity
  8
0
100
AcDbLine
 62
6
  6
CONTINUOUS
 10
5.4522785948
 20
10.0650787402
 11
5.4286565476
 21
10.0650787402
  0
LINE
  5
219
100
AcDbEntity
  8
0
100
AcDbLine
 62
6
  6
CONTINUOUS
 10
5.3479478862
 20
10.0650787402
 11
5.3243258389
 21
10.0650787402
  0
LINE
  5
21A
100
AcDbEntity
  8
0
100
AcDbLine
 62
6
  6
CONTINUOUS
 10
28.3892864689
 20
10.0650787402
 11
28.4129085161
 21
10.0650787402
  0
LINE
  5
21B
100
AcDbEntity
  8
0
100
AcDbLine
 62
6
  6
CONTINUOUS
 10
28.4936171775
 20
10.0650787402
 11
28.5172392248
 21
10.0650787402
  0
LINE
  5
21C
100
AcDbEntity
  8
0
100
AcDbLine
 62
6
  6
CONTINUOUS
 10
5.3093375473
 20
10.1462795276
 11
5.3243258389
 21
10.1462795276
  0
LINE
  5
21D
100
AcDbEntity
  8
0
100
AcDbLine
 62
6
  6
CONTINUOUS
 10
5.4621211145
 20
10.1462795276
 11
28.3794439492
 21
10.1462795276
  0
LINE
  5
21E
100
AcDbEntity
  8
0
100
AcDbLine
 62
6
  6
CONTINUOUS
 10
28.5172392248
 20
10.1462795276
 11
28.5322275164
 21
10.1462795276
  0
LINE
  5
21F
100
AcDbEntity
  8
0
100
AcDbLine
 62
6
  6
CONTINUOUS
 10
5.3093375473
 20
10.7712795276
 11
5.3243258389
 21
10.7712795276
  0
LINE
  5
220
100
AcDbEntity
  8
0
100
AcDbLine
 62
6
  6
CONTINUOUS
 10
5.4621211145
 20
10.7712795276
 11
28.3794439492
 21
10.7712795276
  0
LINE
  5
221
100
AcDbEntity
  8
0
100
AcDbLine
 62
6
  6
CONTINUOUS
 10
28.5172392248
 20
10.7712795276
 11
28.5322275164
 21
10.7712795276
  0
LINE
  5
222
100
AcDbEntity
  8
0
100
AcDbLine
 62
6
  6
CONTINUOUS
 10
5.4522785948
 20
10.852480315
 11
5.4286565476
 21
10.852480315
  0
LINE
  5
223
100
AcDbEntity
  8
0
100
AcDbLine
 62
6
  6
CONTINUOUS
 10
5.3479478862
 20
10.852480315
 11
5.3243258389
 21
10.852480315
  0
LINE
  5
224
100
AcDbEntity
  8
0
100
AcDbLine
 62
6
  6
CONTINUOUS
 10
28.3892864689
 20
10.852480315
 11
28.4129085161
 21
10.852480315
  0
LINE
  5
225
100
AcDbEntity
  8
0
100
AcDbLine
 62
6
  6
CONTINUOUS
 10
28.4936171775
 20
10.852480315
 11
28.5172392248
 21
10.852480315
  0
LINE
  5
226
100
AcDbEntity
  8
0
100
AcDbLine
 62
9
  6
CONTINUOUS
 10
29.2485400747
 20
10.8879356683
 11
28.593024989
 21
10.8879356683
  0
LINE
  5
227
100
AcDbEntity
  8
0
100
AcDbLine
 62
9
  6
CONTINUOUS
 10
5.2485400747
 20
10.8879356683
 11
4.593024989
 21
10.8879356683
  0
LINE
  5
228
100
AcDbEntity
  8
0
100
AcDbLine
 62
6
  6
CONTINUOUS
 10
29.3932234767
 20
11.0887007874
 11
28.448341587
 21
11.0887007874
  0
LINE
  5
229
100
AcDbEntity
  8
0
100
AcDbLine
 62
6
  6
CONTINUOUS
 10
5.3932234767
 20
11.0887007874
 11
4.448341587
 21
11.0887007874
  0
LINE
  5
22A
100
AcDbEntity
  8
0
100
AcDbLine
 62
9
  6
CONTINUOUS
 10
29.4030659964
 20
11.0985433071
 11
28.4384990673
 21
11.0985433071
  0
LINE
  5
22B
100
AcDbEntity
  8
0
100
AcDbLine
 62
9
  6
CONTINUOUS
 10
5.4030659964
 20
11.0985433071
 11
4.4384990673
 21
11.0985433071
  0
LINE
  5
22C
100
AcDbEntity
  8
0
100
AcDbLine
 62
6
  6
CONTINUOUS
 10
5.4030659964
 20
11.1287007874
 11
4.4384990673
 21
11.1287007874
  0
LINE
  5
22D
100
AcDbEntity
  8
0
100
AcDbLine
 62
6
  6
CONTINUOUS
 10
28.4384990673
 20
11.1287007874
 11
29.4030659964
 21
11.1287007874
  0
LINE
  5
22E
100
AcDbEntity
  8
0
100
AcDbLine
 62
6
  6
CONTINUOUS
 10
5.4030659964
 20
11.2187007874
 11
4.4384990673
 21
11.2187007874
  0
LINE
  5
22F
100
AcDbEntity
  8
0
100
AcDbLine
 62
6
  6
CONTINUOUS
 10
28.4384990673
 20
11.2187007874
 11
29.4030659964
 21
11.2187007874
  0
LINE
  5
230
100
AcDbEntity
  8
0
100
AcDbLine
 62
9
  6
CONTINUOUS
 10
29.4030659964
 20
11.2488582677
 11
28.4384990673
 21
11.2488582677
  0
LINE
  5
231
100
AcDbEntity
  8
0
100
AcDbLine
 62
9
  6
CONTINUOUS
 10
5.4030659964
 20
11.2488582677
 11
4.4384990673
 21
11.2488582677
  0
LINE
  5
232
100
AcDbEntity
  8
0
100
AcDbLine
 62
6
  6
CONTINUOUS
 10
29.3932234767
 20
11.2587007874
 11
28.448341587
 21
11.2587007874
  0
LINE
  5
233
100
AcDbEntity
  8
0
100
AcDbLine
 62
6
  6
CONTINUOUS
 10
5.3932234767
 20
11.2587007874
 11
4.448341587
 21
11.2587007874
  0
LINE
  5
234
100
AcDbEntity
  8
0
100
AcDbLine
 62
9
  6
CONTINUOUS
 10
29.4010974925
 20
12.7470472441
 11
28.4404675712
 21
12.7470472441
  0
LINE
  5
235
100
AcDbEntity
  8
0
100
AcDbLine
 62
9
  6
CONTINUOUS
 10
5.4010974925
 20
12.7470472441
 11
4.4404675712
 21
12.7470472441
  0
LINE
  5
236
100
AcDbEntity
  8
0
100
AcDbLine
 62
9
  6
CONTINUOUS
 10
29.4207825318
 20
12.7667322835
 11
28.4207825318
 21
12.7667322835
  0
LINE
  5
237
100
AcDbEntity
  8
0
100
AcDbLine
 62
9
  6
CONTINUOUS
 10
5.4207825318
 20
12.7667322835
 11
4.4207825318
 21
12.7667322835
  0
LINE
  5
238
100
AcDbEntity
  8
0
100
AcDbLine
 62
6
  6
CONTINUOUS
 10
29.4207825318
 20
12.8070472441
 11
28.4207825318
 21
12.8070472441
  0
LINE
  5
239
100
AcDbEntity
  8
0
100
AcDbLine
 62
6
  6
CONTINUOUS
 10
5.4207825318
 20
12.8070472441
 11
4.4207825318
 21
12.8070472441
  0
LINE
  5
23A
100
AcDbEntity
  8
0
100
AcDbLine
 62
6
  6
CONTINUOUS
 10
29.4207825318
 20
12.9370472441
 11
28.4207825318
 21
12.9370472441
  0
LINE
  5
23B
100
AcDbEntity
  8
0
100
AcDbLine
 62
6
  6
CONTINUOUS
 10
5.4207825318
 20
12.9370472441
 11
4.4207825318
 21
12.9370472441
  0
LINE
  5
23C
100
AcDbEntity
  8
0
100
AcDbLine
 62
9
  6
CONTINUOUS
 10
29.4207825318
 20
12.9790056075
 11
28.4207825318
 21
12.9790056075
  0
LINE
  5
23D
100
AcDbEntity
  8
0
100
AcDbLine
 62
9
  6
CONTINUOUS
 10
5.4207825318
 20
12.9790056075
 11
4.4207825318
 21
12.9790056075
  0
LINE
  5
23E
100
AcDbEntity
  8
0
100
AcDbLine
 62
7
  6
CONTINUOUS
 10
29.4089715084
 20
12.9970472445
 11
28.4325935553
 21
12.9970472445
  0
LINE
  5
23F
100
AcDbEntity
  8
0
100
AcDbLine
 62
7
  6
CONTINUOUS
 10
5.4089715084
 20
12.9970472445
 11
4.4325935553
 21
12.9970472445
  0
LINE
  5
240
100
AcDbEntity
  8
0
100
AcDbLine
 62
7
  6
CONTINUOUS
 10
29.4089715082
 20
12.9976661775
 11
28.4325935555
 21
12.9976661775
  0
LINE
  5
241
100
AcDbEntity
  8
0
100
AcDbLine
 62
7
  6
CONTINUOUS
 10
5.4089715082
 20
12.9976661775
 11
4.4325935555
 21
12.9976661775
  0
LINE
  5
242
100
AcDbEntity
  8
0
100
AcDbLine
 62
9
  6
CONTINUOUS
 10
29.7818431379
 20
13.1866884147
 11
28.0597219258
 21
13.1866884147
  0
LINE
  5
243
100
AcDbEntity
  8
0
100
AcDbLine
 62
9
  6
CONTINUOUS
 10
5.7818431379
 20
13.1866884147
 11
4.0597219258
 21
13.1866884147
  0
LINE
  5
244
100
AcDbEntity
  8
0
100
AcDbLine
 62
7
  6
CONTINUOUS
 10
29.8007825318
 20
13.2063593269
 11
28.0407825318
 21
13.2063593269
  0
LINE
  5
245
100
AcDbEntity
  8
0
100
AcDbLine
 62
7
  6
CONTINUOUS
 10
5.8007825318
 20
13.2063593269
 11
4.0407825318
 21
13.2063593269
  0
LINE
  5
246
100
AcDbEntity
  8
0
100
AcDbLine
 62
7
  6
CONTINUOUS
 10
29.8007825318
 20
13.2370472441
 11
28.0407825318
 21
13.2370472441
  0
LINE
  5
247
100
AcDbEntity
  8
0
100
AcDbLine
 62
7
  6
CONTINUOUS
 10
5.8007825318
 20
13.2370472441
 11
4.0407825318
 21
13.2370472441
  0
LINE
  5
248
100
AcDbEntity
  8
0
100
AcDbLine
 62
9
  6
CONTINUOUS
 10
29.9207825318
 20
13.3570472441
 11
27.9207825318
 21
13.3570472441
  0
LINE
  5
249
100
AcDbEntity
  8
0
100
AcDbLine
 62
9
  6
CONTINUOUS
 10
5.9207825318
 20
13.3570472441
 11
3.9207825318
 21
13.3570472441
  0
LINE
  5
24A
100
AcDbEntity
  8
0
100
AcDbLine
 62
6
  6
CONTINUOUS
 10
29.9207825318
 20
13.4670472441
 11
27.9207825318
 21
13.4670472441
  0
LINE
  5
24B
100
AcDbEntity
  8
0
100
AcDbLine
 62
6
  6
CONTINUOUS
 10
5.9207825318
 20
13.4670472441
 11
3.9207825318
 21
13.4670472441
  0
LINE
  5
24C
100
AcDbEntity
  8
0
100
AcDbLine
 62
6
  6
CONTINUOUS
 10
27.9207825318
 20
13.4670472441
 11
27.9207825318
 21
13.3570472441
  0
LINE
  5
24D
100
AcDbEntity
  8
0
100
AcDbLine
 62
9
  6
CONTINUOUS
 10
28.3794439492
 20
10.0749212677
 11
28.3794439492
 21
10.8426377874
  0
LINE
  5
24E
100
AcDbEntity
  8
0
100
AcDbLine
 62
9
  6
CONTINUOUS
 10
28.3892864689
 20
10.0650787402
 11
28.3892864689
 21
10.852480315
  0
LINE
  5
24F
100
AcDbEntity
  8
0
100
AcDbLine
 62
6
  6
CONTINUOUS
 10
28.4129085161
 20
10.0650787402
 11
28.4129085161
 21
10.852480315
  0
LINE
  5
250
100
AcDbEntity
  8
0
100
AcDbLine
 62
6
  6
CONTINUOUS
 10
28.4207825318
 20
12.9790056075
 11
28.4207825318
 21
12.9370472441
  0
LINE
  5
251
100
AcDbEntity
  8
0
100
AcDbLine
 62
6
  6
CONTINUOUS
 10
28.4207825318
 20
12.8070472441
 11
28.4207825318
 21
12.7667322835
  0
LINE
  5
252
100
AcDbEntity
  8
0
100
AcDbLine
 62
6
  6
CONTINUOUS
 10
28.4384990673
 20
11.2488582677
 11
28.4384990673
 21
11.2187007874
  0
LINE
  5
253
100
AcDbEntity
  8
0
100
AcDbLine
 62
6
  6
CONTINUOUS
 10
28.4384990673
 20
11.1287007874
 11
28.4384990673
 21
11.0985433071
  0
LINE
  5
254
100
AcDbEntity
  8
0
100
AcDbLine
 62
6
  6
CONTINUOUS
 10
28.4936171775
 20
10.0650787402
 11
28.4936171775
 21
10.852480315
  0
LINE
  5
255
100
AcDbEntity
  8
0
100
AcDbLine
 62
6
  6
CONTINUOUS
 10
28.4982825318
 20
12.7470472441
 11
28.4982825318
 21
11.2587007874
  0
LINE
  5
256
100
AcDbEntity
  8
0
100
AcDbLine
 62
7
  6
CONTINUOUS
 10
28.5172392248
 20
10.0650787402
 11
28.5172392248
 21
10.852480315
  0
LINE
  5
257
100
AcDbEntity
  8
0
100
AcDbLine
 62
7
  6
CONTINUOUS
 10
28.5322275164
 20
10.8337795276
 11
28.5322275164
 21
10.0837795276
  0
LINE
  5
258
100
AcDbEntity
  8
0
100
AcDbLine
 62
6
  6
CONTINUOUS
 10
29.3432825318
 20
12.7470472441
 11
29.3432825318
 21
11.2587007874
  0
LINE
  5
259
100
AcDbEntity
  8
0
100
AcDbLine
 62
6
  6
CONTINUOUS
 10
29.4030659964
 20
11.2488582677
 11
29.4030659964
 21
11.2187007874
  0
LINE
  5
25A
100
AcDbEntity
  8
0
100
AcDbLine
 62
6
  6
CONTINUOUS
 10
29.4030659964
 20
11.1287007874
 11
29.4030659964
 21
11.0985433071
  0
LINE
  5
25B
100
AcDbEntity
  8
0
100
AcDbLine
 62
6
  6
CONTINUOUS
 10
29.4207825318
 20
12.9790056075
 11
29.4207825318
 21
12.9370472441
  0
LINE
  5
25C
100
AcDbEntity
  8
0
100
AcDbLine
 62
6
  6
CONTINUOUS
 10
29.4207825318
 20
12.8070472441
 11
29.4207825318
 21
12.7667322835
  0
LINE
  5
25D
100
AcDbEntity
  8
0
100
AcDbLine
 62
6
  6
CONTINUOUS
 10
29.9207825318
 20
13.4670472441
 11
29.9207825318
 21
13.3570472441
  0
ARC
  5
25E
100
AcDbEntity
  8
0
100
AcDbCircle
 62
6
  6
CONTINUOUS
 10
4.9207825318
 20
10.4587795276
 40
0.54
100
AcDbArc
 50
127.3698998357
 51
316.0170368696
  0
ARC
  5
25F
100
AcDbEntity
  8
0
100
AcDbCircle
 62
6
  6
CONTINUOUS
 10
4.9207825318
 20
10.4587795276
 40
0.54
100
AcDbArc
 50
43.9829631304
 51
52.6301001643
  0
ARC
  5
260
100
AcDbEntity
  8
0
100
AcDbCircle
 62
6
  6
CONTINUOUS
 10
4.4384990673
 20
10.9189859536
 40
0.17
100
AcDbArc
 50
0.0803619453
 51
86.680880157
  0
ARC
  5
261
100
AcDbEntity
  8
0
100
AcDbCircle
 62
6
  6
CONTINUOUS
 10
4.4781853369
 20
11.1737007874
 40
0.06
100
AcDbArc
 50
131.4096221093
 51
228.5903778907
  0
ARC
  5
262
100
AcDbEntity
  8
0
100
AcDbCircle
 62
6
  6
CONTINUOUS
 10
4.5691289885
 20
10.9192243925
 40
0.0393700787
100
AcDbArc
 50
307.3698998357
 51
360.0
  0
ARC
  5
263
100
AcDbEntity
  8
0
100
AcDbCircle
 62
6
  6
CONTINUOUS
 10
4.448341587
 20
11.2488582677
 40
0.0098425197
100
AcDbArc
 50
90.0
 51
180.0
  0
ARC
  5
264
100
AcDbEntity
  8
0
100
AcDbCircle
 62
6
  6
CONTINUOUS
 10
4.448341587
 20
11.0985433071
 40
0.0098425197
100
AcDbArc
 50
180.0
 51
270.0
  0
ARC
  5
265
100
AcDbEntity
  8
0
100
AcDbCircle
 62
6
  6
CONTINUOUS
 10
5.3883022169
 20
10.0932462363
 40
0.0492125984
100
AcDbArc
 50
214.9152062474
 51
325.0847937526
  0
ARC
  5
266
100
AcDbEntity
  8
0
100
AcDbCircle
 62
6
  6
CONTINUOUS
 10
5.4522785948
 20
10.0749212598
 40
0.0098425197
100
AcDbArc
 50
270.0
 51
0.0000103983
  0
ARC
  5
267
100
AcDbEntity
  8
0
100
AcDbCircle
 62
6
  6
CONTINUOUS
 10
5.2724360752
 20
10.9192243925
 40
0.0393700787
100
AcDbArc
 50
180.0
 51
232.6301001643
  0
ARC
  5
268
100
AcDbEntity
  8
0
100
AcDbCircle
 62
6
  6
CONTINUOUS
 10
5.4030659964
 20
10.9189859536
 40
0.17
100
AcDbArc
 50
93.319119843
 51
179.9196380547
  0
ARC
  5
269
100
AcDbEntity
  8
0
100
AcDbCircle
 62
6
  6
CONTINUOUS
 10
5.3883022169
 20
10.8243128189
 40
0.0492125984
100
AcDbArc
 50
34.9152062474
 51
145.0847937526
  0
ARC
  5
26A
100
AcDbEntity
  8
0
100
AcDbCircle
 62
6
  6
CONTINUOUS
 10
5.4522785948
 20
10.8426377953
 40
0.0098425197
100
AcDbArc
 50
359.9999896017
 51
90.0
  0
ARC
  5
26B
100
AcDbEntity
  8
0
100
AcDbCircle
 62
6
  6
CONTINUOUS
 10
5.3633797267
 20
11.1737007874
 40
0.06
100
AcDbArc
 50
311.4096221093
 51
48.5903778907
  0
ARC
  5
26C
100
AcDbEntity
  8
0
100
AcDbCircle
 62
6
  6
CONTINUOUS
 10
5.3932234767
 20
11.2488582677
 40
0.0098425197
100
AcDbArc
 50
0.0
 51
90.0
  0
ARC
  5
26D
100
AcDbEntity
  8
0
100
AcDbCircle
 62
6
  6
CONTINUOUS
 10
5.3932234767
 20
11.0985433071
 40
0.0098425197
100
AcDbArc
 50
270.0
 51
360.0
  0
ARC
  5
26E
100
AcDbEntity
  8
0
100
AcDbCircle
 62
6
  6
CONTINUOUS
 10
4.0407825318
 20
12.6870472441
 40
0.5
100
AcDbArc
 50
38.4065865157
 51
87.8291859954
  0
ARC
  5
26F
100
AcDbEntity
  8
0
100
AcDbCircle
 62
6
  6
CONTINUOUS
 10
4.4652236434
 20
12.8720472441
 40
0.0787401575
100
AcDbArc
 50
124.3607835629
 51
235.6392164371
  0
ARC
  5
270
100
AcDbEntity
  8
0
100
AcDbCircle
 62
6
  6
CONTINUOUS
 10
4.4404675712
 20
12.7667322835
 40
0.0196850394
100
AcDbArc
 50
180.0
 51
270.0
  0
ARC
  5
271
100
AcDbEntity
  8
0
100
AcDbCircle
 62
6
  6
CONTINUOUS
 10
4.4404675712
 20
12.979005608
 40
0.0196850394
100
AcDbArc
 50
113.578179002
 51
180.0000013111
  0
ARC
  5
272
100
AcDbEntity
  8
0
100
AcDbCircle
 62
6
  6
CONTINUOUS
 10
4.0407825318
 20
13.3570472441
 40
0.12
100
AcDbArc
 50
180.0
 51
270.0
  0
ARC
  5
273
100
AcDbEntity
  8
0
100
AcDbCircle
 62
6
  6
CONTINUOUS
 10
4.0604675712
 20
13.2063593269
 40
0.0196850394
100
AcDbArc
 50
180.0
 51
267.8291859954
  0
ARC
  5
274
100
AcDbEntity
  8
0
100
AcDbCircle
 62
6
  6
CONTINUOUS
 10
5.8007825318
 20
12.6870472441
 40
0.5
100
AcDbArc
 50
92.1708140046
 51
141.5934134843
  0
ARC
  5
275
100
AcDbEntity
  8
0
100
AcDbCircle
 62
6
  6
CONTINUOUS
 10
5.3763414202
 20
12.8720472441
 40
0.0787401575
100
AcDbArc
 50
304.3607835629
 51
55.6392164371
  0
ARC
  5
276
100
AcDbEntity
  8
0
100
AcDbCircle
 62
6
  6
CONTINUOUS
 10
5.4010974925
 20
12.7667322835
 40
0.0196850394
100
AcDbArc
 50
270.0
 51
360.0
  0
ARC
  5
277
100
AcDbEntity
  8
0
100
AcDbCircle
 62
6
  6
CONTINUOUS
 10
5.4010974925
 20
12.979005608
 40
0.0196850394
100
AcDbArc
 50
359.9999986586
 51
66.4218209859
  0
ARC
  5
278
100
AcDbEntity
  8
0
100
AcDbCircle
 62
6
  6
CONTINUOUS
 10
5.7810974925
 20
13.2063593269
 40
0.0196850394
100
AcDbArc
 50
272.1708140046
 51
360.0
  0
ARC
  5
279
100
AcDbEntity
  8
0
100
AcDbCircle
 62
6
  6
CONTINUOUS
 10
5.8007825318
 20
13.3570472441
 40
0.12
100
AcDbArc
 50
270.0
 51
360.0
  0
ARC
  5
27A
100
AcDbEntity
  8
0
100
AcDbCircle
 62
6
  6
CONTINUOUS
 10
28.4532628468
 20
10.0932462363
 40
0.0492125984
100
AcDbArc
 50
214.9152062474
 51
325.0847937526
  0
ARC
  5
27B
100
AcDbEntity
  8
0
100
AcDbCircle
 62
6
  6
CONTINUOUS
 10
28.3892864689
 20
10.0749212598
 40
0.0098425197
100
AcDbArc
 50
179.9999896017
 51
270.0
  0
ARC
  5
27C
100
AcDbEntity
  8
0
100
AcDbCircle
 62
6
  6
CONTINUOUS
 10
28.4384990673
 20
10.9189859536
 40
0.17
100
AcDbArc
 50
0.0803619453
 51
86.680880157
  0
ARC
  5
27D
100
AcDbEntity
  8
0
100
AcDbCircle
 62
6
  6
CONTINUOUS
 10
28.4532628468
 20
10.8243128189
 40
0.0492125984
100
AcDbArc
 50
34.9152062474
 51
145.0847937526
  0
ARC
  5
27E
100
AcDbEntity
  8
0
100
AcDbCircle
 62
6
  6
CONTINUOUS
 10
28.3892864689
 20
10.8426377953
 40
0.0098425197
100
AcDbArc
 50
90.0
 51
180.0000103983
  0
ARC
  5
27F
100
AcDbEntity
  8
0
100
AcDbCircle
 62
6
  6
CONTINUOUS
 10
28.4781853369
 20
11.1737007874
 40
0.06
100
AcDbArc
 50
131.4096221093
 51
228.5903778907
  0
ARC
  5
280
100
AcDbEntity
  8
0
100
AcDbCircle
 62
6
  6
CONTINUOUS
 10
28.448341587
 20
11.2488582677
 40
0.0098425197
100
AcDbArc
 50
90.0
 51
180.0
  0
ARC
  5
281
100
AcDbEntity
  8
0
100
AcDbCircle
 62
6
  6
CONTINUOUS
 10
28.448341587
 20
11.0985433071
 40
0.0098425197
100
AcDbArc
 50
180.0
 51
270.0
  0
ARC
  5
282
100
AcDbEntity
  8
0
100
AcDbCircle
 62
6
  6
CONTINUOUS
 10
28.5691289885
 20
10.9192243925
 40
0.0393700787
100
AcDbArc
 50
307.3698998357
 51
360.0
  0
ARC
  5
283
100
AcDbEntity
  8
0
100
AcDbCircle
 62
6
  6
CONTINUOUS
 10
28.9207825318
 20
10.4587795276
 40
0.54
100
AcDbArc
 50
223.9829631304
 51
52.6301001643
  0
ARC
  5
284
100
AcDbEntity
  8
0
100
AcDbCircle
 62
6
  6
CONTINUOUS
 10
28.9207825318
 20
10.4587795276
 40
0.54
100
AcDbArc
 50
127.3698998357
 51
136.0170368696
  0
ARC
  5
285
100
AcDbEntity
  8
0
100
AcDbCircle
 62
6
  6
CONTINUOUS
 10
29.4030659964
 20
10.9189859536
 40
0.17
100
AcDbArc
 50
93.319119843
 51
179.9196380547
  0
ARC
  5
286
100
AcDbEntity
  8
0
100
AcDbCircle
 62
6
  6
CONTINUOUS
 10
29.3633797267
 20
11.1737007874
 40
0.06
100
AcDbArc
 50
311.4096221093
 51
48.5903778907
  0
ARC
  5
287
100
AcDbEntity
  8
0
100
AcDbCircle
 62
6
  6
CONTINUOUS
 10
29.2724360752
 20
10.9192243925
 40
0.0393700787
100
AcDbArc
 50
180.0
 51
232.6301001643
  0
ARC
  5
288
100
AcDbEntity
  8
0
100
AcDbCircle
 62
6
  6
CONTINUOUS
 10
29.3932234767
 20
11.0985433071
 40
0.0098425197
100
AcDbArc
 50
270.0
 51
360.0
  0
ARC
  5
289
100
AcDbEntity
  8
0
100
AcDbCircle
 62
6
  6
CONTINUOUS
 10
29.3932234767
 20
11.2488582677
 40
0.0098425197
100
AcDbArc
 50
0.0
 51
90.0
  0
ARC
  5
28A
100
AcDbEntity
  8
0
100
AcDbCircle
 62
6
  6
CONTINUOUS
 10
28.0407825318
 20
12.6870472441
 40
0.5
100
AcDbArc
 50
38.4065865157
 51
87.8291859954
  0
ARC
  5
28B
100
AcDbEntity
  8
0
100
AcDbCircle
 62
6
  6
CONTINUOUS
 10
28.4652236434
 20
12.8720472441
 40
0.0787401575
100
AcDbArc
 50
124.3607835629
 51
235.6392164371
  0
ARC
  5
28C
100
AcDbEntity
  8
0
100
AcDbCircle
 62
6
  6
CONTINUOUS
 10
28.4404675712
 20
12.7667322835
 40
0.0196850394
100
AcDbArc
 50
180.0
 51
270.0
  0
ARC
  5
28D
100
AcDbEntity
  8
0
100
AcDbCircle
 62
6
  6
CONTINUOUS
 10
28.4404675712
 20
12.979005608
 40
0.0196850394
100
AcDbArc
 50
113.578179002
 51
180.0000013111
  0
ARC
  5
28E
100
AcDbEntity
  8
0
100
AcDbCircle
 62
6
  6
CONTINUOUS
 10
28.0407825318
 20
13.3570472441
 40
0.12
100
AcDbArc
 50
180.0
 51
270.0
  0
ARC
  5
28F
100
AcDbEntity
  8
0
100
AcDbCircle
 62
6
  6
CONTINUOUS
 10
28.0604675712
 20
13.2063593269
 40
0.0196850394
100
AcDbArc
 50
180.0
 51
267.8291859954
  0
ARC
  5
290
100
AcDbEntity
  8
0
100
AcDbCircle
 62
6
  6
CONTINUOUS
 10
29.8007825318
 20
12.6870472441
 40
0.5
100
AcDbArc
 50
92.1708140046
 51
141.5934134843
  0
ARC
  5
291
100
AcDbEntity
  8
0
100
AcDbCircle
 62
6
  6
CONTINUOUS
 10
29.3763414202
 20
12.8720472441
 40
0.0787401575
100
AcDbArc
 50
304.3607835629
 51
55.6392164371
  0
ARC
  5
292
100
AcDbEntity
  8
0
100
AcDbCircle
 62
6
  6
CONTINUOUS
 10
29.4010974925
 20
12.7667322835
 40
0.0196850394
100
AcDbArc
 50
270.0
 51
360.0
  0
ARC
  5
293
100
AcDbEntity
  8
0
100
AcDbCircle
 62
6
  6
CONTINUOUS
 10
29.4010974925
 20
12.979005608
 40
0.0196850394
100
AcDbArc
 50
359.9999986586
 51
66.4218209859
  0
ARC
  5
294
100
AcDbEntity
  8
0
100
AcDbCircle
 62
6
  6
CONTINUOUS
 10
29.7810974925
 20
13.2063593269
 40
0.0196850394
100
AcDbArc
 50
272.1708140046
 51
360.0
  0
ARC
  5
295
100
AcDbEntity
  8
0
100
AcDbCircle
 62
6
  6
CONTINUOUS
 10
29.8007825318
 20
13.3570472441
 40
0.12
100
AcDbArc
 50
270.0
 51
360.0
  0
LINE
  5
296
100
AcDbEntity
  8
0
100
AcDbLine
 62
6
  6
CONTINUOUS
 10
29.2330661636
 20
10.9192243922
 11
28.6084989001
 21
10.9192243922
  0
LINE
  5
297
100
AcDbEntity
  8
0
100
AcDbLine
 62
6
  6
CONTINUOUS
 10
5.2330661636
 20
10.9192243922
 11
4.6084989001
 21
10.9192243922
  0
ENDSEC
  0
SECTION
  2
OBJECTS
  0
DICTIONARY
  5
C
100
AcDbDictionary
280
0
281
1
  3
ACAD_GROUP
350
D
  3
ACAD_MLINESTYLE
350
17
  3
ACAD_LAYOUT
350
1A
  3
ACAD_PLOTSETTINGS
350
19
  3
ACAD_PLOTSTYLENAME
350
E
  0
DICTIONARY
  5
D
102
{ACAD_REACTORS
330
C
102
}
100
AcDbDictionary
280
0
281
1
  0
ACDBDICTIONARYWDFLT
  5
E
102
{ACAD_REACTORS
330
C
102
}
100
AcDbDictionary
281
1
  3
Normal
350
F
100
AcDbDictionaryWithDefault
340
F
  0
DICTIONARY
  5
17
102
{ACAD_REACTORS
330
C
102
}
100
AcDbDictionary
280
0
281
1
  3
Standard
350
18
  0
DICTIONARY
  5
19
102
{ACAD_REACTORS
330
C
102
}
100
AcDbDictionary
281
1
  0
DICTIONARY
  5
1A
102
{ACAD_REACTORS
330
C
102
}
100
AcDbDictionary
281
1
  3
Model
350
298
  3
Layout1
350
299
  0
ACDBPLACEHOLDER
  5
F
102
{ACAD_REACTORS
330
E
102
}
  0
MLINESTYLE
  5
18
102
{ACAD_REACTORS
330
17
102
}
100
AcDbMlineStyle
  2
STANDARD
 70
0
  3

 62
256
 51
90.0
 52
90.0
 71
2
 49
0.5
 62
256
  6
BYLAYER
 49
-0.5
 62
256
  6
BYLAYER
  0
LAYOUT
  5
298
102
{ACAD_REACTORS
330
1A
102
}
100
AcDbPlotSettings
  1

  2
none_device
  4
ISO_A1_(594.00_x_841.00_MM)
  6

 40
0.0
 41
0.0
 42
0.0
 43
0.0
 44
841.0
 45
594.0
 46
0.0
 47
0.0
 48
0.0
 49
0.0
140
0.0
141
0.0
142
1.0
143
1.0
 70
1024
 72
0
 73
0
 74
0
  7

 75
0
147
1.0
148
0.0
149
0.0
100
AcDbLayout
  1
Model
 70
0
 71
0
 10
0.0
 20
0.0
 11
33.1102362205
 21
23.3858267717
 12
0.0
 22
0.0
 32
0.0
 14
0.0
 24
0.0
 34
0.0
 15
0.0
 25
0.0
 35
0.0
146
0.0
 13
0.0
 23
0.0
 33
0.0
 16
1.0
 26
0.0
 36
0.0
 17
0.0
 27
1.0
 37
0.0
 76
0
330
203
345
0
346
0
  0
LAYOUT
  5
299
102
{ACAD_REACTORS
330
1A
102
}
100
AcDbPlotSettings
  1

  2
none_device
  4
ISO_A1_(594.00_x_841.00_MM)
  6

 40
0.0
 41
0.0
 42
0.0
 43
0.0
 44
841.0
 45
594.0
 46
0.0
 47
0.0
 48
0.0
 49
0.0
140
0.0
141
0.0
142
1.0
143
1.0
 70
0
 72
0
 73
0
 74
0
  7

 75
0
147
1.0
148
0.0
149
0.0
100
AcDbLayout
  1
Layout1
 70
0
 71
1
 10
0.0
 20
0.0
 11
33.1102362205
 21
23.3858267717
 12
0.0
 22
0.0
 32
0.0
 14
0.0
 24
0.0
 34
0.0
 15
0.0
 25
0.0
 35
0.0
146
0.0
 13
0.0
 23
0.0
 33
0.0
 16
1.0
 26
0.0
 36
0.0
 17
0.0
 27
1.0
 37
0.0
 76
0
330
204
345
0
346
0
  0
ENDSEC
  0
EOF
