999
DXF file: E:\BT Custom\CADOUTPUT\_TOP.dxf
999
Pro/ENGINEER 2018400 by Parametric Technology Corporation
  0
SECTION
  2
HEADER
  9
$ACADVER
  1
AC1018
  9
$DWGCODEPAGE
  3
ANSI_1252
  9
$EXTMAX
 10
22.0
 20
17.0
 30
0.0
  9
$EXTMIN
 10
0.0
 20
0.0
 30
0.0
  9
$LIMMIN
 10
0.0
 20
0.0
  9
$LIMMAX
 10
22.0
 20
17.0
  9
$VIEWCTR
 10
11.0
 20
8.5
  9
$VIEWSIZE
 40
17.0
  9
$CLAYER
  8
0
  9
$LTSCALE
 40
1.21
  9
$CELTYPE
  6
BYLAYER
  9
$DIMSCALE
 40
1.0
  9
$DIMASZ
 40
0.1
  9
$DIMEXO
 40
0.0625
  9
$DIMDLI
 40
0.836
  9
$DIMEXE
 40
0.125
  9
$DIMCEN
 40
0.198
  9
$DIMLFAC
 40
1.0
  9
$DIMBLK
  1
_FILLED
  9
$DIMALT
 70
1
  9
$DIMALTD
 70
2
  9
$DIMALTTD
 70
2
  9
$DIMALTF
 40
25.4
  9
$DIMTXT
 40
0.08
  9
$DIMTOL
 70
1
  9
$DIMLIM
 70
0
  9
$DIMTFAC
 40
1.0
  9
$DIMTP
 40
0.001
  9
$DIMTM
 40
0.001
  9
$DIMGAP
 40
0.09
  9
$DIMDSEP
 70
46
  9
$AUNITS
 70
0
  9
$PDMODE
 70
3
  9
$PDSIZE
 40
0.06
  9
$HANDSEED
  5
241
  9
$TILEMODE
 70
1
  9
$MEASUREMENT
 70
0
  9
$INSUNITS
 70
1
  0
ENDSEC
  0
SECTION
  2
CLASSES
  0
CLASS
  1
ACDBDICTIONARYWDFLT
  2
AcDbDictionaryWithDefault
  3
AutoCAD 2000
 90
0
 91
1
280
0
281
0
  0
CLASS
  1
ACDBPLACEHOLDER
  2
AcDbPlaceHolder
  3
AutoCAD 2000
 90
0
 91
1
280
0
281
0
  0
CLASS
  1
LAYOUT
  2
AcDbLayout
  3
AutoCAD 2000
 90
0
 91
0
280
0
281
0
  0
ENDSEC
  0
SECTION
  2
TABLES
  0
TABLE
  2
VPORT
  5
8
100
AcDbSymbolTable
 70
2
  0
VPORT
  5
1F4
100
AcDbSymbolTableRecord
100
AcDbViewportTableRecord
  2
*ACTIVE
 70
0
 10
0.0
 20
0.0
 11
1.0
 21
1.0
 12
11.0
 22
8.5
 13
0.0
 23
0.0
 14
1.0
 24
1.0
 15
0.0
 25
0.0
 16
0.0
 26
0.0
 36
1.0
 17
0.0
 27
0.0
 37
0.0
 40
17.0
 41
1.2941176471
 42
50.0
 43
0.0
 44
0.0
 50
0.0
 51
0.0
 71
0
 72
100
 73
1
 74
1
 75
0
 76
0
 77
0
 78
0
  0
ENDTAB
  0
TABLE
  2
LTYPE
  5
5
100
AcDbSymbolTable
 70
6
  0
LTYPE
  5
14
100
AcDbSymbolTableRecord
100
AcDbLinetypeTableRecord
  2
BYBLOCK
 70
0
  3

 72
65
 73
0
 40
0.0
  0
LTYPE
  5
15
100
AcDbSymbolTableRecord
100
AcDbLinetypeTableRecord
  2
BYLAYER
 70
0
  3

 72
65
 73
0
 40
0.0
  0
LTYPE
  5
16
100
AcDbSymbolTableRecord
100
AcDbLinetypeTableRecord
  2
CONTINUOUS
 70
64
  3
Solid line
 72
65
 73
0
 40
0.0
  0
LTYPE
  5
1F5
100
AcDbSymbolTableRecord
100
AcDbLinetypeTableRecord
  2
CENTER
 70
64
  3
____ _ ____ _ ____ _ ____ _ ____ _ ____ _ ____
 72
65
 73
4
 40
0.6
 49
0.375
 74
0
 49
-0.075
 74
0
 49
0.075
 74
0
 49
-0.075
 74
0
  0
LTYPE
  5
1F6
100
AcDbSymbolTableRecord
100
AcDbLinetypeTableRecord
  2
HIDDEN
 70
64
  3
- - - - - - - - - - - - - - - - - - - -
 72
65
 73
2
 40
0.2
 49
0.1
 74
0
 49
-0.1
 74
0
  0
LTYPE
  5
1F7
100
AcDbSymbolTableRecord
100
AcDbLinetypeTableRecord
  2
PHANTOM
 70
64
  3
_____ _ _ _____ _ _ _____ _ _ _____
 72
65
 73
6
 40
0.8
 49
0.45
 74
0
 49
-0.05
 74
0
 49
0.1
 74
0
 49
-0.05
 74
0
 49
0.1
 74
0
 49
-0.05
 74
0
  0
LTYPE
  5
1F8
100
AcDbSymbolTableRecord
100
AcDbLinetypeTableRecord
  2
DOT
 70
64
  3
. . . . . . . . . . . . . . . . . . . .
 72
65
 73
2
 40
0.2
 49
0.1
 74
0
 49
-0.1
 74
0
  0
LTYPE
  5
1F9
100
AcDbSymbolTableRecord
100
AcDbLinetypeTableRecord
  2
DASHED
 70
64
  3
- - - - - - - - - - - - - - - - - - - -
 72
65
 73
2
 40
0.2
 49
0.1
 74
0
 49
-0.1
 74
0
  0
ENDTAB
  0
TABLE
  2
LAYER
  5
2
100
AcDbSymbolTable
 70
36
  0
LAYER
  5
10
100
AcDbSymbolTableRecord
100
AcDbLayerTableRecord
  2
0
 70
0
 62
7
  6
CONTINUOUS
370
-3
390
F
  0
LAYER
  5
1FA
100
AcDbSymbolTableRecord
100
AcDbLayerTableRecord
  2
DEFAULT_1
 70
0
 62
7
  6
CENTER
370
-3
390
F
  0
LAYER
  5
1FB
100
AcDbSymbolTableRecord
100
AcDbLayerTableRecord
  2
DEFAULT_2
 70
0
 62
8
  6
HIDDEN
370
-3
390
F
  0
LAYER
  5
1FC
100
AcDbSymbolTableRecord
100
AcDbLayerTableRecord
  2
DEFAULT_3
 70
0
 62
7
  6
PHANTOM
370
-3
390
F
  0
LAYER
  5
1FD
100
AcDbSymbolTableRecord
100
AcDbLayerTableRecord
  2
ALL_FEATURES
 70
0
 62
7
  6
CONTINUOUS
370
-3
390
F
  0
LAYER
  5
1FE
100
AcDbSymbolTableRecord
100
AcDbLayerTableRecord
  2
AXES_FEATURES
 70
0
 62
7
  6
CONTINUOUS
370
-3
390
F
  0
LAYER
  5
1FF
100
AcDbSymbolTableRecord
100
AcDbLayerTableRecord
  2
DEFAULT_COORDINATE_SYSTEM
 70
0
 62
7
  6
CONTINUOUS
370
-3
390
F
  0
LAYER
  5
200
100
AcDbSymbolTableRecord
100
AcDbLayerTableRecord
  2
DEFAULT_DATUM_AXES
 70
0
 62
7
  6
CONTINUOUS
370
-3
390
F
  0
LAYER
  5
201
100
AcDbSymbolTableRecord
100
AcDbLayerTableRecord
  2
DEFAULT_DATUM_PLANES
 70
0
 62
7
  6
CONTINUOUS
370
-3
390
F
  0
LAYER
  5
202
100
AcDbSymbolTableRecord
100
AcDbLayerTableRecord
  2
DIMENSIONS
 70
0
 62
7
  6
CONTINUOUS
370
-3
390
F
  0
ENDTAB
  0
TABLE
  2
STYLE
  5
3
100
AcDbSymbolTable
 70
1
  0
STYLE
  5
11
100
AcDbSymbolTableRecord
100
AcDbTextStyleTableRecord
  2
STANDARD
 70
0
 40
0.0
 41
0.8
 50
0.0
 71
0
 42
0.2
  3
txt
  4

  0
STYLE
  5
203
100
AcDbSymbolTableRecord
100
AcDbTextStyleTableRecord
  2
TEXTSTYLE_1
 70
0
 40
0.0
 41
0.8
 50
0.0
 71
0
 42
0.2
  3
gdt
  4

  0
ENDTAB
  0
TABLE
  2
VIEW
  5
6
100
AcDbSymbolTable
 70
0
  0
ENDTAB
  0
TABLE
  2
UCS
  5
7
100
AcDbSymbolTable
 70
0
  0
ENDTAB
  0
TABLE
  2
APPID
  5
9
100
AcDbSymbolTable
 70
1
  0
APPID
  5
204
100
AcDbSymbolTableRecord
100
AcDbRegAppTableRecord
  2
ACAD
 70
0
  0
ENDTAB
  0
TABLE
  2
BLOCK_RECORD
  5
1
100
AcDbSymbolTable
 70
0
  0
BLOCK_RECORD
  5
205
100
AcDbSymbolTableRecord
100
AcDbBlockTableRecord
  2
*Model_Space
  0
BLOCK_RECORD
  5
206
100
AcDbSymbolTableRecord
100
AcDbBlockTableRecord
  2
*Paper_Space
  0
BLOCK_RECORD
  5
207
100
AcDbSymbolTableRecord
100
AcDbBlockTableRecord
  2
_FILLED
  0
ENDTAB
  0
TABLE
  2
DIMSTYLE
  5
A
100
AcDbSymbolTable
 70
1
100
AcDbDimStyleTable
 71
0
  0
DIMSTYLE
105
208
100
AcDbSymbolTableRecord
100
AcDbDimStyleTableRecord
  2
STANDARD
 70
0
  3

  4

 40
1.0
 41
0.1
 42
0.0625
 43
0.38
 44
0.125
 45
0.0
 46
0.0
 47
0.001
 48
0.001
140
0.08
141
0.09
142
0.0
143
25.4
144
1.0
145
0.0
146
1.0
147
0.09
 71
1.0
 72
0.0
 73
1
 74
1
 75
0
 76
0
 77
0
 78
4
 79
1
170
1
171
2
172
0
173
0
174
0
175
0
176
0
177
0
178
0
270
2
179
3
271
3
272
3
273
2
274
2
275
0
280
0
281
0
282
0
283
1
284
4
285
0
286
0
287
3
288
0
340
11
278
46
341
207
342
207
343
207
344
207
  0
ENDTAB
  0
ENDSEC
  0
SECTION
  2
BLOCKS
  0
BLOCK
  5
20
100
AcDbEntity
  8
0
100
AcDbBlockBegin
  2
*Model_Space
 70
0
 10
0.0
 20
0.0
 30
0.0
  3
*Model_Space
  1

  0
ENDBLK
  5
21
100
AcDbEntity
  8
0
100
AcDbBlockEnd
  0
BLOCK
  5
1C
100
AcDbEntity
  8
0
100
AcDbBlockBegin
  2
*Paper_Space
 70
0
 10
0.0
 20
0.0
 30
0.0
  3
*Paper_Space
  1

  0
ENDBLK
  5
1D
100
AcDbEntity
  8
0
100
AcDbBlockEnd
  0
BLOCK
  5
209
100
AcDbEntity
  8
0
100
AcDbBlockBegin
  2
_FILLED
 70
64
 10
0.0
 20
0.0
  3
_FILLED
  1

  0
SOLID
  5
20A
100
AcDbEntity
  8
0
  6
BYBLOCK
 62
0
100
AcDbTrace
 10
0.0
 20
0.0
 11
-1.0
 21
0.2
 12
-1.0
 22
-0.2
 13
-1.0
 23
-0.2
  0
ENDBLK
  5
20B
100
AcDbEntity
  8
0
  6
BYBLOCK
 62
0
100
AcDbBlockEnd
  0
ENDSEC
  0
SECTION
  2
ENTITIES
  0
LINE
  5
20C
100
AcDbEntity
  8
0
100
AcDbLine
 62
7
  6
CONTINUOUS
 10
10.5573183383
 20
5.8485193604
 11
11.5373183383
 21
5.8485193604
  0
LINE
  5
20D
100
AcDbEntity
  8
0
100
AcDbLine
 62
7
  6
CONTINUOUS
 10
9.8598183383
 20
8.1393971177
 11
9.8598183383
 21
8.4461443604
  0
LINE
  5
20E
100
AcDbEntity
  8
0
100
AcDbLine
 62
7
  6
CONTINUOUS
 10
10.5573183383
 20
6.4735193604
 11
11.5373183383
 21
6.4735193604
  0
LINE
  5
20F
100
AcDbEntity
  8
0
100
AcDbLine
 62
7
  6
CONTINUOUS
 10
10.7348183439
 20
6.7835193604
 11
11.3598183327
 21
6.7835193604
  0
LINE
  5
210
100
AcDbEntity
  8
0
100
AcDbLine
 62
7
  6
CONTINUOUS
 10
11.4773183383
 20
6.7991443604
 11
10.6173183383
 21
6.7991443604
  0
LINE
  5
211
100
AcDbEntity
  8
0
100
AcDbLine
 62
7
  6
CONTINUOUS
 10
11.6246686075
 20
6.9191443604
 11
10.4699680691
 21
6.9191443604
  0
LINE
  5
212
100
AcDbEntity
  8
0
100
AcDbLine
 62
7
  6
CONTINUOUS
 10
10.4699680691
 20
6.9191443604
 11
10.3827766543
 21
7.3119525106
  0
LINE
  5
213
100
AcDbEntity
  8
0
100
AcDbLine
 62
7
  6
CONTINUOUS
 10
10.5573183383
 20
6.4735193604
 11
10.5573183383
 21
5.8485193604
  0
LINE
  5
214
100
AcDbEntity
  8
0
100
AcDbLine
 62
7
  6
CONTINUOUS
 10
10.6173183383
 20
6.9191443604
 11
10.6173183383
 21
6.7991443604
  0
LINE
  5
215
100
AcDbEntity
  8
0
100
AcDbLine
 62
7
  6
CONTINUOUS
 10
10.7348183383
 20
6.7835193604
 11
10.7348183383
 21
6.4735193604
  0
LINE
  5
216
100
AcDbEntity
  8
0
100
AcDbLine
 62
7
  6
CONTINUOUS
 10
9.8776066929
 20
8.1243762337
 11
9.8598183383
 21
8.1393971177
  0
LINE
  5
217
100
AcDbEntity
  8
0
100
AcDbLine
 62
7
  6
CONTINUOUS
 10
10.7586432037
 20
6.9191443604
 11
10.7150474963
 21
7.3119525106
  0
LINE
  5
218
100
AcDbEntity
  8
0
100
AcDbLine
 62
7
  6
CONTINUOUS
 10
10.8473183383
 20
6.7991443604
 11
10.8473183383
 21
6.7835193604
  0
LINE
  5
219
100
AcDbEntity
  8
0
100
AcDbLine
 62
9
  6
CONTINUOUS
 10
11.7118600223
 20
7.3119525106
 11
10.3827766543
 21
7.3119525106
  0
LINE
  5
21A
100
AcDbEntity
  8
0
100
AcDbLine
 62
7
  6
CONTINUOUS
 10
10.4624625156
 20
8.1243762337
 11
10.4535683383
 21
8.1393971177
  0
LINE
  5
21B
100
AcDbEntity
  8
0
100
AcDbLine
 62
7
  6
CONTINUOUS
 10
11.2473183383
 20
6.7991443604
 11
11.2473183383
 21
6.7835193604
  0
LINE
  5
21C
100
AcDbEntity
  8
0
100
AcDbLine
 62
7
  6
CONTINUOUS
 10
11.3598183383
 20
6.7835193604
 11
11.3598183383
 21
6.4735193604
  0
LINE
  5
21D
100
AcDbEntity
  8
0
100
AcDbLine
 62
7
  6
CONTINUOUS
 10
11.632174161
 20
8.1243762337
 11
11.6410683383
 21
8.1393971177
  0
LINE
  5
21E
100
AcDbEntity
  8
0
100
AcDbLine
 62
7
  6
CONTINUOUS
 10
12.2170299837
 20
8.1243762337
 11
12.2348183383
 21
8.1393971177
  0
LINE
  5
21F
100
AcDbEntity
  8
0
100
AcDbLine
 62
7
  6
CONTINUOUS
 10
11.4773183383
 20
6.9191443604
 11
11.4773183383
 21
6.7991443604
  0
LINE
  5
220
100
AcDbEntity
  8
0
100
AcDbLine
 62
7
  6
CONTINUOUS
 10
11.5373183383
 20
6.4735193604
 11
11.5373183383
 21
5.8485193604
  0
LINE
  5
221
100
AcDbEntity
  8
0
100
AcDbLine
 62
7
  6
CONTINUOUS
 10
11.3359934729
 20
6.9191443604
 11
11.3795891803
 21
7.3119525106
  0
LINE
  5
222
100
AcDbEntity
  8
0
100
AcDbLine
 62
7
  6
CONTINUOUS
 10
11.6246686075
 20
6.9191443604
 11
11.7118600223
 21
7.3119525106
  0
LINE
  5
223
100
AcDbEntity
  8
0
100
AcDbLine
 62
9
  6
CONTINUOUS
 10
12.2170299837
 20
8.1243762337
 11
9.8776066929
 21
8.1243762337
  0
LINE
  5
224
100
AcDbEntity
  8
0
100
AcDbLine
 62
7
  6
CONTINUOUS
 10
13.8041570779
 20
8.4461443604
 11
8.2904795986
 21
8.4461443604
  0
LINE
  5
225
100
AcDbEntity
  8
0
100
AcDbLine
 62
9
  6
CONTINUOUS
 10
14.0212377081
 20
8.5721443604
 11
8.0733989685
 21
8.5721443604
  0
LINE
  5
226
100
AcDbEntity
  8
0
100
AcDbLine
 62
7
  6
CONTINUOUS
 10
12.2348183383
 20
8.1393971177
 11
12.2348183383
 21
8.4461443604
  0
LINE
  5
227
100
AcDbEntity
  8
0
100
AcDbLine
 62
9
  6
CONTINUOUS
 10
14.2382345161
 20
8.6981443464
 11
7.8564021604
 21
8.6981443464
  0
LINE
  5
228
100
AcDbEntity
  8
0
100
AcDbLine
 62
9
  6
CONTINUOUS
 10
14.4552392802
 20
8.8241471126
 11
7.6393973963
 21
8.8241471126
  0
LINE
  5
229
100
AcDbEntity
  8
0
100
AcDbLine
 62
7
  6
CONTINUOUS
 10
14.6723183383
 20
8.9501443604
 11
7.4223183383
 21
8.9501443604
  0
LINE
  5
22A
100
AcDbEntity
  8
0
100
AcDbLine
 62
7
  6
CONTINUOUS
 10
14.9223183383
 20
9.2001443604
 11
7.1723183383
 21
9.2001443604
  0
ARC
  5
22B
100
AcDbEntity
  8
0
100
AcDbCircle
 62
7
  6
CONTINUOUS
 10
11.0473183383
 20
7.2662287806
 40
1.5
100
AcDbArc
 50
250.9334198993
 51
289.0665801007
  0
ARC
  5
22C
100
AcDbEntity
  8
0
100
AcDbCircle
 62
7
  6
CONTINUOUS
 10
11.0473183383
 20
6.1605193604
 40
0.396
100
AcDbArc
 50
263.7321566269
 51
276.2678433731
  0
ARC
  5
22D
100
AcDbEntity
  8
0
100
AcDbCircle
 62
7
  6
CONTINUOUS
 10
11.0473183383
 20
6.1605193604
 40
0.39460342
100
AcDbArc
 50
267.2012400816
 51
272.7987599184
  0
ARC
  5
22E
100
AcDbEntity
  8
0
100
AcDbCircle
 62
7
  6
CONTINUOUS
 10
14.2381506903
 20
8.9481553097
 40
0.2500109774
100
AcDbArc
 50
270.0192106228
 51
330.2635604814
  0
ARC
  5
22F
100
AcDbEntity
  8
0
100
AcDbCircle
 62
7
  6
CONTINUOUS
 10
7.8564859863
 20
8.9481553097
 40
0.2500109774
100
AcDbArc
 50
209.7364395186
 51
269.9807893772
  0
ARC
  5
230
100
AcDbEntity
  8
0
100
AcDbCircle
 62
7
  6
CONTINUOUS
 10
14.6723183383
 20
9.2001443604
 40
0.25
100
AcDbArc
 50
270.0
 51
360.0
  0
ARC
  5
231
100
AcDbEntity
  8
0
100
AcDbCircle
 62
7
  6
CONTINUOUS
 10
7.4223183383
 20
9.2001443604
 40
0.25
100
AcDbArc
 50
180.0
 51
270.0
  0
ARC
  5
232
100
AcDbEntity
  8
0
100
AcDbCircle
 62
7
  6
CONTINUOUS
 10
14.6723183383
 20
8.7001443604
 40
0.25
100
AcDbArc
 50
90.0
 51
150.2635604814
  0
ARC
  5
233
100
AcDbEntity
  8
0
100
AcDbCircle
 62
7
  6
CONTINUOUS
 10
7.4223183383
 20
8.7001443604
 40
0.25
100
AcDbArc
 50
29.7364395186
 51
90.0
  0
ARC
  5
234
100
AcDbEntity
  8
0
100
AcDbCircle
 62
7
  6
CONTINUOUS
 10
14.2383183383
 20
8.4481443604
 40
0.25
100
AcDbArc
 50
90.0192106228
 51
150.2642868924
  0
ARC
  5
235
100
AcDbEntity
  8
0
100
AcDbCircle
 62
7
  6
CONTINUOUS
 10
7.8563183383
 20
8.4481443604
 40
0.25
100
AcDbArc
 50
29.7357131076
 51
89.9807893772
  0
ARC
  5
236
100
AcDbEntity
  8
0
100
AcDbCircle
 62
7
  6
CONTINUOUS
 10
13.8041570779
 20
8.6961443604
 40
0.25
100
AcDbArc
 50
270.0
 51
330.2642868924
  0
ARC
  5
237
100
AcDbEntity
  8
0
100
AcDbCircle
 62
7
  6
CONTINUOUS
 10
8.2904795986
 20
8.6961443604
 40
0.25
100
AcDbArc
 50
209.7357131076
 51
270.0
  0
SPLINE
  5
238
100
AcDbEntity
  8
0
100
AcDbSpline
 62
7
  6
CONTINUOUS
 70
0
 71
3
 72
30
 73
26
 74
0
 42
0.0000001
 43
0.0000001
 44
0.0000000001
 40
0.0
 40
0.0
 40
0.0
 40
0.0
 40
0.031250804
 40
0.0625016092
 40
0.0937524205
 40
0.1250032356
 40
0.1562540554
 40
0.18750488
 40
0.2187557096
 40
0.2500065444
 40
0.3125046448
 40
0.3750028581
 40
0.437501188
 40
0.4999996367
 40
0.5624982055
 40
0.6249968942
 40
0.6562478027
 40
0.6874987168
 40
0.7187496364
 40
0.7500005612
 40
0.8124995968
 40
0.87499874
 40
0.9062496986
 40
0.9375006303
 40
1.0
 40
1.0
 40
1.0
 40
1.0
 10
10.3827766543
 20
7.3119525106
 30
0.0
 10
10.3805784821
 20
7.3218555494
 30
0.0
 10
10.3759600967
 20
7.3416130873
 30
0.0
 10
10.3683729615
 20
7.3710868107
 30
0.0
 10
10.3601325612
 20
7.4003847524
 30
0.0
 10
10.3512458645
 20
7.429493108
 30
0.0
 10
10.3417202238
 20
7.4583986788
 30
0.0
 10
10.3315634512
 20
7.4870885043
 30
0.0
 10
10.3207836465
 20
7.5155502208
 30
0.0
 10
10.3055920879
 20
7.5531769532
 30
0.0
 10
10.285087041
 20
7.5995837663
 30
0.0
 10
10.2581343094
 20
7.6541711182
 30
0.0
 10
10.2289124394
 20
7.7075783561
 30
0.0
 10
10.1975036414
 20
7.7597289838
 30
0.0
 10
10.1639927021
 20
7.8105533556
 30
0.0
 10
10.1343855069
 20
7.8517511827
 30
0.0
 10
10.1097369157
 20
7.883984445
 30
0.0
 10
10.0907784382
 20
7.9077925302
 30
0.0
 10
10.0713595889
 20
7.9312265654
 30
0.0
 10
10.0448694708
 20
7.9619644552
 30
0.0
 10
10.0106585887
 20
7.9994256184
 30
0.0
 10
9.975058536
 20
8.0355683302
 30
0.0
 10
9.9457892809
 20
8.0636727343
 30
0.0
 10
9.9160074071
 20
8.0912327868
 30
0.0
 10
9.8931070512
 20
8.1112873849
 30
0.0
 10
9.8776066929
 20
8.1243762337
 30
0.0
  0
SPLINE
  5
239
100
AcDbEntity
  8
0
100
AcDbSpline
 62
7
  6
CONTINUOUS
 70
0
 71
3
 72
30
 73
26
 74
0
 42
0.0000001
 43
0.0000001
 44
0.0000000001
 40
0.0
 40
0.0
 40
0.0
 40
0.0
 40
0.031250804
 40
0.0625016092
 40
0.0937524205
 40
0.1250032356
 40
0.1562540554
 40
0.18750488
 40
0.2187557096
 40
0.2500065444
 40
0.3125046448
 40
0.3750028581
 40
0.437501188
 40
0.4999996367
 40
0.5624982055
 40
0.6249968942
 40
0.6562478027
 40
0.6874987168
 40
0.7187496364
 40
0.7500005612
 40
0.8124995968
 40
0.87499874
 40
0.9062496986
 40
0.9375006303
 40
1.0
 40
1.0
 40
1.0
 40
1.0
 10
11.7118600223
 20
7.3119525106
 30
0.0
 10
11.7140581945
 20
7.3218555494
 30
0.0
 10
11.7186765798
 20
7.3416130873
 30
0.0
 10
11.726263715
 20
7.3710868107
 30
0.0
 10
11.7345041154
 20
7.4003847524
 30
0.0
 10
11.7433908121
 20
7.429493108
 30
0.0
 10
11.7529164528
 20
7.4583986788
 30
0.0
 10
11.7630732254
 20
7.4870885043
 30
0.0
 10
11.7738530301
 20
7.5155502208
 30
0.0
 10
11.7890445886
 20
7.5531769532
 30
0.0
 10
11.8095496355
 20
7.5995837663
 30
0.0
 10
11.8365023671
 20
7.6541711182
 30
0.0
 10
11.8657242371
 20
7.7075783561
 30
0.0
 10
11.8971330351
 20
7.7597289838
 30
0.0
 10
11.9306439745
 20
7.8105533556
 30
0.0
 10
11.9602511697
 20
7.8517511827
 30
0.0
 10
11.9848997609
 20
7.883984445
 30
0.0
 10
12.0038582384
 20
7.9077925302
 30
0.0
 10
12.0232770876
 20
7.9312265654
 30
0.0
 10
12.0497672058
 20
7.9619644552
 30
0.0
 10
12.0839780879
 20
7.9994256184
 30
0.0
 10
12.1195781406
 20
8.0355683302
 30
0.0
 10
12.1488473956
 20
8.0636727343
 30
0.0
 10
12.1786292695
 20
8.0912327868
 30
0.0
 10
12.2015296254
 20
8.1112873849
 30
0.0
 10
12.2170299837
 20
8.1243762337
 30
0.0
  0
SPLINE
  5
23A
100
AcDbEntity
  8
0
100
AcDbSpline
 62
7
  6
CONTINUOUS
 70
0
 71
3
 72
23
 73
19
 74
0
 42
0.0000001
 43
0.0000001
 44
0.0000000001
 40
0.0
 40
0.0
 40
0.0
 40
0.0
 40
0.0694889288
 40
0.1383679862
 40
0.2065464319
 40
0.2739395763
 40
0.3404692494
 40
0.4060641476
 40
0.4706600606
 40
0.5341999905
 40
0.5966341743
 40
0.6579200267
 40
0.7180220164
 40
0.7769114927
 40
0.8345664785
 40
0.890971443
 40
0.9461170547
 40
1.0
 40
1.0
 40
1.0
 40
1.0
 10
11.3795891803
 20
7.3119525106
 30
0.0
 10
11.3817787375
 20
7.3316809653
 30
0.0
 10
11.3865930363
 20
7.3709158935
 30
0.0
 10
11.3951479429
 20
7.4292978198
 30
0.0
 10
11.4049795703
 20
7.4868715121
 30
0.0
 10
11.4160561072
 20
7.5435350406
 30
0.0
 10
11.4283428874
 20
7.5991930984
 30
0.0
 10
11.4418027526
 20
7.6537566239
 30
0.0
 10
11.4563965046
 20
7.7071431344
 30
0.0
 10
11.4720833204
 20
7.7592767252
 30
0.0
 10
11.488821153
 20
7.8100880239
 30
0.0
 10
11.5065671031
 20
7.8595140429
 30
0.0
 10
11.525277755
 20
7.9074979553
 30
0.0
 10
11.5449094912
 20
7.953988836
 30
0.0
 10
11.5654187181
 20
7.9989412684
 30
0.0
 10
11.5867622424
 20
8.0423152424
 30
0.0
 10
11.6088969295
 20
8.0840748756
 30
0.0
 10
11.6243320503
 20
8.1111321268
 30
0.0
 10
11.632174161
 20
8.1243762337
 30
0.0
  0
SPLINE
  5
23B
100
AcDbEntity
  8
0
100
AcDbSpline
 62
7
  6
CONTINUOUS
 70
0
 71
3
 72
23
 73
19
 74
0
 42
0.0000001
 43
0.0000001
 44
0.0000000001
 40
0.0
 40
0.0
 40
0.0
 40
0.0
 40
0.0694889288
 40
0.1383679862
 40
0.2065464319
 40
0.2739395763
 40
0.3404692494
 40
0.4060641476
 40
0.4706600606
 40
0.5341999905
 40
0.5966341743
 40
0.6579200267
 40
0.7180220164
 40
0.7769114927
 40
0.8345664785
 40
0.890971443
 40
0.9461170547
 40
1.0
 40
1.0
 40
1.0
 40
1.0
 10
10.7150474963
 20
7.3119525106
 30
0.0
 10
10.712857939
 20
7.3316809653
 30
0.0
 10
10.7080436403
 20
7.3709158935
 30
0.0
 10
10.6994887337
 20
7.4292978198
 30
0.0
 10
10.6896571063
 20
7.4868715121
 30
0.0
 10
10.6785805694
 20
7.5435350406
 30
0.0
 10
10.6662937892
 20
7.5991930984
 30
0.0
 10
10.6528339239
 20
7.6537566239
 30
0.0
 10
10.638240172
 20
7.7071431344
 30
0.0
 10
10.6225533561
 20
7.7592767252
 30
0.0
 10
10.6058155235
 20
7.8100880239
 30
0.0
 10
10.5880695734
 20
7.8595140429
 30
0.0
 10
10.5693589216
 20
7.9074979553
 30
0.0
 10
10.5497271853
 20
7.953988836
 30
0.0
 10
10.5292179585
 20
7.9989412684
 30
0.0
 10
10.5078744342
 20
8.0423152424
 30
0.0
 10
10.485739747
 20
8.0840748756
 30
0.0
 10
10.4703046263
 20
8.1111321268
 30
0.0
 10
10.4624625156
 20
8.1243762337
 30
0.0
  0
ELLIPSE
  5
23C
100
AcDbEntity
  8
0
100
AcDbEllipse
 62
7
  6
CONTINUOUS
 10
11.0473183383
 20
7.13664559
 30
0.0
 11
1.1875
 21
0.0
 31
0.0
 40
0.9750549296
 41
1.0471975512
 42
2.0943951024
  0
ELLIPSE
  5
23D
100
AcDbEntity
  8
0
100
AcDbEllipse
 62
7
  6
CONTINUOUS
 10
11.0473183383
 20
7.13664559
 30
0.0
 11
1.1492470711
 21
1.1162095399
 31
0.0
 40
0.2678505055
 41
-0.2545090966
 42
0.7926884546
  0
ELLIPSE
  5
23E
100
AcDbEntity
  8
0
100
AcDbEllipse
 62
7
  6
CONTINUOUS
 10
11.0473183383
 20
7.13664559
 30
0.0
 11
-1.1492470711
 21
1.1162095399
 31
0.0
 40
0.2678505055
 41
-0.7926884546
 42
0.2545090966
  0
ENDSEC
  0
SECTION
  2
OBJECTS
  0
DICTIONARY
  5
C
100
AcDbDictionary
280
0
281
1
  3
ACAD_GROUP
350
D
  3
ACAD_MLINESTYLE
350
17
  3
ACAD_LAYOUT
350
1A
  3
ACAD_PLOTSETTINGS
350
19
  3
ACAD_PLOTSTYLENAME
350
E
  0
DICTIONARY
  5
D
102
{ACAD_REACTORS
330
C
102
}
100
AcDbDictionary
280
0
281
1
  0
ACDBDICTIONARYWDFLT
  5
E
102
{ACAD_REACTORS
330
C
102
}
100
AcDbDictionary
281
1
  3
Normal
350
F
100
AcDbDictionaryWithDefault
340
F
  0
DICTIONARY
  5
17
102
{ACAD_REACTORS
330
C
102
}
100
AcDbDictionary
280
0
281
1
  3
Standard
350
18
  0
DICTIONARY
  5
19
102
{ACAD_REACTORS
330
C
102
}
100
AcDbDictionary
281
1
  0
DICTIONARY
  5
1A
102
{ACAD_REACTORS
330
C
102
}
100
AcDbDictionary
281
1
  3
Model
350
23F
  3
Layout1
350
240
  0
ACDBPLACEHOLDER
  5
F
102
{ACAD_REACTORS
330
E
102
}
  0
MLINESTYLE
  5
18
102
{ACAD_REACTORS
330
17
102
}
100
AcDbMlineStyle
  2
STANDARD
 70
0
  3

 62
256
 51
90.0
 52
90.0
 71
2
 49
0.5
 62
256
  6
BYLAYER
 49
-0.5
 62
256
  6
BYLAYER
  0
LAYOUT
  5
23F
102
{ACAD_REACTORS
330
1A
102
}
100
AcDbPlotSettings
  1

  2
none_device
  4
ANSI_C_(22.00_x_17.00_Inches)
  6

 40
0.0
 41
0.0
 42
0.0
 43
0.0
 44
558.8
 45
431.8
 46
0.0
 47
0.0
 48
0.0
 49
0.0
140
0.0
141
0.0
142
1.0
143
1.0
 70
1024
 72
0
 73
0
 74
0
  7

 75
0
147
1.0
148
0.0
149
0.0
100
AcDbLayout
  1
Model
 70
0
 71
0
 10
0.0
 20
0.0
 11
22.0
 21
17.0
 12
0.0
 22
0.0
 32
0.0
 14
0.0
 24
0.0
 34
0.0
 15
0.0
 25
0.0
 35
0.0
146
0.0
 13
0.0
 23
0.0
 33
0.0
 16
1.0
 26
0.0
 36
0.0
 17
0.0
 27
1.0
 37
0.0
 76
0
330
205
345
0
346
0
  0
LAYOUT
  5
240
102
{ACAD_REACTORS
330
1A
102
}
100
AcDbPlotSettings
  1

  2
none_device
  4
ANSI_C_(22.00_x_17.00_Inches)
  6

 40
0.0
 41
0.0
 42
0.0
 43
0.0
 44
558.8
 45
431.8
 46
0.0
 47
0.0
 48
0.0
 49
0.0
140
0.0
141
0.0
142
1.0
143
1.0
 70
0
 72
0
 73
0
 74
0
  7

 75
0
147
1.0
148
0.0
149
0.0
100
AcDbLayout
  1
Layout1
 70
0
 71
1
 10
0.0
 20
0.0
 11
22.0
 21
17.0
 12
0.0
 22
0.0
 32
0.0
 14
0.0
 24
0.0
 34
0.0
 15
0.0
 25
0.0
 35
0.0
146
0.0
 13
0.0
 23
0.0
 33
0.0
 16
1.0
 26
0.0
 36
0.0
 17
0.0
 27
1.0
 37
0.0
 76
0
330
206
345
0
346
0
  0
ENDSEC
  0
EOF
