999
DXF file: 4-1232bp_FRONT.dxf
999
Pro/ENGINEER 2013150 by Parametric Technology Corporation
  0
SECTION
  2
HEADER
  9
$ACADVER
  1
AC1021
  9
$DWGCODEPAGE
  3
ANSI_1252
  9
$EXTMAX
 10
11.0
 20
8.5
 30
0.0
  9
$EXTMIN
 10
0.0
 20
0.0
 30
0.0
  9
$LIMMIN
 10
0.0
 20
0.0
  9
$LIMMAX
 10
11.0
 20
8.5
  9
$VIEWCTR
 10
5.5
 20
4.25
  9
$VIEWSIZE
 40
8.5
  9
$CLAYER
  8
0
  9
$LTSCALE
 40
0.605
  9
$CELTYPE
  6
BYLAYER
  9
$DIMSCALE
 40
1.0
  9
$DIMASZ
 40
0.1
  9
$DIMEXO
 40
0.03125
  9
$DIMDLI
 40
0.418
  9
$DIMEXE
 40
0.0625
  9
$DIMCEN
 40
0.099
  9
$DIMLFAC
 40
1.0
  9
$DIMBLK
  1
_FILLED
  9
$DIMTXT
 40
0.08
  9
$DIMTOL
 70
1
  9
$DIMLIM
 70
0
  9
$DIMTFAC
 40
1.0
  9
$DIMTP
 40
0.001
  9
$DIMTM
 40
0.001
  9
$DIMGAP
 40
0.09
  9
$DIMDSEP
 70
46
  9
$PDMODE
 70
3
  9
$PDSIZE
 40
0.06
  9
$HANDSEED
  5
372
  9
$TILEMODE
 70
1
  9
$MEASUREMENT
 70
0
  9
$INSUNITS
 70
1
  0
ENDSEC
  0
SECTION
  2
CLASSES
  0
CLASS
  1
ACDBDICTIONARYWDFLT
  2
AcDbDictionaryWithDefault
  3
AutoCAD 2000
 90
0
 91
1
280
0
281
0
  0
CLASS
  1
ACDBPLACEHOLDER
  2
AcDbPlaceHolder
  3
AutoCAD 2000
 90
0
 91
1
280
0
281
0
  0
CLASS
  1
LAYOUT
  2
AcDbLayout
  3
AutoCAD 2000
 90
0
 91
0
280
0
281
0
  0
ENDSEC
  0
SECTION
  2
TABLES
  0
TABLE
  2
VPORT
  5
8
100
AcDbSymbolTable
 70
2
  0
VPORT
  5
1F4
100
AcDbSymbolTableRecord
100
AcDbViewportTableRecord
  2
*ACTIVE
 70
0
 10
0.0
 20
0.0
 11
1.0
 21
1.0
 12
5.5
 22
4.25
 13
0.0
 23
0.0
 14
1.0
 24
1.0
 15
0.0
 25
0.0
 16
0.0
 26
0.0
 36
1.0
 17
0.0
 27
0.0
 37
0.0
 40
8.5
 41
1.2941176471
 42
50.0
 43
0.0
 44
0.0
 50
0.0
 51
0.0
 71
0
 72
100
 73
1
 74
1
 75
0
 76
0
 77
0
 78
0
  0
ENDTAB
  0
TABLE
  2
LTYPE
  5
5
100
AcDbSymbolTable
 70
6
  0
LTYPE
  5
14
100
AcDbSymbolTableRecord
100
AcDbLinetypeTableRecord
  2
BYBLOCK
 70
0
  3

 72
65
 73
0
 40
0.0
  0
LTYPE
  5
15
100
AcDbSymbolTableRecord
100
AcDbLinetypeTableRecord
  2
BYLAYER
 70
0
  3

 72
65
 73
0
 40
0.0
  0
LTYPE
  5
16
100
AcDbSymbolTableRecord
100
AcDbLinetypeTableRecord
  2
CONTINUOUS
 70
64
  3
Solid line
 72
65
 73
0
 40
0.0
  0
LTYPE
  5
1F5
100
AcDbSymbolTableRecord
100
AcDbLinetypeTableRecord
  2
CENTER
 70
64
  3
____ _ ____ _ ____ _ ____ _ ____ _ ____ _ ____
 72
65
 73
4
 40
0.6
 49
0.375
 74
0
 49
-0.075
 74
0
 49
0.075
 74
0
 49
-0.075
 74
0
  0
LTYPE
  5
1F6
100
AcDbSymbolTableRecord
100
AcDbLinetypeTableRecord
  2
HIDDEN
 70
64
  3
- - - - - - - - - - - - - - - - - - - -
 72
65
 73
2
 40
0.2
 49
0.1
 74
0
 49
-0.1
 74
0
  0
LTYPE
  5
1F7
100
AcDbSymbolTableRecord
100
AcDbLinetypeTableRecord
  2
PHANTOM
 70
64
  3
_____ _ _ _____ _ _ _____ _ _ _____
 72
65
 73
6
 40
0.8
 49
0.45
 74
0
 49
-0.05
 74
0
 49
0.1
 74
0
 49
-0.05
 74
0
 49
0.1
 74
0
 49
-0.05
 74
0
  0
LTYPE
  5
1F8
100
AcDbSymbolTableRecord
100
AcDbLinetypeTableRecord
  2
DOT
 70
64
  3
. . . . . . . . . . . . . . . . . . . .
 72
65
 73
2
 40
0.2
 49
0.1
 74
0
 49
-0.1
 74
0
  0
LTYPE
  5
1F9
100
AcDbSymbolTableRecord
100
AcDbLinetypeTableRecord
  2
DASHED
 70
64
  3
- - - - - - - - - - - - - - - - - - - -
 72
65
 73
2
 40
0.2
 49
0.1
 74
0
 49
-0.1
 74
0
  0
ENDTAB
  0
TABLE
  2
LAYER
  5
2
100
AcDbSymbolTable
 70
36
  0
LAYER
  5
10
100
AcDbSymbolTableRecord
100
AcDbLayerTableRecord
  2
0
 70
0
 62
7
  6
CONTINUOUS
370
-3
390
F
  0
LAYER
  5
1FA
100
AcDbSymbolTableRecord
100
AcDbLayerTableRecord
  2
DEFAULT_1
 70
0
 62
7
  6
CENTER
370
-3
390
F
  0
LAYER
  5
1FB
100
AcDbSymbolTableRecord
100
AcDbLayerTableRecord
  2
DEFAULT_2
 70
0
 62
8
  6
HIDDEN
370
-3
390
F
  0
LAYER
  5
1FC
100
AcDbSymbolTableRecord
100
AcDbLayerTableRecord
  2
DEFAULT_3
 70
0
 62
7
  6
PHANTOM
370
-3
390
F
  0
LAYER
  5
1FD
100
AcDbSymbolTableRecord
100
AcDbLayerTableRecord
  2
_  SHELL
 70
0
 62
7
  6
CONTINUOUS
370
-3
390
F
  0
LAYER
  5
1FE
100
AcDbSymbolTableRecord
100
AcDbLayerTableRecord
  2
06___PRT_ALL_SURFS
 70
0
 62
7
  6
CONTINUOUS
370
-3
390
F
  0
LAYER
  5
1FF
100
AcDbSymbolTableRecord
100
AcDbLayerTableRecord
  2
2-144_ASSY_PLANES
 70
0
 62
7
  6
CONTINUOUS
370
-3
390
F
  0
LAYER
  5
200
100
AcDbSymbolTableRecord
100
AcDbLayerTableRecord
  2
2-217_ASSY_DATUMS
 70
0
 62
7
  6
CONTINUOUS
370
-3
390
F
  0
LAYER
  5
201
100
AcDbSymbolTableRecord
100
AcDbLayerTableRecord
  2
2-224_ASSY_DATUMS
 70
0
 62
7
  6
CONTINUOUS
370
-3
390
F
  0
LAYER
  5
202
100
AcDbSymbolTableRecord
100
AcDbLayerTableRecord
  2
ALL_ASSEMBLY_MEMBERS
 70
0
 62
7
  6
CONTINUOUS
370
-3
390
F
  0
LAYER
  5
203
100
AcDbSymbolTableRecord
100
AcDbLayerTableRecord
  2
ALL_FEATURES
 70
0
 62
7
  6
CONTINUOUS
370
-3
390
F
  0
LAYER
  5
204
100
AcDbSymbolTableRecord
100
AcDbLayerTableRecord
  2
AXES_FEATURES
 70
0
 62
7
  6
CONTINUOUS
370
-3
390
F
  0
LAYER
  5
205
100
AcDbSymbolTableRecord
100
AcDbLayerTableRecord
  2
CHAMFER_FEATURES
 70
0
 62
7
  6
CONTINUOUS
370
-3
390
F
  0
LAYER
  5
206
100
AcDbSymbolTableRecord
100
AcDbLayerTableRecord
  2
COSMETIC
 70
0
 62
7
  6
CONTINUOUS
370
-3
390
F
  0
LAYER
  5
207
100
AcDbSymbolTableRecord
100
AcDbLayerTableRecord
  2
CURVES
 70
0
 62
7
  6
CONTINUOUS
370
-3
390
F
  0
LAYER
  5
208
100
AcDbSymbolTableRecord
100
AcDbLayerTableRecord
  2
CUT_FEATURES
 70
0
 62
7
  6
CONTINUOUS
370
-3
390
F
  0
LAYER
  5
209
100
AcDbSymbolTableRecord
100
AcDbLayerTableRecord
  2
DATUM_CURVES
 70
0
 62
7
  6
CONTINUOUS
370
-3
390
F
  0
LAYER
  5
20A
100
AcDbSymbolTableRecord
100
AcDbLayerTableRecord
  2
DATUM_PLANES
 70
0
 62
7
  6
CONTINUOUS
370
-3
390
F
  0
LAYER
  5
20B
100
AcDbSymbolTableRecord
100
AcDbLayerTableRecord
  2
DATUM_POINTS
 70
0
 62
7
  6
CONTINUOUS
370
-3
390
F
  0
LAYER
  5
20C
100
AcDbSymbolTableRecord
100
AcDbLayerTableRecord
  2
DEFAULT_COORDINATE_SYSTEM
 70
0
 62
7
  6
CONTINUOUS
370
-3
390
F
  0
LAYER
  5
20D
100
AcDbSymbolTableRecord
100
AcDbLayerTableRecord
  2
DEFAULT_DATUM_AXES
 70
0
 62
7
  6
CONTINUOUS
370
-3
390
F
  0
LAYER
  5
20E
100
AcDbSymbolTableRecord
100
AcDbLayerTableRecord
  2
DEFAULT_DATUM_CURVES
 70
0
 62
7
  6
CONTINUOUS
370
-3
390
F
  0
LAYER
  5
20F
100
AcDbSymbolTableRecord
100
AcDbLayerTableRecord
  2
DEFAULT_DATUM_PLANES
 70
0
 62
7
  6
CONTINUOUS
370
-3
390
F
  0
LAYER
  5
210
100
AcDbSymbolTableRecord
100
AcDbLayerTableRecord
  2
DEFAULT_SURFACES
 70
0
 62
7
  6
CONTINUOUS
370
-3
390
F
  0
LAYER
  5
211
100
AcDbSymbolTableRecord
100
AcDbLayerTableRecord
  2
DETAIL_ITEMS
 70
0
 62
7
  6
CONTINUOUS
370
-3
390
F
  0
LAYER
  5
212
100
AcDbSymbolTableRecord
100
AcDbLayerTableRecord
  2
DIMENSIONS
 70
0
 62
7
  6
CONTINUOUS
370
-3
390
F
  0
LAYER
  5
213
100
AcDbSymbolTableRecord
100
AcDbLayerTableRecord
  2
HOLE_FEATURES
 70
0
 62
7
  6
CONTINUOUS
370
-3
390
F
  0
LAYER
  5
214
100
AcDbSymbolTableRecord
100
AcDbLayerTableRecord
  2
INTF_BLANK
 70
0
 62
7
  6
CONTINUOUS
370
-3
390
F
  0
LAYER
  5
215
100
AcDbSymbolTableRecord
100
AcDbLayerTableRecord
  2
MAGENTA
 70
0
 62
7
  6
CONTINUOUS
370
-3
390
F
  0
LAYER
  5
216
100
AcDbSymbolTableRecord
100
AcDbLayerTableRecord
  2
NOTES
 70
0
 62
7
  6
CONTINUOUS
370
-3
390
F
  0
LAYER
  5
217
100
AcDbSymbolTableRecord
100
AcDbLayerTableRecord
  2
PART_REFERENCE_DIMENSIONS
 70
0
 62
7
  6
CONTINUOUS
370
-3
390
F
  0
LAYER
  5
218
100
AcDbSymbolTableRecord
100
AcDbLayerTableRecord
  2
PLATEDSURFAREA
 70
0
 62
7
  6
CONTINUOUS
370
-3
390
F
  0
LAYER
  5
219
100
AcDbSymbolTableRecord
100
AcDbLayerTableRecord
  2
PLATED_AREA
 70
0
 62
7
  6
CONTINUOUS
370
-3
390
F
  0
LAYER
  5
21A
100
AcDbSymbolTableRecord
100
AcDbLayerTableRecord
  2
POINTS
 70
0
 62
7
  6
CONTINUOUS
370
-3
390
F
  0
LAYER
  5
21B
100
AcDbSymbolTableRecord
100
AcDbLayerTableRecord
  2
PROTRUSION
 70
0
 62
7
  6
CONTINUOUS
370
-3
390
F
  0
LAYER
  5
21C
100
AcDbSymbolTableRecord
100
AcDbLayerTableRecord
  2
PROTRUSION_FEATURES
 70
0
 62
7
  6
CONTINUOUS
370
-3
390
F
  0
LAYER
  5
21D
100
AcDbSymbolTableRecord
100
AcDbLayerTableRecord
  2
QUILT
 70
0
 62
7
  6
CONTINUOUS
370
-3
390
F
  0
LAYER
  5
21E
100
AcDbSymbolTableRecord
100
AcDbLayerTableRecord
  2
QUILTS
 70
0
 62
7
  6
CONTINUOUS
370
-3
390
F
  0
LAYER
  5
21F
100
AcDbSymbolTableRecord
100
AcDbLayerTableRecord
  2
REFERENCE_DIMENSIONS
 70
0
 62
7
  6
CONTINUOUS
370
-3
390
F
  0
LAYER
  5
220
100
AcDbSymbolTableRecord
100
AcDbLayerTableRecord
  2
ROUND_FEATURES
 70
0
 62
7
  6
CONTINUOUS
370
-3
390
F
  0
LAYER
  5
221
100
AcDbSymbolTableRecord
100
AcDbLayerTableRecord
  2
SHELL
 70
0
 62
7
  6
CONTINUOUS
370
-3
390
F
  0
LAYER
  5
222
100
AcDbSymbolTableRecord
100
AcDbLayerTableRecord
  2
SHELL_FEATURES
 70
0
 62
7
  6
CONTINUOUS
370
-3
390
F
  0
LAYER
  5
223
100
AcDbSymbolTableRecord
100
AcDbLayerTableRecord
  2
WHITE
 70
0
 62
7
  6
CONTINUOUS
370
-3
390
F
  0
LAYER
  5
224
100
AcDbSymbolTableRecord
100
AcDbLayerTableRecord
  2
XSEC_DATUMS
 70
0
 62
7
  6
CONTINUOUS
370
-3
390
F
  0
LAYER
  5
225
100
AcDbSymbolTableRecord
100
AcDbLayerTableRecord
  2
___SHELL
 70
0
 62
7
  6
CONTINUOUS
370
-3
390
F
  0
ENDTAB
  0
TABLE
  2
STYLE
  5
3
100
AcDbSymbolTable
 70
1
  0
STYLE
  5
11
100
AcDbSymbolTableRecord
100
AcDbTextStyleTableRecord
  2
STANDARD
 70
0
 40
0.0
 41
0.8
 50
0.0
 71
0
 42
0.2
  3
txt
  4

  0
STYLE
  5
226
100
AcDbSymbolTableRecord
100
AcDbTextStyleTableRecord
  2
TEXTSTYLE_1
 70
0
 40
0.0
 41
0.8
 50
0.0
 71
0
 42
0.2
  3
gdt
  4

  0
ENDTAB
  0
TABLE
  2
VIEW
  5
6
100
AcDbSymbolTable
 70
0
  0
ENDTAB
  0
TABLE
  2
UCS
  5
7
100
AcDbSymbolTable
 70
0
  0
ENDTAB
  0
TABLE
  2
APPID
  5
9
100
AcDbSymbolTable
 70
1
  0
APPID
  5
227
100
AcDbSymbolTableRecord
100
AcDbRegAppTableRecord
  2
ACAD
 70
0
  0
ENDTAB
  0
TABLE
  2
BLOCK_RECORD
  5
1
100
AcDbSymbolTable
 70
0
  0
BLOCK_RECORD
  5
228
100
AcDbSymbolTableRecord
100
AcDbBlockTableRecord
  2
*Model_Space
  0
BLOCK_RECORD
  5
229
100
AcDbSymbolTableRecord
100
AcDbBlockTableRecord
  2
*Paper_Space
  0
ENDTAB
  0
TABLE
  2
DIMSTYLE
  5
A
100
AcDbSymbolTable
 70
1
100
AcDbDimStyleTable
 71
0
  0
DIMSTYLE
105
22A
100
AcDbSymbolTableRecord
100
AcDbDimStyleTableRecord
  2
STANDARD
 70
0
  3

  4

 40
1.0
 41
0.1
 42
0.03125
 43
0.38
 44
0.0625
 45
0.0
 46
0.0
 47
0.001
 48
0.001
140
0.08
141
0.09
142
0.0
143
25.4
144
1.0
145
0.0
146
1.0
147
0.09
 71
1.0
 72
0.0
 73
1
 74
1
 75
0
 76
0
 77
0
 78
4
170
0
171
2
172
0
173
0
174
0
175
0
176
0
177
0
178
0
270
2
271
3
272
3
273
2
274
2
275
0
280
0
281
0
282
0
283
1
284
4
285
0
286
0
287
3
288
0
340
11
278
46
  0
ENDTAB
  0
ENDSEC
  0
SECTION
  2
BLOCKS
  0
BLOCK
  5
20
100
AcDbEntity
  8
0
100
AcDbBlockBegin
  2
*Model_Space
 70
0
 10
0.0
 20
0.0
 30
0.0
  3
*Model_Space
  1

  0
ENDBLK
  5
21
100
AcDbEntity
  8
0
100
AcDbBlockEnd
  0
BLOCK
  5
1C
100
AcDbEntity
  8
0
100
AcDbBlockBegin
  2
*Paper_Space
 70
0
 10
0.0
 20
0.0
 30
0.0
  3
*Paper_Space
  1

  0
ENDBLK
  5
1D
100
AcDbEntity
  8
0
100
AcDbBlockEnd
  0
ENDSEC
  0
SECTION
  2
ENTITIES
  0
LINE
  5
22B
100
AcDbEntity
  8
0
100
AcDbLine
 62
7
  6
CONTINUOUS
 10
0.0
 20
0.0
 11
0.0
 21
8.5
  0
LINE
  5
22C
100
AcDbEntity
  8
0
100
AcDbLine
 62
7
  6
CONTINUOUS
 10
0.0
 20
0.0
 11
11.0
 21
0.0
  0
LINE
  5
22D
100
AcDbEntity
  8
0
100
AcDbLine
 62
7
  6
CONTINUOUS
 10
0.0
 20
8.5
 11
11.0
 21
8.5
  0
LINE
  5
22E
100
AcDbEntity
  8
0
100
AcDbLine
 62
7
  6
CONTINUOUS
 10
11.0
 20
0.0
 11
11.0
 21
8.5
  0
LINE
  5
22F
100
AcDbEntity
  8
ALL_ASSEMBLY_MEMBERS
100
AcDbLine
 62
7
  6
CONTINUOUS
 10
4.0244548944
 20
2.1026296926
 11
3.5099548944
 21
2.1026296926
  0
LINE
  5
230
100
AcDbEntity
  8
ALL_ASSEMBLY_MEMBERS
100
AcDbLine
 62
9
  6
CONTINUOUS
 10
4.0244548944
 20
2.3283796926
 11
3.5099548944
 21
2.3283796926
  0
LINE
  5
231
100
AcDbEntity
  8
ALL_ASSEMBLY_MEMBERS
100
AcDbLine
 62
7
  6
CONTINUOUS
 10
4.1828298944
 20
2.6783796926
 11
4.0297048944
 21
2.6783796926
  0
LINE
  5
232
100
AcDbEntity
  8
ALL_ASSEMBLY_MEMBERS
100
AcDbLine
 62
7
  6
CONTINUOUS
 10
3.3515798944
 20
2.6783796926
 11
3.5047048944
 21
2.6783796926
  0
LINE
  5
233
100
AcDbEntity
  8
ALL_ASSEMBLY_MEMBERS
100
AcDbLine
 62
7
  6
CONTINUOUS
 10
3.8984548944
 20
2.9057113611
 11
3.6359548944
 21
2.9057113611
  0
LINE
  5
234
100
AcDbEntity
  8
ALL_ASSEMBLY_MEMBERS
100
AcDbLine
 62
9
  6
CONTINUOUS
 10
3.9093923944
 20
2.9246556668
 11
3.6250173944
 21
2.9246556668
  0
LINE
  5
235
100
AcDbEntity
  8
ALL_ASSEMBLY_MEMBERS
100
AcDbLine
 62
9
  6
CONTINUOUS
 10
3.9312673944
 20
2.9625442782
 11
3.6031423944
 21
2.9625442782
  0
LINE
  5
236
100
AcDbEntity
  8
ALL_ASSEMBLY_MEMBERS
100
AcDbLine
 62
9
  6
CONTINUOUS
 10
3.561401687
 20
3.0383215011
 11
3.5593923944
 21
3.0383215011
  0
LINE
  5
237
100
AcDbEntity
  8
ALL_ASSEMBLY_MEMBERS
100
AcDbLine
 62
9
  6
CONTINUOUS
 10
3.9730081015
 20
3.0383215011
 11
3.9750173944
 21
3.0383215011
  0
LINE
  5
238
100
AcDbEntity
  8
ALL_ASSEMBLY_MEMBERS
100
AcDbLine
 62
9
  6
CONTINUOUS
 10
3.7672048944
 20
5.5377787685
 11
3.4126548944
 21
5.3330792305
  0
LINE
  5
239
100
AcDbEntity
  8
ALL_ASSEMBLY_MEMBERS
100
AcDbLine
 62
9
  6
CONTINUOUS
 10
3.3525845408
 20
2.676639594
 11
3.3515798944
 21
2.6783796926
  0
LINE
  5
23A
100
AcDbEntity
  8
ALL_ASSEMBLY_MEMBERS
100
AcDbLine
 62
9
  6
CONTINUOUS
 10
3.4390798944
 20
2.6783796926
 11
3.5076442963
 21
2.5596226648
  0
LINE
  5
23B
100
AcDbEntity
  8
ALL_ASSEMBLY_MEMBERS
100
AcDbLine
 62
9
  6
CONTINUOUS
 10
3.4828298944
 20
2.6783796926
 11
3.5058828441
 21
2.6384508123
  0
LINE
  5
23C
100
AcDbEntity
  8
ALL_ASSEMBLY_MEMBERS
100
AcDbLine
 62
9
  6
CONTINUOUS
 10
3.7672048944
 20
5.360969282
 11
3.5657764013
 21
5.2446744873
  0
LINE
  5
23D
100
AcDbEntity
  8
ALL_ASSEMBLY_MEMBERS
100
AcDbLine
 62
7
  6
CONTINUOUS
 10
3.7672048944
 20
5.3304522868
 11
3.5922048944
 21
5.2294159897
  0
LINE
  5
23E
100
AcDbEntity
  8
ALL_ASSEMBLY_MEMBERS
100
AcDbLine
 62
7
  6
CONTINUOUS
 10
3.5922048944
 20
5.0273433955
 11
3.5657764013
 21
5.0120848979
  0
LINE
  5
23F
100
AcDbEntity
  8
ALL_ASSEMBLY_MEMBERS
100
AcDbLine
 62
7
  6
CONTINUOUS
 10
3.4126548944
 20
4.9236801547
 11
3.4072630859
 21
4.9205671926
  0
LINE
  5
240
100
AcDbEntity
  8
ALL_ASSEMBLY_MEMBERS
100
AcDbLine
 62
7
  6
CONTINUOUS
 10
3.9422048944
 20
5.2294159897
 11
3.9686333874
 21
5.2446744873
  0
LINE
  5
241
100
AcDbEntity
  8
ALL_ASSEMBLY_MEMBERS
100
AcDbLine
 62
7
  6
CONTINUOUS
 10
4.1217548944
 20
5.3330792305
 11
4.1271467028
 21
5.3361921926
  0
LINE
  5
242
100
AcDbEntity
  8
ALL_ASSEMBLY_MEMBERS
100
AcDbLine
 62
7
  6
CONTINUOUS
 10
3.5593923944
 20
3.0383215011
 11
3.6359548944
 21
2.9057113611
  0
LINE
  5
243
100
AcDbEntity
  8
ALL_ASSEMBLY_MEMBERS
100
AcDbLine
 62
7
  6
CONTINUOUS
 10
3.656933532
 20
4.8881746448
 11
3.6639082028
 21
4.8945796926
  0
LINE
  5
244
100
AcDbEntity
  8
ALL_ASSEMBLY_MEMBERS
100
AcDbLine
 62
7
  6
CONTINUOUS
 10
3.8310798944
 20
4.9631853468
 11
3.9422048944
 21
5.0273433955
  0
LINE
  5
245
100
AcDbEntity
  8
ALL_ASSEMBLY_MEMBERS
100
AcDbLine
 62
9
  6
CONTINUOUS
 10
3.8356618219
 20
4.9353137287
 11
3.9686333874
 21
5.0120848979
  0
LINE
  5
246
100
AcDbEntity
  8
ALL_ASSEMBLY_MEMBERS
100
AcDbLine
 62
7
  6
CONTINUOUS
 10
4.0297048944
 20
2.6783796926
 11
3.8984548944
 21
2.9057113611
  0
LINE
  5
247
100
AcDbEntity
  8
ALL_ASSEMBLY_MEMBERS
100
AcDbLine
 62
9
  6
CONTINUOUS
 10
4.0515798944
 20
2.6783796926
 11
3.9093923944
 21
2.9246556668
  0
LINE
  5
248
100
AcDbEntity
  8
ALL_ASSEMBLY_MEMBERS
100
AcDbLine
 62
9
  6
CONTINUOUS
 10
4.0953298944
 20
2.6783796926
 11
3.9312673944
 21
2.9625442782
  0
LINE
  5
249
100
AcDbEntity
  8
ALL_ASSEMBLY_MEMBERS
100
AcDbLine
 62
9
  6
CONTINUOUS
 10
3.4126548944
 20
5.3330792305
 11
3.4126548944
 21
4.9236801547
  0
LINE
  5
24A
100
AcDbEntity
  8
ALL_ASSEMBLY_MEMBERS
100
AcDbLine
 62
9
  6
CONTINUOUS
 10
3.8860555382
 20
4.7875990679
 11
4.1217548944
 21
4.9236801547
  0
LINE
  5
24B
100
AcDbEntity
  8
ALL_ASSEMBLY_MEMBERS
100
AcDbLine
 62
9
  6
CONTINUOUS
 10
3.9760220407
 20
3.0365814026
 11
3.9750173944
 21
3.0383215011
  0
LINE
  5
24C
100
AcDbEntity
  8
ALL_ASSEMBLY_MEMBERS
100
AcDbLine
 62
9
  6
CONTINUOUS
 10
4.181825248
 20
2.6801197913
 11
4.1828298944
 21
2.6783796926
  0
LINE
  5
24D
100
AcDbEntity
  8
ALL_ASSEMBLY_MEMBERS
100
AcDbLine
 62
7
  6
CONTINUOUS
 10
3.5099548944
 20
2.3283796926
 11
3.5099548944
 21
2.1026296926
  0
LINE
  5
24E
100
AcDbEntity
  8
ALL_ASSEMBLY_MEMBERS
100
AcDbLine
 62
9
  6
CONTINUOUS
 10
3.5657764013
 20
5.2446744873
 11
3.5657764013
 21
5.0120848979
  0
LINE
  5
24F
100
AcDbEntity
  8
ALL_ASSEMBLY_MEMBERS
100
AcDbLine
 62
7
  6
CONTINUOUS
 10
3.5922048944
 20
5.0273433955
 11
3.5922048944
 21
5.2294159897
  0
LINE
  5
250
100
AcDbEntity
  8
ALL_ASSEMBLY_MEMBERS
100
AcDbLine
 62
7
  6
CONTINUOUS
 10
3.5957048944
 20
4.0433096926
 11
3.5957048944
 21
4.0678096926
  0
LINE
  5
251
100
AcDbEntity
  8
ALL_ASSEMBLY_MEMBERS
100
AcDbLine
 62
7
  6
CONTINUOUS
 10
3.5875498466
 20
4.0747843633
 11
3.656933532
 21
4.8881746448
  0
LINE
  5
252
100
AcDbEntity
  8
ALL_ASSEMBLY_MEMBERS
100
AcDbLine
 62
7
  6
CONTINUOUS
 10
3.5939548944
 20
4.0678096926
 11
3.5945625342
 21
4.0747843633
  0
LINE
  5
253
100
AcDbEntity
  8
ALL_ASSEMBLY_MEMBERS
100
AcDbLine
 62
7
  6
CONTINUOUS
 10
3.7215290005
 20
4.8881746448
 11
3.7244180038
 21
4.8945796926
  0
LINE
  5
254
100
AcDbEntity
  8
ALL_ASSEMBLY_MEMBERS
100
AcDbLine
 62
9
  6
CONTINUOUS
 10
3.8993118529
 20
4.0022547412
 11
3.8234525092
 21
4.0022547412
  0
LINE
  5
255
100
AcDbEntity
  8
ALL_ASSEMBLY_MEMBERS
100
AcDbLine
 62
9
  6
CONTINUOUS
 10
3.8208455507
 20
4.0022547412
 11
3.713564238
 21
4.0022547412
  0
LINE
  5
256
100
AcDbEntity
  8
ALL_ASSEMBLY_MEMBERS
100
AcDbLine
 62
9
  6
CONTINUOUS
 10
3.7109572795
 20
4.0022547412
 11
3.6350979358
 21
4.0022547412
  0
LINE
  5
257
100
AcDbEntity
  8
ALL_ASSEMBLY_MEMBERS
100
AcDbLine
 62
9
  6
CONTINUOUS
 10
3.9072048944
 20
4.0120861975
 11
3.6272048944
 21
4.0120861975
  0
LINE
  5
258
100
AcDbEntity
  8
ALL_ASSEMBLY_MEMBERS
100
AcDbLine
 62
7
  6
CONTINUOUS
 10
3.6062048944
 20
4.0328096926
 11
3.9282048944
 21
4.0328096926
  0
LINE
  5
259
100
AcDbEntity
  8
ALL_ASSEMBLY_MEMBERS
100
AcDbLine
 62
9
  6
CONTINUOUS
 10
3.5957048944
 20
4.0433096926
 11
3.9387048944
 21
4.0433096926
  0
LINE
  5
25A
100
AcDbEntity
  8
ALL_ASSEMBLY_MEMBERS
100
AcDbLine
 62
7
  6
CONTINUOUS
 10
3.9404548944
 20
4.0678096926
 11
3.5939548944
 21
4.0678096926
  0
LINE
  5
25B
100
AcDbEntity
  8
ALL_ASSEMBLY_MEMBERS
100
AcDbLine
 62
7
  6
CONTINUOUS
 10
3.9398472546
 20
4.0747843633
 11
3.8486331393
 21
4.0747843633
  0
LINE
  5
25C
100
AcDbEntity
  8
ALL_ASSEMBLY_MEMBERS
100
AcDbLine
 62
7
  6
CONTINUOUS
 10
3.8317030138
 20
4.0747843633
 11
3.7027067749
 21
4.0747843633
  0
LINE
  5
25D
100
AcDbEntity
  8
ALL_ASSEMBLY_MEMBERS
100
AcDbLine
 62
7
  6
CONTINUOUS
 10
3.6857766494
 20
4.0747843633
 11
3.5945625342
 21
4.0747843633
  0
LINE
  5
25E
100
AcDbEntity
  8
ALL_ASSEMBLY_MEMBERS
100
AcDbLine
 62
7
  6
CONTINUOUS
 10
3.7635180982
 20
3.9536922412
 11
3.6340180982
 21
4.0022547412
  0
LINE
  5
25F
100
AcDbEntity
  8
ALL_ASSEMBLY_MEMBERS
100
AcDbLine
 62
9
  6
CONTINUOUS
 10
3.7645979358
 20
3.9536922412
 11
3.6350979358
 21
4.0022547412
  0
LINE
  5
260
100
AcDbEntity
  8
ALL_ASSEMBLY_MEMBERS
100
AcDbLine
 62
7
  6
CONTINUOUS
 10
3.6954423947
 20
4.0678096926
 11
3.6857766494
 21
4.0747843633
  0
LINE
  5
261
100
AcDbEntity
  8
ALL_ASSEMBLY_MEMBERS
100
AcDbLine
 62
7
  6
CONTINUOUS
 10
3.6930366693
 20
4.0817843633
 11
3.7027067749
 21
4.0747843633
  0
LINE
  5
262
100
AcDbEntity
  8
ALL_ASSEMBLY_MEMBERS
100
AcDbLine
 62
9
  6
CONTINUOUS
 10
3.7645979358
 20
3.9536922412
 11
3.7109572795
 21
4.0022547412
  0
LINE
  5
263
100
AcDbEntity
  8
ALL_ASSEMBLY_MEMBERS
100
AcDbLine
 62
9
  6
CONTINUOUS
 10
3.7672048944
 20
3.9536922412
 11
3.713564238
 21
4.0022547412
  0
LINE
  5
264
100
AcDbEntity
  8
ALL_ASSEMBLY_MEMBERS
100
AcDbLine
 62
7
  6
CONTINUOUS
 10
3.5939548944
 20
4.0678096926
 11
3.5875498466
 21
4.0747843633
  0
LINE
  5
265
100
AcDbEntity
  8
ALL_ASSEMBLY_MEMBERS
100
AcDbLine
 62
7
  6
CONTINUOUS
 10
3.5945625342
 20
4.0747843633
 11
3.5881469595
 21
4.0817843633
  0
LINE
  5
266
100
AcDbEntity
  8
ALL_ASSEMBLY_MEMBERS
100
AcDbLine
 62
7
  6
CONTINUOUS
 10
3.6272048944
 20
4.0120861975
 11
3.6272048944
 21
4.0328096926
  0
LINE
  5
267
100
AcDbEntity
  8
ALL_ASSEMBLY_MEMBERS
100
AcDbLine
 62
9
  6
CONTINUOUS
 10
3.6302802732
 20
4.0120861975
 11
3.6302802732
 21
4.0328096926
  0
LINE
  5
268
100
AcDbEntity
  8
ALL_ASSEMBLY_MEMBERS
100
AcDbLine
 62
9
  6
CONTINUOUS
 10
3.6385798944
 20
2.3283796926
 11
3.6385798944
 21
2.1026296926
  0
LINE
  5
269
100
AcDbEntity
  8
ALL_ASSEMBLY_MEMBERS
100
AcDbLine
 62
7
  6
CONTINUOUS
 10
3.6661231146
 20
5.9377546926
 11
3.6661231146
 21
5.8590046926
  0
LINE
  5
26A
100
AcDbEntity
  8
ALL_ASSEMBLY_MEMBERS
100
AcDbLine
 62
7
  6
CONTINUOUS
 10
3.6775197896
 20
5.8590046926
 11
3.6775197896
 21
5.8929893721
  0
LINE
  5
26B
100
AcDbEntity
  8
ALL_ASSEMBLY_MEMBERS
100
AcDbLine
 62
7
  6
CONTINUOUS
 10
3.6775197896
 20
5.9044887214
 11
3.6775197896
 21
5.9377546926
  0
LINE
  5
26C
100
AcDbEntity
  8
ALL_ASSEMBLY_MEMBERS
100
AcDbLine
 62
7
  6
CONTINUOUS
 10
3.7033298944
 20
4.9470796926
 11
3.7033298944
 21
4.9692194998
  0
LINE
  5
26D
100
AcDbEntity
  8
ALL_ASSEMBLY_MEMBERS
100
AcDbLine
 62
9
  6
CONTINUOUS
 10
3.7061396168
 20
4.0120861975
 11
3.7061396168
 21
4.0328096926
  0
LINE
  5
26E
100
AcDbEntity
  8
ALL_ASSEMBLY_MEMBERS
100
AcDbLine
 62
7
  6
CONTINUOUS
 10
3.7135579274
 20
5.9377546926
 11
3.7135579274
 21
5.9044887214
  0
LINE
  5
26F
100
AcDbEntity
  8
ALL_ASSEMBLY_MEMBERS
100
AcDbLine
 62
7
  6
CONTINUOUS
 10
3.7135579274
 20
5.8929893721
 11
3.7135579274
 21
5.8590046926
  0
LINE
  5
270
100
AcDbEntity
  8
ALL_ASSEMBLY_MEMBERS
100
AcDbLine
 62
9
  6
CONTINUOUS
 10
3.713564238
 20
4.0022547412
 11
3.713564238
 21
4.0328096926
  0
LINE
  5
271
100
AcDbEntity
  8
ALL_ASSEMBLY_MEMBERS
100
AcDbLine
 62
7
  6
CONTINUOUS
 10
3.7249546007
 20
5.8590046926
 11
3.7249546007
 21
5.9377546926
  0
LINE
  5
272
100
AcDbEntity
  8
ALL_ASSEMBLY_MEMBERS
100
AcDbLine
 62
7
  6
CONTINUOUS
 10
3.7672048944
 20
5.3304522868
 11
3.7672048944
 21
5.360969282
  0
LINE
  5
273
100
AcDbEntity
  8
ALL_ASSEMBLY_MEMBERS
100
AcDbLine
 62
7
  6
CONTINUOUS
 10
3.7672048944
 20
5.5377787685
 11
3.7672048944
 21
5.5440046926
  0
LINE
  5
274
100
AcDbEntity
  8
ALL_ASSEMBLY_MEMBERS
100
AcDbLine
 62
7
  6
CONTINUOUS
 10
3.7215290005
 20
4.8881746448
 11
3.6930366693
 21
4.0817843633
  0
LINE
  5
275
100
AcDbEntity
  8
ALL_ASSEMBLY_MEMBERS
100
AcDbLine
 62
7
  6
CONTINUOUS
 10
4.2190856974
 20
5.5531300192
 11
4.2322278081
 21
5.5900408734
  0
LINE
  5
276
100
AcDbEntity
  8
ALL_ASSEMBLY_MEMBERS
100
AcDbLine
 62
7
  6
CONTINUOUS
 10
3.838967394
 20
4.0678096926
 11
3.8317030138
 21
4.0747843633
  0
LINE
  5
277
100
AcDbEntity
  8
ALL_ASSEMBLY_MEMBERS
100
AcDbLine
 62
7
  6
CONTINUOUS
 10
3.8486331393
 20
4.0747843633
 11
3.8413731195
 21
4.0817843633
  0
LINE
  5
278
100
AcDbEntity
  8
ALL_ASSEMBLY_MEMBERS
100
AcDbLine
 62
7
  6
CONTINUOUS
 10
3.9404548944
 20
4.0678096926
 11
3.9398472546
 21
4.0747843633
  0
LINE
  5
279
100
AcDbEntity
  8
ALL_ASSEMBLY_MEMBERS
100
AcDbLine
 62
7
  6
CONTINUOUS
 10
3.9468599421
 20
4.0747843633
 11
3.8774762567
 21
4.8881746448
  0
LINE
  5
27A
100
AcDbEntity
  8
ALL_ASSEMBLY_MEMBERS
100
AcDbLine
 62
7
  6
CONTINUOUS
 10
3.8128807882
 20
4.8881746448
 11
3.8413731195
 21
4.0817843633
  0
LINE
  5
27B
100
AcDbEntity
  8
ALL_ASSEMBLY_MEMBERS
100
AcDbLine
 62
7
  6
CONTINUOUS
 10
3.8121237671
 20
5.9262553457
 11
3.8121237671
 21
5.9377546926
  0
LINE
  5
27C
100
AcDbEntity
  8
ALL_ASSEMBLY_MEMBERS
100
AcDbLine
 62
9
  6
CONTINUOUS
 10
3.8208455507
 20
4.0022547412
 11
3.8208455507
 21
4.0328096926
  0
LINE
  5
27D
100
AcDbEntity
  8
ALL_ASSEMBLY_MEMBERS
100
AcDbLine
 62
9
  6
CONTINUOUS
 10
3.8282701719
 20
4.0120861975
 11
3.8282701719
 21
4.0328096926
  0
LINE
  5
27E
100
AcDbEntity
  8
ALL_ASSEMBLY_MEMBERS
100
AcDbLine
 62
7
  6
CONTINUOUS
 10
3.8310798944
 20
4.9470796926
 11
3.8310798944
 21
4.9692194998
  0
LINE
  5
27F
100
AcDbEntity
  8
ALL_ASSEMBLY_MEMBERS
100
AcDbLine
 62
7
  6
CONTINUOUS
 10
3.8343524228
 20
5.9262553457
 11
3.8343524228
 21
5.8590046926
  0
LINE
  5
280
100
AcDbEntity
  8
ALL_ASSEMBLY_MEMBERS
100
AcDbLine
 62
7
  6
CONTINUOUS
 10
3.8457490913
 20
5.8590046926
 11
3.8457490913
 21
5.9262553457
  0
LINE
  5
281
100
AcDbEntity
  8
ALL_ASSEMBLY_MEMBERS
100
AcDbLine
 62
7
  6
CONTINUOUS
 10
3.8679777376
 20
5.9377546926
 11
3.8679777376
 21
5.9262553457
  0
LINE
  5
282
100
AcDbEntity
  8
ALL_ASSEMBLY_MEMBERS
100
AcDbLine
 62
9
  6
CONTINUOUS
 10
3.8958298944
 20
2.3283796926
 11
3.8958298944
 21
2.1026296926
  0
LINE
  5
283
100
AcDbEntity
  8
ALL_ASSEMBLY_MEMBERS
100
AcDbLine
 62
9
  6
CONTINUOUS
 10
3.9041295156
 20
4.0120861975
 11
3.9041295156
 21
4.0328096926
  0
LINE
  5
284
100
AcDbEntity
  8
ALL_ASSEMBLY_MEMBERS
100
AcDbLine
 62
7
  6
CONTINUOUS
 10
3.9072048944
 20
4.0120861975
 11
3.9072048944
 21
4.0328096926
  0
LINE
  5
285
100
AcDbEntity
  8
ALL_ASSEMBLY_MEMBERS
100
AcDbLine
 62
7
  6
CONTINUOUS
 10
3.9387048944
 20
4.0433096926
 11
3.9387048944
 21
4.0678096926
  0
LINE
  5
286
100
AcDbEntity
  8
ALL_ASSEMBLY_MEMBERS
100
AcDbLine
 62
7
  6
CONTINUOUS
 10
3.9422048944
 20
5.0273433955
 11
3.9422048944
 21
5.2294159897
  0
LINE
  5
287
100
AcDbEntity
  8
ALL_ASSEMBLY_MEMBERS
100
AcDbLine
 62
7
  6
CONTINUOUS
 10
4.1832015723
 20
5.5982546926
 11
4.1680573401
 21
5.5291559313
  0
LINE
  5
288
100
AcDbEntity
  8
ALL_ASSEMBLY_MEMBERS
100
AcDbLine
 62
7
  6
CONTINUOUS
 10
4.1362801223
 20
5.5982546926
 11
4.1203145105
 21
5.5291559313
  0
LINE
  5
289
100
AcDbEntity
  8
ALL_ASSEMBLY_MEMBERS
100
AcDbLine
 62
7
  6
CONTINUOUS
 10
4.1761171489
 20
5.5195046926
 11
4.1951629411
 21
5.5982546926
  0
LINE
  5
28A
100
AcDbEntity
  8
ALL_ASSEMBLY_MEMBERS
100
AcDbLine
 62
7
  6
CONTINUOUS
 10
4.1280149663
 20
5.5195046926
 11
4.1441345885
 21
5.5826997706
  0
LINE
  5
28B
100
AcDbEntity
  8
ALL_ASSEMBLY_MEMBERS
100
AcDbLine
 62
7
  6
CONTINUOUS
 10
4.2091264407
 20
5.5195046926
 11
4.2155948225
 21
5.54163067
  0
LINE
  5
28C
100
AcDbEntity
  8
ALL_ASSEMBLY_MEMBERS
100
AcDbLine
 62
7
  6
CONTINUOUS
 10
4.2228845838
 20
5.5982546926
 11
4.1978837685
 21
5.5195046926
  0
LINE
  5
28D
100
AcDbEntity
  8
ALL_ASSEMBLY_MEMBERS
100
AcDbLine
 62
7
  6
CONTINUOUS
 10
3.6857766494
 20
4.0747843633
 11
3.6930366693
 21
4.0817843633
  0
LINE
  5
28E
100
AcDbEntity
  8
ALL_ASSEMBLY_MEMBERS
100
AcDbLine
 62
7
  6
CONTINUOUS
 10
3.6954423947
 20
4.0678096926
 11
3.7027067749
 21
4.0747843633
  0
LINE
  5
28F
100
AcDbEntity
  8
ALL_ASSEMBLY_MEMBERS
100
AcDbLine
 62
9
  6
CONTINUOUS
 10
3.9686333874
 20
5.0120848979
 11
3.9686333874
 21
5.2446744873
  0
LINE
  5
290
100
AcDbEntity
  8
ALL_ASSEMBLY_MEMBERS
100
AcDbLine
 62
7
  6
CONTINUOUS
 10
4.0244548944
 20
2.3283796926
 11
4.0244548944
 21
2.1026296926
  0
LINE
  5
291
100
AcDbEntity
  8
ALL_ASSEMBLY_MEMBERS
100
AcDbLine
 62
9
  6
CONTINUOUS
 10
4.1217548944
 20
4.9236801547
 11
4.1217548944
 21
5.3330792305
  0
LINE
  5
292
100
AcDbEntity
  8
ALL_ASSEMBLY_MEMBERS
100
AcDbLine
 62
7
  6
CONTINUOUS
 10
4.3990196909
 20
5.5982546926
 11
4.3824893789
 21
5.5350082778
  0
LINE
  5
293
100
AcDbEntity
  8
ALL_ASSEMBLY_MEMBERS
100
AcDbLine
 62
7
  6
CONTINUOUS
 10
4.3881363811
 20
5.5195046926
 11
4.4080035623
 21
5.5902975528
  0
LINE
  5
294
100
AcDbEntity
  8
ALL_ASSEMBLY_MEMBERS
100
AcDbLine
 62
7
  6
CONTINUOUS
 10
3.9398472546
 20
4.0747843633
 11
3.9462628293
 21
4.0817843633
  0
LINE
  5
295
100
AcDbEntity
  8
ALL_ASSEMBLY_MEMBERS
100
AcDbLine
 62
7
  6
CONTINUOUS
 10
3.9404548944
 20
4.0678096926
 11
3.9468599421
 21
4.0747843633
  0
LINE
  5
296
100
AcDbEntity
  8
ALL_ASSEMBLY_MEMBERS
100
AcDbLine
 62
9
  6
CONTINUOUS
 10
3.7672048944
 20
3.9536922412
 11
3.8208455507
 21
4.0022547412
  0
LINE
  5
297
100
AcDbEntity
  8
ALL_ASSEMBLY_MEMBERS
100
AcDbLine
 62
9
  6
CONTINUOUS
 10
3.7698118529
 20
3.9536922412
 11
3.8234525092
 21
4.0022547412
  0
LINE
  5
298
100
AcDbEntity
  8
ALL_ASSEMBLY_MEMBERS
100
AcDbLine
 62
7
  6
CONTINUOUS
 10
3.8413731195
 20
4.0817843633
 11
3.8317030138
 21
4.0747843633
  0
LINE
  5
299
100
AcDbEntity
  8
ALL_ASSEMBLY_MEMBERS
100
AcDbLine
 62
7
  6
CONTINUOUS
 10
3.838967394
 20
4.0678096926
 11
3.8486331393
 21
4.0747843633
  0
LINE
  5
29A
100
AcDbEntity
  8
ALL_ASSEMBLY_MEMBERS
100
AcDbLine
 62
9
  6
CONTINUOUS
 10
3.7698118529
 20
3.9536922412
 11
3.8993118529
 21
4.0022547412
  0
LINE
  5
29B
100
AcDbEntity
  8
ALL_ASSEMBLY_MEMBERS
100
AcDbLine
 62
7
  6
CONTINUOUS
 10
3.7708916905
 20
3.9536922412
 11
3.9003916905
 21
4.0022547412
  0
LINE
  5
29C
100
AcDbEntity
  8
ALL_ASSEMBLY_MEMBERS
100
AcDbLine
 62
7
  6
CONTINUOUS
 10
4.3860300001
 20
4.6585046926
 11
4.3613371869
 21
4.6585046926
  0
LINE
  5
29D
100
AcDbEntity
  8
ALL_ASSEMBLY_MEMBERS
100
AcDbLine
 62
7
  6
CONTINUOUS
 10
4.3094874594
 20
4.6585046926
 11
4.3505565601
 21
4.6585046926
  0
LINE
  5
29E
100
AcDbEntity
  8
ALL_ASSEMBLY_MEMBERS
100
AcDbLine
 62
7
  6
CONTINUOUS
 10
3.8128807882
 20
4.8881746448
 11
3.809991785
 21
4.8945796926
  0
LINE
  5
29F
100
AcDbEntity
  8
ALL_ASSEMBLY_MEMBERS
100
AcDbLine
 62
7
  6
CONTINUOUS
 10
4.2190840975
 20
4.6675398949
 11
4.2190840975
 21
4.6805279987
  0
LINE
  5
2A0
100
AcDbEntity
  8
ALL_ASSEMBLY_MEMBERS
100
AcDbLine
 62
7
  6
CONTINUOUS
 10
4.2190840975
 20
4.7137939676
 11
4.2190840975
 21
4.7294002264
  0
LINE
  5
2A1
100
AcDbEntity
  8
ALL_ASSEMBLY_MEMBERS
100
AcDbLine
 62
7
  6
CONTINUOUS
 10
4.2774551575
 20
5.5982546926
 11
4.2774551575
 21
5.5195046926
  0
LINE
  5
2A2
100
AcDbEntity
  8
ALL_ASSEMBLY_MEMBERS
100
AcDbLine
 62
7
  6
CONTINUOUS
 10
4.2888518261
 20
5.5195046926
 11
4.2888518261
 21
5.5591363767
  0
LINE
  5
2A3
100
AcDbEntity
  8
ALL_ASSEMBLY_MEMBERS
100
AcDbLine
 62
7
  6
CONTINUOUS
 10
4.2888518261
 20
5.5613438407
 11
4.2888518261
 21
5.5867553457
  0
LINE
  5
2A4
100
AcDbEntity
  8
ALL_ASSEMBLY_MEMBERS
100
AcDbLine
 62
9
  6
CONTINUOUS
 10
3.3525845407
 20
2.6801197911
 11
3.3515798944
 21
2.6783796926
  0
LINE
  5
2A5
100
AcDbEntity
  8
ALL_ASSEMBLY_MEMBERS
100
AcDbLine
 62
9
  6
CONTINUOUS
 10
3.5583877479
 20
3.0365814024
 11
3.5593923944
 21
3.0383215011
  0
LINE
  5
2A6
100
AcDbEntity
  8
ALL_ASSEMBLY_MEMBERS
100
AcDbLine
 62
9
  6
CONTINUOUS
 10
3.6031423944
 20
2.9625442782
 11
3.4390798944
 21
2.6783796926
  0
LINE
  5
2A7
100
AcDbEntity
  8
ALL_ASSEMBLY_MEMBERS
100
AcDbLine
 62
7
  6
CONTINUOUS
 10
4.3860300001
 20
4.668720631
 11
4.3727338743
 21
4.668720631
  0
LINE
  5
2A8
100
AcDbEntity
  8
ALL_ASSEMBLY_MEMBERS
100
AcDbLine
 62
7
  6
CONTINUOUS
 10
4.3505565601
 20
4.6700040406
 11
4.3208841374
 21
4.6700040406
  0
LINE
  5
2A9
100
AcDbEntity
  8
ALL_ASSEMBLY_MEMBERS
100
AcDbLine
 62
7
  6
CONTINUOUS
 10
4.3727338743
 20
4.7257553457
 11
4.3901882394
 21
4.7257553457
  0
LINE
  5
2AA
100
AcDbEntity
  8
ALL_ASSEMBLY_MEMBERS
100
AcDbLine
 62
7
  6
CONTINUOUS
 10
4.3094874594
 20
4.7372546926
 11
4.3208841374
 21
4.7372546926
  0
LINE
  5
2AB
100
AcDbEntity
  8
ALL_ASSEMBLY_MEMBERS
100
AcDbLine
 62
7
  6
CONTINUOUS
 10
4.3613371869
 20
4.7372546926
 11
4.3898288771
 21
4.7372546926
  0
LINE
  5
2AC
100
AcDbEntity
  8
ALL_ASSEMBLY_MEMBERS
100
AcDbLine
 62
9
  6
CONTINUOUS
 10
3.4126548944
 20
4.9236801547
 11
3.6483542505
 21
4.7875990679
  0
LINE
  5
2AD
100
AcDbEntity
  8
ALL_ASSEMBLY_MEMBERS
100
AcDbLine
 62
9
  6
CONTINUOUS
 10
3.5657764013
 20
5.0120848979
 11
3.6987479668
 21
4.9353137287
  0
LINE
  5
2AE
100
AcDbEntity
  8
ALL_ASSEMBLY_MEMBERS
100
AcDbLine
 62
7
  6
CONTINUOUS
 10
3.8774762567
 20
4.8881746448
 11
3.870501586
 21
4.8945796926
  0
LINE
  5
2AF
100
AcDbEntity
  8
ALL_ASSEMBLY_MEMBERS
100
AcDbLine
 62
7
  6
CONTINUOUS
 10
4.4080035623
 20
5.5902975528
 11
4.4085682531
 21
5.5195046926
  0
LINE
  5
2B0
100
AcDbEntity
  8
ALL_ASSEMBLY_MEMBERS
100
AcDbLine
 62
7
  6
CONTINUOUS
 10
4.3094874594
 20
4.7372546926
 11
4.3094874594
 21
4.6585046926
  0
LINE
  5
2B1
100
AcDbEntity
  8
ALL_ASSEMBLY_MEMBERS
100
AcDbLine
 62
7
  6
CONTINUOUS
 10
4.3208841374
 20
4.6700040406
 11
4.3208841374
 21
4.7372546926
  0
LINE
  5
2B2
100
AcDbEntity
  8
ALL_ASSEMBLY_MEMBERS
100
AcDbLine
 62
7
  6
CONTINUOUS
 10
4.3437304206
 20
5.5982546926
 11
4.3437304206
 21
5.5195046926
  0
LINE
  5
2B3
100
AcDbEntity
  8
ALL_ASSEMBLY_MEMBERS
100
AcDbLine
 62
7
  6
CONTINUOUS
 10
4.3505565601
 20
4.6700040406
 11
4.3505565601
 21
4.6585046926
  0
LINE
  5
2B4
100
AcDbEntity
  8
ALL_ASSEMBLY_MEMBERS
100
AcDbLine
 62
7
  6
CONTINUOUS
 10
4.3551270892
 20
5.5195046926
 11
4.3551270892
 21
5.5902975528
  0
LINE
  5
2B5
100
AcDbEntity
  8
ALL_ASSEMBLY_MEMBERS
100
AcDbLine
 62
7
  6
CONTINUOUS
 10
4.3613371869
 20
4.7372546926
 11
4.3613371869
 21
4.6585046926
  0
LINE
  5
2B6
100
AcDbEntity
  8
ALL_ASSEMBLY_MEMBERS
100
AcDbLine
 62
7
  6
CONTINUOUS
 10
4.3727338743
 20
4.668720631
 11
4.3727338743
 21
4.7257553457
  0
LINE
  5
2B7
100
AcDbEntity
  8
ALL_ASSEMBLY_MEMBERS
100
AcDbLine
 62
7
  6
CONTINUOUS
 10
4.4199649216
 20
5.5195046926
 11
4.4199649216
 21
5.5982546926
  0
LINE
  5
2B8
100
AcDbEntity
  8
ALL_ASSEMBLY_MEMBERS
100
AcDbLine
 62
9
  6
CONTINUOUS
 10
3.6250173944
 20
2.9246556668
 11
3.4828298944
 21
2.6783796926
  0
LINE
  5
2B9
100
AcDbEntity
  8
ALL_ASSEMBLY_MEMBERS
100
AcDbLine
 62
7
  6
CONTINUOUS
 10
3.6359548944
 20
2.9057113611
 11
3.5047048944
 21
2.6783796926
  0
LINE
  5
2BA
100
AcDbEntity
  8
ALL_ASSEMBLY_MEMBERS
100
AcDbLine
 62
7
  6
CONTINUOUS
 10
3.656933532
 20
4.8881746448
 11
3.8774762567
 21
4.8881746448
  0
LINE
  5
2BB
100
AcDbEntity
  8
ALL_ASSEMBLY_MEMBERS
100
AcDbLine
 62
7
  6
CONTINUOUS
 10
3.6639082028
 20
4.8945796926
 11
3.870501586
 21
4.8945796926
  0
LINE
  5
2BC
100
AcDbEntity
  8
ALL_ASSEMBLY_MEMBERS
100
AcDbLine
 62
7
  6
CONTINUOUS
 10
3.6692049196
 20
4.9295796926
 11
3.8652048692
 21
4.9295796926
  0
LINE
  5
2BD
100
AcDbEntity
  8
ALL_ASSEMBLY_MEMBERS
100
AcDbLine
 62
9
  6
CONTINUOUS
 10
3.7033298944
 20
4.9470796926
 11
3.8310798944
 21
4.9470796926
  0
LINE
  5
2BE
100
AcDbEntity
  8
ALL_ASSEMBLY_MEMBERS
100
AcDbLine
 62
7
  6
CONTINUOUS
 10
3.5922048944
 20
5.0273433955
 11
3.7033298944
 21
4.9631853468
  0
LINE
  5
2BF
100
AcDbEntity
  8
ALL_ASSEMBLY_MEMBERS
100
AcDbLine
 62
7
  6
CONTINUOUS
 10
4.1441345885
 20
5.5826997706
 11
4.1603568843
 21
5.5195046926
  0
LINE
  5
2C0
100
AcDbEntity
  8
ALL_ASSEMBLY_MEMBERS
100
AcDbLine
 62
7
  6
CONTINUOUS
 10
4.0931575671
 20
5.5982546926
 11
4.1122546994
 21
5.5195046926
  0
LINE
  5
2C1
100
AcDbEntity
  8
ALL_ASSEMBLY_MEMBERS
100
AcDbLine
 62
7
  6
CONTINUOUS
 10
4.1680573401
 20
5.5291559313
 11
4.1520403915
 21
5.5982546926
  0
LINE
  5
2C2
100
AcDbEntity
  8
ALL_ASSEMBLY_MEMBERS
100
AcDbLine
 62
7
  6
CONTINUOUS
 10
4.1203145105
 20
5.5291559313
 11
4.1050676058
 21
5.5982546926
  0
LINE
  5
2C3
100
AcDbEntity
  8
ALL_ASSEMBLY_MEMBERS
100
AcDbLine
 62
7
  6
CONTINUOUS
 10
3.9750173944
 20
3.0383215011
 11
3.8984548944
 21
2.9057113611
  0
LINE
  5
2C4
100
AcDbEntity
  8
ALL_ASSEMBLY_MEMBERS
100
AcDbLine
 62
7
  6
CONTINUOUS
 10
3.5922048944
 20
5.2294159897
 11
3.5657764013
 21
5.2446744873
  0
LINE
  5
2C5
100
AcDbEntity
  8
ALL_ASSEMBLY_MEMBERS
100
AcDbLine
 62
7
  6
CONTINUOUS
 10
3.4126548944
 20
5.3330792305
 11
3.4072630859
 21
5.3361921926
  0
LINE
  5
2C6
100
AcDbEntity
  8
ALL_ASSEMBLY_MEMBERS
100
AcDbLine
 62
7
  6
CONTINUOUS
 10
3.9422048944
 20
5.0273433955
 11
3.9686333874
 21
5.0120848979
  0
LINE
  5
2C7
100
AcDbEntity
  8
ALL_ASSEMBLY_MEMBERS
100
AcDbLine
 62
7
  6
CONTINUOUS
 10
4.1217548944
 20
4.9236801547
 11
4.1271467028
 21
4.9205671926
  0
LINE
  5
2C8
100
AcDbEntity
  8
ALL_ASSEMBLY_MEMBERS
100
AcDbLine
 62
7
  6
CONTINUOUS
 10
4.2322278081
 20
5.5900408734
 11
4.245575266
 21
5.5531300192
  0
LINE
  5
2C9
100
AcDbEntity
  8
ALL_ASSEMBLY_MEMBERS
100
AcDbLine
 62
7
  6
CONTINUOUS
 10
4.2670338743
 20
5.5195046926
 11
4.242033059
 21
5.5982546926
  0
LINE
  5
2CA
100
AcDbEntity
  8
ALL_ASSEMBLY_MEMBERS
100
AcDbLine
 62
7
  6
CONTINUOUS
 10
4.2490147995
 20
5.54163067
 11
4.2555345227
 21
5.5195046926
  0
LINE
  5
2CB
100
AcDbEntity
  8
ALL_ASSEMBLY_MEMBERS
100
AcDbLine
 62
7
  6
CONTINUOUS
 10
3.9422048944
 20
5.2294159897
 11
3.7672048944
 21
5.3304522868
  0
LINE
  5
2CC
100
AcDbEntity
  8
ALL_ASSEMBLY_MEMBERS
100
AcDbLine
 62
9
  6
CONTINUOUS
 10
3.9686333874
 20
5.2446744873
 11
3.7672048944
 21
5.360969282
  0
LINE
  5
2CD
100
AcDbEntity
  8
ALL_ASSEMBLY_MEMBERS
100
AcDbLine
 62
7
  6
CONTINUOUS
 10
4.3551270892
 20
5.5902975528
 11
4.3756103121
 21
5.5195046926
  0
LINE
  5
2CE
100
AcDbEntity
  8
ALL_ASSEMBLY_MEMBERS
100
AcDbLine
 62
7
  6
CONTINUOUS
 10
4.3824893789
 20
5.5350082778
 11
4.3646756514
 21
5.5982546926
  0
LINE
  5
2CF
100
AcDbEntity
  8
ALL_ASSEMBLY_MEMBERS
100
AcDbLine
 62
9
  6
CONTINUOUS
 10
4.0285269446
 20
2.6384508123
 11
4.0515798944
 21
2.6783796926
  0
LINE
  5
2D0
100
AcDbEntity
  8
ALL_ASSEMBLY_MEMBERS
100
AcDbLine
 62
9
  6
CONTINUOUS
 10
4.0267654924
 20
2.5596226648
 11
4.0953298944
 21
2.6783796926
  0
LINE
  5
2D1
100
AcDbEntity
  8
ALL_ASSEMBLY_MEMBERS
100
AcDbLine
 62
9
  6
CONTINUOUS
 10
4.1818252481
 20
2.6766395941
 11
4.1828298944
 21
2.6783796926
  0
LINE
  5
2D2
100
AcDbEntity
  8
ALL_ASSEMBLY_MEMBERS
100
AcDbLine
 62
9
  6
CONTINUOUS
 10
4.1217548944
 20
5.3330792305
 11
3.7672048944
 21
5.5377787685
  0
LINE
  5
2D3
100
AcDbEntity
  8
ALL_ASSEMBLY_MEMBERS
100
AcDbLine
 62
7
  6
CONTINUOUS
 10
4.3300236003
 20
5.5195046926
 11
4.3056901683
 21
5.553181356
  0
LINE
  5
2D4
100
AcDbEntity
  8
ALL_ASSEMBLY_MEMBERS
100
AcDbLine
 62
7
  6
CONTINUOUS
 10
4.2888518261
 20
5.5591363767
 11
4.3168301575
 21
5.5195046926
  0
LINE
  5
2D5
100
AcDbEntity
  8
ALL_ASSEMBLY_MEMBERS
100
AcDbLine
 62
7
  6
CONTINUOUS
 10
4.4199649216
 20
5.5195046926
 11
4.4085682531
 21
5.5195046926
  0
LINE
  5
2D6
100
AcDbEntity
  8
ALL_ASSEMBLY_MEMBERS
100
AcDbLine
 62
7
  6
CONTINUOUS
 10
4.3881363811
 20
5.5195046926
 11
4.3756103121
 21
5.5195046926
  0
LINE
  5
2D7
100
AcDbEntity
  8
ALL_ASSEMBLY_MEMBERS
100
AcDbLine
 62
7
  6
CONTINUOUS
 10
4.3551270892
 20
5.5195046926
 11
4.3437304206
 21
5.5195046926
  0
LINE
  5
2D8
100
AcDbEntity
  8
ALL_ASSEMBLY_MEMBERS
100
AcDbLine
 62
7
  6
CONTINUOUS
 10
4.3300236003
 20
5.5195046926
 11
4.3168301575
 21
5.5195046926
  0
LINE
  5
2D9
100
AcDbEntity
  8
ALL_ASSEMBLY_MEMBERS
100
AcDbLine
 62
7
  6
CONTINUOUS
 10
4.2888518261
 20
5.5195046926
 11
4.2774551575
 21
5.5195046926
  0
LINE
  5
2DA
100
AcDbEntity
  8
ALL_ASSEMBLY_MEMBERS
100
AcDbLine
 62
7
  6
CONTINUOUS
 10
4.2670338743
 20
5.5195046926
 11
4.2555345227
 21
5.5195046926
  0
LINE
  5
2DB
100
AcDbEntity
  8
ALL_ASSEMBLY_MEMBERS
100
AcDbLine
 62
7
  6
CONTINUOUS
 10
4.2091264407
 20
5.5195046926
 11
4.1978837685
 21
5.5195046926
  0
LINE
  5
2DC
100
AcDbEntity
  8
ALL_ASSEMBLY_MEMBERS
100
AcDbLine
 62
7
  6
CONTINUOUS
 10
4.1761171489
 20
5.5195046926
 11
4.1603568843
 21
5.5195046926
  0
LINE
  5
2DD
100
AcDbEntity
  8
ALL_ASSEMBLY_MEMBERS
100
AcDbLine
 62
7
  6
CONTINUOUS
 10
4.1280149663
 20
5.5195046926
 11
4.1122546994
 21
5.5195046926
  0
LINE
  5
2DE
100
AcDbEntity
  8
ALL_ASSEMBLY_MEMBERS
100
AcDbLine
 62
7
  6
CONTINUOUS
 10
4.2155948225
 20
5.54163067
 11
4.2490147995
 21
5.54163067
  0
LINE
  5
2DF
100
AcDbEntity
  8
ALL_ASSEMBLY_MEMBERS
100
AcDbLine
 62
7
  6
CONTINUOUS
 10
4.245575266
 20
5.5531300192
 11
4.2190856974
 21
5.5531300192
  0
LINE
  5
2E0
100
AcDbEntity
  8
ALL_ASSEMBLY_MEMBERS
100
AcDbLine
 62
7
  6
CONTINUOUS
 10
4.302199284
 20
5.5613438407
 11
4.2888518261
 21
5.5613438407
  0
LINE
  5
2E1
100
AcDbEntity
  8
ALL_ASSEMBLY_MEMBERS
100
AcDbLine
 62
7
  6
CONTINUOUS
 10
4.2888518261
 20
5.5867553457
 11
4.306100844
 21
5.5867553457
  0
LINE
  5
2E2
100
AcDbEntity
  8
ALL_ASSEMBLY_MEMBERS
100
AcDbLine
 62
7
  6
CONTINUOUS
 10
4.0931575671
 20
5.5982546926
 11
4.1050676058
 21
5.5982546926
  0
LINE
  5
2E3
100
AcDbEntity
  8
ALL_ASSEMBLY_MEMBERS
100
AcDbLine
 62
7
  6
CONTINUOUS
 10
4.1362801223
 20
5.5982546926
 11
4.1520403915
 21
5.5982546926
  0
LINE
  5
2E4
100
AcDbEntity
  8
ALL_ASSEMBLY_MEMBERS
100
AcDbLine
 62
7
  6
CONTINUOUS
 10
4.1832015723
 20
5.5982546926
 11
4.1951629411
 21
5.5982546926
  0
LINE
  5
2E5
100
AcDbEntity
  8
ALL_ASSEMBLY_MEMBERS
100
AcDbLine
 62
7
  6
CONTINUOUS
 10
4.2228845838
 20
5.5982546926
 11
4.242033059
 21
5.5982546926
  0
LINE
  5
2E6
100
AcDbEntity
  8
ALL_ASSEMBLY_MEMBERS
100
AcDbLine
 62
7
  6
CONTINUOUS
 10
4.2774551575
 20
5.5982546926
 11
4.3072815953
 21
5.5982546926
  0
LINE
  5
2E7
100
AcDbEntity
  8
ALL_ASSEMBLY_MEMBERS
100
AcDbLine
 62
7
  6
CONTINUOUS
 10
4.3437304206
 20
5.5982546926
 11
4.3646756514
 21
5.5982546926
  0
LINE
  5
2E8
100
AcDbEntity
  8
ALL_ASSEMBLY_MEMBERS
100
AcDbLine
 62
7
  6
CONTINUOUS
 10
4.3990196909
 20
5.5982546926
 11
4.4199649216
 21
5.5982546926
  0
LINE
  5
2E9
100
AcDbEntity
  8
ALL_ASSEMBLY_MEMBERS
100
AcDbLine
 62
7
  6
CONTINUOUS
 10
3.8457490913
 20
5.8590046926
 11
3.8343524228
 21
5.8590046926
  0
LINE
  5
2EA
100
AcDbEntity
  8
ALL_ASSEMBLY_MEMBERS
100
AcDbLine
 62
7
  6
CONTINUOUS
 10
3.7249546007
 20
5.8590046926
 11
3.7135579274
 21
5.8590046926
  0
LINE
  5
2EB
100
AcDbEntity
  8
ALL_ASSEMBLY_MEMBERS
100
AcDbLine
 62
7
  6
CONTINUOUS
 10
3.6775197896
 20
5.8590046926
 11
3.6661231146
 21
5.8590046926
  0
LINE
  5
2EC
100
AcDbEntity
  8
ALL_ASSEMBLY_MEMBERS
100
AcDbLine
 62
7
  6
CONTINUOUS
 10
3.6775197896
 20
5.8929893721
 11
3.7135579274
 21
5.8929893721
  0
LINE
  5
2ED
100
AcDbEntity
  8
ALL_ASSEMBLY_MEMBERS
100
AcDbLine
 62
7
  6
CONTINUOUS
 10
3.7135579274
 20
5.9044887214
 11
3.6775197896
 21
5.9044887214
  0
LINE
  5
2EE
100
AcDbEntity
  8
ALL_ASSEMBLY_MEMBERS
100
AcDbLine
 62
7
  6
CONTINUOUS
 10
3.8121237671
 20
5.9262553457
 11
3.8343524228
 21
5.9262553457
  0
LINE
  5
2EF
100
AcDbEntity
  8
ALL_ASSEMBLY_MEMBERS
100
AcDbLine
 62
7
  6
CONTINUOUS
 10
3.8457490913
 20
5.9262553457
 11
3.8679777376
 21
5.9262553457
  0
LINE
  5
2F0
100
AcDbEntity
  8
ALL_ASSEMBLY_MEMBERS
100
AcDbLine
 62
7
  6
CONTINUOUS
 10
3.8679777376
 20
5.9377546926
 11
3.8121237671
 21
5.9377546926
  0
LINE
  5
2F1
100
AcDbEntity
  8
ALL_ASSEMBLY_MEMBERS
100
AcDbLine
 62
7
  6
CONTINUOUS
 10
3.6661231146
 20
5.9377546926
 11
3.6775197896
 21
5.9377546926
  0
LINE
  5
2F2
100
AcDbEntity
  8
ALL_ASSEMBLY_MEMBERS
100
AcDbLine
 62
7
  6
CONTINUOUS
 10
3.7135579274
 20
5.9377546926
 11
3.7249546007
 21
5.9377546926
  0
ARC
  5
2F3
100
AcDbEntity
  8
ALL_ASSEMBLY_MEMBERS
100
AcDbCircle
 62
7
  6
CONTINUOUS
 10
-55.4729915232
 20
2.3246894988
 40
59.1115715327
100
AcDbArc
 50
0.0035768383
 51
0.122556357
  0
ARC
  5
2F4
100
AcDbEntity
  8
ALL_ASSEMBLY_MEMBERS
100
AcDbCircle
 62
7
  6
CONTINUOUS
 10
3.6692048944
 20
4.9120796926
 40
0.0175
100
AcDbArc
 50
90.0
 51
270.0
  0
ARC
  5
2F5
100
AcDbEntity
  8
ALL_ASSEMBLY_MEMBERS
100
AcDbCircle
 62
7
  6
CONTINUOUS
 10
3.6858298944
 20
4.9470796926
 40
0.0175
100
AcDbArc
 50
270.0
 51
360.0
  0
ARC
  5
2F6
100
AcDbEntity
  8
ALL_ASSEMBLY_MEMBERS
100
AcDbCircle
 62
7
  6
CONTINUOUS
 10
3.7672028362
 20
3.9635373325
 40
0.0105134899
100
AcDbArc
 50
283.6385050314
 51
290.540456427
  0
ARC
  5
2F7
100
AcDbEntity
  8
ALL_ASSEMBLY_MEMBERS
100
AcDbCircle
 62
7
  6
CONTINUOUS
 10
3.6062048944
 20
4.0433096926
 40
0.0105
100
AcDbArc
 50
180.0
 51
270.0
  0
ARC
  5
2F8
100
AcDbEntity
  8
ALL_ASSEMBLY_MEMBERS
100
AcDbCircle
 62
7
  6
CONTINUOUS
 10
3.6377048944
 20
4.0120861975
 40
0.0105
100
AcDbArc
 50
180.0
 51
249.4439547804
  0
ARC
  5
2F9
100
AcDbEntity
  8
ALL_ASSEMBLY_MEMBERS
100
AcDbCircle
 62
7
  6
CONTINUOUS
 10
3.7671986609
 20
3.9635101086
 40
0.0104850876
100
AcDbArc
 50
249.4497755598
 51
256.2393206942
  0
ARC
  5
2FA
100
AcDbEntity
  8
ALL_ASSEMBLY_MEMBERS
100
AcDbCircle
 62
7
  6
CONTINUOUS
 10
63.0074013104
 20
2.3246894988
 40
59.1115715312
100
AcDbArc
 50
179.877443643
 51
179.9964231618
  0
ARC
  5
2FB
100
AcDbEntity
  8
ALL_ASSEMBLY_MEMBERS
100
AcDbCircle
 62
7
  6
CONTINUOUS
 10
3.7672048944
 20
2.6783796926
 40
0.4899997654
100
AcDbArc
 50
301.6677226536
 51
238.3318102975
  0
ARC
  5
2FC
100
AcDbEntity
  8
ALL_ASSEMBLY_MEMBERS
100
AcDbCircle
 62
7
  6
CONTINUOUS
 10
3.7672048944
 20
4.3671296926
 40
0.1575
100
AcDbArc
 50
163.3912955226
 51
186.8809333946
  0
ARC
  5
2FD
100
AcDbEntity
  8
ALL_ASSEMBLY_MEMBERS
100
AcDbCircle
 62
7
  6
CONTINUOUS
 10
3.7672048944
 20
4.3671296926
 40
0.1575
100
AcDbArc
 50
353.1190666054
 51
16.6087044774
  0
ARC
  5
2FE
100
AcDbEntity
  8
ALL_ASSEMBLY_MEMBERS
100
AcDbCircle
 62
9
  6
CONTINUOUS
 10
3.7672048944
 20
4.3671296926
 40
0.1572201762
100
AcDbArc
 50
163.8639240244
 51
186.4245446759
  0
ARC
  5
2FF
100
AcDbEntity
  8
ALL_ASSEMBLY_MEMBERS
100
AcDbCircle
 62
9
  6
CONTINUOUS
 10
3.7672048944
 20
4.3671296926
 40
0.1572201762
100
AcDbArc
 50
353.5754553241
 51
16.1360759756
  0
ARC
  5
300
100
AcDbEntity
  8
ALL_ASSEMBLY_MEMBERS
100
AcDbCircle
 62
7
  6
CONTINUOUS
 10
3.7672048485
 20
3.9635121236
 40
0.0104885142
100
AcDbArc
 50
256.209108036
 51
283.660293818
  0
CIRCLE
  5
301
100
AcDbEntity
  8
ALL_ASSEMBLY_MEMBERS
100
AcDbCircle
 62
7
  6
CONTINUOUS
 10
3.7672048944
 20
5.1283796926
 40
1.35625
  0
CIRCLE
  5
302
100
AcDbEntity
  8
ALL_ASSEMBLY_MEMBERS
100
AcDbCircle
 62
9
  6
CONTINUOUS
 10
3.7672048944
 20
5.1283796926
 40
1.26875
  0
CIRCLE
  5
303
100
AcDbEntity
  8
ALL_ASSEMBLY_MEMBERS
100
AcDbCircle
 62
9
  6
CONTINUOUS
 10
3.7672048944
 20
5.1283796926
 40
1.193175482
  0
ARC
  5
304
100
AcDbEntity
  8
ALL_ASSEMBLY_MEMBERS
100
AcDbCircle
 62
9
  6
CONTINUOUS
 10
3.7672048944
 20
5.1283796926
 40
1.1170488108
100
AcDbArc
 50
277.2019420307
 51
262.7980579693
  0
ARC
  5
305
100
AcDbEntity
  8
ALL_ASSEMBLY_MEMBERS
100
AcDbCircle
 62
9
  6
CONTINUOUS
 10
3.7672048944
 20
5.1283796926
 40
1.0401261825
100
AcDbArc
 50
279.8110451811
 51
260.1889548189
  0
ARC
  5
306
100
AcDbEntity
  8
ALL_ASSEMBLY_MEMBERS
100
AcDbCircle
 62
9
  6
CONTINUOUS
 10
3.7672048944
 20
5.1283796926
 40
0.963752365
100
AcDbArc
 50
280.2043115408
 51
259.7956884592
  0
ARC
  5
307
100
AcDbEntity
  8
ALL_ASSEMBLY_MEMBERS
100
AcDbCircle
 62
7
  6
CONTINUOUS
 10
3.7672048944
 20
5.1283796926
 40
0.415625
100
AcDbArc
 50
287.3130790867
 51
252.6869361926
  0
CIRCLE
  5
308
100
AcDbEntity
  8
ALL_ASSEMBLY_MEMBERS
100
AcDbCircle
 62
7
  6
CONTINUOUS
 10
3.7672048944
 20
5.1283796926
 40
0.1715
  0
ARC
  5
309
100
AcDbEntity
  8
ALL_ASSEMBLY_MEMBERS
100
AcDbCircle
 62
7
  6
CONTINUOUS
 10
3.9282048944
 20
4.0433096926
 40
0.0105
100
AcDbArc
 50
270.0
 51
360.0
  0
ARC
  5
30A
100
AcDbEntity
  8
ALL_ASSEMBLY_MEMBERS
100
AcDbCircle
 62
7
  6
CONTINUOUS
 10
3.8967048944
 20
4.0120861975
 40
0.0105
100
AcDbArc
 50
290.5560452196
 51
359.9999999717
  0
ARC
  5
30B
100
AcDbEntity
  8
ALL_ASSEMBLY_MEMBERS
100
AcDbCircle
 62
7
  6
CONTINUOUS
 10
3.8652048944
 20
4.9120796926
 40
0.0175
100
AcDbArc
 50
270.0
 51
90.0
  0
ARC
  5
30C
100
AcDbEntity
  8
ALL_ASSEMBLY_MEMBERS
100
AcDbCircle
 62
7
  6
CONTINUOUS
 10
3.8485798944
 20
4.9470796926
 40
0.0175
100
AcDbArc
 50
180.0
 51
270.0
  0
LINE
  5
30D
100
AcDbEntity
  8
ALL_ASSEMBLY_MEMBERS
100
AcDbLine
 62
9
  6
CONTINUOUS
 10
3.7672048944
 20
3.9536922412
 11
3.7698118529
 21
3.9536922412
  0
LINE
  5
30E
100
AcDbEntity
  8
ALL_ASSEMBLY_MEMBERS
100
AcDbLine
 62
9
  6
CONTINUOUS
 10
3.7698118529
 20
3.9536922412
 11
3.7708916905
 21
3.9536922412
  0
LINE
  5
30F
100
AcDbEntity
  8
ALL_ASSEMBLY_MEMBERS
100
AcDbLine
 62
9
  6
CONTINUOUS
 10
3.7635180982
 20
3.9536922412
 11
3.7645979358
 21
3.9536922412
  0
LINE
  5
310
100
AcDbEntity
  8
ALL_ASSEMBLY_MEMBERS
100
AcDbLine
 62
9
  6
CONTINUOUS
 10
3.7645979358
 20
3.9536922412
 11
3.7672048944
 21
3.9536922412
  0
LINE
  5
311
100
AcDbEntity
  8
ALL_ASSEMBLY_MEMBERS
100
AcDbLine
 62
9
  6
CONTINUOUS
 10
3.8993118529
 20
4.0022547412
 11
3.9003916905
 21
4.0022547412
  0
SPLINE
  5
312
100
AcDbEntity
  8
ALL_ASSEMBLY_MEMBERS
100
AcDbSpline
 62
9
  6
CONTINUOUS
 70
0
 71
3
 72
14
 73
10
 74
0
 42
0.0000001
 43
0.0000001
 44
0.0000000001
 40
0.0
 40
0.0
 40
0.0
 40
0.0
 40
0.1064470759
 40
0.2186739866
 40
0.3369443883
 40
0.4612114757
 40
0.724333886
 40
0.861457983
 40
1.0
 40
1.0
 40
1.0
 40
1.0
 10
3.8993118529
 20
4.0022547412
 30
0.0
 10
3.8996707507
 20
4.0024450755
 30
0.0
 10
3.9003708412
 20
4.0029093738
 30
0.0
 10
3.9013085827
 20
4.0037970247
 30
0.0
 10
3.902139116
 20
4.004872812
 30
0.0
 10
3.9030964889
 20
4.0065539143
 30
0.0
 10
3.9037433329
 20
4.0084723532
 30
0.0
 10
3.904073042
 20
4.0105042744
 30
0.0
 10
3.9041295156
 20
4.0115574656
 30
0.0
 10
3.9041295156
 20
4.0120861975
 30
0.0
  0
LINE
  5
313
100
AcDbEntity
  8
ALL_ASSEMBLY_MEMBERS
100
AcDbLine
 62
9
  6
CONTINUOUS
 10
3.8208455507
 20
4.0022547412
 11
3.8234525092
 21
4.0022547412
  0
SPLINE
  5
314
100
AcDbEntity
  8
ALL_ASSEMBLY_MEMBERS
100
AcDbSpline
 62
9
  6
CONTINUOUS
 70
0
 71
3
 72
14
 73
10
 74
0
 42
0.0000001
 43
0.0000001
 44
0.0000000001
 40
0.0
 40
0.0
 40
0.0
 40
0.0
 40
0.1064471009
 40
0.218674106
 40
0.336944638
 40
0.4612118846
 40
0.7243345428
 40
0.8614582317
 40
1.0
 40
1.0
 40
1.0
 40
1.0
 10
3.8234525092
 20
4.0022547412
 30
0.0
 10
3.8238114072
 20
4.0024450755
 30
0.0
 10
3.8245114979
 20
4.0029093743
 30
0.0
 10
3.8254492401
 20
4.0037970258
 30
0.0
 10
3.8262797741
 20
4.0048728145
 30
0.0
 10
3.8272371473
 20
4.006553919
 30
0.0
 10
3.8278839896
 20
4.0084723582
 30
0.0
 10
3.8282136995
 20
4.0105042778
 30
0.0
 10
3.8282701719
 20
4.0115574665
 30
0.0
 10
3.8282701719
 20
4.0120861975
 30
0.0
  0
SPLINE
  5
315
100
AcDbEntity
  8
ALL_ASSEMBLY_MEMBERS
100
AcDbSpline
 62
9
  6
CONTINUOUS
 70
0
 71
3
 72
14
 73
10
 74
0
 42
0.0000001
 43
0.0000001
 44
0.0000000001
 40
0.0
 40
0.0
 40
0.0
 40
0.0
 40
0.1064471009
 40
0.218674106
 40
0.336944638
 40
0.4612118846
 40
0.7243345428
 40
0.8614582317
 40
1.0
 40
1.0
 40
1.0
 40
1.0
 10
3.6350979358
 20
4.0022547412
 30
0.0
 10
3.6347390379
 20
4.0024450755
 30
0.0
 10
3.6340389472
 20
4.0029093743
 30
0.0
 10
3.633101205
 20
4.0037970258
 30
0.0
 10
3.632270671
 20
4.0048728145
 30
0.0
 10
3.6313132978
 20
4.006553919
 30
0.0
 10
3.6306664555
 20
4.0084723582
 30
0.0
 10
3.6303367456
 20
4.0105042778
 30
0.0
 10
3.6302802732
 20
4.0115574665
 30
0.0
 10
3.6302802732
 20
4.0120861975
 30
0.0
  0
LINE
  5
316
100
AcDbEntity
  8
ALL_ASSEMBLY_MEMBERS
100
AcDbLine
 62
9
  6
CONTINUOUS
 10
3.6340180982
 20
4.0022547412
 11
3.6350979358
 21
4.0022547412
  0
SPLINE
  5
317
100
AcDbEntity
  8
ALL_ASSEMBLY_MEMBERS
100
AcDbSpline
 62
9
  6
CONTINUOUS
 70
0
 71
3
 72
14
 73
10
 74
0
 42
0.0000001
 43
0.0000001
 44
0.0000000001
 40
0.0
 40
0.0
 40
0.0
 40
0.0
 40
0.1064470759
 40
0.2186739866
 40
0.3369443883
 40
0.4612114757
 40
0.724333886
 40
0.861457983
 40
1.0
 40
1.0
 40
1.0
 40
1.0
 10
3.7109572795
 20
4.0022547412
 30
0.0
 10
3.7105983817
 20
4.0024450755
 30
0.0
 10
3.7098982913
 20
4.0029093738
 30
0.0
 10
3.7089605498
 20
4.0037970247
 30
0.0
 10
3.7081300164
 20
4.004872812
 30
0.0
 10
3.7071726436
 20
4.0065539143
 30
0.0
 10
3.7065257996
 20
4.0084723532
 30
0.0
 10
3.7061960904
 20
4.0105042744
 30
0.0
 10
3.7061396168
 20
4.0115574656
 30
0.0
 10
3.7061396168
 20
4.0120861975
 30
0.0
  0
LINE
  5
318
100
AcDbEntity
  8
ALL_ASSEMBLY_MEMBERS
100
AcDbLine
 62
9
  6
CONTINUOUS
 10
3.7109572795
 20
4.0022547412
 11
3.713564238
 21
4.0022547412
  0
LINE
  5
319
100
AcDbEntity
  8
ALL_ASSEMBLY_MEMBERS
100
AcDbLine
 62
7
  6
CONTINUOUS
 10
3.5657764013
 20
5.0120848979
 11
3.4126548944
 21
4.9236801547
  0
LINE
  5
31A
100
AcDbEntity
  8
ALL_ASSEMBLY_MEMBERS
100
AcDbLine
 62
7
  6
CONTINUOUS
 10
3.9686333874
 20
5.0120848979
 11
4.1217548944
 21
4.9236801547
  0
LINE
  5
31B
100
AcDbEntity
  8
ALL_ASSEMBLY_MEMBERS
100
AcDbLine
 62
7
  6
CONTINUOUS
 10
3.9686333874
 20
5.2446744873
 11
4.1217548944
 21
5.3330792305
  0
LINE
  5
31C
100
AcDbEntity
  8
ALL_ASSEMBLY_MEMBERS
100
AcDbLine
 62
7
  6
CONTINUOUS
 10
3.7672048944
 20
5.360969282
 11
3.7672048944
 21
5.5377787685
  0
LINE
  5
31D
100
AcDbEntity
  8
ALL_ASSEMBLY_MEMBERS
100
AcDbLine
 62
7
  6
CONTINUOUS
 10
3.5657764013
 20
5.2446744873
 11
3.4126548944
 21
5.3330792305
  0
SPLINE
  5
31E
100
AcDbEntity
  8
ALL_ASSEMBLY_MEMBERS
100
AcDbSpline
 62
7
  6
CONTINUOUS
 70
0
 71
3
 72
15
 73
11
 74
0
 42
0.0000001
 43
0.0000001
 44
0.0000000001
 40
0.0
 40
0.0
 40
0.0
 40
0.0
 40
0.0192249645
 40
0.0430808173
 40
0.076151502
 40
0.14231533
 40
0.227042257
 40
0.4444803911
 40
0.7097374304
 40
1.0
 40
1.0
 40
1.0
 40
1.0
 10
4.0297048944
 20
2.6783796926
 30
0.0
 10
4.029626454
 20
2.6761378174
 30
0.0
 10
4.0294586605
 20
2.6711137808
 30
0.0
 10
4.0291851146
 20
2.6622323316
 30
0.0
 10
4.028769501
 20
2.6478756807
 30
0.0
 10
4.0282035612
 20
2.6264177755
 30
0.0
 10
4.0271923785
 20
2.5834515882
 30
0.0
 10
4.0259400298
 20
2.5172539763
 30
0.0
 10
4.0247902977
 20
2.4270690465
 30
0.0
 10
4.0244548944
 20
2.3622486502
 30
0.0
 10
4.0244548944
 20
2.3283796926
 30
0.0
  0
SPLINE
  5
31F
100
AcDbEntity
  8
ALL_ASSEMBLY_MEMBERS
100
AcDbSpline
 62
7
  6
CONTINUOUS
 70
0
 71
3
 72
15
 73
11
 74
0
 42
0.0000001
 43
0.0000001
 44
0.0000000001
 40
0.0
 40
0.0
 40
0.0
 40
0.0
 40
0.0192249645
 40
0.0430808173
 40
0.076151502
 40
0.14231533
 40
0.227042257
 40
0.4444803911
 40
0.7097374304
 40
1.0
 40
1.0
 40
1.0
 40
1.0
 10
3.5047048944
 20
2.6783796926
 30
0.0
 10
3.5047833347
 20
2.6761378174
 30
0.0
 10
3.5049511283
 20
2.6711137808
 30
0.0
 10
3.5052246742
 20
2.6622323316
 30
0.0
 10
3.5056402878
 20
2.6478756807
 30
0.0
 10
3.5062062276
 20
2.6264177755
 30
0.0
 10
3.5072174103
 20
2.5834515882
 30
0.0
 10
3.5084697589
 20
2.5172539763
 30
0.0
 10
3.509619491
 20
2.4270690465
 30
0.0
 10
3.5099548944
 20
2.3622486502
 30
0.0
 10
3.5099548944
 20
2.3283796926
 30
0.0
  0
SPLINE
  5
320
100
AcDbEntity
  8
ALL_ASSEMBLY_MEMBERS
100
AcDbSpline
 62
9
  6
CONTINUOUS
 70
0
 71
3
 72
15
 73
11
 74
0
 42
0.0000001
 43
0.0000001
 44
0.0000000001
 40
0.0
 40
0.0
 40
0.0
 40
0.0
 40
0.1249961551
 40
0.2499965901
 40
0.3749981458
 40
0.4999999914
 40
0.6250018359
 40
0.7500034009
 40
0.8750038409
 40
1.0
 40
1.0
 40
1.0
 40
1.0
 10
3.9730081116
 20
3.038321501
 30
0.0
 10
3.9558584408
 20
3.0382627312
 30
0.0
 10
3.9215584785
 20
3.0381534163
 30
0.0
 10
3.8701079193
 20
3.0380540955
 30
0.0
 10
3.8186565153
 20
3.0380043464
 30
0.0
 10
3.7672048978
 20
3.037988057
 30
0.0
 10
3.7157532792
 20
3.038004394
 30
0.0
 10
3.6643018731
 20
3.0380538967
 30
0.0
 10
3.612851312
 20
3.0381535732
 30
0.0
 10
3.5785513482
 20
3.0382627886
 30
0.0
 10
3.5614016767
 20
3.038321501
 30
0.0
  0
SPLINE
  5
321
100
AcDbEntity
  8
ALL_ASSEMBLY_MEMBERS
100
AcDbSpline
 62
9
  6
CONTINUOUS
 70
0
 71
3
 72
13
 73
9
 74
0
 42
0.0000001
 43
0.0000001
 44
0.0000000001
 40
0.0
 40
0.0
 40
0.0
 40
0.0
 40
0.1249962009
 40
0.2499966271
 40
0.4999999933
 40
0.7500033587
 40
0.8750038007
 40
1.0
 40
1.0
 40
1.0
 40
1.0
 10
3.9730081015
 20
3.0383215011
 30
0.0
 10
3.9558584382
 20
3.0383804884
 30
0.0
 10
3.9215584108
 20
3.0384632639
 30
0.0
 10
3.8529573171
 20
3.038549726
 30
0.0
 10
3.7672048971
 20
3.0385769903
 30
0.0
 10
3.6814524749
 20
3.0385497818
 30
0.0
 10
3.6128513795
 20
3.0384632524
 30
0.0
 10
3.5785513499
 20
3.038380543
 30
0.0
 10
3.561401687
 20
3.0383215011
 30
0.0
  0
SPLINE
  5
322
100
AcDbEntity
  8
ALL_ASSEMBLY_MEMBERS
100
AcDbSpline
 62
9
  6
CONTINUOUS
 70
0
 71
3
 72
15
 73
11
 74
0
 42
0.0000001
 43
0.0000001
 44
0.0000000001
 40
0.0
 40
0.0
 40
0.0
 40
0.0
 40
0.1249961551
 40
0.2499965901
 40
0.3749981458
 40
0.4999999914
 40
0.6250018359
 40
0.7500034009
 40
0.8750038409
 40
1.0
 40
1.0
 40
1.0
 40
1.0
 10
4.181825253
 20
2.6801197825
 30
0.0
 10
4.1731995214
 20
2.6949424481
 30
0.0
 10
4.1559548708
 20
2.7245924294
 30
0.0
 10
4.1301435769
 20
2.7691002604
 30
0.0
 10
4.1043747908
 20
2.8136336086
 30
0.0
 10
4.0786348751
 20
2.8581838718
 30
0.0
 10
4.052923214
 20
2.9027504491
 30
0.0
 10
4.0272403815
 20
2.9473334252
 30
0.0
 10
4.0016014234
 20
2.9919407564
 30
0.0
 10
3.9845460248
 20
3.0217000041
 30
0.0
 10
3.9760220355
 20
3.0365814115
 30
0.0
  0
SPLINE
  5
323
100
AcDbEntity
  8
ALL_ASSEMBLY_MEMBERS
100
AcDbSpline
 62
9
  6
CONTINUOUS
 70
0
 71
3
 72
13
 73
9
 74
0
 42
0.0000001
 43
0.0000001
 44
0.0000000001
 40
0.0
 40
0.0
 40
0.0
 40
0.0
 40
0.1249962009
 40
0.2499966271
 40
0.4999999933
 40
0.7500033587
 40
0.8750038007
 40
1.0
 40
1.0
 40
1.0
 40
1.0
 10
4.181825248
 20
2.6801197913
 30
0.0
 10
4.1733015009
 20
2.695001329
 30
0.0
 10
4.1562231728
 20
2.7247474119
 30
0.0
 10
4.1219975043
 20
2.7842009328
 30
0.0
 10
4.079144906
 20
2.8584783391
 30
0.0
 10
4.0362451315
 20
2.9327285109
 30
0.0
 10
4.0018696472
 20
2.9920955375
 30
0.0
 10
3.984648004
 20
3.0217588798
 30
0.0
 10
3.9760220407
 20
3.0365814026
 30
0.0
  0
SPLINE
  5
324
100
AcDbEntity
  8
ALL_ASSEMBLY_MEMBERS
100
AcDbSpline
 62
9
  6
CONTINUOUS
 70
0
 71
3
 72
12
 73
8
 74
0
 42
0.0000001
 43
0.0000001
 44
0.0000000001
 40
0.0
 40
0.0
 40
0.0
 40
0.0
 40
0.2500020435
 40
0.5000046053
 40
0.6250056881
 40
0.7500061879
 40
1.0
 40
1.0
 40
1.0
 40
1.0
 10
4.0247462596
 20
2.405074261
 30
0.0
 10
4.0377835584
 20
2.4277353347
 30
0.0
 10
4.0638898362
 20
2.473039319
 30
0.0
 10
4.0965756444
 20
2.5296387312
 30
0.0
 10
4.1227588486
 20
2.5748982311
 30
0.0
 10
4.1489686746
 20
2.6201412668
 30
0.0
 10
4.1686763778
 20
2.6540440838
 30
0.0
 10
4.1818252532
 20
2.6766396031
 30
0.0
  0
SPLINE
  5
325
100
AcDbEntity
  8
ALL_ASSEMBLY_MEMBERS
100
AcDbSpline
 62
9
  6
CONTINUOUS
 70
0
 71
3
 72
11
 73
7
 74
0
 42
0.0000001
 43
0.0000001
 44
0.0000000001
 40
0.0
 40
0.0
 40
0.0
 40
0.0
 40
0.2500019678
 40
0.5000046054
 40
0.7500060846
 40
1.0
 40
1.0
 40
1.0
 40
1.0
 10
4.0247401893
 20
2.4041691818
 30
0.0
 10
4.0378679195
 20
2.426853754
 30
0.0
 10
4.0641001875
 20
2.4722364002
 30
0.0
 10
4.1034099645
 20
2.5403325772
 30
0.0
 10
4.142677021
 20
2.6084524148
 30
0.0
 10
4.1687992408
 20
2.6538974306
 30
0.0
 10
4.1818252481
 20
2.6766395941
 30
0.0
  0
SPLINE
  5
326
100
AcDbEntity
  8
ALL_ASSEMBLY_MEMBERS
100
AcDbSpline
 62
9
  6
CONTINUOUS
 70
0
 71
3
 72
12
 73
8
 74
0
 42
0.0000001
 43
0.0000001
 44
0.0000000001
 40
0.0
 40
0.0
 40
0.0
 40
0.0
 40
0.2499938042
 40
0.3749943025
 40
0.4999953761
 40
0.7499979409
 40
1.0
 40
1.0
 40
1.0
 40
1.0
 10
3.3525845358
 20
2.6766396027
 30
0.0
 10
3.3657334856
 20
2.6540441296
 30
0.0
 10
3.3854411165
 20
2.6201412742
 30
0.0
 10
3.4116508117
 20
2.5748981686
 30
0.0
 10
3.437834212
 20
2.5296387867
 30
0.0
 10
3.4705198779
 20
2.4730392958
 30
0.0
 10
3.4966263407
 20
2.4277354193
 30
0.0
 10
3.5096635992
 20
2.4050743224
 30
0.0
  0
SPLINE
  5
327
100
AcDbEntity
  8
ALL_ASSEMBLY_MEMBERS
100
AcDbSpline
 62
9
  6
CONTINUOUS
 70
0
 71
3
 72
11
 73
7
 74
0
 42
0.0000001
 43
0.0000001
 44
0.0000000001
 40
0.0
 40
0.0
 40
0.0
 40
0.0
 40
0.2499939064
 40
0.4999953813
 40
0.7499980255
 40
1.0
 40
1.0
 40
1.0
 40
1.0
 10
3.3525845408
 20
2.676639594
 30
0.0
 10
3.3656106353
 20
2.653897446
 30
0.0
 10
3.3917327793
 20
2.6084523174
 30
0.0
 10
3.4309999276
 20
2.5403324268
 30
0.0
 10
3.4703097274
 20
2.4722361553
 30
0.0
 10
3.4965419899
 20
2.4268534332
 30
0.0
 10
3.5096697648
 20
2.4041688503
 30
0.0
  0
SPLINE
  5
328
100
AcDbEntity
  8
ALL_ASSEMBLY_MEMBERS
100
AcDbSpline
 62
9
  6
CONTINUOUS
 70
0
 71
3
 72
15
 73
11
 74
0
 42
0.0000001
 43
0.0000001
 44
0.0000000001
 40
0.0
 40
0.0
 40
0.0
 40
0.0
 40
0.1249961551
 40
0.2499965901
 40
0.3749981458
 40
0.4999999914
 40
0.6250018359
 40
0.7500034009
 40
0.8750038409
 40
1.0
 40
1.0
 40
1.0
 40
1.0
 10
3.558387753
 20
3.0365814111
 30
0.0
 10
3.5498638138
 20
3.0216999757
 30
0.0
 10
3.5328085021
 20
2.9919406795
 30
0.0
 10
3.5071692368
 20
2.9473335278
 30
0.0
 10
3.4814866189
 20
2.9027504303
 30
0.0
 10
3.4557749171
 20
2.8581838778
 30
0.0
 10
3.4300349595
 20
2.8136336374
 30
0.0
 10
3.4042663859
 20
2.769100164
 30
0.0
 10
3.378454783
 20
2.7245925094
 30
0.0
 10
3.3612102178
 20
2.6949424771
 30
0.0
 10
3.3525845356
 20
2.6801197821
 30
0.0
  0
SPLINE
  5
329
100
AcDbEntity
  8
ALL_ASSEMBLY_MEMBERS
100
AcDbSpline
 62
9
  6
CONTINUOUS
 70
0
 71
3
 72
13
 73
9
 74
0
 42
0.0000001
 43
0.0000001
 44
0.0000000001
 40
0.0
 40
0.0
 40
0.0
 40
0.0
 40
0.1249962009
 40
0.2499966271
 40
0.4999999933
 40
0.7500033587
 40
0.8750038007
 40
1.0
 40
1.0
 40
1.0
 40
1.0
 10
3.5583877479
 20
3.0365814024
 30
0.0
 10
3.5497618317
 20
3.021758852
 30
0.0
 10
3.5325401324
 20
2.9920955446
 30
0.0
 10
3.4981647072
 20
2.9327284858
 30
0.0
 10
3.4552648855
 20
2.8584783439
 30
0.0
 10
3.4124122377
 20
2.7842009635
 30
0.0
 10
3.3781866267
 20
2.7247474074
 30
0.0
 10
3.3611082403
 20
2.6950013558
 30
0.0
 10
3.3525845407
 20
2.6801197911
 30
0.0
  0
LINE
  5
32A
100
AcDbEntity
  8
ALL_ASSEMBLY_MEMBERS
100
AcDbLine
 62
7
  6
CONTINUOUS
 10
3.3515798944
 20
2.6783796926
 11
3.277205129
 21
2.6783796926
  0
LINE
  5
32B
100
AcDbEntity
  8
ALL_ASSEMBLY_MEMBERS
100
AcDbLine
 62
7
  6
CONTINUOUS
 10
4.1828298944
 20
2.6783796926
 11
4.2572046597
 21
2.6783796926
  0
LINE
  5
32C
100
AcDbEntity
  8
ALL_ASSEMBLY_MEMBERS
100
AcDbLine
 62
7
  6
CONTINUOUS
 10
3.9750173944
 20
3.0383215011
 11
4.0122047771
 21
3.1027319373
  0
LINE
  5
32D
100
AcDbEntity
  8
ALL_ASSEMBLY_MEMBERS
100
AcDbLine
 62
7
  6
CONTINUOUS
 10
3.5222050117
 20
3.1027319373
 11
3.5593923944
 21
3.0383215011
  0
SPLINE
  5
32E
100
AcDbEntity
  8
ALL_ASSEMBLY_MEMBERS
100
AcDbSpline
 62
7
  6
CONTINUOUS
 70
0
 71
3
 72
14
 73
10
 74
0
 42
0.0000001
 43
0.0000001
 44
0.0000000001
 40
0.0
 40
0.0
 40
0.0
 40
0.0
 40
0.018372779
 40
0.0728625942
 40
0.1617593926
 40
0.2823823711
 40
0.4311656257
 40
0.6037673084
 40
1.0
 40
1.0
 40
1.0
 40
1.0
 10
3.8984548944
 20
2.9057113611
 30
0.0
 10
3.8984258962
 20
2.9029274888
 30
0.0
 10
3.89831447
 20
2.8918871987
 30
0.0
 10
3.8980933314
 20
2.8673768262
 30
0.0
 10
3.8977667662
 20
2.827372842
 30
0.0
 10
3.8973763662
 20
2.77308066
 30
0.0
 10
3.8969590466
 20
2.7061045895
 30
0.0
 10
3.8963931438
 20
2.5973656173
 30
0.0
 10
3.8960924092
 20
2.5111706742
 30
0.0
 10
3.8959650079
 20
2.4511297603
 30
0.0
  0
SPLINE
  5
32F
100
AcDbEntity
  8
ALL_ASSEMBLY_MEMBERS
100
AcDbSpline
 62
7
  6
CONTINUOUS
 70
0
 71
3
 72
14
 73
10
 74
0
 42
0.0000001
 43
0.0000001
 44
0.0000000001
 40
0.0
 40
0.0
 40
0.0
 40
0.0
 40
0.018372779
 40
0.0728625942
 40
0.1617593926
 40
0.2823823711
 40
0.4311656257
 40
0.6037673084
 40
1.0
 40
1.0
 40
1.0
 40
1.0
 10
3.6359548944
 20
2.9057113611
 30
0.0
 10
3.6359838926
 20
2.9029274888
 30
0.0
 10
3.6360953187
 20
2.8918871987
 30
0.0
 10
3.6363164573
 20
2.8673768262
 30
0.0
 10
3.6366430225
 20
2.827372842
 30
0.0
 10
3.6370334226
 20
2.77308066
 30
0.0
 10
3.6374507421
 20
2.7061045895
 30
0.0
 10
3.6380166449
 20
2.5973656173
 30
0.0
 10
3.6383173795
 20
2.5111706742
 30
0.0
 10
3.6384447809
 20
2.4511297603
 30
0.0
  0
SPLINE
  5
330
100
AcDbEntity
  8
ALL_ASSEMBLY_MEMBERS
100
AcDbSpline
 62
7
  6
CONTINUOUS
 70
0
 71
3
 72
8
 73
4
 74
0
 42
0.0000001
 43
0.0000001
 44
0.0000000001
 40
0.0
 40
0.0
 40
0.0
 40
0.0
 40
1.0
 40
1.0
 40
1.0
 40
1.0
 10
3.7720300612
 20
5.857413265
 30
0.0
 10
3.7826053502
 20
5.857413265
 30
0.0
 10
3.7907165004
 20
5.8610581477
 30
0.0
 10
3.7964148346
 20
5.8684505859
 30
0.0
  0
SPLINE
  5
331
100
AcDbEntity
  8
ALL_ASSEMBLY_MEMBERS
100
AcDbSpline
 62
7
  6
CONTINUOUS
 70
0
 71
3
 72
8
 73
4
 74
0
 42
0.0000001
 43
0.0000001
 44
0.0000000001
 40
0.0
 40
0.0
 40
0.0
 40
0.0
 40
1.0
 40
1.0
 40
1.0
 40
1.0
 10
3.7964148346
 20
5.8684505859
 30
0.0
 10
3.802113169
 20
5.8758430243
 30
0.0
 10
3.8049880116
 20
5.8863156455
 30
0.0
 10
3.8049880116
 20
5.8999711196
 30
0.0
  0
SPLINE
  5
332
100
AcDbEntity
  8
ALL_ASSEMBLY_MEMBERS
100
AcDbSpline
 62
7
  6
CONTINUOUS
 70
0
 71
3
 72
8
 73
4
 74
0
 42
0.0000001
 43
0.0000001
 44
0.0000000001
 40
0.0
 40
0.0
 40
0.0
 40
0.0
 40
1.0
 40
1.0
 40
1.0
 40
1.0
 10
3.8049880116
 20
5.8999711196
 30
0.0
 10
3.8049880116
 20
5.913472588
 30
0.0
 10
3.8022671841
 20
5.9232778342
 30
0.0
 10
3.7969131062
 20
5.9296822329
 30
0.0
  0
SPLINE
  5
333
100
AcDbEntity
  8
ALL_ASSEMBLY_MEMBERS
100
AcDbSpline
 62
7
  6
CONTINUOUS
 70
0
 71
3
 72
8
 73
4
 74
0
 42
0.0000001
 43
0.0000001
 44
0.0000000001
 40
0.0
 40
0.0
 40
0.0
 40
0.0
 40
1.0
 40
1.0
 40
1.0
 40
1.0
 10
3.7969131062
 20
5.9296822329
 30
0.0
 10
3.79153788
 20
5.9361119288
 30
0.0
 10
3.7832213919
 20
5.9393461196
 30
0.0
 10
3.7720300612
 20
5.9393461196
 30
0.0
  0
SPLINE
  5
334
100
AcDbEntity
  8
ALL_ASSEMBLY_MEMBERS
100
AcDbSpline
 62
7
  6
CONTINUOUS
 70
0
 71
3
 72
8
 73
4
 74
0
 42
0.0000001
 43
0.0000001
 44
0.0000000001
 40
0.0
 40
0.0
 40
0.0
 40
0.0
 40
1.0
 40
1.0
 40
1.0
 40
1.0
 10
3.7720300612
 20
5.9393461196
 30
0.0
 10
3.7615061043
 20
5.9393461196
 30
0.0
 10
3.753394954
 20
5.9359065815
 30
0.0
 10
3.7476815594
 20
5.9290915009
 30
0.0
  0
SPLINE
  5
335
100
AcDbEntity
  8
ALL_ASSEMBLY_MEMBERS
100
AcDbSpline
 62
7
  6
CONTINUOUS
 70
0
 71
3
 72
8
 73
4
 74
0
 42
0.0000001
 43
0.0000001
 44
0.0000000001
 40
0.0
 40
0.0
 40
0.0
 40
0.0
 40
1.0
 40
1.0
 40
1.0
 40
1.0
 10
3.7476815594
 20
5.9290915009
 30
0.0
 10
3.741946944
 20
5.9222511074
 30
0.0
 10
3.7391234429
 20
5.9125485301
 30
0.0
 10
3.7391234429
 20
5.8999711196
 30
0.0
  0
SPLINE
  5
336
100
AcDbEntity
  8
ALL_ASSEMBLY_MEMBERS
100
AcDbSpline
 62
7
  6
CONTINUOUS
 70
0
 71
3
 72
8
 73
4
 74
0
 42
0.0000001
 43
0.0000001
 44
0.0000000001
 40
0.0
 40
0.0
 40
0.0
 40
0.0
 40
1.0
 40
1.0
 40
1.0
 40
1.0
 10
3.7391234429
 20
5.8999711196
 30
0.0
 10
3.7391234429
 20
5.8863156455
 30
0.0
 10
3.741946944
 20
5.8758430243
 30
0.0
 10
3.7476805576
 20
5.8684381767
 30
0.0
  0
SPLINE
  5
337
100
AcDbEntity
  8
ALL_ASSEMBLY_MEMBERS
100
AcDbSpline
 62
7
  6
CONTINUOUS
 70
0
 71
3
 72
8
 73
4
 74
0
 42
0.0000001
 43
0.0000001
 44
0.0000000001
 40
0.0
 40
0.0
 40
0.0
 40
0.0
 40
1.0
 40
1.0
 40
1.0
 40
1.0
 10
3.7476805576
 20
5.8684381767
 30
0.0
 10
3.753394954
 20
5.8610581477
 30
0.0
 10
3.7615061043
 20
5.857413265
 30
0.0
 10
3.7720300612
 20
5.857413265
 30
0.0
  0
SPLINE
  5
338
100
AcDbEntity
  8
ALL_ASSEMBLY_MEMBERS
100
AcDbSpline
 62
7
  6
CONTINUOUS
 70
0
 71
3
 72
8
 73
4
 74
0
 42
0.0000001
 43
0.0000001
 44
0.0000000001
 40
0.0
 40
0.0
 40
0.0
 40
0.0
 40
1.0
 40
1.0
 40
1.0
 40
1.0
 10
3.7720300612
 20
5.8676292039
 30
0.0
 10
3.765150985
 20
5.8676292039
 30
0.0
 10
3.7598120037
 20
5.8702986958
 30
0.0
 10
3.7560983149
 20
5.875728363
 30
0.0
  0
SPLINE
  5
339
100
AcDbEntity
  8
ALL_ASSEMBLY_MEMBERS
100
AcDbSpline
 62
7
  6
CONTINUOUS
 70
0
 71
3
 72
8
 73
4
 74
0
 42
0.0000001
 43
0.0000001
 44
0.0000000001
 40
0.0
 40
0.0
 40
0.0
 40
0.0
 40
1.0
 40
1.0
 40
1.0
 40
1.0
 10
3.7560983149
 20
5.875728363
 30
0.0
 10
3.7523682272
 20
5.8811820068
 30
0.0
 10
3.7505201115
 20
5.8888824625
 30
0.0
 10
3.7505201115
 20
5.898893056
 30
0.0
  0
SPLINE
  5
33A
100
AcDbEntity
  8
ALL_ASSEMBLY_MEMBERS
100
AcDbSpline
 62
7
  6
CONTINUOUS
 70
0
 71
3
 72
8
 73
4
 74
0
 42
0.0000001
 43
0.0000001
 44
0.0000000001
 40
0.0
 40
0.0
 40
0.0
 40
0.0
 40
1.0
 40
1.0
 40
1.0
 40
1.0
 10
3.7505201115
 20
5.898893056
 30
0.0
 10
3.7505201115
 20
5.908133602
 30
0.0
 10
3.7523682272
 20
5.9152693623
 30
0.0
 10
3.7560991724
 20
5.9203125676
 30
0.0
  0
SPLINE
  5
33B
100
AcDbEntity
  8
ALL_ASSEMBLY_MEMBERS
100
AcDbSpline
 62
7
  6
CONTINUOUS
 70
0
 71
3
 72
8
 73
4
 74
0
 42
0.0000001
 43
0.0000001
 44
0.0000000001
 40
0.0
 40
0.0
 40
0.0
 40
0.0
 40
1.0
 40
1.0
 40
1.0
 40
1.0
 10
3.7560991724
 20
5.9203125676
 30
0.0
 10
3.7598120037
 20
5.9253312878
 30
0.0
 10
3.765150985
 20
5.9278467728
 30
0.0
 10
3.7720300612
 20
5.9278467728
 30
0.0
  0
SPLINE
  5
33C
100
AcDbEntity
  8
ALL_ASSEMBLY_MEMBERS
100
AcDbSpline
 62
7
  6
CONTINUOUS
 70
0
 71
3
 72
8
 73
4
 74
0
 42
0.0000001
 43
0.0000001
 44
0.0000000001
 40
0.0
 40
0.0
 40
0.0
 40
0.0
 40
1.0
 40
1.0
 40
1.0
 40
1.0
 10
3.7720300612
 20
5.9278467728
 30
0.0
 10
3.7796278433
 20
5.9278467728
 30
0.0
 10
3.7851721719
 20
5.9255366351
 30
0.0
 10
3.7885603732
 20
5.9210190334
 30
0.0
  0
SPLINE
  5
33D
100
AcDbEntity
  8
ALL_ASSEMBLY_MEMBERS
100
AcDbSpline
 62
7
  6
CONTINUOUS
 70
0
 71
3
 72
8
 73
4
 74
0
 42
0.0000001
 43
0.0000001
 44
0.0000000001
 40
0.0
 40
0.0
 40
0.0
 40
0.0
 40
1.0
 40
1.0
 40
1.0
 40
1.0
 10
3.7885603732
 20
5.9210190334
 30
0.0
 10
3.7919485745
 20
5.9165014316
 30
0.0
 10
3.7935913336
 20
5.9091089967
 30
0.0
 10
3.7935913336
 20
5.898893056
 30
0.0
  0
SPLINE
  5
33E
100
AcDbEntity
  8
ALL_ASSEMBLY_MEMBERS
100
AcDbSpline
 62
7
  6
CONTINUOUS
 70
0
 71
3
 72
8
 73
4
 74
0
 42
0.0000001
 43
0.0000001
 44
0.0000000001
 40
0.0
 40
0.0
 40
0.0
 40
0.0
 40
1.0
 40
1.0
 40
1.0
 40
1.0
 10
3.7935913336
 20
5.898893056
 30
0.0
 10
3.7935913336
 20
5.8888824625
 30
0.0
 10
3.7916918857
 20
5.8811820068
 30
0.0
 10
3.7879782026
 20
5.8757523409
 30
0.0
  0
SPLINE
  5
33F
100
AcDbEntity
  8
ALL_ASSEMBLY_MEMBERS
100
AcDbSpline
 62
7
  6
CONTINUOUS
 70
0
 71
3
 72
8
 73
4
 74
0
 42
0.0000001
 43
0.0000001
 44
0.0000000001
 40
0.0
 40
0.0
 40
0.0
 40
0.0
 40
1.0
 40
1.0
 40
1.0
 40
1.0
 10
3.7879782026
 20
5.8757523409
 30
0.0
 10
3.7842481187
 20
5.8702986958
 30
0.0
 10
3.778909128
 20
5.8676292039
 30
0.0
 10
3.7720300612
 20
5.8676292039
 30
0.0
  0
SPLINE
  5
340
100
AcDbEntity
  8
ALL_ASSEMBLY_MEMBERS
100
AcDbSpline
 62
7
  6
CONTINUOUS
 70
0
 71
3
 72
8
 73
4
 74
0
 42
0.0000001
 43
0.0000001
 44
0.0000000001
 40
0.0
 40
0.0
 40
0.0
 40
0.0
 40
1.0
 40
1.0
 40
1.0
 40
1.0
 10
4.3056901683
 20
5.553181356
 30
0.0
 10
4.3136473034
 20
5.5532326904
 30
0.0
 10
4.3197050001
 20
5.5552348096
 30
0.0
 10
4.3237990541
 20
5.5592521029
 30
0.0
  0
SPLINE
  5
341
100
AcDbEntity
  8
ALL_ASSEMBLY_MEMBERS
100
AcDbSpline
 62
7
  6
CONTINUOUS
 70
0
 71
3
 72
8
 73
4
 74
0
 42
0.0000001
 43
0.0000001
 44
0.0000000001
 40
0.0
 40
0.0
 40
0.0
 40
0.0
 40
1.0
 40
1.0
 40
1.0
 40
1.0
 10
4.3237990541
 20
5.5592521029
 30
0.0
 10
4.3279188146
 20
5.5632946207
 30
0.0
 10
4.3300236003
 20
5.5694036495
 30
0.0
 10
4.3300236003
 20
5.577514795
 30
0.0
  0
SPLINE
  5
342
100
AcDbEntity
  8
ALL_ASSEMBLY_MEMBERS
100
AcDbSpline
 62
7
  6
CONTINUOUS
 70
0
 71
3
 72
8
 73
4
 74
0
 42
0.0000001
 43
0.0000001
 44
0.0000000001
 40
0.0
 40
0.0
 40
0.0
 40
0.0
 40
1.0
 40
1.0
 40
1.0
 40
1.0
 10
4.3300236003
 20
5.577514795
 30
0.0
 10
4.3300236003
 20
5.5841371872
 30
0.0
 10
4.3280214788
 20
5.589270826
 30
0.0
 10
4.3241082418
 20
5.5928515716
 30
0.0
  0
SPLINE
  5
343
100
AcDbEntity
  8
ALL_ASSEMBLY_MEMBERS
100
AcDbSpline
 62
7
  6
CONTINUOUS
 70
0
 71
3
 72
8
 73
4
 74
0
 42
0.0000001
 43
0.0000001
 44
0.0000000001
 40
0.0
 40
0.0
 40
0.0
 40
0.0
 40
1.0
 40
1.0
 40
1.0
 40
1.0
 10
4.3241082418
 20
5.5928515716
 30
0.0
 10
4.3201670267
 20
5.5964579183
 30
0.0
 10
4.3145713566
 20
5.5982546926
 30
0.0
 10
4.3072815953
 20
5.5982546926
 30
0.0
  0
SPLINE
  5
344
100
AcDbEntity
  8
ALL_ASSEMBLY_MEMBERS
100
AcDbSpline
 62
7
  6
CONTINUOUS
 70
0
 71
3
 72
8
 73
4
 74
0
 42
0.0000001
 43
0.0000001
 44
0.0000000001
 40
0.0
 40
0.0
 40
0.0
 40
0.0
 40
1.0
 40
1.0
 40
1.0
 40
1.0
 10
4.306100844
 20
5.5867553457
 30
0.0
 10
4.310105087
 20
5.5867553457
 30
0.0
 10
4.3131852768
 20
5.585779951
 30
0.0
 10
4.3153413989
 20
5.5838291757
 30
0.0
  0
SPLINE
  5
345
100
AcDbEntity
  8
ALL_ASSEMBLY_MEMBERS
100
AcDbSpline
 62
7
  6
CONTINUOUS
 70
0
 71
3
 72
8
 73
4
 74
0
 42
0.0000001
 43
0.0000001
 44
0.0000000001
 40
0.0
 40
0.0
 40
0.0
 40
0.0
 40
1.0
 40
1.0
 40
1.0
 40
1.0
 10
4.3153413989
 20
5.5838291757
 30
0.0
 10
4.3174975313
 20
5.581878391
 30
0.0
 10
4.3186269318
 20
5.5791575589
 30
0.0
 10
4.3186269318
 20
5.575564015
 30
0.0
  0
SPLINE
  5
346
100
AcDbEntity
  8
ALL_ASSEMBLY_MEMBERS
100
AcDbSpline
 62
7
  6
CONTINUOUS
 70
0
 71
3
 72
8
 73
4
 74
0
 42
0.0000001
 43
0.0000001
 44
0.0000000001
 40
0.0
 40
0.0
 40
0.0
 40
0.0
 40
1.0
 40
1.0
 40
1.0
 40
1.0
 10
4.3186269318
 20
5.575564015
 30
0.0
 10
4.3186269318
 20
5.5705330499
 30
0.0
 10
4.3173435162
 20
5.5668881692
 30
0.0
 10
4.3147894519
 20
5.5646661357
 30
0.0
  0
SPLINE
  5
347
100
AcDbEntity
  8
ALL_ASSEMBLY_MEMBERS
100
AcDbSpline
 62
7
  6
CONTINUOUS
 70
0
 71
3
 72
8
 73
4
 74
0
 42
0.0000001
 43
0.0000001
 44
0.0000000001
 40
0.0
 40
0.0
 40
0.0
 40
0.0
 40
1.0
 40
1.0
 40
1.0
 40
1.0
 10
4.3147894519
 20
5.5646661357
 30
0.0
 10
4.3122098728
 20
5.5624219043
 30
0.0
 10
4.3080003013
 20
5.5613438407
 30
0.0
 10
4.302199284
 20
5.5613438407
 30
0.0
  0
SPLINE
  5
348
100
AcDbEntity
  8
ALL_ASSEMBLY_MEMBERS
100
AcDbSpline
 62
7
  6
CONTINUOUS
 70
0
 71
3
 72
8
 73
4
 74
0
 42
0.0000001
 43
0.0000001
 44
0.0000000001
 40
0.0
 40
0.0
 40
0.0
 40
0.0
 40
1.0
 40
1.0
 40
1.0
 40
1.0
 10
4.2190840975
 20
4.6805279987
 30
0.0
 10
4.2144638268
 20
4.6754456967
 30
0.0
 10
4.2104595885
 20
4.671954823
 30
0.0
 10
4.207167466
 20
4.6700152778
 30
0.0
  0
SPLINE
  5
349
100
AcDbEntity
  8
ALL_ASSEMBLY_MEMBERS
100
AcDbSpline
 62
7
  6
CONTINUOUS
 70
0
 71
3
 72
8
 73
4
 74
0
 42
0.0000001
 43
0.0000001
 44
0.0000000001
 40
0.0
 40
0.0
 40
0.0
 40
0.0
 40
1.0
 40
1.0
 40
1.0
 40
1.0
 10
4.207167466
 20
4.6700152778
 30
0.0
 10
4.2038371963
 20
4.6680532583
 30
0.0
 10
4.2001409789
 20
4.6671292039
 30
0.0
 10
4.1960854037
 20
4.6671292039
 30
0.0
  0
SPLINE
  5
34A
100
AcDbEntity
  8
ALL_ASSEMBLY_MEMBERS
100
AcDbSpline
 62
7
  6
CONTINUOUS
 70
0
 71
3
 72
8
 73
4
 74
0
 42
0.0000001
 43
0.0000001
 44
0.0000000001
 40
0.0
 40
0.0
 40
0.0
 40
0.0
 40
1.0
 40
1.0
 40
1.0
 40
1.0
 10
4.1960854037
 20
4.6671292039
 30
0.0
 10
4.1893603379
 20
4.6671292039
 30
0.0
 10
4.1841753647
 20
4.6697986958
 30
0.0
 10
4.1805128596
 20
4.6752284225
 30
0.0
  0
SPLINE
  5
34B
100
AcDbEntity
  8
ALL_ASSEMBLY_MEMBERS
100
AcDbSpline
 62
7
  6
CONTINUOUS
 70
0
 71
3
 72
8
 73
4
 74
0
 42
0.0000001
 43
0.0000001
 44
0.0000000001
 40
0.0
 40
0.0
 40
0.0
 40
0.0
 40
1.0
 40
1.0
 40
1.0
 40
1.0
 10
4.1805128596
 20
4.6752284225
 30
0.0
 10
4.1768342619
 20
4.6806820068
 30
0.0
 10
4.1750374888
 20
4.6883824625
 30
0.0
 10
4.1750374888
 20
4.698393056
 30
0.0
  0
SPLINE
  5
34C
100
AcDbEntity
  8
ALL_ASSEMBLY_MEMBERS
100
AcDbSpline
 62
7
  6
CONTINUOUS
 70
0
 71
3
 72
8
 73
4
 74
0
 42
0.0000001
 43
0.0000001
 44
0.0000000001
 40
0.0
 40
0.0
 40
0.0
 40
0.0
 40
1.0
 40
1.0
 40
1.0
 40
1.0
 10
4.1750374888
 20
4.698393056
 30
0.0
 10
4.1750374888
 20
4.707633602
 30
0.0
 10
4.1768342619
 20
4.7147693623
 30
0.0
 10
4.1805137087
 20
4.7198125173
 30
0.0
  0
SPLINE
  5
34D
100
AcDbEntity
  8
ALL_ASSEMBLY_MEMBERS
100
AcDbSpline
 62
7
  6
CONTINUOUS
 70
0
 71
3
 72
8
 73
4
 74
0
 42
0.0000001
 43
0.0000001
 44
0.0000000001
 40
0.0
 40
0.0
 40
0.0
 40
0.0
 40
1.0
 40
1.0
 40
1.0
 40
1.0
 10
4.1805137087
 20
4.7198125173
 30
0.0
 10
4.1841753647
 20
4.7248312878
 30
0.0
 10
4.1893603379
 20
4.7273467728
 30
0.0
 10
4.1960854037
 20
4.7273467728
 30
0.0
  0
SPLINE
  5
34E
100
AcDbEntity
  8
ALL_ASSEMBLY_MEMBERS
100
AcDbSpline
 62
7
  6
CONTINUOUS
 70
0
 71
3
 72
8
 73
4
 74
0
 42
0.0000001
 43
0.0000001
 44
0.0000000001
 40
0.0
 40
0.0
 40
0.0
 40
0.0
 40
1.0
 40
1.0
 40
1.0
 40
1.0
 10
4.1960854037
 20
4.7273467728
 30
0.0
 10
4.2011163689
 20
4.7273467728
 30
0.0
 10
4.2056339706
 20
4.7261660355
 30
0.0
 10
4.2096382058
 20
4.7238045638
 30
0.0
  0
SPLINE
  5
34F
100
AcDbEntity
  8
ALL_ASSEMBLY_MEMBERS
100
AcDbSpline
 62
7
  6
CONTINUOUS
 70
0
 71
3
 72
8
 73
4
 74
0
 42
0.0000001
 43
0.0000001
 44
0.0000000001
 40
0.0
 40
0.0
 40
0.0
 40
0.0
 40
1.0
 40
1.0
 40
1.0
 40
1.0
 10
4.2096382058
 20
4.7238045638
 30
0.0
 10
4.2136424425
 20
4.7214430912
 30
0.0
 10
4.2167739645
 20
4.7181062268
 30
0.0
 10
4.2190840975
 20
4.7137939676
 30
0.0
  0
SPLINE
  5
350
100
AcDbEntity
  8
ALL_ASSEMBLY_MEMBERS
100
AcDbSpline
 62
7
  6
CONTINUOUS
 70
0
 71
3
 72
8
 73
4
 74
0
 42
0.0000001
 43
0.0000001
 44
0.0000000001
 40
0.0
 40
0.0
 40
0.0
 40
0.0
 40
1.0
 40
1.0
 40
1.0
 40
1.0
 10
4.2190840975
 20
4.7294002264
 30
0.0
 10
4.2164146068
 20
4.7325830804
 30
0.0
 10
4.2131804159
 20
4.7349445549
 30
0.0
 10
4.209278852
 20
4.7364846472
 30
0.0
  0
SPLINE
  5
351
100
AcDbEntity
  8
ALL_ASSEMBLY_MEMBERS
100
AcDbSpline
 62
7
  6
CONTINUOUS
 70
0
 71
3
 72
8
 73
4
 74
0
 42
0.0000001
 43
0.0000001
 44
0.0000000001
 40
0.0
 40
0.0
 40
0.0
 40
0.0
 40
1.0
 40
1.0
 40
1.0
 40
1.0
 10
4.209278852
 20
4.7364846472
 30
0.0
 10
4.2053772865
 20
4.7380247401
 30
0.0
 10
4.200808348
 20
4.7388461196
 30
0.0
 10
4.1955207035
 20
4.7388461196
 30
0.0
  0
SPLINE
  5
352
100
AcDbEntity
  8
ALL_ASSEMBLY_MEMBERS
100
AcDbSpline
 62
7
  6
CONTINUOUS
 70
0
 71
3
 72
8
 73
4
 74
0
 42
0.0000001
 43
0.0000001
 44
0.0000000001
 40
0.0
 40
0.0
 40
0.0
 40
0.0
 40
1.0
 40
1.0
 40
1.0
 40
1.0
 10
4.1955207035
 20
4.7388461196
 30
0.0
 10
4.1853047652
 20
4.7388461196
 30
0.0
 10
4.1774502989
 20
4.7354065815
 30
0.0
 10
4.1719059714
 20
4.728578846
 30
0.0
  0
SPLINE
  5
353
100
AcDbEntity
  8
ALL_ASSEMBLY_MEMBERS
100
AcDbSpline
 62
7
  6
CONTINUOUS
 70
0
 71
3
 72
8
 73
4
 74
0
 42
0.0000001
 43
0.0000001
 44
0.0000000001
 40
0.0
 40
0.0
 40
0.0
 40
0.0
 40
1.0
 40
1.0
 40
1.0
 40
1.0
 10
4.1719059714
 20
4.728578846
 30
0.0
 10
4.1663616413
 20
4.7217511074
 30
0.0
 10
4.1636408135
 20
4.7120485301
 30
0.0
 10
4.1636408135
 20
4.6994711196
 30
0.0
  0
SPLINE
  5
354
100
AcDbEntity
  8
ALL_ASSEMBLY_MEMBERS
100
AcDbSpline
 62
7
  6
CONTINUOUS
 70
0
 71
3
 72
8
 73
4
 74
0
 42
0.0000001
 43
0.0000001
 44
0.0000000001
 40
0.0
 40
0.0
 40
0.0
 40
0.0
 40
1.0
 40
1.0
 40
1.0
 40
1.0
 10
4.1636408135
 20
4.6994711196
 30
0.0
 10
4.1636408135
 20
4.6858156455
 30
0.0
 10
4.1663616413
 20
4.6753430243
 30
0.0
 10
4.1719059703
 20
4.6679505858
 30
0.0
  0
SPLINE
  5
355
100
AcDbEntity
  8
ALL_ASSEMBLY_MEMBERS
100
AcDbSpline
 62
7
  6
CONTINUOUS
 70
0
 71
3
 72
8
 73
4
 74
0
 42
0.0000001
 43
0.0000001
 44
0.0000000001
 40
0.0
 40
0.0
 40
0.0
 40
0.0
 40
1.0
 40
1.0
 40
1.0
 40
1.0
 10
4.1719059703
 20
4.6679505858
 30
0.0
 10
4.1774502989
 20
4.6605581477
 30
0.0
 10
4.1853047652
 20
4.656913265
 30
0.0
 10
4.1955207035
 20
4.656913265
 30
0.0
  0
SPLINE
  5
356
100
AcDbEntity
  8
ALL_ASSEMBLY_MEMBERS
100
AcDbSpline
 62
7
  6
CONTINUOUS
 70
0
 71
3
 72
8
 73
4
 74
0
 42
0.0000001
 43
0.0000001
 44
0.0000000001
 40
0.0
 40
0.0
 40
0.0
 40
0.0
 40
1.0
 40
1.0
 40
1.0
 40
1.0
 10
4.1955207035
 20
4.656913265
 30
0.0
 10
4.2002436478
 20
4.656913265
 30
0.0
 10
4.2047099127
 20
4.6578886561
 30
0.0
 10
4.208807252
 20
4.6597068507
 30
0.0
  0
SPLINE
  5
357
100
AcDbEntity
  8
ALL_ASSEMBLY_MEMBERS
100
AcDbSpline
 62
7
  6
CONTINUOUS
 70
0
 71
3
 72
8
 73
4
 74
0
 42
0.0000001
 43
0.0000001
 44
0.0000000001
 40
0.0
 40
0.0
 40
0.0
 40
0.0
 40
1.0
 40
1.0
 40
1.0
 40
1.0
 10
4.208807252
 20
4.6597068507
 30
0.0
 10
4.2129237319
 20
4.6615335389
 30
0.0
 10
4.21636327
 20
4.6641516942
 30
0.0
 10
4.2190840975
 20
4.6675398949
 30
0.0
  0
SPLINE
  5
358
100
AcDbEntity
  8
ALL_ASSEMBLY_MEMBERS
100
AcDbSpline
 62
7
  6
CONTINUOUS
 70
0
 71
3
 72
8
 73
4
 74
0
 42
0.0000001
 43
0.0000001
 44
0.0000000001
 40
0.0
 40
0.0
 40
0.0
 40
0.0
 40
1.0
 40
1.0
 40
1.0
 40
1.0
 10
4.2610259145
 20
4.656913265
 30
0.0
 10
4.2716012129
 20
4.656913265
 30
0.0
 10
4.2797123631
 20
4.6605581477
 30
0.0
 10
4.2854106973
 20
4.6679505859
 30
0.0
  0
SPLINE
  5
359
100
AcDbEntity
  8
ALL_ASSEMBLY_MEMBERS
100
AcDbSpline
 62
7
  6
CONTINUOUS
 70
0
 71
3
 72
8
 73
4
 74
0
 42
0.0000001
 43
0.0000001
 44
0.0000000001
 40
0.0
 40
0.0
 40
0.0
 40
0.0
 40
1.0
 40
1.0
 40
1.0
 40
1.0
 10
4.2854106973
 20
4.6679505859
 30
0.0
 10
4.2911090317
 20
4.6753430243
 30
0.0
 10
4.2939838743
 20
4.6858156455
 30
0.0
 10
4.2939838743
 20
4.6994711196
 30
0.0
  0
SPLINE
  5
35A
100
AcDbEntity
  8
ALL_ASSEMBLY_MEMBERS
100
AcDbSpline
 62
7
  6
CONTINUOUS
 70
0
 71
3
 72
8
 73
4
 74
0
 42
0.0000001
 43
0.0000001
 44
0.0000000001
 40
0.0
 40
0.0
 40
0.0
 40
0.0
 40
1.0
 40
1.0
 40
1.0
 40
1.0
 10
4.2939838743
 20
4.6994711196
 30
0.0
 10
4.2939838743
 20
4.712972588
 30
0.0
 10
4.2912630468
 20
4.7227778342
 30
0.0
 10
4.2859089651
 20
4.7291822376
 30
0.0
  0
SPLINE
  5
35B
100
AcDbEntity
  8
ALL_ASSEMBLY_MEMBERS
100
AcDbSpline
 62
7
  6
CONTINUOUS
 70
0
 71
3
 72
8
 73
4
 74
0
 42
0.0000001
 43
0.0000001
 44
0.0000000001
 40
0.0
 40
0.0
 40
0.0
 40
0.0
 40
1.0
 40
1.0
 40
1.0
 40
1.0
 10
4.2859089651
 20
4.7291822376
 30
0.0
 10
4.2805337427
 20
4.7356119288
 30
0.0
 10
4.2722172452
 20
4.7388461196
 30
0.0
 10
4.2610259145
 20
4.7388461196
 30
0.0
  0
SPLINE
  5
35C
100
AcDbEntity
  8
ALL_ASSEMBLY_MEMBERS
100
AcDbSpline
 62
7
  6
CONTINUOUS
 70
0
 71
3
 72
8
 73
4
 74
0
 42
0.0000001
 43
0.0000001
 44
0.0000000001
 40
0.0
 40
0.0
 40
0.0
 40
0.0
 40
1.0
 40
1.0
 40
1.0
 40
1.0
 10
4.2610259145
 20
4.7388461196
 30
0.0
 10
4.2505019576
 20
4.7388461196
 30
0.0
 10
4.2423908167
 20
4.7354065815
 30
0.0
 10
4.2366774188
 20
4.7285914997
 30
0.0
  0
SPLINE
  5
35D
100
AcDbEntity
  8
ALL_ASSEMBLY_MEMBERS
100
AcDbSpline
 62
7
  6
CONTINUOUS
 70
0
 71
3
 72
8
 73
4
 74
0
 42
0.0000001
 43
0.0000001
 44
0.0000000001
 40
0.0
 40
0.0
 40
0.0
 40
0.0
 40
1.0
 40
1.0
 40
1.0
 40
1.0
 10
4.2366774188
 20
4.7285914997
 30
0.0
 10
4.230942802
 20
4.7217511074
 30
0.0
 10
4.2281193009
 20
4.7120485301
 30
0.0
 10
4.2281193009
 20
4.6994711196
 30
0.0
  0
SPLINE
  5
35E
100
AcDbEntity
  8
ALL_ASSEMBLY_MEMBERS
100
AcDbSpline
 62
7
  6
CONTINUOUS
 70
0
 71
3
 72
8
 73
4
 74
0
 42
0.0000001
 43
0.0000001
 44
0.0000000001
 40
0.0
 40
0.0
 40
0.0
 40
0.0
 40
1.0
 40
1.0
 40
1.0
 40
1.0
 10
4.2281193009
 20
4.6994711196
 30
0.0
 10
4.2281193009
 20
4.6858156455
 30
0.0
 10
4.230942802
 20
4.6753430243
 30
0.0
 10
4.2366764171
 20
4.6679381779
 30
0.0
  0
SPLINE
  5
35F
100
AcDbEntity
  8
ALL_ASSEMBLY_MEMBERS
100
AcDbSpline
 62
7
  6
CONTINUOUS
 70
0
 71
3
 72
8
 73
4
 74
0
 42
0.0000001
 43
0.0000001
 44
0.0000000001
 40
0.0
 40
0.0
 40
0.0
 40
0.0
 40
1.0
 40
1.0
 40
1.0
 40
1.0
 10
4.2366764171
 20
4.6679381779
 30
0.0
 10
4.2423908167
 20
4.6605581477
 30
0.0
 10
4.2505019576
 20
4.656913265
 30
0.0
 10
4.2610259145
 20
4.656913265
 30
0.0
  0
SPLINE
  5
360
100
AcDbEntity
  8
ALL_ASSEMBLY_MEMBERS
100
AcDbSpline
 62
7
  6
CONTINUOUS
 70
0
 71
3
 72
8
 73
4
 74
0
 42
0.0000001
 43
0.0000001
 44
0.0000000001
 40
0.0
 40
0.0
 40
0.0
 40
0.0
 40
1.0
 40
1.0
 40
1.0
 40
1.0
 10
4.2610259145
 20
4.6671292039
 30
0.0
 10
4.2541468477
 20
4.6671292039
 30
0.0
 10
4.248807857
 20
4.6697986958
 30
0.0
 10
4.2450941744
 20
4.6752283609
 30
0.0
  0
SPLINE
  5
361
100
AcDbEntity
  8
ALL_ASSEMBLY_MEMBERS
100
AcDbSpline
 62
7
  6
CONTINUOUS
 70
0
 71
3
 72
8
 73
4
 74
0
 42
0.0000001
 43
0.0000001
 44
0.0000000001
 40
0.0
 40
0.0
 40
0.0
 40
0.0
 40
1.0
 40
1.0
 40
1.0
 40
1.0
 10
4.2450941744
 20
4.6752283609
 30
0.0
 10
4.2413640899
 20
4.6806820068
 30
0.0
 10
4.2395159742
 20
4.6883824625
 30
0.0
 10
4.2395159742
 20
4.698393056
 30
0.0
  0
SPLINE
  5
362
100
AcDbEntity
  8
ALL_ASSEMBLY_MEMBERS
100
AcDbSpline
 62
7
  6
CONTINUOUS
 70
0
 71
3
 72
8
 73
4
 74
0
 42
0.0000001
 43
0.0000001
 44
0.0000000001
 40
0.0
 40
0.0
 40
0.0
 40
0.0
 40
1.0
 40
1.0
 40
1.0
 40
1.0
 10
4.2395159742
 20
4.698393056
 30
0.0
 10
4.2395159742
 20
4.707633602
 30
0.0
 10
4.2413640899
 20
4.7147693623
 30
0.0
 10
4.2450950321
 20
4.7198125698
 30
0.0
  0
SPLINE
  5
363
100
AcDbEntity
  8
ALL_ASSEMBLY_MEMBERS
100
AcDbSpline
 62
7
  6
CONTINUOUS
 70
0
 71
3
 72
8
 73
4
 74
0
 42
0.0000001
 43
0.0000001
 44
0.0000000001
 40
0.0
 40
0.0
 40
0.0
 40
0.0
 40
1.0
 40
1.0
 40
1.0
 40
1.0
 10
4.2450950321
 20
4.7198125698
 30
0.0
 10
4.248807857
 20
4.7248312878
 30
0.0
 10
4.2541468477
 20
4.7273467728
 30
0.0
 10
4.2610259145
 20
4.7273467728
 30
0.0
  0
SPLINE
  5
364
100
AcDbEntity
  8
ALL_ASSEMBLY_MEMBERS
100
AcDbSpline
 62
7
  6
CONTINUOUS
 70
0
 71
3
 72
8
 73
4
 74
0
 42
0.0000001
 43
0.0000001
 44
0.0000000001
 40
0.0
 40
0.0
 40
0.0
 40
0.0
 40
1.0
 40
1.0
 40
1.0
 40
1.0
 10
4.2610259145
 20
4.7273467728
 30
0.0
 10
4.268623706
 20
4.7273467728
 30
0.0
 10
4.2741680346
 20
4.7250366351
 30
0.0
 10
4.2775562295
 20
4.7205190356
 30
0.0
  0
SPLINE
  5
365
100
AcDbEntity
  8
ALL_ASSEMBLY_MEMBERS
100
AcDbSpline
 62
7
  6
CONTINUOUS
 70
0
 71
3
 72
8
 73
4
 74
0
 42
0.0000001
 43
0.0000001
 44
0.0000000001
 40
0.0
 40
0.0
 40
0.0
 40
0.0
 40
1.0
 40
1.0
 40
1.0
 40
1.0
 10
4.2775562295
 20
4.7205190356
 30
0.0
 10
4.2809444278
 20
4.7160014316
 30
0.0
 10
4.2825871963
 20
4.7086089967
 30
0.0
 10
4.2825871963
 20
4.698393056
 30
0.0
  0
SPLINE
  5
366
100
AcDbEntity
  8
ALL_ASSEMBLY_MEMBERS
100
AcDbSpline
 62
7
  6
CONTINUOUS
 70
0
 71
3
 72
8
 73
4
 74
0
 42
0.0000001
 43
0.0000001
 44
0.0000000001
 40
0.0
 40
0.0
 40
0.0
 40
0.0
 40
1.0
 40
1.0
 40
1.0
 40
1.0
 10
4.2825871963
 20
4.698393056
 30
0.0
 10
4.2825871963
 20
4.6883824625
 30
0.0
 10
4.2806877484
 20
4.6806820068
 30
0.0
 10
4.2769740592
 20
4.6752523387
 30
0.0
  0
SPLINE
  5
367
100
AcDbEntity
  8
ALL_ASSEMBLY_MEMBERS
100
AcDbSpline
 62
7
  6
CONTINUOUS
 70
0
 71
3
 72
8
 73
4
 74
0
 42
0.0000001
 43
0.0000001
 44
0.0000000001
 40
0.0
 40
0.0
 40
0.0
 40
0.0
 40
1.0
 40
1.0
 40
1.0
 40
1.0
 10
4.2769740592
 20
4.6752523387
 30
0.0
 10
4.273243972
 20
4.6697986958
 30
0.0
 10
4.2679049907
 20
4.6671292039
 30
0.0
 10
4.2610259145
 20
4.6671292039
 30
0.0
  0
SPLINE
  5
368
100
AcDbEntity
  8
ALL_ASSEMBLY_MEMBERS
100
AcDbSpline
 62
7
  6
CONTINUOUS
 70
0
 71
3
 72
8
 73
4
 74
0
 42
0.0000001
 43
0.0000001
 44
0.0000000001
 40
0.0
 40
0.0
 40
0.0
 40
0.0
 40
1.0
 40
1.0
 40
1.0
 40
1.0
 10
4.3860300001
 20
4.6585046926
 30
0.0
 10
4.3971186572
 20
4.6585046926
 30
0.0
 10
4.4058971625
 20
4.6621495753
 30
0.0
 10
4.4124151755
 20
4.6695435201
 30
0.0
  0
SPLINE
  5
369
100
AcDbEntity
  8
ALL_ASSEMBLY_MEMBERS
100
AcDbSpline
 62
7
  6
CONTINUOUS
 70
0
 71
3
 72
8
 73
4
 74
0
 42
0.0000001
 43
0.0000001
 44
0.0000000001
 40
0.0
 40
0.0
 40
0.0
 40
0.0
 40
1.0
 40
1.0
 40
1.0
 40
1.0
 10
4.4124151755
 20
4.6695435201
 30
0.0
 10
4.4188852768
 20
4.6768831145
 30
0.0
 10
4.4221707951
 20
4.6868423723
 30
0.0
 10
4.4221707951
 20
4.6994197828
 30
0.0
  0
SPLINE
  5
36A
100
AcDbEntity
  8
ALL_ASSEMBLY_MEMBERS
100
AcDbSpline
 62
7
  6
CONTINUOUS
 70
0
 71
3
 72
8
 73
4
 74
0
 42
0.0000001
 43
0.0000001
 44
0.0000000001
 40
0.0
 40
0.0
 40
0.0
 40
0.0
 40
1.0
 40
1.0
 40
1.0
 40
1.0
 10
4.4221707951
 20
4.6994197828
 30
0.0
 10
4.4221707951
 20
4.7124078878
 30
0.0
 10
4.4195526507
 20
4.7218024442
 30
0.0
 10
4.4142868416
 20
4.727937365
 30
0.0
  0
SPLINE
  5
36B
100
AcDbEntity
  8
ALL_ASSEMBLY_MEMBERS
100
AcDbSpline
 62
7
  6
CONTINUOUS
 70
0
 71
3
 72
8
 73
4
 74
0
 42
0.0000001
 43
0.0000001
 44
0.0000000001
 40
0.0
 40
0.0
 40
0.0
 40
0.0
 40
1.0
 40
1.0
 40
1.0
 40
1.0
 10
4.4142868416
 20
4.727937365
 30
0.0
 10
4.4089773523
 20
4.7341231754
 30
0.0
 10
4.4008148699
 20
4.7372546926
 30
0.0
 10
4.3898288771
 20
4.7372546926
 30
0.0
  0
SPLINE
  5
36C
100
AcDbEntity
  8
ALL_ASSEMBLY_MEMBERS
100
AcDbSpline
 62
7
  6
CONTINUOUS
 70
0
 71
3
 72
8
 73
4
 74
0
 42
0.0000001
 43
0.0000001
 44
0.0000000001
 40
0.0
 40
0.0
 40
0.0
 40
0.0
 40
1.0
 40
1.0
 40
1.0
 40
1.0
 10
4.3901882394
 20
4.7257553457
 30
0.0
 10
4.3969133099
 20
4.7257553457
 30
0.0
 10
4.4020469346
 20
4.7233938713
 30
0.0
 10
4.4055254746
 20
4.7187643461
 30
0.0
  0
SPLINE
  5
36D
100
AcDbEntity
  8
ALL_ASSEMBLY_MEMBERS
100
AcDbSpline
 62
7
  6
CONTINUOUS
 70
0
 71
3
 72
8
 73
4
 74
0
 42
0.0000001
 43
0.0000001
 44
0.0000000001
 40
0.0
 40
0.0
 40
0.0
 40
0.0
 40
1.0
 40
1.0
 40
1.0
 40
1.0
 10
4.4055254746
 20
4.7187643461
 30
0.0
 10
4.4090286844
 20
4.7141019884
 30
0.0
 10
4.4107741266
 20
4.707274249
 30
0.0
 10
4.4107741266
 20
4.6983417192
 30
0.0
  0
SPLINE
  5
36E
100
AcDbEntity
  8
ALL_ASSEMBLY_MEMBERS
100
AcDbSpline
 62
7
  6
CONTINUOUS
 70
0
 71
3
 72
8
 73
4
 74
0
 42
0.0000001
 43
0.0000001
 44
0.0000000001
 40
0.0
 40
0.0
 40
0.0
 40
0.0
 40
1.0
 40
1.0
 40
1.0
 40
1.0
 10
4.4107741266
 20
4.6983417192
 30
0.0
 10
4.4107741266
 20
4.6892551813
 30
0.0
 10
4.4085153257
 20
4.6820680889
 30
0.0
 10
4.4040852409
 20
4.6767417413
 30
0.0
  0
SPLINE
  5
36F
100
AcDbEntity
  8
ALL_ASSEMBLY_MEMBERS
100
AcDbSpline
 62
7
  6
CONTINUOUS
 70
0
 71
3
 72
8
 73
4
 74
0
 42
0.0000001
 43
0.0000001
 44
0.0000000001
 40
0.0
 40
0.0
 40
0.0
 40
0.0
 40
1.0
 40
1.0
 40
1.0
 40
1.0
 10
4.4040852409
 20
4.6767417413
 30
0.0
 10
4.3996341374
 20
4.6713901228
 30
0.0
 10
4.3936277729
 20
4.668720631
 30
0.0
 10
4.3860300001
 20
4.668720631
 30
0.0
  0
ENDSEC
  0
SECTION
  2
OBJECTS
  0
DICTIONARY
  5
C
100
AcDbDictionary
280
0
281
1
  3
ACAD_GROUP
350
D
  3
ACAD_MLINESTYLE
350
17
  3
ACAD_LAYOUT
350
1A
  3
ACAD_PLOTSETTINGS
350
19
  3
ACAD_PLOTSTYLENAME
350
E
  0
DICTIONARY
  5
D
102
{ACAD_REACTORS
330
C
102
}
100
AcDbDictionary
280
0
281
1
  0
ACDBDICTIONARYWDFLT
  5
E
102
{ACAD_REACTORS
330
C
102
}
100
AcDbDictionary
281
1
  3
Normal
350
F
100
AcDbDictionaryWithDefault
340
F
  0
DICTIONARY
  5
17
102
{ACAD_REACTORS
330
C
102
}
100
AcDbDictionary
280
0
281
1
  3
Standard
350
18
  0
DICTIONARY
  5
19
102
{ACAD_REACTORS
330
C
102
}
100
AcDbDictionary
281
1
  0
DICTIONARY
  5
1A
102
{ACAD_REACTORS
330
C
102
}
100
AcDbDictionary
281
1
  3
Model
350
370
  3
Layout1
350
371
  0
ACDBPLACEHOLDER
  5
F
102
{ACAD_REACTORS
330
E
102
}
  0
MLINESTYLE
  5
18
102
{ACAD_REACTORS
330
17
102
}
100
AcDbMlineStyle
  2
STANDARD
 70
0
  3

 62
256
 51
90.0
 52
90.0
 71
2
 49
0.5
 62
256
  6
BYLAYER
 49
-0.5
 62
256
  6
BYLAYER
  0
LAYOUT
  5
370
102
{ACAD_REACTORS
330
1A
102
}
100
AcDbPlotSettings
  1

  2
none_device
  4
ANSI_A_(11.00_x_8.50_Inches)
  6

 40
0.0
 41
0.0
 42
0.0
 43
0.0
 44
279.4
 45
215.9
 46
0.0
 47
0.0
 48
0.0
 49
0.0
140
0.0
141
0.0
142
1.0
143
1.0
 70
1024
 72
0
 73
0
 74
0
  7

 75
0
147
1.0
148
0.0
149
0.0
100
AcDbLayout
  1
Model
 70
0
 71
0
 10
0.0
 20
0.0
 11
11.0
 21
8.5
 12
0.0
 22
0.0
 32
0.0
 14
0.0
 24
0.0
 34
0.0
 15
0.0
 25
0.0
 35
0.0
146
0.0
 13
0.0
 23
0.0
 33
0.0
 16
1.0
 26
0.0
 36
0.0
 17
0.0
 27
1.0
 37
0.0
 76
0
330
228
345
0
346
0
  0
LAYOUT
  5
371
102
{ACAD_REACTORS
330
1A
102
}
100
AcDbPlotSettings
  1

  2
none_device
  4
ANSI_A_(11.00_x_8.50_Inches)
  6

 40
0.0
 41
0.0
 42
0.0
 43
0.0
 44
279.4
 45
215.9
 46
0.0
 47
0.0
 48
0.0
 49
0.0
140
0.0
141
0.0
142
1.0
143
1.0
 70
0
 72
0
 73
0
 74
0
  7

 75
0
147
1.0
148
0.0
149
0.0
100
AcDbLayout
  1
Layout1
 70
0
 71
1
 10
0.0
 20
0.0
 11
11.0
 21
8.5
 12
0.0
 22
0.0
 32
0.0
 14
0.0
 24
0.0
 34
0.0
 15
0.0
 25
0.0
 35
0.0
146
0.0
 13
0.0
 23
0.0
 33
0.0
 16
1.0
 26
0.0
 36
0.0
 17
0.0
 27
1.0
 37
0.0
 76
0
330
229
345
0
346
0
  0
ENDSEC
  0
EOF
