999
DXF file: E:\BT Custom\CADOUTPUT\_FRONT.dxf
999
Pro/ENGINEER 2018400 by Parametric Technology Corporation
  0
SECTION
  2
HEADER
  9
$ACADVER
  1
AC1018
  9
$DWGCODEPAGE
  3
ANSI_1252
  9
$EXTMAX
 10
22.0
 20
17.0
 30
0.0
  9
$EXTMIN
 10
0.0
 20
0.0
 30
0.0
  9
$LIMMIN
 10
0.0
 20
0.0
  9
$LIMMAX
 10
22.0
 20
17.0
  9
$VIEWCTR
 10
11.0
 20
8.5
  9
$VIEWSIZE
 40
17.0
  9
$CLAYER
  8
0
  9
$LTSCALE
 40
1.21
  9
$CELTYPE
  6
BYLAYER
  9
$DIMSCALE
 40
1.0
  9
$DIMASZ
 40
0.1
  9
$DIMEXO
 40
0.0625
  9
$DIMDLI
 40
0.836
  9
$DIMEXE
 40
0.125
  9
$DIMCEN
 40
0.198
  9
$DIMLFAC
 40
1.0
  9
$DIMBLK
  1
_FILLED
  9
$DIMALT
 70
1
  9
$DIMALTD
 70
2
  9
$DIMALTTD
 70
2
  9
$DIMALTF
 40
25.4
  9
$DIMTXT
 40
0.08
  9
$DIMTOL
 70
1
  9
$DIMLIM
 70
0
  9
$DIMTFAC
 40
1.0
  9
$DIMTP
 40
0.001
  9
$DIMTM
 40
0.001
  9
$DIMGAP
 40
0.09
  9
$DIMDSEP
 70
46
  9
$AUNITS
 70
0
  9
$PDMODE
 70
3
  9
$PDSIZE
 40
0.06
  9
$HANDSEED
  5
31B
  9
$TILEMODE
 70
1
  9
$MEASUREMENT
 70
0
  9
$INSUNITS
 70
1
  0
ENDSEC
  0
SECTION
  2
CLASSES
  0
CLASS
  1
ACDBDICTIONARYWDFLT
  2
AcDbDictionaryWithDefault
  3
AutoCAD 2000
 90
0
 91
1
280
0
281
0
  0
CLASS
  1
ACDBPLACEHOLDER
  2
AcDbPlaceHolder
  3
AutoCAD 2000
 90
0
 91
1
280
0
281
0
  0
CLASS
  1
LAYOUT
  2
AcDbLayout
  3
AutoCAD 2000
 90
0
 91
0
280
0
281
0
  0
ENDSEC
  0
SECTION
  2
TABLES
  0
TABLE
  2
VPORT
  5
8
100
AcDbSymbolTable
 70
2
  0
VPORT
  5
1F4
100
AcDbSymbolTableRecord
100
AcDbViewportTableRecord
  2
*ACTIVE
 70
0
 10
0.0
 20
0.0
 11
1.0
 21
1.0
 12
11.0
 22
8.5
 13
0.0
 23
0.0
 14
1.0
 24
1.0
 15
0.0
 25
0.0
 16
0.0
 26
0.0
 36
1.0
 17
0.0
 27
0.0
 37
0.0
 40
17.0
 41
1.2941176471
 42
50.0
 43
0.0
 44
0.0
 50
0.0
 51
0.0
 71
0
 72
100
 73
1
 74
1
 75
0
 76
0
 77
0
 78
0
  0
ENDTAB
  0
TABLE
  2
LTYPE
  5
5
100
AcDbSymbolTable
 70
6
  0
LTYPE
  5
14
100
AcDbSymbolTableRecord
100
AcDbLinetypeTableRecord
  2
BYBLOCK
 70
0
  3

 72
65
 73
0
 40
0.0
  0
LTYPE
  5
15
100
AcDbSymbolTableRecord
100
AcDbLinetypeTableRecord
  2
BYLAYER
 70
0
  3

 72
65
 73
0
 40
0.0
  0
LTYPE
  5
16
100
AcDbSymbolTableRecord
100
AcDbLinetypeTableRecord
  2
CONTINUOUS
 70
64
  3
Solid line
 72
65
 73
0
 40
0.0
  0
LTYPE
  5
1F5
100
AcDbSymbolTableRecord
100
AcDbLinetypeTableRecord
  2
CENTER
 70
64
  3
____ _ ____ _ ____ _ ____ _ ____ _ ____ _ ____
 72
65
 73
4
 40
0.6
 49
0.375
 74
0
 49
-0.075
 74
0
 49
0.075
 74
0
 49
-0.075
 74
0
  0
LTYPE
  5
1F6
100
AcDbSymbolTableRecord
100
AcDbLinetypeTableRecord
  2
HIDDEN
 70
64
  3
- - - - - - - - - - - - - - - - - - - -
 72
65
 73
2
 40
0.2
 49
0.1
 74
0
 49
-0.1
 74
0
  0
LTYPE
  5
1F7
100
AcDbSymbolTableRecord
100
AcDbLinetypeTableRecord
  2
PHANTOM
 70
64
  3
_____ _ _ _____ _ _ _____ _ _ _____
 72
65
 73
6
 40
0.8
 49
0.45
 74
0
 49
-0.05
 74
0
 49
0.1
 74
0
 49
-0.05
 74
0
 49
0.1
 74
0
 49
-0.05
 74
0
  0
LTYPE
  5
1F8
100
AcDbSymbolTableRecord
100
AcDbLinetypeTableRecord
  2
DOT
 70
64
  3
. . . . . . . . . . . . . . . . . . . .
 72
65
 73
2
 40
0.2
 49
0.1
 74
0
 49
-0.1
 74
0
  0
LTYPE
  5
1F9
100
AcDbSymbolTableRecord
100
AcDbLinetypeTableRecord
  2
DASHED
 70
64
  3
- - - - - - - - - - - - - - - - - - - -
 72
65
 73
2
 40
0.2
 49
0.1
 74
0
 49
-0.1
 74
0
  0
ENDTAB
  0
TABLE
  2
LAYER
  5
2
100
AcDbSymbolTable
 70
36
  0
LAYER
  5
10
100
AcDbSymbolTableRecord
100
AcDbLayerTableRecord
  2
0
 70
0
 62
7
  6
CONTINUOUS
370
-3
390
F
  0
LAYER
  5
1FA
100
AcDbSymbolTableRecord
100
AcDbLayerTableRecord
  2
DEFAULT_1
 70
0
 62
7
  6
CENTER
370
-3
390
F
  0
LAYER
  5
1FB
100
AcDbSymbolTableRecord
100
AcDbLayerTableRecord
  2
DEFAULT_2
 70
0
 62
8
  6
HIDDEN
370
-3
390
F
  0
LAYER
  5
1FC
100
AcDbSymbolTableRecord
100
AcDbLayerTableRecord
  2
DEFAULT_3
 70
0
 62
7
  6
PHANTOM
370
-3
390
F
  0
LAYER
  5
1FD
100
AcDbSymbolTableRecord
100
AcDbLayerTableRecord
  2
ALL_FEATURES
 70
0
 62
7
  6
CONTINUOUS
370
-3
390
F
  0
LAYER
  5
1FE
100
AcDbSymbolTableRecord
100
AcDbLayerTableRecord
  2
AXES_FEATURES
 70
0
 62
7
  6
CONTINUOUS
370
-3
390
F
  0
LAYER
  5
1FF
100
AcDbSymbolTableRecord
100
AcDbLayerTableRecord
  2
DEFAULT_COORDINATE_SYSTEM
 70
0
 62
7
  6
CONTINUOUS
370
-3
390
F
  0
LAYER
  5
200
100
AcDbSymbolTableRecord
100
AcDbLayerTableRecord
  2
DEFAULT_DATUM_AXES
 70
0
 62
7
  6
CONTINUOUS
370
-3
390
F
  0
LAYER
  5
201
100
AcDbSymbolTableRecord
100
AcDbLayerTableRecord
  2
DEFAULT_DATUM_PLANES
 70
0
 62
7
  6
CONTINUOUS
370
-3
390
F
  0
LAYER
  5
202
100
AcDbSymbolTableRecord
100
AcDbLayerTableRecord
  2
DIMENSIONS
 70
0
 62
7
  6
CONTINUOUS
370
-3
390
F
  0
ENDTAB
  0
TABLE
  2
STYLE
  5
3
100
AcDbSymbolTable
 70
1
  0
STYLE
  5
11
100
AcDbSymbolTableRecord
100
AcDbTextStyleTableRecord
  2
STANDARD
 70
0
 40
0.0
 41
0.8
 50
0.0
 71
0
 42
0.2
  3
txt
  4

  0
STYLE
  5
203
100
AcDbSymbolTableRecord
100
AcDbTextStyleTableRecord
  2
TEXTSTYLE_1
 70
0
 40
0.0
 41
0.8
 50
0.0
 71
0
 42
0.2
  3
gdt
  4

  0
ENDTAB
  0
TABLE
  2
VIEW
  5
6
100
AcDbSymbolTable
 70
0
  0
ENDTAB
  0
TABLE
  2
UCS
  5
7
100
AcDbSymbolTable
 70
0
  0
ENDTAB
  0
TABLE
  2
APPID
  5
9
100
AcDbSymbolTable
 70
1
  0
APPID
  5
204
100
AcDbSymbolTableRecord
100
AcDbRegAppTableRecord
  2
ACAD
 70
0
  0
ENDTAB
  0
TABLE
  2
BLOCK_RECORD
  5
1
100
AcDbSymbolTable
 70
0
  0
BLOCK_RECORD
  5
205
100
AcDbSymbolTableRecord
100
AcDbBlockTableRecord
  2
*Model_Space
  0
BLOCK_RECORD
  5
206
100
AcDbSymbolTableRecord
100
AcDbBlockTableRecord
  2
*Paper_Space
  0
BLOCK_RECORD
  5
207
100
AcDbSymbolTableRecord
100
AcDbBlockTableRecord
  2
_FILLED
  0
ENDTAB
  0
TABLE
  2
DIMSTYLE
  5
A
100
AcDbSymbolTable
 70
1
100
AcDbDimStyleTable
 71
0
  0
DIMSTYLE
105
208
100
AcDbSymbolTableRecord
100
AcDbDimStyleTableRecord
  2
STANDARD
 70
0
  3

  4

 40
1.0
 41
0.1
 42
0.0625
 43
0.38
 44
0.125
 45
0.0
 46
0.0
 47
0.001
 48
0.001
140
0.08
141
0.09
142
0.0
143
25.4
144
1.0
145
0.0
146
1.0
147
0.09
 71
1.0
 72
0.0
 73
1
 74
1
 75
0
 76
0
 77
0
 78
4
 79
1
170
1
171
2
172
0
173
0
174
0
175
0
176
0
177
0
178
0
270
2
179
3
271
3
272
3
273
2
274
2
275
0
280
0
281
0
282
0
283
1
284
4
285
0
286
0
287
3
288
0
340
11
278
46
341
207
342
207
343
207
344
207
  0
ENDTAB
  0
ENDSEC
  0
SECTION
  2
BLOCKS
  0
BLOCK
  5
20
100
AcDbEntity
  8
0
100
AcDbBlockBegin
  2
*Model_Space
 70
0
 10
0.0
 20
0.0
 30
0.0
  3
*Model_Space
  1

  0
ENDBLK
  5
21
100
AcDbEntity
  8
0
100
AcDbBlockEnd
  0
BLOCK
  5
1C
100
AcDbEntity
  8
0
100
AcDbBlockBegin
  2
*Paper_Space
 70
0
 10
0.0
 20
0.0
 30
0.0
  3
*Paper_Space
  1

  0
ENDBLK
  5
1D
100
AcDbEntity
  8
0
100
AcDbBlockEnd
  0
BLOCK
  5
209
100
AcDbEntity
  8
0
100
AcDbBlockBegin
  2
_FILLED
 70
64
 10
0.0
 20
0.0
  3
_FILLED
  1

  0
SOLID
  5
20A
100
AcDbEntity
  8
0
  6
BYBLOCK
 62
0
100
AcDbTrace
 10
0.0
 20
0.0
 11
-1.0
 21
0.2
 12
-1.0
 22
-0.2
 13
-1.0
 23
-0.2
  0
ENDBLK
  5
20B
100
AcDbEntity
  8
0
  6
BYBLOCK
 62
0
100
AcDbBlockEnd
  0
ENDSEC
  0
SECTION
  2
ENTITIES
  0
LINE
  5
20C
100
AcDbEntity
  8
0
100
AcDbLine
 62
9
  6
CONTINUOUS
 10
11.3151407957
 20
6.0501696409
 11
11.0983998138
 21
6.0501696409
  0
LINE
  5
20D
100
AcDbEntity
  8
0
100
AcDbLine
 62
9
  6
CONTINUOUS
 10
11.0909513608
 20
6.0501696409
 11
10.7844333247
 21
6.0501696409
  0
LINE
  5
20E
100
AcDbEntity
  8
0
100
AcDbLine
 62
9
  6
CONTINUOUS
 10
10.7769848717
 20
6.0501696409
 11
10.5602438897
 21
6.0501696409
  0
LINE
  5
20F
100
AcDbEntity
  8
0
100
AcDbLine
 62
9
  6
CONTINUOUS
 10
11.3376923427
 20
6.0782595162
 11
10.5376923427
 21
6.0782595162
  0
LINE
  5
210
100
AcDbEntity
  8
0
100
AcDbLine
 62
7
  6
CONTINUOUS
 10
10.4776923427
 20
6.1374695021
 11
11.3976923427
 21
6.1374695021
  0
LINE
  5
211
100
AcDbEntity
  8
0
100
AcDbLine
 62
9
  6
CONTINUOUS
 10
10.4476923427
 20
6.1674695021
 11
11.4276923427
 21
6.1674695021
  0
LINE
  5
212
100
AcDbEntity
  8
0
100
AcDbLine
 62
7
  6
CONTINUOUS
 10
11.4326923427
 20
6.2374695021
 11
10.4426923427
 21
6.2374695021
  0
LINE
  5
213
100
AcDbEntity
  8
0
100
AcDbLine
 62
7
  6
CONTINUOUS
 10
11.430956229
 20
6.2573971328
 11
11.1703444711
 21
6.2573971328
  0
LINE
  5
214
100
AcDbEntity
  8
0
100
AcDbLine
 62
7
  6
CONTINUOUS
 10
11.121972684
 20
6.2573971328
 11
10.7534120015
 21
6.2573971328
  0
LINE
  5
215
100
AcDbEntity
  8
0
100
AcDbLine
 62
7
  6
CONTINUOUS
 10
10.7050402144
 20
6.2573971328
 11
10.4444284565
 21
6.2573971328
  0
LINE
  5
216
100
AcDbEntity
  8
0
100
AcDbLine
 62
7
  6
CONTINUOUS
 10
10.9271586395
 20
5.9114196409
 11
10.5571586395
 21
6.0501696409
  0
LINE
  5
217
100
AcDbEntity
  8
0
100
AcDbLine
 62
9
  6
CONTINUOUS
 10
10.9302438897
 20
5.9114196409
 11
10.5602438897
 21
6.0501696409
  0
LINE
  5
218
100
AcDbEntity
  8
0
100
AcDbLine
 62
7
  6
CONTINUOUS
 10
10.7326566294
 20
6.2374695021
 11
10.7050402144
 21
6.2573971328
  0
LINE
  5
219
100
AcDbEntity
  8
0
100
AcDbLine
 62
7
  6
CONTINUOUS
 10
10.7257831282
 20
6.2773971328
 11
10.7534120015
 21
6.2573971328
  0
LINE
  5
21A
100
AcDbEntity
  8
0
100
AcDbLine
 62
9
  6
CONTINUOUS
 10
10.9302438897
 20
5.9114196409
 11
10.7769848717
 21
6.0501696409
  0
LINE
  5
21B
100
AcDbEntity
  8
0
100
AcDbLine
 62
9
  6
CONTINUOUS
 10
10.9376923427
 20
5.9114196409
 11
10.7844333247
 21
6.0501696409
  0
LINE
  5
21C
100
AcDbEntity
  8
0
100
AcDbLine
 62
7
  6
CONTINUOUS
 10
10.4426923427
 20
6.2374695021
 11
10.4243922062
 21
6.2573971328
  0
LINE
  5
21D
100
AcDbEntity
  8
0
100
AcDbLine
 62
7
  6
CONTINUOUS
 10
10.4444284565
 20
6.2573971328
 11
10.426098243
 21
6.2773971328
  0
LINE
  5
21E
100
AcDbEntity
  8
0
100
AcDbLine
 62
7
  6
CONTINUOUS
 10
11.1427280561
 20
6.2374695021
 11
11.121972684
 21
6.2573971328
  0
LINE
  5
21F
100
AcDbEntity
  8
0
100
AcDbLine
 62
7
  6
CONTINUOUS
 10
11.1703444711
 20
6.2573971328
 11
11.1496015573
 21
6.2773971328
  0
LINE
  5
220
100
AcDbEntity
  8
0
100
AcDbLine
 62
7
  6
CONTINUOUS
 10
12.7157640734
 20
7.6551695021
 11
12.6452131786
 21
7.6551695021
  0
LINE
  5
221
100
AcDbEntity
  8
0
100
AcDbLine
 62
7
  6
CONTINUOUS
 10
12.4970711001
 20
7.6551695021
 11
12.6144113877
 21
7.6551695021
  0
LINE
  5
222
100
AcDbEntity
  8
0
100
AcDbLine
 62
7
  6
CONTINUOUS
 10
12.7157640734
 20
7.6843578974
 11
12.6777751424
 21
7.6843578974
  0
LINE
  5
223
100
AcDbEntity
  8
0
100
AcDbLine
 62
7
  6
CONTINUOUS
 10
12.6144113877
 20
7.6880247823
 11
12.5296330371
 21
7.6880247823
  0
LINE
  5
224
100
AcDbEntity
  8
0
100
AcDbLine
 62
7
  6
CONTINUOUS
 10
12.6777751424
 20
7.8473142254
 11
12.7276447573
 21
7.8473142254
  0
LINE
  5
225
100
AcDbEntity
  8
0
100
AcDbLine
 62
7
  6
CONTINUOUS
 10
12.4970711001
 20
7.8801695021
 11
12.5296330371
 21
7.8801695021
  0
LINE
  5
226
100
AcDbEntity
  8
0
100
AcDbLine
 62
7
  6
CONTINUOUS
 10
12.6452131786
 20
7.8801695021
 11
12.7266180076
 21
7.8801695021
  0
LINE
  5
227
100
AcDbEntity
  8
0
100
AcDbLine
 62
9
  6
CONTINUOUS
 10
10.35283652
 20
10.2806695021
 11
9.7679806974
 21
9.2676695021
  0
LINE
  5
228
100
AcDbEntity
  8
0
100
AcDbLine
 62
9
  6
CONTINUOUS
 10
11.5225481654
 20
8.2546695021
 11
11.2806214766
 21
8.2546695021
  0
LINE
  5
229
100
AcDbEntity
  8
0
100
AcDbLine
 62
9
  6
CONTINUOUS
 10
10.5947632089
 20
8.2546695021
 11
10.35283652
 21
8.2546695021
  0
LINE
  5
22A
100
AcDbEntity
  8
0
100
AcDbLine
 62
7
  6
CONTINUOUS
 10
10.6226313075
 20
8.5813693657
 11
11.252753378
 21
8.5813693657
  0
LINE
  5
22B
100
AcDbEntity
  8
0
100
AcDbLine
 62
9
  6
CONTINUOUS
 10
9.7679806974
 20
9.2676695021
 11
10.35283652
 21
8.2546695021
  0
LINE
  5
22C
100
AcDbEntity
  8
0
100
AcDbLine
 62
7
  6
CONTINUOUS
 10
10.4476923427
 20
6.1674695021
 11
10.4476923427
 21
6.2374695021
  0
LINE
  5
22D
100
AcDbEntity
  8
0
100
AcDbLine
 62
7
  6
CONTINUOUS
 10
10.5376923427
 20
6.0782595162
 11
10.5376923427
 21
6.1374695021
  0
LINE
  5
22E
100
AcDbEntity
  8
0
100
AcDbLine
 62
9
  6
CONTINUOUS
 10
10.5464791393
 20
6.0782595162
 11
10.5464791393
 21
6.1374695021
  0
LINE
  5
22F
100
AcDbEntity
  8
0
100
AcDbLine
 62
9
  6
CONTINUOUS
 10
10.6054215007
 20
9.8431794824
 11
10.2731506587
 21
9.2676695021
  0
LINE
  5
230
100
AcDbEntity
  8
0
100
AcDbLine
 62
7
  6
CONTINUOUS
 10
10.6490172081
 20
9.7676695021
 11
10.3603420735
 21
9.2676695021
  0
LINE
  5
231
100
AcDbEntity
  8
0
100
AcDbLine
 62
7
  6
CONTINUOUS
 10
10.6425589381
 20
8.5996695021
 11
11.2328257473
 21
8.5996695021
  0
LINE
  5
232
100
AcDbEntity
  8
0
100
AcDbLine
 62
9
  6
CONTINUOUS
 10
10.6054215007
 20
8.6921595219
 11
10.6313503661
 21
8.6921595219
  0
LINE
  5
233
100
AcDbEntity
  8
0
100
AcDbLine
 62
9
  6
CONTINUOUS
 10
11.2440343194
 20
8.6921595219
 11
11.2699631847
 21
8.6921595219
  0
LINE
  5
234
100
AcDbEntity
  8
0
100
AcDbLine
 62
7
  6
CONTINUOUS
 10
10.6576923427
 20
8.6996695021
 11
11.2176923427
 21
8.6996695021
  0
LINE
  5
235
100
AcDbEntity
  8
0
100
AcDbLine
 62
9
  6
CONTINUOUS
 10
10.7551923427
 20
8.7496695021
 11
11.1201923427
 21
8.7496695021
  0
LINE
  5
236
100
AcDbEntity
  8
0
100
AcDbLine
 62
7
  6
CONTINUOUS
 10
11.2263674773
 20
8.7676695021
 11
11.1201923427
 21
8.7676695021
  0
LINE
  5
237
100
AcDbEntity
  8
0
100
AcDbLine
 62
7
  6
CONTINUOUS
 10
10.7551923427
 20
8.7676695021
 11
10.6490172081
 21
8.7676695021
  0
LINE
  5
238
100
AcDbEntity
  8
0
100
AcDbLine
 62
9
  6
CONTINUOUS
 10
10.2731506587
 20
9.2676695021
 11
10.6054215007
 21
8.6921595219
  0
LINE
  5
239
100
AcDbEntity
  8
0
100
AcDbLine
 62
7
  6
CONTINUOUS
 10
10.3603420735
 20
9.2676695021
 11
10.6490172081
 21
8.7676695021
  0
LINE
  5
23A
100
AcDbEntity
  8
0
100
AcDbLine
 62
7
  6
CONTINUOUS
 10
10.6488872576
 20
11.5801695021
 11
10.6488872576
 21
11.3551695021
  0
LINE
  5
23B
100
AcDbEntity
  8
0
100
AcDbLine
 62
7
  6
CONTINUOUS
 10
10.6814491862
 20
11.3551695021
 11
10.6814491862
 21
11.4522685866
  0
LINE
  5
23C
100
AcDbEntity
  8
0
100
AcDbLine
 62
7
  6
CONTINUOUS
 10
10.6814491862
 20
11.48512387
 11
10.6814491862
 21
11.5801695021
  0
LINE
  5
23D
100
AcDbEntity
  8
0
100
AcDbLine
 62
7
  6
CONTINUOUS
 10
10.7551923427
 20
8.7496695021
 11
10.7551923427
 21
8.8129735615
  0
LINE
  5
23E
100
AcDbEntity
  8
0
100
AcDbLine
 62
9
  6
CONTINUOUS
 10
10.7632201212
 20
6.0782595162
 11
10.7632201212
 21
6.1374695021
  0
LINE
  5
23F
100
AcDbEntity
  8
0
100
AcDbLine
 62
7
  6
CONTINUOUS
 10
10.7844152944
 20
11.5801695021
 11
10.7844152944
 21
11.48512387
  0
LINE
  5
240
100
AcDbEntity
  8
0
100
AcDbLine
 62
7
  6
CONTINUOUS
 10
10.7844152944
 20
11.4522685866
 11
10.7844152944
 21
11.3551695021
  0
LINE
  5
241
100
AcDbEntity
  8
0
100
AcDbLine
 62
9
  6
CONTINUOUS
 10
10.7844333247
 20
6.0501696409
 11
10.7844333247
 21
6.1374695021
  0
LINE
  5
242
100
AcDbEntity
  8
0
100
AcDbLine
 62
7
  6
CONTINUOUS
 10
10.816977218
 20
11.3551695021
 11
10.816977218
 21
11.5801695021
  0
LINE
  5
243
100
AcDbEntity
  8
0
100
AcDbLine
 62
7
  6
CONTINUOUS
 10
10.807189789
 20
8.5813693657
 11
10.7257831282
 21
6.2773971328
  0
LINE
  5
244
100
AcDbEntity
  8
0
100
AcDbLine
 62
7
  6
CONTINUOUS
 10
10.4243922062
 20
6.2573971328
 11
10.6226313075
 21
8.5813693657
  0
LINE
  5
245
100
AcDbEntity
  8
0
100
AcDbLine
 62
7
  6
CONTINUOUS
 10
10.4426923427
 20
6.2374695021
 11
10.4444284565
 21
6.2573971328
  0
LINE
  5
246
100
AcDbEntity
  8
0
100
AcDbLine
 62
7
  6
CONTINUOUS
 10
10.6490172081
 20
8.7676695021
 11
10.6054215007
 21
8.6921595219
  0
LINE
  5
247
100
AcDbEntity
  8
0
100
AcDbLine
 62
7
  6
CONTINUOUS
 10
10.35283652
 20
8.2546695021
 11
10.3439423427
 21
8.2392643351
  0
LINE
  5
248
100
AcDbEntity
  8
0
100
AcDbLine
 62
7
  6
CONTINUOUS
 10
11.2263674773
 20
9.7676695021
 11
11.2699631847
 21
9.8431794824
  0
LINE
  5
249
100
AcDbEntity
  8
0
100
AcDbLine
 62
7
  6
CONTINUOUS
 10
11.5225481654
 20
10.2806695021
 11
11.5314423427
 21
10.2960746691
  0
LINE
  5
24A
100
AcDbEntity
  8
0
100
AcDbLine
 62
7
  6
CONTINUOUS
 10
10.3603420735
 20
9.2676695021
 11
10.2731506587
 21
9.2676695021
  0
LINE
  5
24B
100
AcDbEntity
  8
0
100
AcDbLine
 62
7
  6
CONTINUOUS
 10
9.7679806974
 20
9.2676695021
 11
9.7501923427
 21
9.2676695021
  0
LINE
  5
24C
100
AcDbEntity
  8
0
100
AcDbLine
 62
7
  6
CONTINUOUS
 10
11.5150426119
 20
9.2676695021
 11
11.6022340267
 21
9.2676695021
  0
LINE
  5
24D
100
AcDbEntity
  8
0
100
AcDbLine
 62
7
  6
CONTINUOUS
 10
12.1074039881
 20
9.2676695021
 11
12.1251923427
 21
9.2676695021
  0
LINE
  5
24E
100
AcDbEntity
  8
0
100
AcDbLine
 62
7
  6
CONTINUOUS
 10
11.252753378
 20
8.5813693657
 11
11.2328257473
 21
8.5996695021
  0
LINE
  5
24F
100
AcDbEntity
  8
0
100
AcDbLine
 62
7
  6
CONTINUOUS
 10
11.2263674773
 20
8.7676695021
 11
11.2699631847
 21
8.6921595219
  0
LINE
  5
250
100
AcDbEntity
  8
0
100
AcDbLine
 62
7
  6
CONTINUOUS
 10
11.5225481654
 20
8.2546695021
 11
11.5314423427
 21
8.2392643351
  0
LINE
  5
251
100
AcDbEntity
  8
0
100
AcDbLine
 62
7
  6
CONTINUOUS
 10
10.6490172081
 20
9.7676695021
 11
10.6054215007
 21
9.8431794824
  0
LINE
  5
252
100
AcDbEntity
  8
0
100
AcDbLine
 62
7
  6
CONTINUOUS
 10
10.35283652
 20
10.2806695021
 11
10.3439423427
 21
10.2960746691
  0
LINE
  5
253
100
AcDbEntity
  8
0
100
AcDbLine
 62
7
  6
CONTINUOUS
 10
11.0681948965
 20
8.5813693657
 11
11.0599406016
 21
8.5996695021
  0
LINE
  5
254
100
AcDbEntity
  8
0
100
AcDbLine
 62
7
  6
CONTINUOUS
 10
11.4326923427
 20
6.2374695021
 11
11.430956229
 21
6.2573971328
  0
LINE
  5
255
100
AcDbEntity
  8
0
100
AcDbLine
 62
7
  6
CONTINUOUS
 10
11.4509924792
 20
6.2573971328
 11
11.252753378
 21
8.5813693657
  0
LINE
  5
256
100
AcDbEntity
  8
0
100
AcDbLine
 62
7
  6
CONTINUOUS
 10
11.0681948965
 20
8.5813693657
 11
11.1496015573
 21
6.2773971328
  0
LINE
  5
257
100
AcDbEntity
  8
0
100
AcDbLine
 62
7
  6
CONTINUOUS
 10
11.0660319792
 20
11.5473142254
 11
11.0660319792
 21
11.5801695021
  0
LINE
  5
258
100
AcDbEntity
  8
0
100
AcDbLine
 62
9
  6
CONTINUOUS
 10
11.0909513608
 20
6.0501696409
 11
11.0909513608
 21
6.1374695021
  0
LINE
  5
259
100
AcDbEntity
  8
0
100
AcDbLine
 62
9
  6
CONTINUOUS
 10
11.1121645643
 20
6.0782595162
 11
11.1121645643
 21
6.1374695021
  0
LINE
  5
25A
100
AcDbEntity
  8
0
100
AcDbLine
 62
7
  6
CONTINUOUS
 10
11.1201923427
 20
8.7496695021
 11
11.1201923427
 21
8.8129735615
  0
LINE
  5
25B
100
AcDbEntity
  8
0
100
AcDbLine
 62
7
  6
CONTINUOUS
 10
11.1295424239
 20
11.5473142254
 11
11.1295424239
 21
11.3551695021
  0
LINE
  5
25C
100
AcDbEntity
  8
0
100
AcDbLine
 62
7
  6
CONTINUOUS
 10
11.1621043341
 20
11.3551695021
 11
11.1621043341
 21
11.5473142254
  0
LINE
  5
25D
100
AcDbEntity
  8
0
100
AcDbLine
 62
7
  6
CONTINUOUS
 10
11.225614752
 20
11.5801695021
 11
11.225614752
 21
11.5473142254
  0
LINE
  5
25E
100
AcDbEntity
  8
0
100
AcDbLine
 62
9
  6
CONTINUOUS
 10
11.3289055462
 20
6.0782595162
 11
11.3289055462
 21
6.1374695021
  0
LINE
  5
25F
100
AcDbEntity
  8
0
100
AcDbLine
 62
7
  6
CONTINUOUS
 10
11.3376923427
 20
6.0782595162
 11
11.3376923427
 21
6.1374695021
  0
LINE
  5
260
100
AcDbEntity
  8
0
100
AcDbLine
 62
7
  6
CONTINUOUS
 10
10.807189789
 20
8.5813693657
 11
10.8154440838
 21
8.5996695021
  0
LINE
  5
261
100
AcDbEntity
  8
0
100
AcDbLine
 62
7
  6
CONTINUOUS
 10
10.6226313075
 20
8.5813693657
 11
10.6425589381
 21
8.5996695021
  0
LINE
  5
262
100
AcDbEntity
  8
0
100
AcDbLine
 62
7
  6
CONTINUOUS
 10
11.4276923427
 20
6.1674695021
 11
11.4276923427
 21
6.2374695021
  0
LINE
  5
263
100
AcDbEntity
  8
0
100
AcDbLine
 62
7
  6
CONTINUOUS
 10
12.0941929939
 20
10.8801695021
 11
12.0485769602
 21
10.6827444699
  0
LINE
  5
264
100
AcDbEntity
  8
0
100
AcDbLine
 62
7
  6
CONTINUOUS
 10
12.0705782624
 20
10.6551695021
 11
12.1166343259
 21
10.8357268679
  0
LINE
  5
265
100
AcDbEntity
  8
0
100
AcDbLine
 62
7
  6
CONTINUOUS
 10
11.2263674773
 20
8.7676695021
 11
11.5150426119
 21
9.2676695021
  0
LINE
  5
266
100
AcDbEntity
  8
0
100
AcDbLine
 62
9
  6
CONTINUOUS
 10
11.2699631847
 20
8.6921595219
 11
11.6022340267
 21
9.2676695021
  0
LINE
  5
267
100
AcDbEntity
  8
0
100
AcDbLine
 62
7
  6
CONTINUOUS
 10
11.2263674773
 20
9.7676695021
 11
10.6490172081
 21
9.7676695021
  0
LINE
  5
268
100
AcDbEntity
  8
0
100
AcDbLine
 62
9
  6
CONTINUOUS
 10
11.2699631847
 20
9.8431794824
 11
10.6054215007
 21
9.8431794824
  0
LINE
  5
269
100
AcDbEntity
  8
0
100
AcDbLine
 62
7
  6
CONTINUOUS
 10
11.5150426119
 20
9.2676695021
 11
11.2263674773
 21
9.7676695021
  0
LINE
  5
26A
100
AcDbEntity
  8
0
100
AcDbLine
 62
9
  6
CONTINUOUS
 10
11.6022340267
 20
9.2676695021
 11
11.2699631847
 21
9.8431794824
  0
LINE
  5
26B
100
AcDbEntity
  8
0
100
AcDbLine
 62
7
  6
CONTINUOUS
 10
12.2282542797
 20
10.8801695021
 11
12.1849850448
 21
10.6827444699
  0
LINE
  5
26C
100
AcDbEntity
  8
0
100
AcDbLine
 62
7
  6
CONTINUOUS
 10
12.2080130698
 20
10.6551695021
 11
12.2624296191
 21
10.8801695021
  0
LINE
  5
26D
100
AcDbEntity
  8
0
100
AcDbLine
 62
7
  6
CONTINUOUS
 10
12.3023253324
 20
10.6551695021
 11
12.320806423
 21
10.7183865803
  0
LINE
  5
26E
100
AcDbEntity
  8
0
100
AcDbLine
 62
7
  6
CONTINUOUS
 10
12.3416343125
 20
10.8801695021
 11
12.2702034118
 21
10.6551695021
  0
LINE
  5
26F
100
AcDbEntity
  8
0
100
AcDbLine
 62
7
  6
CONTINUOUS
 10
12.3307803514
 20
10.7512418638
 11
12.3683292391
 21
10.8567014473
  0
LINE
  5
270
100
AcDbEntity
  8
0
100
AcDbLine
 62
9
  6
CONTINUOUS
 10
11.5225481654
 20
8.2546695021
 11
12.1074039881
 21
9.2676695021
  0
LINE
  5
271
100
AcDbEntity
  8
0
100
AcDbLine
 62
9
  6
CONTINUOUS
 10
11.5225481654
 20
10.2806695021
 11
10.35283652
 21
10.2806695021
  0
LINE
  5
272
100
AcDbEntity
  8
0
100
AcDbLine
 62
9
  6
CONTINUOUS
 10
12.1074039881
 20
9.2676695021
 11
11.5225481654
 21
10.2806695021
  0
LINE
  5
273
100
AcDbEntity
  8
0
100
AcDbLine
 62
7
  6
CONTINUOUS
 10
12.2387757801
 20
7.6809843658
 11
12.2387757801
 21
7.7180932338
  0
LINE
  5
274
100
AcDbEntity
  8
0
100
AcDbLine
 62
7
  6
CONTINUOUS
 10
12.2387757801
 20
7.8131388592
 11
12.2387757801
 21
7.8577281701
  0
LINE
  5
275
100
AcDbEntity
  8
0
100
AcDbLine
 62
7
  6
CONTINUOUS
 10
12.8448774757
 20
10.8801695021
 11
12.7976480129
 21
10.6994654598
  0
LINE
  5
276
100
AcDbEntity
  8
0
100
AcDbLine
 62
7
  6
CONTINUOUS
 10
12.8137823047
 20
10.6551695021
 11
12.8705456795
 21
10.8574348169
  0
LINE
  5
277
100
AcDbEntity
  8
0
100
AcDbLine
 62
7
  6
CONTINUOUS
 10
12.9047209921
 20
10.6551695021
 11
12.8721590819
 21
10.6551695021
  0
LINE
  5
278
100
AcDbEntity
  8
0
100
AcDbLine
 62
7
  6
CONTINUOUS
 10
12.8137823047
 20
10.6551695021
 11
12.7779935362
 21
10.6551695021
  0
LINE
  5
279
100
AcDbEntity
  8
0
100
AcDbLine
 62
7
  6
CONTINUOUS
 10
12.7194700422
 20
10.6551695021
 11
12.6869081321
 21
10.6551695021
  0
LINE
  5
27A
100
AcDbEntity
  8
0
100
AcDbLine
 62
7
  6
CONTINUOUS
 10
12.6477457883
 20
10.6551695021
 11
12.6100502374
 21
10.6551695021
  0
LINE
  5
27B
100
AcDbEntity
  8
0
100
AcDbLine
 62
7
  6
CONTINUOUS
 10
12.5301121475
 20
10.6551695021
 11
12.4975502374
 21
10.6551695021
  0
LINE
  5
27C
100
AcDbEntity
  8
0
100
AcDbLine
 62
7
  6
CONTINUOUS
 10
12.4677751424
 20
10.6551695021
 11
12.4349198522
 21
10.6551695021
  0
LINE
  5
27D
100
AcDbEntity
  8
0
100
AcDbLine
 62
7
  6
CONTINUOUS
 10
12.3023253324
 20
10.6551695021
 11
12.2702034118
 21
10.6551695021
  0
LINE
  5
27E
100
AcDbEntity
  8
0
100
AcDbLine
 62
7
  6
CONTINUOUS
 10
12.2080130698
 20
10.6551695021
 11
12.1629837426
 21
10.6551695021
  0
LINE
  5
27F
100
AcDbEntity
  8
0
100
AcDbLine
 62
7
  6
CONTINUOUS
 10
12.0705782624
 20
10.6551695021
 11
12.0255489284
 21
10.6551695021
  0
LINE
  5
280
100
AcDbEntity
  8
0
100
AcDbLine
 62
7
  6
CONTINUOUS
 10
12.320806423
 20
10.7183865803
 11
12.4162920716
 21
10.7183865803
  0
LINE
  5
281
100
AcDbEntity
  8
0
100
AcDbLine
 62
7
  6
CONTINUOUS
 10
12.4064648332
 20
10.7512418638
 11
12.3307803514
 21
10.7512418638
  0
LINE
  5
282
100
AcDbEntity
  8
0
100
AcDbLine
 62
7
  6
CONTINUOUS
 10
12.5682477417
 20
10.7747099253
 11
12.5301121475
 21
10.7747099253
  0
LINE
  5
283
100
AcDbEntity
  8
0
100
AcDbLine
 62
7
  6
CONTINUOUS
 10
11.9709856934
 20
10.8801695021
 11
12.0255489284
 21
10.6551695021
  0
LINE
  5
284
100
AcDbEntity
  8
0
100
AcDbLine
 62
7
  6
CONTINUOUS
 10
12.0485769602
 20
10.6827444699
 11
12.0050143754
 21
10.8801695021
  0
LINE
  5
285
100
AcDbEntity
  8
0
100
AcDbLine
 62
7
  6
CONTINUOUS
 10
12.4970711001
 20
7.8801695021
 11
12.4970711001
 21
7.6551695021
  0
LINE
  5
286
100
AcDbEntity
  8
0
100
AcDbLine
 62
7
  6
CONTINUOUS
 10
12.4975502374
 20
10.8801695021
 11
12.4975502374
 21
10.6551695021
  0
LINE
  5
287
100
AcDbEntity
  8
0
100
AcDbLine
 62
7
  6
CONTINUOUS
 10
12.5296330371
 20
7.6880247823
 11
12.5296330371
 21
7.8801695021
  0
LINE
  5
288
100
AcDbEntity
  8
0
100
AcDbLine
 62
7
  6
CONTINUOUS
 10
12.5301121475
 20
10.6551695021
 11
12.5301121475
 21
10.7684028851
  0
LINE
  5
289
100
AcDbEntity
  8
0
100
AcDbLine
 62
7
  6
CONTINUOUS
 10
12.5301121475
 20
10.7747099253
 11
12.5301121475
 21
10.8473142254
  0
LINE
  5
28A
100
AcDbEntity
  8
0
100
AcDbLine
 62
7
  6
CONTINUOUS
 10
12.6144113877
 20
7.6880247823
 11
12.6144113877
 21
7.6551695021
  0
LINE
  5
28B
100
AcDbEntity
  8
0
100
AcDbLine
 62
7
  6
CONTINUOUS
 10
12.6452131786
 20
7.8801695021
 11
12.6452131786
 21
7.6551695021
  0
LINE
  5
28C
100
AcDbEntity
  8
0
100
AcDbLine
 62
7
  6
CONTINUOUS
 10
12.6777751424
 20
7.6843578974
 11
12.6777751424
 21
7.8473142254
  0
LINE
  5
28D
100
AcDbEntity
  8
0
100
AcDbLine
 62
7
  6
CONTINUOUS
 10
12.6869081321
 20
10.8801695021
 11
12.6869081321
 21
10.6551695021
  0
LINE
  5
28E
100
AcDbEntity
  8
0
100
AcDbLine
 62
7
  6
CONTINUOUS
 10
12.7194700422
 20
10.6551695021
 11
12.7194700422
 21
10.8574348169
  0
LINE
  5
28F
100
AcDbEntity
  8
0
100
AcDbLine
 62
7
  6
CONTINUOUS
 10
12.5301121475
 20
10.8473142254
 11
12.579395056
 21
10.8473142254
  0
LINE
  5
290
100
AcDbEntity
  8
0
100
AcDbLine
 62
7
  6
CONTINUOUS
 10
11.9709856934
 20
10.8801695021
 11
12.0050143754
 21
10.8801695021
  0
LINE
  5
291
100
AcDbEntity
  8
0
100
AcDbLine
 62
7
  6
CONTINUOUS
 10
12.0941929939
 20
10.8801695021
 11
12.1392223345
 21
10.8801695021
  0
LINE
  5
292
100
AcDbEntity
  8
0
100
AcDbLine
 62
7
  6
CONTINUOUS
 10
12.2282542797
 20
10.8801695021
 11
12.2624296191
 21
10.8801695021
  0
LINE
  5
293
100
AcDbEntity
  8
0
100
AcDbLine
 62
7
  6
CONTINUOUS
 10
12.3416343125
 20
10.8801695021
 11
12.3963442417
 21
10.8801695021
  0
LINE
  5
294
100
AcDbEntity
  8
0
100
AcDbLine
 62
7
  6
CONTINUOUS
 10
12.4975502374
 20
10.8801695021
 11
12.5827686312
 21
10.8801695021
  0
LINE
  5
295
100
AcDbEntity
  8
0
100
AcDbLine
 62
7
  6
CONTINUOUS
 10
12.6869081321
 20
10.8801695021
 11
12.7467516484
 21
10.8801695021
  0
LINE
  5
296
100
AcDbEntity
  8
0
100
AcDbLine
 62
7
  6
CONTINUOUS
 10
12.8448774757
 20
10.8801695021
 11
12.9047209921
 21
10.8801695021
  0
LINE
  5
297
100
AcDbEntity
  8
0
100
AcDbLine
 62
7
  6
CONTINUOUS
 10
12.4162920716
 20
10.7183865803
 11
12.4349198522
 21
10.6551695021
  0
LINE
  5
298
100
AcDbEntity
  8
0
100
AcDbLine
 62
7
  6
CONTINUOUS
 10
12.1166343259
 20
10.8357268679
 11
12.1629837426
 21
10.6551695021
  0
LINE
  5
299
100
AcDbEntity
  8
0
100
AcDbLine
 62
7
  6
CONTINUOUS
 10
12.1849850448
 20
10.6827444699
 11
12.1392223345
 21
10.8801695021
  0
LINE
  5
29A
100
AcDbEntity
  8
0
100
AcDbLine
 62
7
  6
CONTINUOUS
 10
12.8705456795
 20
10.8574348169
 11
12.8721590819
 21
10.6551695021
  0
LINE
  5
29B
100
AcDbEntity
  8
0
100
AcDbLine
 62
7
  6
CONTINUOUS
 10
12.9047209921
 20
10.6551695021
 11
12.9047209921
 21
10.8801695021
  0
LINE
  5
29C
100
AcDbEntity
  8
0
100
AcDbLine
 62
7
  6
CONTINUOUS
 10
10.7050402144
 20
6.2573971328
 11
10.7257831282
 21
6.2773971328
  0
LINE
  5
29D
100
AcDbEntity
  8
0
100
AcDbLine
 62
7
  6
CONTINUOUS
 10
10.7326566294
 20
6.2374695021
 11
10.7534120015
 21
6.2573971328
  0
LINE
  5
29E
100
AcDbEntity
  8
0
100
AcDbLine
 62
7
  6
CONTINUOUS
 10
11.1621043341
 20
11.3551695021
 11
11.1295424239
 21
11.3551695021
  0
LINE
  5
29F
100
AcDbEntity
  8
0
100
AcDbLine
 62
7
  6
CONTINUOUS
 10
10.816977218
 20
11.3551695021
 11
10.7844152944
 21
11.3551695021
  0
LINE
  5
2A0
100
AcDbEntity
  8
0
100
AcDbLine
 62
7
  6
CONTINUOUS
 10
10.6814491862
 20
11.3551695021
 11
10.6488872576
 21
11.3551695021
  0
LINE
  5
2A1
100
AcDbEntity
  8
0
100
AcDbLine
 62
7
  6
CONTINUOUS
 10
10.6814491862
 20
11.4522685866
 11
10.7844152944
 21
11.4522685866
  0
LINE
  5
2A2
100
AcDbEntity
  8
0
100
AcDbLine
 62
7
  6
CONTINUOUS
 10
10.7844152944
 20
11.48512387
 11
10.6814491862
 21
11.48512387
  0
LINE
  5
2A3
100
AcDbEntity
  8
0
100
AcDbLine
 62
7
  6
CONTINUOUS
 10
12.6477457883
 20
10.6551695021
 11
12.5782216968
 21
10.7513885404
  0
LINE
  5
2A4
100
AcDbEntity
  8
0
100
AcDbLine
 62
7
  6
CONTINUOUS
 10
12.5301121475
 20
10.7684028851
 11
12.6100502374
 21
10.6551695021
  0
LINE
  5
2A5
100
AcDbEntity
  8
0
100
AcDbLine
 62
7
  6
CONTINUOUS
 10
12.3683292391
 20
10.8567014473
 11
12.4064648332
 21
10.7512418638
  0
LINE
  5
2A6
100
AcDbEntity
  8
0
100
AcDbLine
 62
7
  6
CONTINUOUS
 10
12.4677751424
 20
10.6551695021
 11
12.3963442417
 21
10.8801695021
  0
LINE
  5
2A7
100
AcDbEntity
  8
0
100
AcDbLine
 62
7
  6
CONTINUOUS
 10
12.7194700422
 20
10.8574348169
 11
12.7779935362
 21
10.6551695021
  0
LINE
  5
2A8
100
AcDbEntity
  8
0
100
AcDbLine
 62
7
  6
CONTINUOUS
 10
12.7976480129
 20
10.6994654598
 11
12.7467516484
 21
10.8801695021
  0
LINE
  5
2A9
100
AcDbEntity
  8
0
100
AcDbLine
 62
7
  6
CONTINUOUS
 10
11.430956229
 20
6.2573971328
 11
11.4492864425
 21
6.2773971328
  0
LINE
  5
2AA
100
AcDbEntity
  8
0
100
AcDbLine
 62
7
  6
CONTINUOUS
 10
11.4326923427
 20
6.2374695021
 11
11.4509924792
 21
6.2573971328
  0
LINE
  5
2AB
100
AcDbEntity
  8
0
100
AcDbLine
 62
9
  6
CONTINUOUS
 10
10.9376923427
 20
5.9114196409
 11
11.0909513608
 21
6.0501696409
  0
LINE
  5
2AC
100
AcDbEntity
  8
0
100
AcDbLine
 62
9
  6
CONTINUOUS
 10
10.9451407957
 20
5.9114196409
 11
11.0983998138
 21
6.0501696409
  0
LINE
  5
2AD
100
AcDbEntity
  8
0
100
AcDbLine
 62
7
  6
CONTINUOUS
 10
11.1496015573
 20
6.2773971328
 11
11.121972684
 21
6.2573971328
  0
LINE
  5
2AE
100
AcDbEntity
  8
0
100
AcDbLine
 62
7
  6
CONTINUOUS
 10
11.1427280561
 20
6.2374695021
 11
11.1703444711
 21
6.2573971328
  0
LINE
  5
2AF
100
AcDbEntity
  8
0
100
AcDbLine
 62
7
  6
CONTINUOUS
 10
11.0660319792
 20
11.5473142254
 11
11.1295424239
 21
11.5473142254
  0
LINE
  5
2B0
100
AcDbEntity
  8
0
100
AcDbLine
 62
7
  6
CONTINUOUS
 10
11.1621043341
 20
11.5473142254
 11
11.225614752
 21
11.5473142254
  0
LINE
  5
2B1
100
AcDbEntity
  8
0
100
AcDbLine
 62
7
  6
CONTINUOUS
 10
11.225614752
 20
11.5801695021
 11
11.0660319792
 21
11.5801695021
  0
LINE
  5
2B2
100
AcDbEntity
  8
0
100
AcDbLine
 62
7
  6
CONTINUOUS
 10
10.6488872576
 20
11.5801695021
 11
10.6814491862
 21
11.5801695021
  0
LINE
  5
2B3
100
AcDbEntity
  8
0
100
AcDbLine
 62
7
  6
CONTINUOUS
 10
10.7844152944
 20
11.5801695021
 11
10.816977218
 21
11.5801695021
  0
LINE
  5
2B4
100
AcDbEntity
  8
0
100
AcDbLine
 62
9
  6
CONTINUOUS
 10
10.9451407957
 20
5.9114196409
 11
11.3151407957
 21
6.0501696409
  0
LINE
  5
2B5
100
AcDbEntity
  8
0
100
AcDbLine
 62
7
  6
CONTINUOUS
 10
10.948226046
 20
5.9114196409
 11
11.318226046
 21
6.0501696409
  0
CIRCLE
  5
2B6
100
AcDbEntity
  8
0
100
AcDbCircle
 62
7
  6
CONTINUOUS
 10
10.9376923427
 20
9.2676695021
 40
3.875
  0
CIRCLE
  5
2B7
100
AcDbEntity
  8
0
100
AcDbCircle
 62
9
  6
CONTINUOUS
 10
10.9376923427
 20
9.2676695021
 40
3.625
  0
CIRCLE
  5
2B8
100
AcDbEntity
  8
0
100
AcDbCircle
 62
9
  6
CONTINUOUS
 10
10.9376923427
 20
9.2676695021
 40
3.4079209419
  0
ARC
  5
2B9
100
AcDbEntity
  8
0
100
AcDbCircle
 62
9
  6
CONTINUOUS
 10
10.9376923427
 20
9.2676695021
 40
3.1909161778
100
AcDbArc
 50
277.2013479161
 51
262.7986520838
  0
ARC
  5
2BA
100
AcDbEntity
  8
0
100
AcDbCircle
 62
9
  6
CONTINUOUS
 10
10.9376923427
 20
9.2676695021
 40
2.9739193698
100
AcDbArc
 50
279.8060560214
 51
260.1939439786
  0
ARC
  5
2BB
100
AcDbEntity
  8
0
100
AcDbCircle
 62
9
  6
CONTINUOUS
 10
10.9376923427
 20
9.2676695021
 40
2.7568387396
100
AcDbArc
 50
280.1954723156
 51
259.8045276843
  0
ARC
  5
2BC
100
AcDbEntity
  8
0
100
AcDbCircle
 62
7
  6
CONTINUOUS
 10
10.9376923427
 20
9.2676695021
 40
1.1875
100
AcDbArc
 50
287.3046578862
 51
252.6953421009
  0
CIRCLE
  5
2BD
100
AcDbEntity
  8
0
100
AcDbCircle
 62
7
  6
CONTINUOUS
 10
10.9376923427
 20
9.2676695021
 40
0.49
  0
ARC
  5
2BE
100
AcDbEntity
  8
0
100
AcDbCircle
 62
7
  6
CONTINUOUS
 10
10.7051923427
 20
8.7496695021
 40
0.05
100
AcDbArc
 50
270.0
 51
360.0
  0
ARC
  5
2BF
100
AcDbEntity
  8
0
100
AcDbCircle
 62
7
  6
CONTINUOUS
 10
10.6576923427
 20
8.6496695021
 40
0.05
100
AcDbArc
 50
90.0
 51
270.0
  0
ARC
  5
2C0
100
AcDbEntity
  8
0
100
AcDbCircle
 62
7
  6
CONTINUOUS
 10
11.1701923427
 20
8.7496695021
 40
0.05
100
AcDbArc
 50
180.0
 51
270.0
  0
ARC
  5
2C1
100
AcDbEntity
  8
0
100
AcDbCircle
 62
7
  6
CONTINUOUS
 10
11.2176923427
 20
8.6496695021
 40
0.05
100
AcDbArc
 50
270.0
 51
90.0
  0
ARC
  5
2C2
100
AcDbEntity
  8
0
100
AcDbCircle
 62
7
  6
CONTINUOUS
 10
10.9376923427
 20
5.9395095278
 40
0.0300000109
100
AcDbArc
 50
249.4439625955
 51
290.5560374045
  0
ARC
  5
2C3
100
AcDbEntity
  8
0
100
AcDbCircle
 62
7
  6
CONTINUOUS
 10
10.5676923427
 20
6.0782595162
 40
0.03
100
AcDbArc
 50
180.0
 51
249.4439547804
  0
ARC
  5
2C4
100
AcDbEntity
  8
0
100
AcDbCircle
 62
7
  6
CONTINUOUS
 10
11.3076923427
 20
6.0782595162
 40
0.03
100
AcDbArc
 50
290.5560452196
 51
359.9999999717
  0
ARC
  5
2C5
100
AcDbEntity
  8
0
100
AcDbCircle
 62
7
  6
CONTINUOUS
 10
10.4776923427
 20
6.1674695021
 40
0.03
100
AcDbArc
 50
180.0
 51
270.0
  0
ARC
  5
2C6
100
AcDbEntity
  8
0
100
AcDbCircle
 62
7
  6
CONTINUOUS
 10
11.3976923427
 20
6.1674695021
 40
0.03
100
AcDbArc
 50
270.0
 51
360.0
  0
SPLINE
  5
2C7
100
AcDbEntity
  8
0
100
AcDbSpline
 62
7
  6
CONTINUOUS
 70
0
 71
3
 72
8
 73
4
 74
0
 42
0.0000001
 43
0.0000001
 44
0.0000000001
 40
0.0
 40
0.0
 40
0.0
 40
0.0
 40
1.0
 40
1.0
 40
1.0
 40
1.0
 10
10.9514785336
 20
11.3506225661
 30
0.0
 10
10.981693645
 20
11.3506225661
 30
0.0
 10
11.00486836
 20
11.3610365167
 30
0.0
 10
11.0211493149
 20
11.3821577687
 30
0.0
  0
SPLINE
  5
2C8
100
AcDbEntity
  8
0
100
AcDbSpline
 62
7
  6
CONTINUOUS
 70
0
 71
3
 72
8
 73
4
 74
0
 42
0.0000001
 43
0.0000001
 44
0.0000000001
 40
0.0
 40
0.0
 40
0.0
 40
0.0
 40
1.0
 40
1.0
 40
1.0
 40
1.0
 10
11.0211493149
 20
11.3821577687
 30
0.0
 10
11.0374302702
 20
11.4032790213
 30
0.0
 10
11.0456441061
 20
11.4332007962
 30
0.0
 10
11.0456441061
 20
11.4722164365
 30
0.0
  0
SPLINE
  5
2C9
100
AcDbEntity
  8
0
100
AcDbSpline
 62
7
  6
CONTINUOUS
 70
0
 71
3
 72
8
 73
4
 74
0
 42
0.0000001
 43
0.0000001
 44
0.0000000001
 40
0.0
 40
0.0
 40
0.0
 40
0.0
 40
1.0
 40
1.0
 40
1.0
 40
1.0
 10
11.0456441061
 20
11.4722164365
 30
0.0
 10
11.0456441061
 20
11.5107920604
 30
0.0
 10
11.0378703134
 20
11.5388070496
 30
0.0
 10
11.0225729481
 20
11.5571053317
 30
0.0
  0
SPLINE
  5
2CA
100
AcDbEntity
  8
0
100
AcDbSpline
 62
7
  6
CONTINUOUS
 70
0
 71
3
 72
8
 73
4
 74
0
 42
0.0000001
 43
0.0000001
 44
0.0000000001
 40
0.0
 40
0.0
 40
0.0
 40
0.0
 40
1.0
 40
1.0
 40
1.0
 40
1.0
 10
11.0225729481
 20
11.5571053317
 30
0.0
 10
11.0072151588
 20
11.5754758912
 30
0.0
 10
10.9834537642
 20
11.5847164365
 30
0.0
 10
10.9514785336
 20
11.5847164365
 30
0.0
  0
SPLINE
  5
2CB
100
AcDbEntity
  8
0
100
AcDbSpline
 62
7
  6
CONTINUOUS
 70
0
 71
3
 72
8
 73
4
 74
0
 42
0.0000001
 43
0.0000001
 44
0.0000000001
 40
0.0
 40
0.0
 40
0.0
 40
0.0
 40
1.0
 40
1.0
 40
1.0
 40
1.0
 10
10.9514785336
 20
11.5847164365
 30
0.0
 10
10.9214100854
 20
11.5847164365
 30
0.0
 10
10.8982353704
 20
11.5748891848
 30
0.0
 10
10.8819113858
 20
11.5554175257
 30
0.0
  0
SPLINE
  5
2CC
100
AcDbEntity
  8
0
100
AcDbSpline
 62
7
  6
CONTINUOUS
 70
0
 71
3
 72
8
 73
4
 74
0
 42
0.0000001
 43
0.0000001
 44
0.0000000001
 40
0.0
 40
0.0
 40
0.0
 40
0.0
 40
1.0
 40
1.0
 40
1.0
 40
1.0
 10
10.8819113858
 20
11.5554175257
 30
0.0
 10
10.8655267702
 20
11.5358735445
 30
0.0
 10
10.8574596243
 20
11.5081518951
 30
0.0
 10
10.8574596243
 20
11.4722164365
 30
0.0
  0
SPLINE
  5
2CD
100
AcDbEntity
  8
0
100
AcDbSpline
 62
7
  6
CONTINUOUS
 70
0
 71
3
 72
8
 73
4
 74
0
 42
0.0000001
 43
0.0000001
 44
0.0000000001
 40
0.0
 40
0.0
 40
0.0
 40
0.0
 40
1.0
 40
1.0
 40
1.0
 40
1.0
 10
10.8574596243
 20
11.4722164365
 30
0.0
 10
10.8574596243
 20
11.4332007962
 30
0.0
 10
10.8655267702
 20
11.4032790213
 30
0.0
 10
10.8819085233
 20
11.3821223139
 30
0.0
  0
SPLINE
  5
2CE
100
AcDbEntity
  8
0
100
AcDbSpline
 62
7
  6
CONTINUOUS
 70
0
 71
3
 72
8
 73
4
 74
0
 42
0.0000001
 43
0.0000001
 44
0.0000000001
 40
0.0
 40
0.0
 40
0.0
 40
0.0
 40
1.0
 40
1.0
 40
1.0
 40
1.0
 10
10.8819085233
 20
11.3821223139
 30
0.0
 10
10.8982353704
 20
11.3610365167
 30
0.0
 10
10.9214100854
 20
11.3506225661
 30
0.0
 10
10.9514785336
 20
11.3506225661
 30
0.0
  0
SPLINE
  5
2CF
100
AcDbEntity
  8
0
100
AcDbSpline
 62
7
  6
CONTINUOUS
 70
0
 71
3
 72
8
 73
4
 74
0
 42
0.0000001
 43
0.0000001
 44
0.0000000001
 40
0.0
 40
0.0
 40
0.0
 40
0.0
 40
1.0
 40
1.0
 40
1.0
 40
1.0
 10
12.5782216968
 20
10.7513885404
 30
0.0
 10
12.6009563687
 20
10.7515352103
 30
0.0
 10
12.6182640734
 20
10.7572555507
 30
0.0
 10
12.6299613705
 20
10.7687335316
 30
0.0
  0
SPLINE
  5
2D0
100
AcDbEntity
  8
0
100
AcDbSpline
 62
7
  6
CONTINUOUS
 70
0
 71
3
 72
8
 73
4
 74
0
 42
0.0000001
 43
0.0000001
 44
0.0000000001
 40
0.0
 40
0.0
 40
0.0
 40
0.0
 40
1.0
 40
1.0
 40
1.0
 40
1.0
 10
12.6299613705
 20
10.7687335316
 30
0.0
 10
12.6417321148
 20
10.7802835825
 30
0.0
 10
12.6477457883
 20
10.7977379503
 30
0.0
 10
12.6477457883
 20
10.820912652
 30
0.0
  0
SPLINE
  5
2D1
100
AcDbEntity
  8
0
100
AcDbSpline
 62
7
  6
CONTINUOUS
 70
0
 71
3
 72
8
 73
4
 74
0
 42
0.0000001
 43
0.0000001
 44
0.0000000001
 40
0.0
 40
0.0
 40
0.0
 40
0.0
 40
1.0
 40
1.0
 40
1.0
 40
1.0
 10
12.6477457883
 20
10.820912652
 30
0.0
 10
12.6477457883
 20
10.8398337724
 30
0.0
 10
12.6420254411
 20
10.8545013117
 30
0.0
 10
12.6308447641
 20
10.8647320137
 30
0.0
  0
SPLINE
  5
2D2
100
AcDbEntity
  8
0
100
AcDbSpline
 62
7
  6
CONTINUOUS
 70
0
 71
3
 72
8
 73
4
 74
0
 42
0.0000001
 43
0.0000001
 44
0.0000000001
 40
0.0
 40
0.0
 40
0.0
 40
0.0
 40
1.0
 40
1.0
 40
1.0
 40
1.0
 10
12.6308447641
 20
10.8647320137
 30
0.0
 10
12.6195841493
 20
10.8750358614
 30
0.0
 10
12.6035965206
 20
10.8801695021
 30
0.0
 10
12.5827686312
 20
10.8801695021
 30
0.0
  0
SPLINE
  5
2D3
100
AcDbEntity
  8
0
100
AcDbSpline
 62
7
  6
CONTINUOUS
 70
0
 71
3
 72
8
 73
4
 74
0
 42
0.0000001
 43
0.0000001
 44
0.0000000001
 40
0.0
 40
0.0
 40
0.0
 40
0.0
 40
1.0
 40
1.0
 40
1.0
 40
1.0
 10
12.2387757801
 20
7.7180932338
 30
0.0
 10
12.2255750068
 20
7.7035723711
 30
0.0
 10
12.2141343259
 20
7.6935984461
 30
0.0
 10
12.2047282616
 20
7.6880568884
 30
0.0
  0
SPLINE
  5
2D4
100
AcDbEntity
  8
0
100
AcDbSpline
 62
7
  6
CONTINUOUS
 70
0
 71
3
 72
8
 73
4
 74
0
 42
0.0000001
 43
0.0000001
 44
0.0000000001
 40
0.0
 40
0.0
 40
0.0
 40
0.0
 40
1.0
 40
1.0
 40
1.0
 40
1.0
 10
12.2047282616
 20
7.6880568884
 30
0.0
 10
12.1952132054
 20
7.6824511184
 30
0.0
 10
12.1846525841
 20
7.6798109631
 30
0.0
 10
12.1730652266
 20
7.6798109631
 30
0.0
  0
SPLINE
  5
2D5
100
AcDbEntity
  8
0
100
AcDbSpline
 62
7
  6
CONTINUOUS
 70
0
 71
3
 72
8
 73
4
 74
0
 42
0.0000001
 43
0.0000001
 44
0.0000000001
 40
0.0
 40
0.0
 40
0.0
 40
0.0
 40
1.0
 40
1.0
 40
1.0
 40
1.0
 10
12.1730652266
 20
7.6798109631
 30
0.0
 10
12.1538507529
 20
7.6798109631
 30
0.0
 10
12.1390365437
 20
7.6874380826
 30
0.0
 10
12.1285722434
 20
7.7029515876
 30
0.0
  0
SPLINE
  5
2D6
100
AcDbEntity
  8
0
100
AcDbSpline
 62
7
  6
CONTINUOUS
 70
0
 71
3
 72
8
 73
4
 74
0
 42
0.0000001
 43
0.0000001
 44
0.0000000001
 40
0.0
 40
0.0
 40
0.0
 40
0.0
 40
1.0
 40
1.0
 40
1.0
 40
1.0
 10
12.1285722434
 20
7.7029515876
 30
0.0
 10
12.1180619643
 20
7.7185332569
 30
0.0
 10
12.1129283269
 20
7.7405345591
 30
0.0
 10
12.1129283269
 20
7.7691362547
 30
0.0
  0
SPLINE
  5
2D7
100
AcDbEntity
  8
0
100
AcDbSpline
 62
7
  6
CONTINUOUS
 70
0
 71
3
 72
8
 73
4
 74
0
 42
0.0000001
 43
0.0000001
 44
0.0000000001
 40
0.0
 40
0.0
 40
0.0
 40
0.0
 40
1.0
 40
1.0
 40
1.0
 40
1.0
 10
12.1129283269
 20
7.7691362547
 30
0.0
 10
12.1129283269
 20
7.7955378147
 30
0.0
 10
12.1180619643
 20
7.8159257012
 30
0.0
 10
12.1285746694
 20
7.8303347157
 30
0.0
  0
SPLINE
  5
2D8
100
AcDbEntity
  8
0
100
AcDbSpline
 62
7
  6
CONTINUOUS
 70
0
 71
3
 72
8
 73
4
 74
0
 42
0.0000001
 43
0.0000001
 44
0.0000000001
 40
0.0
 40
0.0
 40
0.0
 40
0.0
 40
1.0
 40
1.0
 40
1.0
 40
1.0
 10
12.1285746694
 20
7.8303347157
 30
0.0
 10
12.1390365437
 20
7.84467406
 30
0.0
 10
12.1538507529
 20
7.8518611597
 30
0.0
 10
12.1730652266
 20
7.8518611597
 30
0.0
  0
SPLINE
  5
2D9
100
AcDbEntity
  8
0
100
AcDbSpline
 62
7
  6
CONTINUOUS
 70
0
 71
3
 72
8
 73
4
 74
0
 42
0.0000001
 43
0.0000001
 44
0.0000000001
 40
0.0
 40
0.0
 40
0.0
 40
0.0
 40
1.0
 40
1.0
 40
1.0
 40
1.0
 10
12.1730652266
 20
7.8518611597
 30
0.0
 10
12.1874394127
 20
7.8518611597
 30
0.0
 10
12.2003468462
 20
7.8484876248
 30
0.0
 10
12.2117875184
 20
7.8417405627
 30
0.0
  0
SPLINE
  5
2DA
100
AcDbEntity
  8
0
100
AcDbSpline
 62
7
  6
CONTINUOUS
 70
0
 71
3
 72
8
 73
4
 74
0
 42
0.0000001
 43
0.0000001
 44
0.0000000001
 40
0.0
 40
0.0
 40
0.0
 40
0.0
 40
1.0
 40
1.0
 40
1.0
 40
1.0
 10
12.2117875184
 20
7.8417405627
 30
0.0
 10
12.2232281946
 20
7.8349934983
 30
0.0
 10
12.2321754002
 20
7.8254595997
 30
0.0
 10
12.2387757801
 20
7.8131388592
 30
0.0
  0
SPLINE
  5
2DB
100
AcDbEntity
  8
0
100
AcDbSpline
 62
7
  6
CONTINUOUS
 70
0
 71
3
 72
8
 73
4
 74
0
 42
0.0000001
 43
0.0000001
 44
0.0000000001
 40
0.0
 40
0.0
 40
0.0
 40
0.0
 40
1.0
 40
1.0
 40
1.0
 40
1.0
 10
12.2387757801
 20
7.8577281701
 30
0.0
 10
12.231148664
 20
7.8668220388
 30
0.0
 10
12.2219081186
 20
7.8735691088
 30
0.0
 10
12.2107607932
 20
7.8779693724
 30
0.0
  0
SPLINE
  5
2DC
100
AcDbEntity
  8
0
100
AcDbSpline
 62
7
  6
CONTINUOUS
 70
0
 71
3
 72
8
 73
4
 74
0
 42
0.0000001
 43
0.0000001
 44
0.0000000001
 40
0.0
 40
0.0
 40
0.0
 40
0.0
 40
1.0
 40
1.0
 40
1.0
 40
1.0
 10
12.2107607932
 20
7.8779693724
 30
0.0
 10
12.1996134632
 20
7.8823696377
 30
0.0
 10
12.1865593531
 20
7.8847164365
 30
0.0
 10
12.1714517974
 20
7.8847164365
 30
0.0
  0
SPLINE
  5
2DD
100
AcDbEntity
  8
0
100
AcDbSpline
 62
7
  6
CONTINUOUS
 70
0
 71
3
 72
8
 73
4
 74
0
 42
0.0000001
 43
0.0000001
 44
0.0000000001
 40
0.0
 40
0.0
 40
0.0
 40
0.0
 40
1.0
 40
1.0
 40
1.0
 40
1.0
 10
12.1714517974
 20
7.8847164365
 30
0.0
 10
12.1422634021
 20
7.8847164365
 30
0.0
 10
12.1198220701
 20
7.8748891848
 30
0.0
 10
12.1039811342
 20
7.8553813691
 30
0.0
  0
SPLINE
  5
2DE
100
AcDbEntity
  8
0
100
AcDbSpline
 62
7
  6
CONTINUOUS
 70
0
 71
3
 72
8
 73
4
 74
0
 42
0.0000001
 43
0.0000001
 44
0.0000000001
 40
0.0
 40
0.0
 40
0.0
 40
0.0
 40
1.0
 40
1.0
 40
1.0
 40
1.0
 10
12.1039811342
 20
7.8553813691
 30
0.0
 10
12.088140191
 20
7.8358735445
 30
0.0
 10
12.0803663974
 20
7.8081518951
 30
0.0
 10
12.0803663974
 20
7.7722164365
 30
0.0
  0
SPLINE
  5
2DF
100
AcDbEntity
  8
0
100
AcDbSpline
 62
7
  6
CONTINUOUS
 70
0
 71
3
 72
8
 73
4
 74
0
 42
0.0000001
 43
0.0000001
 44
0.0000000001
 40
0.0
 40
0.0
 40
0.0
 40
0.0
 40
1.0
 40
1.0
 40
1.0
 40
1.0
 10
12.0803663974
 20
7.7722164365
 30
0.0
 10
12.0803663974
 20
7.7332007962
 30
0.0
 10
12.088140191
 20
7.7032790213
 30
0.0
 10
12.103981131
 20
7.6821577683
 30
0.0
  0
SPLINE
  5
2E0
100
AcDbEntity
  8
0
100
AcDbSpline
 62
7
  6
CONTINUOUS
 70
0
 71
3
 72
8
 73
4
 74
0
 42
0.0000001
 43
0.0000001
 44
0.0000000001
 40
0.0
 40
0.0
 40
0.0
 40
0.0
 40
1.0
 40
1.0
 40
1.0
 40
1.0
 10
12.103981131
 20
7.6821577683
 30
0.0
 10
12.1198220701
 20
7.6610365167
 30
0.0
 10
12.1422634021
 20
7.6506225661
 30
0.0
 10
12.1714517974
 20
7.6506225661
 30
0.0
  0
SPLINE
  5
2E1
100
AcDbEntity
  8
0
100
AcDbSpline
 62
7
  6
CONTINUOUS
 70
0
 71
3
 72
8
 73
4
 74
0
 42
0.0000001
 43
0.0000001
 44
0.0000000001
 40
0.0
 40
0.0
 40
0.0
 40
0.0
 40
1.0
 40
1.0
 40
1.0
 40
1.0
 10
12.1714517974
 20
7.6506225661
 30
0.0
 10
12.1849459239
 20
7.6506225661
 30
0.0
 10
12.1977066808
 20
7.6534093978
 30
0.0
 10
12.2094133646
 20
7.6586042395
 30
0.0
  0
SPLINE
  5
2E2
100
AcDbEntity
  8
0
100
AcDbSpline
 62
7
  6
CONTINUOUS
 70
0
 71
3
 72
8
 73
4
 74
0
 42
0.0000001
 43
0.0000001
 44
0.0000000001
 40
0.0
 40
0.0
 40
0.0
 40
0.0
 40
1.0
 40
1.0
 40
1.0
 40
1.0
 10
12.2094133646
 20
7.6586042395
 30
0.0
 10
12.2211747356
 20
7.6638233486
 30
0.0
 10
12.2310019874
 20
7.6713037924
 30
0.0
 10
12.2387757801
 20
7.6809843658
 30
0.0
  0
SPLINE
  5
2E3
100
AcDbEntity
  8
0
100
AcDbSpline
 62
7
  6
CONTINUOUS
 70
0
 71
3
 72
8
 73
4
 74
0
 42
0.0000001
 43
0.0000001
 44
0.0000000001
 40
0.0
 40
0.0
 40
0.0
 40
0.0
 40
1.0
 40
1.0
 40
1.0
 40
1.0
 10
12.3586095431
 20
7.6506225661
 30
0.0
 10
12.3888246813
 20
7.6506225661
 30
0.0
 10
12.4119993963
 20
7.6610365167
 30
0.0
 10
12.4282803512
 20
7.6821577687
 30
0.0
  0
SPLINE
  5
2E4
100
AcDbEntity
  8
0
100
AcDbSpline
 62
7
  6
CONTINUOUS
 70
0
 71
3
 72
8
 73
4
 74
0
 42
0.0000001
 43
0.0000001
 44
0.0000000001
 40
0.0
 40
0.0
 40
0.0
 40
0.0
 40
1.0
 40
1.0
 40
1.0
 40
1.0
 10
12.4282803512
 20
7.6821577687
 30
0.0
 10
12.4445613065
 20
7.7032790213
 30
0.0
 10
12.4527751424
 20
7.7332007962
 30
0.0
 10
12.4527751424
 20
7.7722164365
 30
0.0
  0
SPLINE
  5
2E5
100
AcDbEntity
  8
0
100
AcDbSpline
 62
7
  6
CONTINUOUS
 70
0
 71
3
 72
8
 73
4
 74
0
 42
0.0000001
 43
0.0000001
 44
0.0000000001
 40
0.0
 40
0.0
 40
0.0
 40
0.0
 40
1.0
 40
1.0
 40
1.0
 40
1.0
 10
12.4527751424
 20
7.7722164365
 30
0.0
 10
12.4527751424
 20
7.8107920604
 30
0.0
 10
12.4450013497
 20
7.8388070496
 30
0.0
 10
12.4297039733
 20
7.8571053449
 30
0.0
  0
SPLINE
  5
2E6
100
AcDbEntity
  8
0
100
AcDbSpline
 62
7
  6
CONTINUOUS
 70
0
 71
3
 72
8
 73
4
 74
0
 42
0.0000001
 43
0.0000001
 44
0.0000000001
 40
0.0
 40
0.0
 40
0.0
 40
0.0
 40
1.0
 40
1.0
 40
1.0
 40
1.0
 10
12.4297039733
 20
7.8571053449
 30
0.0
 10
12.4143461951
 20
7.8754758912
 30
0.0
 10
12.3905847736
 20
7.8847164365
 30
0.0
 10
12.3586095431
 20
7.8847164365
 30
0.0
  0
SPLINE
  5
2E7
100
AcDbEntity
  8
0
100
AcDbSpline
 62
7
  6
CONTINUOUS
 70
0
 71
3
 72
8
 73
4
 74
0
 42
0.0000001
 43
0.0000001
 44
0.0000000001
 40
0.0
 40
0.0
 40
0.0
 40
0.0
 40
1.0
 40
1.0
 40
1.0
 40
1.0
 10
12.3586095431
 20
7.8847164365
 30
0.0
 10
12.3285410949
 20
7.8847164365
 30
0.0
 10
12.3053664067
 20
7.8748891848
 30
0.0
 10
12.2890424126
 20
7.8554175224
 30
0.0
  0
SPLINE
  5
2E8
100
AcDbEntity
  8
0
100
AcDbSpline
 62
7
  6
CONTINUOUS
 70
0
 71
3
 72
8
 73
4
 74
0
 42
0.0000001
 43
0.0000001
 44
0.0000000001
 40
0.0
 40
0.0
 40
0.0
 40
0.0
 40
1.0
 40
1.0
 40
1.0
 40
1.0
 10
12.2890424126
 20
7.8554175224
 30
0.0
 10
12.2726577931
 20
7.8358735445
 30
0.0
 10
12.2645906471
 20
7.8081518951
 30
0.0
 10
12.2645906471
 20
7.7722164365
 30
0.0
  0
SPLINE
  5
2E9
100
AcDbEntity
  8
0
100
AcDbSpline
 62
7
  6
CONTINUOUS
 70
0
 71
3
 72
8
 73
4
 74
0
 42
0.0000001
 43
0.0000001
 44
0.0000000001
 40
0.0
 40
0.0
 40
0.0
 40
0.0
 40
1.0
 40
1.0
 40
1.0
 40
1.0
 10
12.2645906471
 20
7.7722164365
 30
0.0
 10
12.2645906471
 20
7.7332007962
 30
0.0
 10
12.2726577931
 20
7.7032790213
 30
0.0
 10
12.2890395504
 20
7.6821223171
 30
0.0
  0
SPLINE
  5
2EA
100
AcDbEntity
  8
0
100
AcDbSpline
 62
7
  6
CONTINUOUS
 70
0
 71
3
 72
8
 73
4
 74
0
 42
0.0000001
 43
0.0000001
 44
0.0000000001
 40
0.0
 40
0.0
 40
0.0
 40
0.0
 40
1.0
 40
1.0
 40
1.0
 40
1.0
 10
12.2890395504
 20
7.6821223171
 30
0.0
 10
12.3053664067
 20
7.6610365167
 30
0.0
 10
12.3285410949
 20
7.6506225661
 30
0.0
 10
12.3586095431
 20
7.6506225661
 30
0.0
  0
SPLINE
  5
2EB
100
AcDbEntity
  8
0
100
AcDbSpline
 62
7
  6
CONTINUOUS
 70
0
 71
3
 72
8
 73
4
 74
0
 42
0.0000001
 43
0.0000001
 44
0.0000000001
 40
0.0
 40
0.0
 40
0.0
 40
0.0
 40
1.0
 40
1.0
 40
1.0
 40
1.0
 10
12.7157640734
 20
7.6551695021
 30
0.0
 10
12.7474459507
 20
7.6551695021
 30
0.0
 10
12.7725273945
 20
7.6655834527
 30
0.0
 10
12.7911502889
 20
7.6867090093
 30
0.0
  0
SPLINE
  5
2EC
100
AcDbEntity
  8
0
100
AcDbSpline
 62
7
  6
CONTINUOUS
 70
0
 71
3
 72
8
 73
4
 74
0
 42
0.0000001
 43
0.0000001
 44
0.0000000001
 40
0.0
 40
0.0
 40
0.0
 40
0.0
 40
1.0
 40
1.0
 40
1.0
 40
1.0
 10
12.7911502889
 20
7.6867090093
 30
0.0
 10
12.8096362927
 20
7.707679279
 30
0.0
 10
12.8190234878
 20
7.7361343014
 30
0.0
 10
12.8190234878
 20
7.7720697599
 30
0.0
  0
SPLINE
  5
2ED
100
AcDbEntity
  8
0
100
AcDbSpline
 62
7
  6
CONTINUOUS
 70
0
 71
3
 72
8
 73
4
 74
0
 42
0.0000001
 43
0.0000001
 44
0.0000000001
 40
0.0
 40
0.0
 40
0.0
 40
0.0
 40
1.0
 40
1.0
 40
1.0
 40
1.0
 10
12.8190234878
 20
7.7720697599
 30
0.0
 10
12.8190234878
 20
7.8091786312
 30
0.0
 10
12.8115430751
 20
7.8360202211
 30
0.0
 10
12.7964979062
 20
7.8535485663
 30
0.0
  0
SPLINE
  5
2EE
100
AcDbEntity
  8
0
100
AcDbSpline
 62
7
  6
CONTINUOUS
 70
0
 71
3
 72
8
 73
4
 74
0
 42
0.0000001
 43
0.0000001
 44
0.0000000001
 40
0.0
 40
0.0
 40
0.0
 40
0.0
 40
1.0
 40
1.0
 40
1.0
 40
1.0
 10
12.7964979062
 20
7.8535485663
 30
0.0
 10
12.7813279369
 20
7.87122231
 30
0.0
 10
12.7580065586
 20
7.8801695021
 30
0.0
 10
12.7266180076
 20
7.8801695021
 30
0.0
  0
SPLINE
  5
2EF
100
AcDbEntity
  8
0
100
AcDbSpline
 62
7
  6
CONTINUOUS
 70
0
 71
3
 72
8
 73
4
 74
0
 42
0.0000001
 43
0.0000001
 44
0.0000000001
 40
0.0
 40
0.0
 40
0.0
 40
0.0
 40
1.0
 40
1.0
 40
1.0
 40
1.0
 10
10.9970446521
 20
11.4030199257
 30
0.0
 10
10.9863872694
 20
11.3874380826
 30
0.0
 10
10.9711330102
 20
11.3798109631
 30
0.0
 10
10.9514785336
 20
11.3798109631
 30
0.0
  0
SPLINE
  5
2F0
100
AcDbEntity
  8
0
100
AcDbSpline
 62
7
  6
CONTINUOUS
 70
0
 71
3
 72
8
 73
4
 74
0
 42
0.0000001
 43
0.0000001
 44
0.0000000001
 40
0.0
 40
0.0
 40
0.0
 40
0.0
 40
1.0
 40
1.0
 40
1.0
 40
1.0
 10
11.0130821692
 20
11.4691362547
 30
0.0
 10
11.0130821692
 20
11.4405345591
 30
0.0
 10
11.0076551752
 20
11.4185332569
 30
0.0
 10
10.9970446521
 20
11.4030199257
 30
0.0
  0
SPLINE
  5
2F1
100
AcDbEntity
  8
0
100
AcDbSpline
 62
7
  6
CONTINUOUS
 70
0
 71
3
 72
8
 73
4
 74
0
 42
0.0000001
 43
0.0000001
 44
0.0000000001
 40
0.0
 40
0.0
 40
0.0
 40
0.0
 40
1.0
 40
1.0
 40
1.0
 40
1.0
 10
10.9987079965
 20
11.5323533329
 30
0.0
 10
11.0083885716
 20
11.5194458994
 30
0.0
 10
11.0130821692
 20
11.4983246567
 30
0.0
 10
11.0130821692
 20
11.4691362547
 30
0.0
  0
SPLINE
  5
2F2
100
AcDbEntity
  8
0
100
AcDbSpline
 62
7
  6
CONTINUOUS
 70
0
 71
3
 72
8
 73
4
 74
0
 42
0.0000001
 43
0.0000001
 44
0.0000000001
 40
0.0
 40
0.0
 40
0.0
 40
0.0
 40
1.0
 40
1.0
 40
1.0
 40
1.0
 10
10.9514785336
 20
11.5518611597
 30
0.0
 10
10.9731864826
 20
11.5518611597
 30
0.0
 10
10.9890274213
 20
11.5452607664
 30
0.0
 10
10.9987079965
 20
11.5323533329
 30
0.0
  0
SPLINE
  5
2F3
100
AcDbEntity
  8
0
100
AcDbSpline
 62
7
  6
CONTINUOUS
 70
0
 71
3
 72
8
 73
4
 74
0
 42
0.0000001
 43
0.0000001
 44
0.0000000001
 40
0.0
 40
0.0
 40
0.0
 40
0.0
 40
1.0
 40
1.0
 40
1.0
 40
1.0
 10
10.9059617087
 20
11.5303348593
 30
0.0
 10
10.9165697979
 20
11.54467406
 30
0.0
 10
10.9318240301
 20
11.5518611597
 30
0.0
 10
10.9514785336
 20
11.5518611597
 30
0.0
  0
SPLINE
  5
2F4
100
AcDbEntity
  8
0
100
AcDbSpline
 62
7
  6
CONTINUOUS
 70
0
 71
3
 72
8
 73
4
 74
0
 42
0.0000001
 43
0.0000001
 44
0.0000000001
 40
0.0
 40
0.0
 40
0.0
 40
0.0
 40
1.0
 40
1.0
 40
1.0
 40
1.0
 10
10.8900215344
 20
11.4691362547
 30
0.0
 10
10.8900215344
 20
11.4955378147
 30
0.0
 10
10.8953018652
 20
11.5159257012
 30
0.0
 10
10.9059617087
 20
11.5303348593
 30
0.0
  0
SPLINE
  5
2F5
100
AcDbEntity
  8
0
100
AcDbSpline
 62
7
  6
CONTINUOUS
 70
0
 71
3
 72
8
 73
4
 74
0
 42
0.0000001
 43
0.0000001
 44
0.0000000001
 40
0.0
 40
0.0
 40
0.0
 40
0.0
 40
1.0
 40
1.0
 40
1.0
 40
1.0
 10
10.9059592586
 20
11.4029514177
 30
0.0
 10
10.8953018652
 20
11.4185332569
 30
0.0
 10
10.8900215344
 20
11.4405345591
 30
0.0
 10
10.8900215344
 20
11.4691362547
 30
0.0
  0
SPLINE
  5
2F6
100
AcDbEntity
  8
0
100
AcDbSpline
 62
7
  6
CONTINUOUS
 70
0
 71
3
 72
8
 73
4
 74
0
 42
0.0000001
 43
0.0000001
 44
0.0000000001
 40
0.0
 40
0.0
 40
0.0
 40
0.0
 40
1.0
 40
1.0
 40
1.0
 40
1.0
 10
10.9514785336
 20
11.3798109631
 30
0.0
 10
10.9318240301
 20
11.3798109631
 30
0.0
 10
10.9165697979
 20
11.3874380826
 30
0.0
 10
10.9059592586
 20
11.4029514177
 30
0.0
  0
SPLINE
  5
2F7
100
AcDbEntity
  8
0
100
AcDbSpline
 62
7
  6
CONTINUOUS
 70
0
 71
3
 72
8
 73
4
 74
0
 42
0.0000001
 43
0.0000001
 44
0.0000000001
 40
0.0
 40
0.0
 40
0.0
 40
0.0
 40
1.0
 40
1.0
 40
1.0
 40
1.0
 10
12.4041756707
 20
7.7030199195
 30
0.0
 10
12.3935182788
 20
7.6874380826
 30
0.0
 10
12.3782640465
 20
7.6798109631
 30
0.0
 10
12.3586095431
 20
7.6798109631
 30
0.0
  0
SPLINE
  5
2F8
100
AcDbEntity
  8
0
100
AcDbSpline
 62
7
  6
CONTINUOUS
 70
0
 71
3
 72
8
 73
4
 74
0
 42
0.0000001
 43
0.0000001
 44
0.0000000001
 40
0.0
 40
0.0
 40
0.0
 40
0.0
 40
1.0
 40
1.0
 40
1.0
 40
1.0
 10
12.4202132054
 20
7.7691362547
 30
0.0
 10
12.4202132054
 20
7.7405345591
 30
0.0
 10
12.4147862115
 20
7.7185332569
 30
0.0
 10
12.4041756707
 20
7.7030199195
 30
0.0
  0
SPLINE
  5
2F9
100
AcDbEntity
  8
0
100
AcDbSpline
 62
7
  6
CONTINUOUS
 70
0
 71
3
 72
8
 73
4
 74
0
 42
0.0000001
 43
0.0000001
 44
0.0000000001
 40
0.0
 40
0.0
 40
0.0
 40
0.0
 40
1.0
 40
1.0
 40
1.0
 40
1.0
 10
12.4058390145
 20
7.8323533393
 30
0.0
 10
12.4155195811
 20
7.8194458994
 30
0.0
 10
12.4202132054
 20
7.7983246567
 30
0.0
 10
12.4202132054
 20
7.7691362547
 30
0.0
  0
SPLINE
  5
2FA
100
AcDbEntity
  8
0
100
AcDbSpline
 62
7
  6
CONTINUOUS
 70
0
 71
3
 72
8
 73
4
 74
0
 42
0.0000001
 43
0.0000001
 44
0.0000000001
 40
0.0
 40
0.0
 40
0.0
 40
0.0
 40
1.0
 40
1.0
 40
1.0
 40
1.0
 10
12.3586095431
 20
7.8518611597
 30
0.0
 10
12.3803175189
 20
7.8518611597
 30
0.0
 10
12.3961584576
 20
7.8452607664
 30
0.0
 10
12.4058390145
 20
7.8323533393
 30
0.0
  0
SPLINE
  5
2FB
100
AcDbEntity
  8
0
100
AcDbSpline
 62
7
  6
CONTINUOUS
 70
0
 71
3
 72
8
 73
4
 74
0
 42
0.0000001
 43
0.0000001
 44
0.0000000001
 40
0.0
 40
0.0
 40
0.0
 40
0.0
 40
1.0
 40
1.0
 40
1.0
 40
1.0
 10
12.3130927362
 20
7.8303348657
 30
0.0
 10
12.3237008073
 20
7.84467406
 30
0.0
 10
12.3389550664
 20
7.8518611597
 30
0.0
 10
12.3586095431
 20
7.8518611597
 30
0.0
  0
SPLINE
  5
2FC
100
AcDbEntity
  8
0
100
AcDbSpline
 62
7
  6
CONTINUOUS
 70
0
 71
3
 72
8
 73
4
 74
0
 42
0.0000001
 43
0.0000001
 44
0.0000000001
 40
0.0
 40
0.0
 40
0.0
 40
0.0
 40
1.0
 40
1.0
 40
1.0
 40
1.0
 10
12.2971525707
 20
7.7691362547
 30
0.0
 10
12.2971525707
 20
7.7955378147
 30
0.0
 10
12.3024329015
 20
7.8159257012
 30
0.0
 10
12.3130927362
 20
7.8303348657
 30
0.0
  0
SPLINE
  5
2FD
100
AcDbEntity
  8
0
100
AcDbSpline
 62
7
  6
CONTINUOUS
 70
0
 71
3
 72
8
 73
4
 74
0
 42
0.0000001
 43
0.0000001
 44
0.0000000001
 40
0.0
 40
0.0
 40
0.0
 40
0.0
 40
1.0
 40
1.0
 40
1.0
 40
1.0
 10
12.3130902858
 20
7.7029514114
 30
0.0
 10
12.3024329015
 20
7.7185332569
 30
0.0
 10
12.2971525707
 20
7.7405345591
 30
0.0
 10
12.2971525707
 20
7.7691362547
 30
0.0
  0
SPLINE
  5
2FE
100
AcDbEntity
  8
0
100
AcDbSpline
 62
7
  6
CONTINUOUS
 70
0
 71
3
 72
8
 73
4
 74
0
 42
0.0000001
 43
0.0000001
 44
0.0000000001
 40
0.0
 40
0.0
 40
0.0
 40
0.0
 40
1.0
 40
1.0
 40
1.0
 40
1.0
 10
12.3586095431
 20
7.6798109631
 30
0.0
 10
12.3389550664
 20
7.6798109631
 30
0.0
 10
12.3237008073
 20
7.6874380826
 30
0.0
 10
12.3130902858
 20
7.7029514114
 30
0.0
  0
SPLINE
  5
2FF
100
AcDbEntity
  8
0
100
AcDbSpline
 62
7
  6
CONTINUOUS
 70
0
 71
3
 72
8
 73
4
 74
0
 42
0.0000001
 43
0.0000001
 44
0.0000000001
 40
0.0
 40
0.0
 40
0.0
 40
0.0
 40
1.0
 40
1.0
 40
1.0
 40
1.0
 10
12.60421965
 20
10.7842021968
 30
0.0
 10
12.5968494239
 20
10.7777901071
 30
0.0
 10
12.5848220768
 20
10.7747099253
 30
0.0
 10
12.5682477417
 20
10.7747099253
 30
0.0
  0
SPLINE
  5
300
100
AcDbEntity
  8
0
100
AcDbSpline
 62
7
  6
CONTINUOUS
 70
0
 71
3
 72
8
 73
4
 74
0
 42
0.0000001
 43
0.0000001
 44
0.0000000001
 40
0.0
 40
0.0
 40
0.0
 40
0.0
 40
1.0
 40
1.0
 40
1.0
 40
1.0
 10
12.6151838782
 20
10.8153389948
 30
0.0
 10
12.6151838782
 20
10.8009648087
 30
0.0
 10
12.6115169766
 20
10.790550864
 30
0.0
 10
12.60421965
 20
10.7842021968
 30
0.0
  0
SPLINE
  5
301
100
AcDbEntity
  8
0
100
AcDbSpline
 62
7
  6
CONTINUOUS
 70
0
 71
3
 72
8
 73
4
 74
0
 42
0.0000001
 43
0.0000001
 44
0.0000000001
 40
0.0
 40
0.0
 40
0.0
 40
0.0
 40
1.0
 40
1.0
 40
1.0
 40
1.0
 10
12.6057966415
 20
10.8389537396
 30
0.0
 10
12.6119570198
 20
10.8333800691
 30
0.0
 10
12.6151838782
 20
10.8256062629
 30
0.0
 10
12.6151838782
 20
10.8153389948
 30
0.0
  0
SPLINE
  5
302
100
AcDbEntity
  8
0
100
AcDbSpline
 62
7
  6
CONTINUOUS
 70
0
 71
3
 72
8
 73
4
 74
0
 42
0.0000001
 43
0.0000001
 44
0.0000000001
 40
0.0
 40
0.0
 40
0.0
 40
0.0
 40
1.0
 40
1.0
 40
1.0
 40
1.0
 10
12.579395056
 20
10.8473142254
 30
0.0
 10
12.5908357503
 20
10.8473142254
 30
0.0
 10
12.5996362927
 20
10.8445273834
 30
0.0
 10
12.6057966415
 20
10.8389537396
 30
0.0
  0
SPLINE
  5
303
100
AcDbEntity
  8
0
100
AcDbSpline
 62
7
  6
CONTINUOUS
 70
0
 71
3
 72
8
 73
4
 74
0
 42
0.0000001
 43
0.0000001
 44
0.0000000001
 40
0.0
 40
0.0
 40
0.0
 40
0.0
 40
1.0
 40
1.0
 40
1.0
 40
1.0
 10
12.7673504755
 20
7.7072753556
 30
0.0
 10
12.7546330371
 20
7.6919850169
 30
0.0
 10
12.7374719956
 20
7.6843578974
 30
0.0
 10
12.7157640734
 20
7.6843578974
 30
0.0
  0
SPLINE
  5
304
100
AcDbEntity
  8
0
100
AcDbSpline
 62
7
  6
CONTINUOUS
 70
0
 71
3
 72
8
 73
4
 74
0
 42
0.0000001
 43
0.0000001
 44
0.0000000001
 40
0.0
 40
0.0
 40
0.0
 40
0.0
 40
1.0
 40
1.0
 40
1.0
 40
1.0
 10
12.7864615776
 20
7.7689895781
 30
0.0
 10
12.7864615776
 20
7.7430280412
 30
0.0
 10
12.7800078609
 20
7.7224934916
 30
0.0
 10
12.7673504755
 20
7.7072753556
 30
0.0
  0
SPLINE
  5
305
100
AcDbEntity
  8
0
100
AcDbSpline
 62
7
  6
CONTINUOUS
 70
0
 71
3
 72
8
 73
4
 74
0
 42
0.0000001
 43
0.0000001
 44
0.0000000001
 40
0.0
 40
0.0
 40
0.0
 40
0.0
 40
1.0
 40
1.0
 40
1.0
 40
1.0
 10
12.7714654291
 20
7.8273399408
 30
0.0
 10
12.7814746001
 20
7.8140189188
 30
0.0
 10
12.7864615776
 20
7.794511092
 30
0.0
 10
12.7864615776
 20
7.7689895781
 30
0.0
  0
SPLINE
  5
306
100
AcDbEntity
  8
0
100
AcDbSpline
 62
7
  6
CONTINUOUS
 70
0
 71
3
 72
8
 73
4
 74
0
 42
0.0000001
 43
0.0000001
 44
0.0000000001
 40
0.0
 40
0.0
 40
0.0
 40
0.0
 40
1.0
 40
1.0
 40
1.0
 40
1.0
 10
12.7276447573
 20
7.8473142254
 30
0.0
 10
12.7468592443
 20
7.8473142254
 30
0.0
 10
12.7615267434
 20
7.8405671554
 30
0.0
 10
12.7714654291
 20
7.8273399408
 30
0.0
  0
LINE
  5
307
100
AcDbEntity
  8
0
100
AcDbLine
 62
7
  6
CONTINUOUS
 10
11.2699631847
 20
8.6921595219
 11
11.5225481654
 21
8.2546695021
  0
LINE
  5
308
100
AcDbEntity
  8
0
100
AcDbLine
 62
7
  6
CONTINUOUS
 10
10.6054215007
 20
8.6921595219
 11
10.35283652
 21
8.2546695021
  0
SPLINE
  5
309
100
AcDbEntity
  8
0
100
AcDbSpline
 62
9
  6
CONTINUOUS
 70
0
 71
3
 72
11
 73
7
 74
0
 42
0.0000001
 43
0.0000001
 44
0.0000000001
 40
0.0
 40
0.0
 40
0.0
 40
0.0
 40
0.2534292383
 40
0.50454329
 40
0.7533750486
 40
1.0
 40
1.0
 40
1.0
 40
1.0
 10
10.9376923427
 20
5.9114196409
 30
0.0
 10
10.9383176617
 20
5.911334485
 30
0.0
 10
10.9395686115
 20
5.9112060822
 30
0.0
 10
10.9414449574
 20
5.9111411158
 30
0.0
 10
10.9433044172
 20
5.9112049103
 30
0.0
 10
10.9445326882
 20
5.9113337265
 30
0.0
 10
10.9451407957
 20
5.9114196409
 30
0.0
  0
SPLINE
  5
30A
100
AcDbEntity
  8
0
100
AcDbSpline
 62
9
  6
CONTINUOUS
 70
0
 71
3
 72
13
 73
9
 74
0
 42
0.0000001
 43
0.0000001
 44
0.0000000001
 40
0.0
 40
0.0
 40
0.0
 40
0.0
 40
0.2717585557
 40
0.5253514323
 40
0.6469920785
 40
0.7661012597
 40
0.8834907029
 40
1.0
 40
1.0
 40
1.0
 40
1.0
 10
10.9451407957
 20
5.9114196409
 30
0.0
 10
10.9454130527
 20
5.9113373092
 30
0.0
 10
10.9459498823
 20
5.9112098695
 30
0.0
 10
10.946627583
 20
5.9111516382
 30
0.0
 10
10.9471451164
 20
5.9111729431
 30
0.0
 10
10.9475173759
 20
5.9112210659
 30
0.0
 10
10.9478784813
 20
5.9113015404
 30
0.0
 10
10.9481118669
 20
5.9113768237
 30
0.0
 10
10.948226046
 20
5.9114196409
 30
0.0
  0
SPLINE
  5
30B
100
AcDbEntity
  8
0
100
AcDbSpline
 62
9
  6
CONTINUOUS
 70
0
 71
3
 72
11
 73
7
 74
0
 42
0.0000001
 43
0.0000001
 44
0.0000000001
 40
0.0
 40
0.0
 40
0.0
 40
0.0
 40
0.2466249517
 40
0.4954567103
 40
0.7465707618
 40
1.0
 40
1.0
 40
1.0
 40
1.0
 10
10.7769848717
 20
6.0501696409
 30
0.0
 10
10.7775929792
 20
6.0500837265
 30
0.0
 10
10.7788212502
 20
6.0499549103
 30
0.0
 10
10.78068071
 20
6.0498911158
 30
0.0
 10
10.7825570559
 20
6.0499560822
 30
0.0
 10
10.7838080057
 20
6.050084485
 30
0.0
 10
10.7844333247
 20
6.0501696409
 30
0.0
  0
SPLINE
  5
30C
100
AcDbEntity
  8
0
100
AcDbSpline
 62
9
  6
CONTINUOUS
 70
0
 71
3
 72
20
 73
16
 74
0
 42
0.0000001
 43
0.0000001
 44
0.0000000001
 40
0.0
 40
0.0
 40
0.0
 40
0.0
 40
0.0526046458
 40
0.1065153687
 40
0.1618482012
 40
0.2186782072
 40
0.3368591315
 40
0.398256717
 40
0.4610897254
 40
0.5252661258
 40
0.5906696479
 40
0.7245361232
 40
0.7927298361
 40
0.8615076492
 40
1.0
 40
1.0
 40
1.0
 40
1.0
 10
10.7769848717
 20
6.0501696409
 30
0.0
 10
10.7764776884
 20
6.0504386154
 30
0.0
 10
10.775476456
 20
6.0510331516
 30
0.0
 10
10.7740442638
 20
6.052070609
 30
0.0
 10
10.7726720882
 20
6.053258123
 30
0.0
 10
10.7709108016
 20
6.0550548788
 30
0.0
 10
10.7693270805
 20
6.0571058629
 30
0.0
 10
10.7679347044
 20
6.0593568475
 30
0.0
 10
10.7669712907
 20
6.0611751378
 30
0.0
 10
10.7661080321
 20
6.0630908831
 30
0.0
 10
10.7650892642
 20
6.0657809213
 30
0.0
 10
10.7643009877
 20
6.068599369
 30
0.0
 10
10.7637442682
 20
6.0715033914
 30
0.0
 10
10.7633409123
 20
6.074483584
 30
0.0
 10
10.7632201212
 20
6.0767481019
 30
0.0
 10
10.7632201212
 20
6.0782595162
 30
0.0
  0
SPLINE
  5
30D
100
AcDbEntity
  8
0
100
AcDbSpline
 62
9
  6
CONTINUOUS
 70
0
 71
3
 72
13
 73
9
 74
0
 42
0.0000001
 43
0.0000001
 44
0.0000000001
 40
0.0
 40
0.0
 40
0.0
 40
0.0
 40
0.1165092971
 40
0.2338987403
 40
0.3530079217
 40
0.474648568
 40
0.7282414447
 40
1.0
 40
1.0
 40
1.0
 40
1.0
 10
10.9271586395
 20
5.9114196409
 30
0.0
 10
10.9272728186
 20
5.9113768237
 30
0.0
 10
10.9275062041
 20
5.9113015404
 30
0.0
 10
10.9278673096
 20
5.9112210659
 30
0.0
 10
10.9282395691
 20
5.9111729431
 30
0.0
 10
10.9287571025
 20
5.9111516382
 30
0.0
 10
10.9294348032
 20
5.9112098695
 30
0.0
 10
10.9299716328
 20
5.9113373092
 30
0.0
 10
10.9302438897
 20
5.9114196409
 30
0.0
  0
SPLINE
  5
30E
100
AcDbEntity
  8
0
100
AcDbSpline
 62
9
  6
CONTINUOUS
 70
0
 71
3
 72
11
 73
7
 74
0
 42
0.0000001
 43
0.0000001
 44
0.0000000001
 40
0.0
 40
0.0
 40
0.0
 40
0.0
 40
0.2534292382
 40
0.5045432897
 40
0.7533750483
 40
1.0
 40
1.0
 40
1.0
 40
1.0
 10
11.0909513608
 20
6.0501696409
 30
0.0
 10
11.0915766798
 20
6.050084485
 30
0.0
 10
11.0928276295
 20
6.0499560822
 30
0.0
 10
11.0947039755
 20
6.0498911158
 30
0.0
 10
11.0965634353
 20
6.0499549103
 30
0.0
 10
11.0977917063
 20
6.0500837265
 30
0.0
 10
11.0983998138
 20
6.0501696409
 30
0.0
  0
SPLINE
  5
30F
100
AcDbEntity
  8
0
100
AcDbSpline
 62
9
  6
CONTINUOUS
 70
0
 71
3
 72
20
 73
16
 74
0
 42
0.0000001
 43
0.0000001
 44
0.0000000001
 40
0.0
 40
0.0
 40
0.0
 40
0.0
 40
0.0526046458
 40
0.1065153687
 40
0.1618482012
 40
0.2186782072
 40
0.3368591315
 40
0.398256717
 40
0.4610897254
 40
0.5252661258
 40
0.5906696479
 40
0.7245361232
 40
0.7927298361
 40
0.8615076492
 40
1.0
 40
1.0
 40
1.0
 40
1.0
 10
11.0983998138
 20
6.0501696409
 30
0.0
 10
11.0989069971
 20
6.0504386154
 30
0.0
 10
11.0999082295
 20
6.0510331516
 30
0.0
 10
11.1013404217
 20
6.052070609
 30
0.0
 10
11.1027125972
 20
6.053258123
 30
0.0
 10
11.1044738839
 20
6.0550548788
 30
0.0
 10
11.106057605
 20
6.0571058628
 30
0.0
 10
11.107449981
 20
6.0593568475
 30
0.0
 10
11.1084133948
 20
6.0611751377
 30
0.0
 10
11.1092766534
 20
6.0630908831
 30
0.0
 10
11.1102954212
 20
6.0657809213
 30
0.0
 10
11.1110836977
 20
6.068599369
 30
0.0
 10
11.1116404173
 20
6.0715033914
 30
0.0
 10
11.1120437732
 20
6.074483584
 30
0.0
 10
11.1121645643
 20
6.0767481018
 30
0.0
 10
11.1121645643
 20
6.0782595162
 30
0.0
  0
SPLINE
  5
310
100
AcDbEntity
  8
0
100
AcDbSpline
 62
9
  6
CONTINUOUS
 70
0
 71
3
 72
13
 73
9
 74
0
 42
0.0000001
 43
0.0000001
 44
0.0000000001
 40
0.0
 40
0.0
 40
0.0
 40
0.0
 40
0.1165092971
 40
0.2338987403
 40
0.3530079215
 40
0.4746485677
 40
0.7282414443
 40
1.0
 40
1.0
 40
1.0
 40
1.0
 10
10.5571586395
 20
6.0501696409
 30
0.0
 10
10.5572728186
 20
6.0501268237
 30
0.0
 10
10.5575062041
 20
6.0500515404
 30
0.0
 10
10.5578673096
 20
6.0499710659
 30
0.0
 10
10.5582395691
 20
6.0499229431
 30
0.0
 10
10.5587571025
 20
6.0499016382
 30
0.0
 10
10.5594348032
 20
6.0499598695
 30
0.0
 10
10.5599716328
 20
6.0500873092
 30
0.0
 10
10.5602438897
 20
6.0501696409
 30
0.0
  0
SPLINE
  5
311
100
AcDbEntity
  8
0
100
AcDbSpline
 62
9
  6
CONTINUOUS
 70
0
 71
3
 72
20
 73
16
 74
0
 42
0.0000001
 43
0.0000001
 44
0.0000000001
 40
0.0
 40
0.0
 40
0.0
 40
0.0
 40
0.0526046458
 40
0.1065153687
 40
0.1618482012
 40
0.2186782072
 40
0.3368591315
 40
0.398256717
 40
0.4610897254
 40
0.5252661258
 40
0.5906696479
 40
0.7245361232
 40
0.7927298361
 40
0.8615076492
 40
1.0
 40
1.0
 40
1.0
 40
1.0
 10
10.5602438897
 20
6.0501696409
 30
0.0
 10
10.5597367065
 20
6.0504386154
 30
0.0
 10
10.5587354741
 20
6.0510331516
 30
0.0
 10
10.5573032819
 20
6.052070609
 30
0.0
 10
10.5559311063
 20
6.053258123
 30
0.0
 10
10.5541698197
 20
6.0550548788
 30
0.0
 10
10.5525860986
 20
6.0571058628
 30
0.0
 10
10.5511937225
 20
6.0593568475
 30
0.0
 10
10.5502303088
 20
6.0611751377
 30
0.0
 10
10.5493670502
 20
6.0630908831
 30
0.0
 10
10.5483482823
 20
6.0657809213
 30
0.0
 10
10.5475600058
 20
6.068599369
 30
0.0
 10
10.5470032863
 20
6.0715033914
 30
0.0
 10
10.5465999304
 20
6.074483584
 30
0.0
 10
10.5464791393
 20
6.0767481018
 30
0.0
 10
10.5464791393
 20
6.0782595162
 30
0.0
  0
SPLINE
  5
312
100
AcDbEntity
  8
0
100
AcDbSpline
 62
9
  6
CONTINUOUS
 70
0
 71
3
 72
20
 73
16
 74
0
 42
0.0000001
 43
0.0000001
 44
0.0000000001
 40
0.0
 40
0.0
 40
0.0
 40
0.0
 40
0.0526046458
 40
0.1065153687
 40
0.1618482012
 40
0.2186782072
 40
0.3368591315
 40
0.398256717
 40
0.4610897254
 40
0.5252661258
 40
0.5906696479
 40
0.7245361232
 40
0.7927298361
 40
0.8615076492
 40
1.0
 40
1.0
 40
1.0
 40
1.0
 10
11.3151407957
 20
6.0501696409
 30
0.0
 10
11.315647979
 20
6.0504386154
 30
0.0
 10
11.3166492114
 20
6.0510331516
 30
0.0
 10
11.3180814036
 20
6.052070609
 30
0.0
 10
11.3194535792
 20
6.053258123
 30
0.0
 10
11.3212148658
 20
6.0550548788
 30
0.0
 10
11.3227985869
 20
6.0571058629
 30
0.0
 10
11.324190963
 20
6.0593568475
 30
0.0
 10
11.3251543767
 20
6.0611751378
 30
0.0
 10
11.3260176353
 20
6.0630908831
 30
0.0
 10
11.3270364032
 20
6.0657809213
 30
0.0
 10
11.3278246797
 20
6.068599369
 30
0.0
 10
11.3283813992
 20
6.0715033914
 30
0.0
 10
11.3287847551
 20
6.074483584
 30
0.0
 10
11.3289055462
 20
6.0767481019
 30
0.0
 10
11.3289055462
 20
6.0782595162
 30
0.0
  0
SPLINE
  5
313
100
AcDbEntity
  8
0
100
AcDbSpline
 62
9
  6
CONTINUOUS
 70
0
 71
3
 72
13
 73
9
 74
0
 42
0.0000001
 43
0.0000001
 44
0.0000000001
 40
0.0
 40
0.0
 40
0.0
 40
0.0
 40
0.2717585557
 40
0.5253514323
 40
0.6469920785
 40
0.7661012597
 40
0.8834907029
 40
1.0
 40
1.0
 40
1.0
 40
1.0
 10
11.3151407957
 20
6.0501696409
 30
0.0
 10
11.3154130527
 20
6.0500873092
 30
0.0
 10
11.3159498823
 20
6.0499598695
 30
0.0
 10
11.316627583
 20
6.0499016382
 30
0.0
 10
11.3171451164
 20
6.0499229431
 30
0.0
 10
11.3175173759
 20
6.0499710659
 30
0.0
 10
11.3178784813
 20
6.0500515404
 30
0.0
 10
11.3181118669
 20
6.0501268237
 30
0.0
 10
11.318226046
 20
6.0501696409
 30
0.0
  0
SPLINE
  5
314
100
AcDbEntity
  8
0
100
AcDbSpline
 62
9
  6
CONTINUOUS
 70
0
 71
3
 72
11
 73
7
 74
0
 42
0.0000001
 43
0.0000001
 44
0.0000000001
 40
0.0
 40
0.0
 40
0.0
 40
0.0
 40
0.2466249517
 40
0.4954567103
 40
0.7465707618
 40
1.0
 40
1.0
 40
1.0
 40
1.0
 10
10.9302438897
 20
5.9114196409
 30
0.0
 10
10.9308519972
 20
5.9113337265
 30
0.0
 10
10.9320802683
 20
5.9112049103
 30
0.0
 10
10.9339397281
 20
5.9111411158
 30
0.0
 10
10.935816074
 20
5.9112060822
 30
0.0
 10
10.9370670237
 20
5.911334485
 30
0.0
 10
10.9376923427
 20
5.9114196409
 30
0.0
  0
LINE
  5
315
100
AcDbEntity
  8
0
100
AcDbLine
 62
7
  6
CONTINUOUS
 10
10.2731506587
 20
9.2676695021
 11
9.7679806974
 21
9.2676695021
  0
LINE
  5
316
100
AcDbEntity
  8
0
100
AcDbLine
 62
7
  6
CONTINUOUS
 10
10.6054215007
 20
9.8431794824
 11
10.35283652
 21
10.2806695021
  0
LINE
  5
317
100
AcDbEntity
  8
0
100
AcDbLine
 62
7
  6
CONTINUOUS
 10
11.2699631847
 20
9.8431794824
 11
11.5225481654
 21
10.2806695021
  0
LINE
  5
318
100
AcDbEntity
  8
0
100
AcDbLine
 62
7
  6
CONTINUOUS
 10
11.6022340267
 20
9.2676695021
 11
12.1074039881
 21
9.2676695021
  0
ENDSEC
  0
SECTION
  2
OBJECTS
  0
DICTIONARY
  5
C
100
AcDbDictionary
280
0
281
1
  3
ACAD_GROUP
350
D
  3
ACAD_MLINESTYLE
350
17
  3
ACAD_LAYOUT
350
1A
  3
ACAD_PLOTSETTINGS
350
19
  3
ACAD_PLOTSTYLENAME
350
E
  0
DICTIONARY
  5
D
102
{ACAD_REACTORS
330
C
102
}
100
AcDbDictionary
280
0
281
1
  0
ACDBDICTIONARYWDFLT
  5
E
102
{ACAD_REACTORS
330
C
102
}
100
AcDbDictionary
281
1
  3
Normal
350
F
100
AcDbDictionaryWithDefault
340
F
  0
DICTIONARY
  5
17
102
{ACAD_REACTORS
330
C
102
}
100
AcDbDictionary
280
0
281
1
  3
Standard
350
18
  0
DICTIONARY
  5
19
102
{ACAD_REACTORS
330
C
102
}
100
AcDbDictionary
281
1
  0
DICTIONARY
  5
1A
102
{ACAD_REACTORS
330
C
102
}
100
AcDbDictionary
281
1
  3
Model
350
319
  3
Layout1
350
31A
  0
ACDBPLACEHOLDER
  5
F
102
{ACAD_REACTORS
330
E
102
}
  0
MLINESTYLE
  5
18
102
{ACAD_REACTORS
330
17
102
}
100
AcDbMlineStyle
  2
STANDARD
 70
0
  3

 62
256
 51
90.0
 52
90.0
 71
2
 49
0.5
 62
256
  6
BYLAYER
 49
-0.5
 62
256
  6
BYLAYER
  0
LAYOUT
  5
319
102
{ACAD_REACTORS
330
1A
102
}
100
AcDbPlotSettings
  1

  2
none_device
  4
ANSI_C_(22.00_x_17.00_Inches)
  6

 40
0.0
 41
0.0
 42
0.0
 43
0.0
 44
558.8
 45
431.8
 46
0.0
 47
0.0
 48
0.0
 49
0.0
140
0.0
141
0.0
142
1.0
143
1.0
 70
1024
 72
0
 73
0
 74
0
  7

 75
0
147
1.0
148
0.0
149
0.0
100
AcDbLayout
  1
Model
 70
0
 71
0
 10
0.0
 20
0.0
 11
22.0
 21
17.0
 12
0.0
 22
0.0
 32
0.0
 14
0.0
 24
0.0
 34
0.0
 15
0.0
 25
0.0
 35
0.0
146
0.0
 13
0.0
 23
0.0
 33
0.0
 16
1.0
 26
0.0
 36
0.0
 17
0.0
 27
1.0
 37
0.0
 76
0
330
205
345
0
346
0
  0
LAYOUT
  5
31A
102
{ACAD_REACTORS
330
1A
102
}
100
AcDbPlotSettings
  1

  2
none_device
  4
ANSI_C_(22.00_x_17.00_Inches)
  6

 40
0.0
 41
0.0
 42
0.0
 43
0.0
 44
558.8
 45
431.8
 46
0.0
 47
0.0
 48
0.0
 49
0.0
140
0.0
141
0.0
142
1.0
143
1.0
 70
0
 72
0
 73
0
 74
0
  7

 75
0
147
1.0
148
0.0
149
0.0
100
AcDbLayout
  1
Layout1
 70
0
 71
1
 10
0.0
 20
0.0
 11
22.0
 21
17.0
 12
0.0
 22
0.0
 32
0.0
 14
0.0
 24
0.0
 34
0.0
 15
0.0
 25
0.0
 35
0.0
146
0.0
 13
0.0
 23
0.0
 33
0.0
 16
1.0
 26
0.0
 36
0.0
 17
0.0
 27
1.0
 37
0.0
 76
0
330
206
345
0
346
0
  0
ENDSEC
  0
EOF
