999
DXF file: E:\BT Custom\CADOUTPUT\_RIGHT.dxf
999
Pro/ENGINEER 2018400 by Parametric Technology Corporation
  0
SECTION
  2
HEADER
  9
$ACADVER
  1
AC1018
  9
$DWGCODEPAGE
  3
ANSI_1252
  9
$EXTMAX
 10
22.0
 20
17.0
 30
0.0
  9
$EXTMIN
 10
0.0
 20
0.0
 30
0.0
  9
$LIMMIN
 10
0.0
 20
0.0
  9
$LIMMAX
 10
22.0
 20
17.0
  9
$VIEWCTR
 10
11.0
 20
8.5
  9
$VIEWSIZE
 40
17.0
  9
$CLAYER
  8
0
  9
$LTSCALE
 40
1.21
  9
$CELTYPE
  6
BYLAYER
  9
$DIMSCALE
 40
1.0
  9
$DIMASZ
 40
0.1
  9
$DIMEXO
 40
0.0625
  9
$DIMDLI
 40
0.836
  9
$DIMEXE
 40
0.125
  9
$DIMCEN
 40
0.198
  9
$DIMLFAC
 40
1.0
  9
$DIMBLK
  1
_FILLED
  9
$DIMALT
 70
1
  9
$DIMALTD
 70
2
  9
$DIMALTTD
 70
2
  9
$DIMALTF
 40
25.4
  9
$DIMTXT
 40
0.08
  9
$DIMTOL
 70
1
  9
$DIMLIM
 70
0
  9
$DIMTFAC
 40
1.0
  9
$DIMTP
 40
0.001
  9
$DIMTM
 40
0.001
  9
$DIMGAP
 40
0.09
  9
$DIMDSEP
 70
46
  9
$AUNITS
 70
0
  9
$PDMODE
 70
3
  9
$PDSIZE
 40
0.06
  9
$HANDSEED
  5
25C
  9
$TILEMODE
 70
1
  9
$MEASUREMENT
 70
0
  9
$INSUNITS
 70
1
  0
ENDSEC
  0
SECTION
  2
CLASSES
  0
CLASS
  1
ACDBDICTIONARYWDFLT
  2
AcDbDictionaryWithDefault
  3
AutoCAD 2000
 90
0
 91
1
280
0
281
0
  0
CLASS
  1
ACDBPLACEHOLDER
  2
AcDbPlaceHolder
  3
AutoCAD 2000
 90
0
 91
1
280
0
281
0
  0
CLASS
  1
LAYOUT
  2
AcDbLayout
  3
AutoCAD 2000
 90
0
 91
0
280
0
281
0
  0
ENDSEC
  0
SECTION
  2
TABLES
  0
TABLE
  2
VPORT
  5
8
100
AcDbSymbolTable
 70
2
  0
VPORT
  5
1F4
100
AcDbSymbolTableRecord
100
AcDbViewportTableRecord
  2
*ACTIVE
 70
0
 10
0.0
 20
0.0
 11
1.0
 21
1.0
 12
11.0
 22
8.5
 13
0.0
 23
0.0
 14
1.0
 24
1.0
 15
0.0
 25
0.0
 16
0.0
 26
0.0
 36
1.0
 17
0.0
 27
0.0
 37
0.0
 40
17.0
 41
1.2941176471
 42
50.0
 43
0.0
 44
0.0
 50
0.0
 51
0.0
 71
0
 72
100
 73
1
 74
1
 75
0
 76
0
 77
0
 78
0
  0
ENDTAB
  0
TABLE
  2
LTYPE
  5
5
100
AcDbSymbolTable
 70
6
  0
LTYPE
  5
14
100
AcDbSymbolTableRecord
100
AcDbLinetypeTableRecord
  2
BYBLOCK
 70
0
  3

 72
65
 73
0
 40
0.0
  0
LTYPE
  5
15
100
AcDbSymbolTableRecord
100
AcDbLinetypeTableRecord
  2
BYLAYER
 70
0
  3

 72
65
 73
0
 40
0.0
  0
LTYPE
  5
16
100
AcDbSymbolTableRecord
100
AcDbLinetypeTableRecord
  2
CONTINUOUS
 70
64
  3
Solid line
 72
65
 73
0
 40
0.0
  0
LTYPE
  5
1F5
100
AcDbSymbolTableRecord
100
AcDbLinetypeTableRecord
  2
CENTER
 70
64
  3
____ _ ____ _ ____ _ ____ _ ____ _ ____ _ ____
 72
65
 73
4
 40
0.6
 49
0.375
 74
0
 49
-0.075
 74
0
 49
0.075
 74
0
 49
-0.075
 74
0
  0
LTYPE
  5
1F6
100
AcDbSymbolTableRecord
100
AcDbLinetypeTableRecord
  2
HIDDEN
 70
64
  3
- - - - - - - - - - - - - - - - - - - -
 72
65
 73
2
 40
0.2
 49
0.1
 74
0
 49
-0.1
 74
0
  0
LTYPE
  5
1F7
100
AcDbSymbolTableRecord
100
AcDbLinetypeTableRecord
  2
PHANTOM
 70
64
  3
_____ _ _ _____ _ _ _____ _ _ _____
 72
65
 73
6
 40
0.8
 49
0.45
 74
0
 49
-0.05
 74
0
 49
0.1
 74
0
 49
-0.05
 74
0
 49
0.1
 74
0
 49
-0.05
 74
0
  0
LTYPE
  5
1F8
100
AcDbSymbolTableRecord
100
AcDbLinetypeTableRecord
  2
DOT
 70
64
  3
. . . . . . . . . . . . . . . . . . . .
 72
65
 73
2
 40
0.2
 49
0.1
 74
0
 49
-0.1
 74
0
  0
LTYPE
  5
1F9
100
AcDbSymbolTableRecord
100
AcDbLinetypeTableRecord
  2
DASHED
 70
64
  3
- - - - - - - - - - - - - - - - - - - -
 72
65
 73
2
 40
0.2
 49
0.1
 74
0
 49
-0.1
 74
0
  0
ENDTAB
  0
TABLE
  2
LAYER
  5
2
100
AcDbSymbolTable
 70
36
  0
LAYER
  5
10
100
AcDbSymbolTableRecord
100
AcDbLayerTableRecord
  2
0
 70
0
 62
7
  6
CONTINUOUS
370
-3
390
F
  0
LAYER
  5
1FA
100
AcDbSymbolTableRecord
100
AcDbLayerTableRecord
  2
DEFAULT_1
 70
0
 62
7
  6
CENTER
370
-3
390
F
  0
LAYER
  5
1FB
100
AcDbSymbolTableRecord
100
AcDbLayerTableRecord
  2
DEFAULT_2
 70
0
 62
8
  6
HIDDEN
370
-3
390
F
  0
LAYER
  5
1FC
100
AcDbSymbolTableRecord
100
AcDbLayerTableRecord
  2
DEFAULT_3
 70
0
 62
7
  6
PHANTOM
370
-3
390
F
  0
LAYER
  5
1FD
100
AcDbSymbolTableRecord
100
AcDbLayerTableRecord
  2
ALL_FEATURES
 70
0
 62
7
  6
CONTINUOUS
370
-3
390
F
  0
LAYER
  5
1FE
100
AcDbSymbolTableRecord
100
AcDbLayerTableRecord
  2
AXES_FEATURES
 70
0
 62
7
  6
CONTINUOUS
370
-3
390
F
  0
LAYER
  5
1FF
100
AcDbSymbolTableRecord
100
AcDbLayerTableRecord
  2
DEFAULT_COORDINATE_SYSTEM
 70
0
 62
7
  6
CONTINUOUS
370
-3
390
F
  0
LAYER
  5
200
100
AcDbSymbolTableRecord
100
AcDbLayerTableRecord
  2
DEFAULT_DATUM_AXES
 70
0
 62
7
  6
CONTINUOUS
370
-3
390
F
  0
LAYER
  5
201
100
AcDbSymbolTableRecord
100
AcDbLayerTableRecord
  2
DEFAULT_DATUM_PLANES
 70
0
 62
7
  6
CONTINUOUS
370
-3
390
F
  0
LAYER
  5
202
100
AcDbSymbolTableRecord
100
AcDbLayerTableRecord
  2
DIMENSIONS
 70
0
 62
7
  6
CONTINUOUS
370
-3
390
F
  0
ENDTAB
  0
TABLE
  2
STYLE
  5
3
100
AcDbSymbolTable
 70
1
  0
STYLE
  5
11
100
AcDbSymbolTableRecord
100
AcDbTextStyleTableRecord
  2
STANDARD
 70
0
 40
0.0
 41
0.8
 50
0.0
 71
0
 42
0.2
  3
txt
  4

  0
STYLE
  5
203
100
AcDbSymbolTableRecord
100
AcDbTextStyleTableRecord
  2
TEXTSTYLE_1
 70
0
 40
0.0
 41
0.8
 50
0.0
 71
0
 42
0.2
  3
gdt
  4

  0
ENDTAB
  0
TABLE
  2
VIEW
  5
6
100
AcDbSymbolTable
 70
0
  0
ENDTAB
  0
TABLE
  2
UCS
  5
7
100
AcDbSymbolTable
 70
0
  0
ENDTAB
  0
TABLE
  2
APPID
  5
9
100
AcDbSymbolTable
 70
1
  0
APPID
  5
204
100
AcDbSymbolTableRecord
100
AcDbRegAppTableRecord
  2
ACAD
 70
0
  0
ENDTAB
  0
TABLE
  2
BLOCK_RECORD
  5
1
100
AcDbSymbolTable
 70
0
  0
BLOCK_RECORD
  5
205
100
AcDbSymbolTableRecord
100
AcDbBlockTableRecord
  2
*Model_Space
  0
BLOCK_RECORD
  5
206
100
AcDbSymbolTableRecord
100
AcDbBlockTableRecord
  2
*Paper_Space
  0
BLOCK_RECORD
  5
207
100
AcDbSymbolTableRecord
100
AcDbBlockTableRecord
  2
_FILLED
  0
ENDTAB
  0
TABLE
  2
DIMSTYLE
  5
A
100
AcDbSymbolTable
 70
1
100
AcDbDimStyleTable
 71
0
  0
DIMSTYLE
105
208
100
AcDbSymbolTableRecord
100
AcDbDimStyleTableRecord
  2
STANDARD
 70
0
  3

  4

 40
1.0
 41
0.1
 42
0.0625
 43
0.38
 44
0.125
 45
0.0
 46
0.0
 47
0.001
 48
0.001
140
0.08
141
0.09
142
0.0
143
25.4
144
1.0
145
0.0
146
1.0
147
0.09
 71
1.0
 72
0.0
 73
1
 74
1
 75
0
 76
0
 77
0
 78
4
 79
1
170
1
171
2
172
0
173
0
174
0
175
0
176
0
177
0
178
0
270
2
179
3
271
3
272
3
273
2
274
2
275
0
280
0
281
0
282
0
283
1
284
4
285
0
286
0
287
3
288
0
340
11
278
46
341
207
342
207
343
207
344
207
  0
ENDTAB
  0
ENDSEC
  0
SECTION
  2
BLOCKS
  0
BLOCK
  5
20
100
AcDbEntity
  8
0
100
AcDbBlockBegin
  2
*Model_Space
 70
0
 10
0.0
 20
0.0
 30
0.0
  3
*Model_Space
  1

  0
ENDBLK
  5
21
100
AcDbEntity
  8
0
100
AcDbBlockEnd
  0
BLOCK
  5
1C
100
AcDbEntity
  8
0
100
AcDbBlockBegin
  2
*Paper_Space
 70
0
 10
0.0
 20
0.0
 30
0.0
  3
*Paper_Space
  1

  0
ENDBLK
  5
1D
100
AcDbEntity
  8
0
100
AcDbBlockEnd
  0
BLOCK
  5
209
100
AcDbEntity
  8
0
100
AcDbBlockBegin
  2
_FILLED
 70
64
 10
0.0
 20
0.0
  3
_FILLED
  1

  0
SOLID
  5
20A
100
AcDbEntity
  8
0
  6
BYBLOCK
 62
0
100
AcDbTrace
 10
0.0
 20
0.0
 11
-1.0
 21
0.2
 12
-1.0
 22
-0.2
 13
-1.0
 23
-0.2
  0
ENDBLK
  5
20B
100
AcDbEntity
  8
0
  6
BYBLOCK
 62
0
100
AcDbBlockEnd
  0
ENDSEC
  0
SECTION
  2
ENTITIES
  0
LINE
  5
20C
100
AcDbEntity
  8
0
100
AcDbLine
 62
9
  6
CONTINUOUS
 10
9.1491741959
 20
8.6147471475
 11
9.1491741959
 21
9.4050364606
  0
LINE
  5
20D
100
AcDbEntity
  8
0
100
AcDbLine
 62
7
  6
CONTINUOUS
 10
9.1729834891
 20
9.509891804
 11
9.1729834891
 21
8.509891804
  0
LINE
  5
20E
100
AcDbEntity
  8
0
100
AcDbLine
 62
7
  6
CONTINUOUS
 10
9.2479834891
 20
8.4098918018
 11
9.2479834891
 21
8.5122139455
  0
LINE
  5
20F
100
AcDbEntity
  8
0
100
AcDbLine
 62
7
  6
CONTINUOUS
 10
9.2787144273
 20
6.247891804
 11
9.2992398024
 21
8.409891804
  0
LINE
  5
210
100
AcDbEntity
  8
0
100
AcDbLine
 62
7
  6
CONTINUOUS
 10
9.120491841
 20
6.1694376593
 11
9.2479834891
 21
8.409891804
  0
LINE
  5
211
100
AcDbEntity
  8
0
100
AcDbLine
 62
7
  6
CONTINUOUS
 10
9.1457783525
 20
6.247891804
 11
9.2992398024
 21
8.409891804
  0
LINE
  5
212
100
AcDbEntity
  8
0
100
AcDbLine
 62
7
  6
CONTINUOUS
 10
9.7001886258
 20
6.247891804
 11
9.5467271758
 21
8.409891804
  0
LINE
  5
213
100
AcDbEntity
  8
0
100
AcDbLine
 62
7
  6
CONTINUOUS
 10
9.7254751372
 20
6.1694376593
 11
9.5979834891
 21
8.409891804
  0
LINE
  5
214
100
AcDbEntity
  8
0
100
AcDbLine
 62
7
  6
CONTINUOUS
 10
9.5169834891
 20
6.247891804
 11
9.4229834891
 21
8.409891804
  0
LINE
  5
215
100
AcDbEntity
  8
0
100
AcDbLine
 62
7
  6
CONTINUOUS
 10
9.567252551
 20
6.247891804
 11
9.5467271758
 21
8.409891804
  0
LINE
  5
216
100
AcDbEntity
  8
0
100
AcDbLine
 62
7
  6
CONTINUOUS
 10
9.5979834891
 20
8.4098918016
 11
9.5979834891
 21
8.5122139454
  0
LINE
  5
217
100
AcDbEntity
  8
0
100
AcDbLine
 62
7
  6
CONTINUOUS
 10
9.3289834891
 20
6.247891804
 11
9.4229834891
 21
8.409891804
  0
LINE
  5
218
100
AcDbEntity
  8
0
100
AcDbLine
 62
7
  6
CONTINUOUS
 10
9.6729834891
 20
9.509891804
 11
9.6729834891
 21
8.509891804
  0
LINE
  5
219
100
AcDbEntity
  8
0
100
AcDbLine
 62
7
  6
CONTINUOUS
 10
9.7812366646
 20
9.322391804
 11
9.7812366646
 21
8.697391804
  0
LINE
  5
21A
100
AcDbEntity
  8
0
100
AcDbLine
 62
7
  6
CONTINUOUS
 10
10.9929834891
 20
7.959891804
 11
11.0929834891
 21
7.959891804
  0
LINE
  5
21B
100
AcDbEntity
  8
0
100
AcDbLine
 62
7
  6
CONTINUOUS
 10
10.1729834891
 20
9.322391804
 11
10.1729834891
 21
8.697391804
  0
LINE
  5
21C
100
AcDbEntity
  8
0
100
AcDbLine
 62
7
  6
CONTINUOUS
 10
9.7812366646
 20
8.697391804
 11
9.6729834891
 21
8.509891804
  0
LINE
  5
21D
100
AcDbEntity
  8
0
100
AcDbLine
 62
7
  6
CONTINUOUS
 10
10.2929834891
 20
8.472391804
 11
10.3429834891
 21
8.472391804
  0
LINE
  5
21E
100
AcDbEntity
  8
0
100
AcDbLine
 62
7
  6
CONTINUOUS
 10
9.7812366646
 20
9.322391804
 11
9.6729834891
 21
9.509891804
  0
LINE
  5
21F
100
AcDbEntity
  8
0
100
AcDbLine
 62
7
  6
CONTINUOUS
 10
10.1929834891
 20
9.447391804
 11
10.1929834891
 21
8.572391804
  0
LINE
  5
220
100
AcDbEntity
  8
0
100
AcDbLine
 62
7
  6
CONTINUOUS
 10
10.2929834891
 20
9.547391804
 11
10.2929834891
 21
8.472391804
  0
LINE
  5
221
100
AcDbEntity
  8
0
100
AcDbLine
 62
7
  6
CONTINUOUS
 10
10.3429834891
 20
9.647391804
 11
10.3429834891
 21
8.372391804
  0
LINE
  5
222
100
AcDbEntity
  8
0
100
AcDbLine
 62
7
  6
CONTINUOUS
 10
9.6729834891
 20
8.509891804
 11
9.6044834891
 21
8.509891804
  0
LINE
  5
223
100
AcDbEntity
  8
0
100
AcDbLine
 62
7
  6
CONTINUOUS
 10
9.2414834891
 20
8.509891804
 11
9.1729834891
 21
8.509891804
  0
LINE
  5
224
100
AcDbEntity
  8
0
100
AcDbLine
 62
7
  6
CONTINUOUS
 10
10.1929834891
 20
8.572391804
 11
10.2929834891
 21
8.572391804
  0
LINE
  5
225
100
AcDbEntity
  8
0
100
AcDbLine
 62
7
  6
CONTINUOUS
 10
10.1729834891
 20
8.697391804
 11
9.7812366646
 21
8.697391804
  0
LINE
  5
226
100
AcDbEntity
  8
0
100
AcDbLine
 62
7
  6
CONTINUOUS
 10
10.1929834891
 20
8.809891804
 11
10.1729834891
 21
8.809891804
  0
LINE
  5
227
100
AcDbEntity
  8
0
100
AcDbLine
 62
7
  6
CONTINUOUS
 10
10.9929834891
 20
10.059891804
 11
10.9929834891
 21
7.959891804
  0
LINE
  5
228
100
AcDbEntity
  8
0
100
AcDbLine
 62
7
  6
CONTINUOUS
 10
10.1929834891
 20
9.209891804
 11
10.1729834891
 21
9.209891804
  0
LINE
  5
229
100
AcDbEntity
  8
0
100
AcDbLine
 62
7
  6
CONTINUOUS
 10
10.1729834891
 20
9.322391804
 11
9.7812366646
 21
9.322391804
  0
LINE
  5
22A
100
AcDbEntity
  8
0
100
AcDbLine
 62
7
  6
CONTINUOUS
 10
11.0929834891
 20
7.884891804
 11
11.0929834891
 21
10.134891804
  0
LINE
  5
22B
100
AcDbEntity
  8
0
100
AcDbLine
 62
9
  6
CONTINUOUS
 10
11.2374417718
 20
7.8744026956
 11
11.2374417718
 21
10.1453809125
  0
LINE
  5
22C
100
AcDbEntity
  8
0
100
AcDbLine
 62
7
  6
CONTINUOUS
 10
10.1929834891
 20
9.447391804
 11
10.2929834891
 21
9.447391804
  0
LINE
  5
22D
100
AcDbEntity
  8
0
100
AcDbLine
 62
7
  6
CONTINUOUS
 10
9.6729834891
 20
9.509891804
 11
9.1729834891
 21
9.509891804
  0
LINE
  5
22E
100
AcDbEntity
  8
0
100
AcDbLine
 62
7
  6
CONTINUOUS
 10
10.2929834891
 20
9.547391804
 11
10.3429834891
 21
9.547391804
  0
LINE
  5
22F
100
AcDbEntity
  8
0
100
AcDbLine
 62
7
  6
CONTINUOUS
 10
11.4679834891
 20
7.747391804
 11
11.4679834891
 21
10.272391804
  0
LINE
  5
230
100
AcDbEntity
  8
0
100
AcDbLine
 62
7
  6
CONTINUOUS
 10
11.5679834891
 20
11.7667305437
 11
11.5679834891
 21
6.2530530644
  0
LINE
  5
231
100
AcDbEntity
  8
0
100
AcDbLine
 62
9
  6
CONTINUOUS
 10
11.6939834891
 20
6.0359724342
 11
11.6939834891
 21
11.9838111739
  0
LINE
  5
232
100
AcDbEntity
  8
0
100
AcDbLine
 62
7
  6
CONTINUOUS
 10
11.819983461
 20
12.2007241561
 11
11.819983461
 21
5.819059452
  0
LINE
  5
233
100
AcDbEntity
  8
0
100
AcDbLine
 62
9
  6
CONTINUOUS
 10
11.8199834751
 20
5.8189756262
 11
11.8199834751
 21
12.2008079819
  0
LINE
  5
234
100
AcDbEntity
  8
0
100
AcDbLine
 62
7
  6
CONTINUOUS
 10
10.9929834891
 20
10.059891804
 11
11.0929834891
 21
10.059891804
  0
LINE
  5
235
100
AcDbEntity
  8
0
100
AcDbLine
 62
9
  6
CONTINUOUS
 10
11.9459862413
 20
5.6019708621
 11
11.9459862413
 21
12.417812746
  0
LINE
  5
236
100
AcDbEntity
  8
0
100
AcDbLine
 62
7
  6
CONTINUOUS
 10
12.0719834891
 20
12.634891804
 11
12.0719834891
 21
5.384891804
  0
LINE
  5
237
100
AcDbEntity
  8
0
100
AcDbLine
 62
7
  6
CONTINUOUS
 10
12.3219834891
 20
5.134891804
 11
12.3219834891
 21
12.884891804
  0
ARC
  5
238
100
AcDbEntity
  8
0
100
AcDbCircle
 62
7
  6
CONTINUOUS
 10
10.6486535046
 20
9.009891804
 40
1.5506700155
100
AcDbArc
 50
165.2369687319
 51
194.7630312681
  0
ARC
  5
239
100
AcDbEntity
  8
0
100
AcDbCircle
 62
7
  6
CONTINUOUS
 10
11.0929834891
 20
11.134891804
 40
1.0
100
AcDbArc
 50
270.0
 51
278.3059108051
  0
ARC
  5
23A
100
AcDbEntity
  8
0
100
AcDbCircle
 62
7
  6
CONTINUOUS
 10
11.0929834891
 20
6.884891804
 40
1.0
100
AcDbArc
 50
81.6940891949
 51
90.0
  0
ARC
  5
23B
100
AcDbEntity
  8
0
100
AcDbCircle
 62
7
  6
CONTINUOUS
 10
10.3429834891
 20
7.6540205919
 40
0.7183712121
100
AcDbArc
 50
25.2003196522
 51
90.0
  0
ARC
  5
23C
100
AcDbEntity
  8
0
100
AcDbCircle
 62
7
  6
CONTINUOUS
 10
10.3429834891
 20
10.3657630162
 40
0.7183712121
100
AcDbArc
 50
270.0
 51
334.7996803478
  0
ARC
  5
23D
100
AcDbEntity
  8
0
100
AcDbCircle
 62
7
  6
CONTINUOUS
 10
11.1832699158
 20
10.5164474968
 40
0.375
100
AcDbArc
 50
278.3059108051
 51
319.3969087652
  0
ARC
  5
23E
100
AcDbEntity
  8
0
100
AcDbCircle
 62
7
  6
CONTINUOUS
 10
11.1832699158
 20
7.5033361113
 40
0.375
100
AcDbArc
 50
40.6030912348
 51
81.6940891949
  0
ARC
  5
23F
100
AcDbEntity
  8
0
100
AcDbCircle
 62
7
  6
CONTINUOUS
 10
9.4229834891
 20
6.247891804
 40
0.3125
100
AcDbArc
 50
194.539847615
 51
345.460152385
  0
ARC
  5
240
100
AcDbEntity
  8
0
100
AcDbCircle
 62
7
  6
CONTINUOUS
 10
12.0699944384
 20
12.2007241561
 40
0.2500109774
100
AcDbArc
 50
119.7364395186
 51
179.9807893772
  0
ARC
  5
241
100
AcDbEntity
  8
0
100
AcDbCircle
 62
7
  6
CONTINUOUS
 10
12.0699944384
 20
5.819059452
 40
0.2500109774
100
AcDbArc
 50
180.0192106228
 51
240.2635604814
  0
ARC
  5
242
100
AcDbEntity
  8
0
100
AcDbCircle
 62
7
  6
CONTINUOUS
 10
11.8179834891
 20
11.7667305437
 40
0.25
100
AcDbArc
 50
119.7357131076
 51
180.0
  0
ARC
  5
243
100
AcDbEntity
  8
0
100
AcDbCircle
 62
7
  6
CONTINUOUS
 10
11.5699834891
 20
12.200891804
 40
0.25
100
AcDbArc
 50
299.7357131076
 51
359.9807893772
  0
ARC
  5
244
100
AcDbEntity
  8
0
100
AcDbCircle
 62
7
  6
CONTINUOUS
 10
11.8219834891
 20
12.634891804
 40
0.25
100
AcDbArc
 50
299.7364395186
 51
360.0
  0
ARC
  5
245
100
AcDbEntity
  8
0
100
AcDbCircle
 62
7
  6
CONTINUOUS
 10
12.3219834891
 20
12.634891804
 40
0.25
100
AcDbArc
 50
90.0
 51
180.0
  0
ARC
  5
246
100
AcDbEntity
  8
0
100
AcDbCircle
 62
7
  6
CONTINUOUS
 10
11.8179834891
 20
6.2530530644
 40
0.25
100
AcDbArc
 50
180.0
 51
240.2642868924
  0
ARC
  5
247
100
AcDbEntity
  8
0
100
AcDbCircle
 62
7
  6
CONTINUOUS
 10
11.5699834891
 20
5.818891804
 40
0.25
100
AcDbArc
 50
0.0192106228
 51
60.2642868924
  0
ARC
  5
248
100
AcDbEntity
  8
0
100
AcDbCircle
 62
7
  6
CONTINUOUS
 10
11.8219834891
 20
5.384891804
 40
0.25
100
AcDbArc
 50
0.0
 51
60.2635604814
  0
ARC
  5
249
100
AcDbEntity
  8
0
100
AcDbCircle
 62
7
  6
CONTINUOUS
 10
12.3219834891
 20
5.384891804
 40
0.25
100
AcDbArc
 50
180.0
 51
270.0
  0
ARC
  5
24A
100
AcDbEntity
  8
0
100
AcDbCircle
 62
7
  6
CONTINUOUS
 10
11.5179834891
 20
7.747391804
 40
0.05
100
AcDbArc
 50
180.0
 51
360.0
  0
ARC
  5
24B
100
AcDbEntity
  8
0
100
AcDbCircle
 62
7
  6
CONTINUOUS
 10
11.5179834891
 20
10.272391804
 40
0.05
100
AcDbArc
 50
0.0
 51
180.0
  0
ARC
  5
24C
100
AcDbEntity
  8
0
100
AcDbCircle
 62
7
  6
CONTINUOUS
 10
9.1781838361
 20
8.622391804
 40
0.03
100
AcDbArc
 50
194.7630312681
 51
260.0138853066
  0
ARC
  5
24D
100
AcDbEntity
  8
0
100
AcDbCircle
 62
7
  6
CONTINUOUS
 10
9.1781838361
 20
9.397391804
 40
0.03
100
AcDbArc
 50
99.9861146934
 51
165.2369687319
  0
SPLINE
  5
24E
100
AcDbEntity
  8
0
100
AcDbSpline
 62
7
  6
CONTINUOUS
 70
0
 71
3
 72
23
 73
19
 74
0
 42
0.0000001
 43
0.0000001
 44
0.0000000001
 40
0.0
 40
0.0
 40
0.0
 40
0.0
 40
0.039885701
 40
0.1502441058
 40
0.2257791348
 40
0.3112699807
 40
0.3568514695
 40
0.4037922512
 40
0.451660611
 40
0.4999999998
 40
0.5483393888
 40
0.5962077486
 40
0.6431485303
 40
0.6887300191
 40
0.7742208651
 40
0.8497558941
 40
0.960114299
 40
1.0
 40
1.0
 40
1.0
 40
1.0
 10
9.2414834891
 20
8.509891804
 30
0.0
 10
9.2461221392
 20
8.5115757309
 30
0.0
 10
9.2636666286
 20
8.5177331462
 30
0.0
 10
9.2904195676
 20
8.5258662893
 30
0.0
 10
9.3230887129
 20
8.5336942414
 30
0.0
 10
9.3482640416
 20
8.5382506411
 30
0.0
 10
9.3701091648
 20
8.5411086835
 30
0.0
 10
9.3874075768
 20
8.5427501801
 30
0.0
 10
9.4050959146
 20
8.5437677276
 30
0.0
 10
9.4229834891
 20
8.5441125497
 30
0.0
 10
9.4408710636
 20
8.5437677276
 30
0.0
 10
9.4585594014
 20
8.5427501801
 30
0.0
 10
9.4758578134
 20
8.5411086835
 30
0.0
 10
9.4977029366
 20
8.5382506411
 30
0.0
 10
9.5228782653
 20
8.5336942414
 30
0.0
 10
9.5555474106
 20
8.5258662893
 30
0.0
 10
9.5823003496
 20
8.5177331462
 30
0.0
 10
9.599844839
 20
8.511575731
 30
0.0
 10
9.6044834891
 20
8.509891804
 30
0.0
  0
LINE
  5
24F
100
AcDbEntity
  8
0
100
AcDbLine
 62
7
  6
CONTINUOUS
 10
9.3289834891
 20
6.247891804
 11
9.2787144273
 21
6.247891804
  0
LINE
  5
250
100
AcDbEntity
  8
0
100
AcDbLine
 62
7
  6
CONTINUOUS
 10
9.567252551
 20
6.247891804
 11
9.5169834891
 21
6.247891804
  0
LINE
  5
251
100
AcDbEntity
  8
0
100
AcDbLine
 62
7
  6
CONTINUOUS
 10
9.721010753
 20
6.247891804
 11
9.7001886258
 21
6.247891804
  0
SPLINE
  5
252
100
AcDbEntity
  8
0
100
AcDbSpline
 62
7
  6
CONTINUOUS
 70
0
 71
3
 72
35
 73
31
 74
0
 42
0.0000001
 43
0.0000001
 44
0.0000000001
 40
0.0
 40
0.0
 40
0.0
 40
0.0
 40
0.0723065038
 40
0.1076114615
 40
0.1421978972
 40
0.2088268656
 40
0.2408013635
 40
0.2718281187
 40
0.3019125188
 40
0.3310904405
 40
0.359429799
 40
0.3870312329
 40
0.4140266936
 40
0.4405758971
 40
0.4668606055
 40
0.4930759691
 40
0.5194208687
 40
0.5460874332
 40
0.5732513931
 40
0.6010646667
 40
0.6296497997
 40
0.6590975013
 40
0.6894659246
 40
0.7207814269
 40
0.7530407525
 40
0.7862134852
 40
0.8550163126
 40
0.8905218741
 40
0.9266074472
 40
1.0
 40
1.0
 40
1.0
 40
1.0
 10
9.7001886258
 20
6.247891804
 30
0.0
 10
9.699719292
 20
6.2425178882
 30
0.0
 10
9.6985216525
 20
6.2345495512
 30
0.0
 10
9.6958981885
 20
6.2242635588
 30
0.0
 10
9.6927033081
 20
6.2145864567
 30
0.0
 10
9.6885798831
 20
6.2054952333
 30
0.0
 10
9.6835391849
 20
6.1972309564
 30
0.0
 10
9.6794257969
 20
6.1916241584
 30
0.0
 10
9.6749594426
 20
6.1865688716
 30
0.0
 10
9.6701726708
 20
6.1821034156
 30
0.0
 10
9.6651009387
 20
6.1782625135
 30
0.0
 10
9.6597819798
 20
6.1750764666
 30
0.0
 10
9.6542559037
 20
6.1725709827
 30
0.0
 10
9.6485650254
 20
6.1707667726
 30
0.0
 10
9.6427536703
 20
6.1696789758
 30
0.0
 10
9.6368676452
 20
6.1693166257
 30
0.0
 10
9.6309535247
 20
6.1696825003
 30
0.0
 10
9.6250578849
 20
6.1707730258
 30
0.0
 10
9.6192266243
 20
6.1725786174
 30
0.0
 10
9.6135044582
 20
6.175083954
 30
0.0
 10
9.6079345974
 20
6.1782684799
 30
0.0
 10
9.6025586635
 20
6.1821068457
 30
0.0
 10
9.5974165236
 20
6.1865691636
 30
0.0
 10
9.5925463301
 20
6.1916210943
 30
0.0
 10
9.5879837783
 20
6.1972245612
 30
0.0
 10
9.5822885348
 20
6.2054718718
 30
0.0
 10
9.5774326264
 20
6.2145536765
 30
0.0
 10
9.5734505526
 20
6.224247233
 30
0.0
 10
9.5700064494
 20
6.234507079
 30
0.0
 10
9.5681587094
 20
6.2424919121
 30
0.0
 10
9.567252551
 20
6.247891804
 30
0.0
  0
SPLINE
  5
253
100
AcDbEntity
  8
0
100
AcDbSpline
 62
7
  6
CONTINUOUS
 70
0
 71
3
 72
39
 73
35
 74
0
 42
0.0000001
 43
0.0000001
 44
0.0000000001
 40
0.0
 40
0.0
 40
0.0
 40
0.0
 40
0.0312227376
 40
0.0624517861
 40
0.0936801535
 40
0.1249132561
 40
0.156149901
 40
0.1873905791
 40
0.2186355669
 40
0.2498848233
 40
0.2811382377
 40
0.3123956829
 40
0.3436567596
 40
0.3749211197
 40
0.4061882857
 40
0.437457586
 40
0.4687284366
 40
0.5
 40
0.5312715634
 40
0.562542414
 40
0.5938117143
 40
0.6250788803
 40
0.6563432404
 40
0.6876043171
 40
0.7188617623
 40
0.7501151767
 40
0.7813644331
 40
0.8126094209
 40
0.843850099
 40
0.8750867439
 40
0.9063198465
 40
0.9375482139
 40
0.9687772624
 40
1.0
 40
1.0
 40
1.0
 40
1.0
 10
9.5169834891
 20
6.247891804
 30
0.0
 10
9.5164924269
 20
6.2451699635
 30
0.0
 10
9.5152720511
 20
6.2397656281
 30
0.0
 10
9.5127436012
 20
6.2318512964
 30
0.0
 10
9.5095351195
 20
6.2241857065
 30
0.0
 10
9.5056717279
 20
6.2168278504
 30
0.0
 10
9.5011821495
 20
6.2098331049
 30
0.0
 10
9.496100576
 20
6.203254539
 30
0.0
 10
9.4904655051
 20
6.1971418919
 30
0.0
 10
9.4843196035
 20
6.1915414412
 30
0.0
 10
9.4777093849
 20
6.1864956036
 30
0.0
 10
9.4706848803
 20
6.182042612
 30
0.0
 10
9.4632993085
 20
6.1782161035
 30
0.0
 10
9.4556085745
 20
6.1750450287
 30
0.0
 10
9.44767089
 20
6.1725533722
 30
0.0
 10
9.439546316
 20
6.1707600396
 30
0.0
 10
9.4312963639
 20
6.1696786189
 30
0.0
 10
9.4229834891
 20
6.1693172314
 30
0.0
 10
9.4146706144
 20
6.1696786189
 30
0.0
 10
9.4064206623
 20
6.1707600396
 30
0.0
 10
9.3982960883
 20
6.1725533722
 30
0.0
 10
9.3903584038
 20
6.1750450287
 30
0.0
 10
9.3826676697
 20
6.1782161035
 30
0.0
 10
9.375282098
 20
6.182042612
 30
0.0
 10
9.3682575934
 20
6.1864956036
 30
0.0
 10
9.3616473748
 20
6.1915414412
 30
0.0
 10
9.3555014731
 20
6.1971418919
 30
0.0
 10
9.3498664023
 20
6.203254539
 30
0.0
 10
9.3447848287
 20
6.2098331049
 30
0.0
 10
9.3402952504
 20
6.2168278504
 30
0.0
 10
9.3364318588
 20
6.2241857065
 30
0.0
 10
9.333223377
 20
6.2318512964
 30
0.0
 10
9.3306949271
 20
6.2397656281
 30
0.0
 10
9.3294745513
 20
6.2451699635
 30
0.0
 10
9.3289834891
 20
6.247891804
 30
0.0
  0
SPLINE
  5
254
100
AcDbEntity
  8
0
100
AcDbSpline
 62
7
  6
CONTINUOUS
 70
0
 71
3
 72
46
 73
42
 74
0
 42
0.0000001
 43
0.0000001
 44
0.0000000001
 40
0.0
 40
0.0
 40
0.0
 40
0.0
 40
0.1155157969
 40
0.2249647832
 40
0.3280440592
 40
0.3771190921
 40
0.4245129479
 40
0.4701984227
 40
0.5141485387
 40
0.5563362839
 40
0.5967358842
 40
0.6720722462
 40
0.7399674733
 40
0.8002669602
 40
0.8275253763
 40
0.852834432
 40
0.8761765554
 40
0.8975340318
 40
0.9168936257
 40
0.9342453759
 40
0.9495803385
 40
0.9628918244
 40
0.9687877104
 40
0.9741764171
 40
0.9790574918
 40
0.9834304727
 40
0.9872949145
 40
0.9906503086
 40
0.9934955927
 40
0.9958291942
 40
0.9968035102
 40
0.9976491149
 40
0.9983656882
 40
0.9989528831
 40
0.9994103256
 40
0.9995902659
 40
0.9997376157
 40
0.9998523207
 40
0.999934325
 40
0.9999835712
 40
1.0
 40
1.0
 40
1.0
 40
1.0
 10
9.2992398272
 20
8.4098918017
 30
0.0
 10
9.2972657101
 20
8.4098917919
 30
0.0
 10
9.2934211677
 20
8.4098632606
 30
0.0
 10
9.2878155712
 20
8.4097866748
 30
0.0
 10
9.2833451398
 20
8.4097366116
 30
0.0
 10
9.2799350074
 20
8.4097145382
 30
0.0
 10
9.2775056434
 20
8.4097098809
 30
0.0
 10
9.2751638677
 20
8.4097163359
 30
0.0
 10
9.2729111148
 20
8.4097330727
 30
0.0
 10
9.2707487999
 20
8.4097599319
 30
0.0
 10
9.2680503188
 20
8.4098046909
 30
0.0
 10
9.2649126879
 20
8.409864225
 30
0.0
 10
9.2614344454
 20
8.4098927103
 30
0.0
 10
9.2587777316
 20
8.4098736244
 30
0.0
 10
9.2568493128
 20
8.4098319752
 30
0.0
 10
9.2555525274
 20
8.4097966795
 30
0.0
 10
9.2543566117
 20
8.4097619931
 30
0.0
 10
9.2532622021
 20
8.4097346346
 30
0.0
 10
9.252269971
 20
8.4097172358
 30
0.0
 10
9.2513805333
 20
8.4097100207
 30
0.0
 10
9.2505944228
 20
8.4097136905
 30
0.0
 10
9.2500042138
 20
8.4097267301
 30
0.0
 10
9.2495841619
 20
8.4097423744
 30
0.0
 10
9.249308206
 20
8.409755548
 30
0.0
 10
9.2490583977
 20
8.4097703196
 30
0.0
 10
9.2488347769
 20
8.4097863713
 30
0.0
 10
9.2486373834
 20
8.4098033764
 30
0.0
 10
9.248466273
 20
8.4098210154
 30
0.0
 10
9.2483214585
 20
8.4098383969
 30
0.0
 10
9.2482172691
 20
8.4098526578
 30
0.0
 10
9.2481470742
 20
8.4098632062
 30
0.0
 10
9.2481042633
 20
8.4098700039
 30
0.0
 10
9.2480680308
 20
8.4098760592
 30
0.0
 10
9.2480383944
 20
8.4098812727
 30
0.0
 10
9.2480177926
 20
8.4098850438
 30
0.0
 10
9.2480046492
 20
8.409887581
 30
0.0
 10
9.2479971725
 20
8.4098889758
 30
0.0
 10
9.2479915682
 20
8.4098902556
 30
0.0
 10
9.2479870817
 20
8.4098907958
 30
0.0
 10
9.2479852556
 20
8.4098918301
 30
0.0
 10
9.2479834891
 20
8.4098915211
 30
0.0
 10
9.2479834891
 20
8.4098918018
 30
0.0
  0
SPLINE
  5
255
100
AcDbEntity
  8
0
100
AcDbSpline
 62
7
  6
CONTINUOUS
 70
0
 71
3
 72
31
 73
27
 74
0
 42
0.0000001
 43
0.0000001
 44
0.0000000001
 40
0.0
 40
0.0
 40
0.0
 40
0.0
 40
0.0693856407
 40
0.1040330166
 40
0.138617047
 40
0.2075077346
 40
0.2417748777
 40
0.2758969601
 40
0.3098535182
 40
0.3436238011
 40
0.3771870309
 40
0.4105228156
 40
0.4764324097
 40
0.5411942603
 40
0.6046525666
 40
0.6666540949
 40
0.6970620735
 40
0.72705015
 40
0.7566002015
 40
0.7856943416
 40
0.8143147427
 40
0.8424440857
 40
0.8971660476
 40
0.9237269747
 40
0.949731886
 40
1.0
 40
1.0
 40
1.0
 40
1.0
 10
9.4229835369
 20
8.4098918016
 30
0.0
 10
9.4201214683
 20
8.4098917879
 30
0.0
 10
9.4158302489
 20
8.4098692489
 30
0.0
 10
9.4101126713
 20
8.4098225643
 30
0.0
 10
9.4044155092
 20
8.4097750839
 30
0.0
 10
9.3987339596
 20
8.4097358824
 30
0.0
 10
9.3930713744
 20
8.4097143822
 30
0.0
 10
9.3888497391
 20
8.4097098961
 30
0.0
 10
9.3846486025
 20
8.4097165275
 30
0.0
 10
9.3804705472
 20
8.409733458
 30
0.0
 10
9.3763181519
 20
8.4097604869
 30
0.0
 10
9.37084016
 20
8.4098063736
 30
0.0
 10
9.3640753296
 20
8.409866629
 30
0.0
 10
9.3560677149
 20
8.4098929036
 30
0.0
 10
9.3482212936
 20
8.4098677405
 30
0.0
 10
9.3417922163
 20
8.4098072764
 30
0.0
 10
9.3367436882
 20
8.4097608049
 30
0.0
 10
9.3330336218
 20
8.4097336923
 30
0.0
 10
9.3293776898
 20
8.4097166542
 30
0.0
 10
9.3257781386
 20
8.409709912
 30
0.0
 10
9.3222371846
 20
8.4097142724
 30
0.0
 10
9.3176391609
 20
8.4097353684
 30
0.0
 10
9.3131261987
 20
8.4097741449
 30
0.0
 10
9.308700973
 20
8.4098221607
 30
0.0
 10
9.3044594671
 20
8.4098683221
 30
0.0
 10
9.3013133224
 20
8.409891812
 30
0.0
 10
9.2992398272
 20
8.4098918017
 30
0.0
  0
SPLINE
  5
256
100
AcDbEntity
  8
0
100
AcDbSpline
 62
7
  6
CONTINUOUS
 70
0
 71
3
 72
31
 73
27
 74
0
 42
0.0000001
 43
0.0000001
 44
0.0000000001
 40
0.0
 40
0.0
 40
0.0
 40
0.0
 40
0.0502681011
 40
0.0762730044
 40
0.1028339238
 40
0.1575558728
 40
0.1856852102
 40
0.2143056056
 40
0.24339974
 40
0.2729497861
 40
0.3029378582
 40
0.3333458331
 40
0.3953473573
 40
0.4588056628
 40
0.5235675132
 40
0.5894771106
 40
0.6228128985
 40
0.6563761327
 40
0.6901464205
 40
0.7241029838
 40
0.7582250718
 40
0.792492221
 40
0.8613829227
 40
0.8959669614
 40
0.9306143456
 40
1.0
 40
1.0
 40
1.0
 40
1.0
 10
9.5467272125
 20
8.4098918017
 30
0.0
 10
9.5446537184
 20
8.4098917864
 30
0.0
 10
9.5415075757
 20
8.4098682969
 30
0.0
 10
9.5372660719
 20
8.4098221558
 30
0.0
 10
9.5328408484
 20
8.409774155
 30
0.0
 10
9.5283278886
 20
8.4097353737
 30
0.0
 10
9.5237298671
 20
8.4097142722
 30
0.0
 10
9.5201889149
 20
8.4097099102
 30
0.0
 10
9.5165893654
 20
8.4097166523
 30
0.0
 10
9.5129334349
 20
8.4097336913
 30
0.0
 10
9.5092233702
 20
8.4097608063
 30
0.0
 10
9.5041748439
 20
8.4098072769
 30
0.0
 10
9.4977457688
 20
8.4098677334
 30
0.0
 10
9.4898993499
 20
8.4098929036
 30
0.0
 10
9.4818917373
 20
8.409866636
 30
0.0
 10
9.4751269085
 20
8.4098063732
 30
0.0
 10
9.4696489177
 20
8.4097604856
 30
0.0
 10
9.465496523
 20
8.409733459
 30
0.0
 10
9.4613184682
 20
8.4097165296
 30
0.0
 10
9.4571173321
 20
8.4097098981
 30
0.0
 10
9.4528956974
 20
8.4097143823
 30
0.0
 10
9.4472331126
 20
8.4097358765
 30
0.0
 10
9.4415515634
 20
8.4097750731
 30
0.0
 10
9.4358544017
 20
8.4098225698
 30
0.0
 10
9.4301368247
 20
8.409869277
 30
0.0
 10
9.4258456053
 20
8.4098918154
 30
0.0
 10
9.4229835369
 20
8.4098918016
 30
0.0
  0
SPLINE
  5
257
100
AcDbEntity
  8
0
100
AcDbSpline
 62
7
  6
CONTINUOUS
 70
0
 71
3
 72
46
 73
42
 74
0
 42
0.0000001
 43
0.0000001
 44
0.0000000001
 40
0.0
 40
0.0
 40
0.0
 40
0.0
 40
0.0000164288
 40
0.000065675
 40
0.0001476793
 40
0.0002623843
 40
0.000409734
 40
0.0005896743
 40
0.0010471167
 40
0.0016343116
 40
0.0023508848
 40
0.0031964893
 40
0.0041708052
 40
0.0065044065
 40
0.0093496903
 40
0.012705084
 40
0.0165695255
 40
0.0209425061
 40
0.0258235804
 40
0.0312122866
 40
0.0371081722
 40
0.0504196571
 40
0.0657546184
 40
0.0831063669
 40
0.102465959
 40
0.1238234338
 40
0.1471655551
 40
0.1724746085
 40
0.1997330227
 40
0.2600325066
 40
0.32792773
 40
0.4032640897
 40
0.4436636895
 40
0.4858514352
 40
0.529801552
 40
0.575487028
 40
0.6228808853
 40
0.6719559198
 40
0.7750352008
 40
0.8844841984
 40
1.0
 40
1.0
 40
1.0
 40
1.0
 10
9.5979834891
 20
8.4098918016
 30
0.0
 10
9.5979834891
 20
8.4098915209
 30
0.0
 10
9.5979817227
 20
8.4098918299
 30
0.0
 10
9.5979798966
 20
8.4098907956
 30
0.0
 10
9.5979754101
 20
8.4098902555
 30
0.0
 10
9.5979698058
 20
8.4098889757
 30
0.0
 10
9.5979623291
 20
8.4098875808
 30
0.0
 10
9.5979491858
 20
8.4098850437
 30
0.0
 10
9.5979285839
 20
8.4098812726
 30
0.0
 10
9.5978989476
 20
8.409876059
 30
0.0
 10
9.5978627152
 20
8.4098700038
 30
0.0
 10
9.5978199043
 20
8.4098632061
 30
0.0
 10
9.5977497095
 20
8.4098526577
 30
0.0
 10
9.5976455202
 20
8.4098383968
 30
0.0
 10
9.5975007059
 20
8.4098210154
 30
0.0
 10
9.5973295958
 20
8.4098033765
 30
0.0
 10
9.5971322025
 20
8.4097863714
 30
0.0
 10
9.596908582
 20
8.4097703197
 30
0.0
 10
9.596658774
 20
8.4097555481
 30
0.0
 10
9.5963828185
 20
8.4097423745
 30
0.0
 10
9.595962767
 20
8.4097267301
 30
0.0
 10
9.5953725588
 20
8.4097136905
 30
0.0
 10
9.5945864493
 20
8.4097100207
 30
0.0
 10
9.5936970128
 20
8.4097172357
 30
0.0
 10
9.5927047829
 20
8.4097346346
 30
0.0
 10
9.5916103748
 20
8.4097619934
 30
0.0
 10
9.5904144605
 20
8.4097966793
 30
0.0
 10
9.5891176768
 20
8.4098319742
 30
0.0
 10
9.5871892604
 20
8.4098736223
 30
0.0
 10
9.58453255
 20
8.4098927111
 30
0.0
 10
9.5810543118
 20
8.4098642275
 30
0.0
 10
9.5779166848
 20
8.4098046903
 30
0.0
 10
9.5752182069
 20
8.4097599313
 30
0.0
 10
9.5730558946
 20
8.4097330736
 30
0.0
 10
9.5708031444
 20
8.4097163377
 30
0.0
 10
9.5684613714
 20
8.4097098827
 30
0.0
 10
9.5660320103
 20
8.4097145382
 30
0.0
 10
9.5626218817
 20
8.409736606
 30
0.0
 10
9.5581514553
 20
8.4097866636
 30
0.0
 10
9.5525458657
 20
8.4098632861
 30
0.0
 10
9.5487013273
 20
8.4098918162
 30
0.0
 10
9.5467272125
 20
8.4098918017
 30
0.0
  0
SPLINE
  5
258
100
AcDbEntity
  8
0
100
AcDbSpline
 62
7
  6
CONTINUOUS
 70
0
 71
3
 72
35
 73
31
 74
0
 42
0.0000001
 43
0.0000001
 44
0.0000000001
 40
0.0
 40
0.0
 40
0.0
 40
0.0
 40
0.0733925528
 40
0.1094781259
 40
0.1449836874
 40
0.2137865148
 40
0.2469592475
 40
0.2792185731
 40
0.3105340754
 40
0.3409024987
 40
0.3703502003
 40
0.3989353333
 40
0.4267486069
 40
0.4539125668
 40
0.4805791313
 40
0.5069240309
 40
0.5331393945
 40
0.5594241029
 40
0.5859733064
 40
0.6129687671
 40
0.640570201
 40
0.6689095595
 40
0.6980874812
 40
0.7281718813
 40
0.7591986365
 40
0.7911731344
 40
0.8578021028
 40
0.8923885385
 40
0.9276934962
 40
1.0
 40
1.0
 40
1.0
 40
1.0
 10
9.2787144273
 20
6.247891804
 30
0.0
 10
9.2778082688
 20
6.2424919121
 30
0.0
 10
9.2759605288
 20
6.234507079
 30
0.0
 10
9.2725164256
 20
6.224247233
 30
0.0
 10
9.2685343519
 20
6.2145536765
 30
0.0
 10
9.2636784435
 20
6.2054718718
 30
0.0
 10
9.2579832
 20
6.1972245612
 30
0.0
 10
9.2534206481
 20
6.1916210943
 30
0.0
 10
9.2485504547
 20
6.1865691636
 30
0.0
 10
9.2434083148
 20
6.1821068457
 30
0.0
 10
9.2380323809
 20
6.1782684799
 30
0.0
 10
9.2324625201
 20
6.175083954
 30
0.0
 10
9.226740354
 20
6.1725786174
 30
0.0
 10
9.2209090933
 20
6.1707730258
 30
0.0
 10
9.2150134536
 20
6.1696825003
 30
0.0
 10
9.2090993331
 20
6.1693166257
 30
0.0
 10
9.203213308
 20
6.1696789758
 30
0.0
 10
9.1974019528
 20
6.1707667726
 30
0.0
 10
9.1917110745
 20
6.1725709827
 30
0.0
 10
9.1861849985
 20
6.1750764666
 30
0.0
 10
9.1808660396
 20
6.1782625135
 30
0.0
 10
9.1757943074
 20
6.1821034156
 30
0.0
 10
9.1710075357
 20
6.1865688716
 30
0.0
 10
9.1665411814
 20
6.1916241584
 30
0.0
 10
9.1624277933
 20
6.1972309564
 30
0.0
 10
9.1573870952
 20
6.2054952333
 30
0.0
 10
9.1532636702
 20
6.2145864567
 30
0.0
 10
9.1500687897
 20
6.2242635588
 30
0.0
 10
9.1474453258
 20
6.2345495512
 30
0.0
 10
9.1462476863
 20
6.2425178882
 30
0.0
 10
9.1457783525
 20
6.247891804
 30
0.0
  0
LINE
  5
259
100
AcDbEntity
  8
0
100
AcDbLine
 62
7
  6
CONTINUOUS
 10
9.1457783525
 20
6.247891804
 11
9.1249562253
 21
6.247891804
  0
ENDSEC
  0
SECTION
  2
OBJECTS
  0
DICTIONARY
  5
C
100
AcDbDictionary
280
0
281
1
  3
ACAD_GROUP
350
D
  3
ACAD_MLINESTYLE
350
17
  3
ACAD_LAYOUT
350
1A
  3
ACAD_PLOTSETTINGS
350
19
  3
ACAD_PLOTSTYLENAME
350
E
  0
DICTIONARY
  5
D
102
{ACAD_REACTORS
330
C
102
}
100
AcDbDictionary
280
0
281
1
  0
ACDBDICTIONARYWDFLT
  5
E
102
{ACAD_REACTORS
330
C
102
}
100
AcDbDictionary
281
1
  3
Normal
350
F
100
AcDbDictionaryWithDefault
340
F
  0
DICTIONARY
  5
17
102
{ACAD_REACTORS
330
C
102
}
100
AcDbDictionary
280
0
281
1
  3
Standard
350
18
  0
DICTIONARY
  5
19
102
{ACAD_REACTORS
330
C
102
}
100
AcDbDictionary
281
1
  0
DICTIONARY
  5
1A
102
{ACAD_REACTORS
330
C
102
}
100
AcDbDictionary
281
1
  3
Model
350
25A
  3
Layout1
350
25B
  0
ACDBPLACEHOLDER
  5
F
102
{ACAD_REACTORS
330
E
102
}
  0
MLINESTYLE
  5
18
102
{ACAD_REACTORS
330
17
102
}
100
AcDbMlineStyle
  2
STANDARD
 70
0
  3

 62
256
 51
90.0
 52
90.0
 71
2
 49
0.5
 62
256
  6
BYLAYER
 49
-0.5
 62
256
  6
BYLAYER
  0
LAYOUT
  5
25A
102
{ACAD_REACTORS
330
1A
102
}
100
AcDbPlotSettings
  1

  2
none_device
  4
ANSI_C_(22.00_x_17.00_Inches)
  6

 40
0.0
 41
0.0
 42
0.0
 43
0.0
 44
558.8
 45
431.8
 46
0.0
 47
0.0
 48
0.0
 49
0.0
140
0.0
141
0.0
142
1.0
143
1.0
 70
1024
 72
0
 73
0
 74
0
  7

 75
0
147
1.0
148
0.0
149
0.0
100
AcDbLayout
  1
Model
 70
0
 71
0
 10
0.0
 20
0.0
 11
22.0
 21
17.0
 12
0.0
 22
0.0
 32
0.0
 14
0.0
 24
0.0
 34
0.0
 15
0.0
 25
0.0
 35
0.0
146
0.0
 13
0.0
 23
0.0
 33
0.0
 16
1.0
 26
0.0
 36
0.0
 17
0.0
 27
1.0
 37
0.0
 76
0
330
205
345
0
346
0
  0
LAYOUT
  5
25B
102
{ACAD_REACTORS
330
1A
102
}
100
AcDbPlotSettings
  1

  2
none_device
  4
ANSI_C_(22.00_x_17.00_Inches)
  6

 40
0.0
 41
0.0
 42
0.0
 43
0.0
 44
558.8
 45
431.8
 46
0.0
 47
0.0
 48
0.0
 49
0.0
140
0.0
141
0.0
142
1.0
143
1.0
 70
0
 72
0
 73
0
 74
0
  7

 75
0
147
1.0
148
0.0
149
0.0
100
AcDbLayout
  1
Layout1
 70
0
 71
1
 10
0.0
 20
0.0
 11
22.0
 21
17.0
 12
0.0
 22
0.0
 32
0.0
 14
0.0
 24
0.0
 34
0.0
 15
0.0
 25
0.0
 35
0.0
146
0.0
 13
0.0
 23
0.0
 33
0.0
 16
1.0
 26
0.0
 36
0.0
 17
0.0
 27
1.0
 37
0.0
 76
0
330
206
345
0
346
0
  0
ENDSEC
  0
EOF
