999
DXF file: E:\BT Custom\CADOUTPUT\_RIGHT.dxf
999
Pro/ENGINEER 2018400 by Parametric Technology Corporation
  0
SECTION
  2
HEADER
  9
$ACADVER
  1
AC1018
  9
$DWGCODEPAGE
  3
ANSI_1252
  9
$EXTMAX
 10
22.0
 20
17.0
 30
0.0
  9
$EXTMIN
 10
0.0
 20
0.0
 30
0.0
  9
$LIMMIN
 10
0.0
 20
0.0
  9
$LIMMAX
 10
22.0
 20
17.0
  9
$VIEWCTR
 10
11.0
 20
8.5
  9
$VIEWSIZE
 40
17.0
  9
$CLAYER
  8
0
  9
$LTSCALE
 40
1.21
  9
$CELTYPE
  6
BYLAYER
  9
$DIMSCALE
 40
1.0
  9
$DIMASZ
 40
0.1
  9
$DIMEXO
 40
0.0625
  9
$DIMDLI
 40
0.836
  9
$DIMEXE
 40
0.125
  9
$DIMCEN
 40
0.198
  9
$DIMLFAC
 40
1.0
  9
$DIMBLK
  1
_FILLED
  9
$DIMALT
 70
1
  9
$DIMALTD
 70
2
  9
$DIMALTTD
 70
2
  9
$DIMALTF
 40
25.4
  9
$DIMTXT
 40
0.08
  9
$DIMTOL
 70
1
  9
$DIMLIM
 70
0
  9
$DIMTFAC
 40
1.0
  9
$DIMTP
 40
0.001
  9
$DIMTM
 40
0.001
  9
$DIMGAP
 40
0.09
  9
$DIMDSEP
 70
46
  9
$AUNITS
 70
0
  9
$PDMODE
 70
3
  9
$PDSIZE
 40
0.06
  9
$HANDSEED
  5
30B
  9
$TILEMODE
 70
1
  9
$MEASUREMENT
 70
0
  9
$INSUNITS
 70
1
  0
ENDSEC
  0
SECTION
  2
CLASSES
  0
CLASS
  1
ACDBDICTIONARYWDFLT
  2
AcDbDictionaryWithDefault
  3
AutoCAD 2000
 90
0
 91
1
280
0
281
0
  0
CLASS
  1
ACDBPLACEHOLDER
  2
AcDbPlaceHolder
  3
AutoCAD 2000
 90
0
 91
1
280
0
281
0
  0
CLASS
  1
LAYOUT
  2
AcDbLayout
  3
AutoCAD 2000
 90
0
 91
0
280
0
281
0
  0
ENDSEC
  0
SECTION
  2
TABLES
  0
TABLE
  2
VPORT
  5
8
100
AcDbSymbolTable
 70
2
  0
VPORT
  5
1F4
100
AcDbSymbolTableRecord
100
AcDbViewportTableRecord
  2
*ACTIVE
 70
0
 10
0.0
 20
0.0
 11
1.0
 21
1.0
 12
11.0
 22
8.5
 13
0.0
 23
0.0
 14
1.0
 24
1.0
 15
0.0
 25
0.0
 16
0.0
 26
0.0
 36
1.0
 17
0.0
 27
0.0
 37
0.0
 40
17.0
 41
1.2941176471
 42
50.0
 43
0.0
 44
0.0
 50
0.0
 51
0.0
 71
0
 72
100
 73
1
 74
1
 75
0
 76
0
 77
0
 78
0
  0
ENDTAB
  0
TABLE
  2
LTYPE
  5
5
100
AcDbSymbolTable
 70
6
  0
LTYPE
  5
14
100
AcDbSymbolTableRecord
100
AcDbLinetypeTableRecord
  2
BYBLOCK
 70
0
  3

 72
65
 73
0
 40
0.0
  0
LTYPE
  5
15
100
AcDbSymbolTableRecord
100
AcDbLinetypeTableRecord
  2
BYLAYER
 70
0
  3

 72
65
 73
0
 40
0.0
  0
LTYPE
  5
16
100
AcDbSymbolTableRecord
100
AcDbLinetypeTableRecord
  2
CONTINUOUS
 70
64
  3
Solid line
 72
65
 73
0
 40
0.0
  0
LTYPE
  5
1F5
100
AcDbSymbolTableRecord
100
AcDbLinetypeTableRecord
  2
CENTER
 70
64
  3
____ _ ____ _ ____ _ ____ _ ____ _ ____ _ ____
 72
65
 73
4
 40
0.6
 49
0.375
 74
0
 49
-0.075
 74
0
 49
0.075
 74
0
 49
-0.075
 74
0
  0
LTYPE
  5
1F6
100
AcDbSymbolTableRecord
100
AcDbLinetypeTableRecord
  2
HIDDEN
 70
64
  3
- - - - - - - - - - - - - - - - - - - -
 72
65
 73
2
 40
0.2
 49
0.1
 74
0
 49
-0.1
 74
0
  0
LTYPE
  5
1F7
100
AcDbSymbolTableRecord
100
AcDbLinetypeTableRecord
  2
PHANTOM
 70
64
  3
_____ _ _ _____ _ _ _____ _ _ _____
 72
65
 73
6
 40
0.8
 49
0.45
 74
0
 49
-0.05
 74
0
 49
0.1
 74
0
 49
-0.05
 74
0
 49
0.1
 74
0
 49
-0.05
 74
0
  0
LTYPE
  5
1F8
100
AcDbSymbolTableRecord
100
AcDbLinetypeTableRecord
  2
DOT
 70
64
  3
. . . . . . . . . . . . . . . . . . . .
 72
65
 73
2
 40
0.2
 49
0.1
 74
0
 49
-0.1
 74
0
  0
LTYPE
  5
1F9
100
AcDbSymbolTableRecord
100
AcDbLinetypeTableRecord
  2
DASHED
 70
64
  3
- - - - - - - - - - - - - - - - - - - -
 72
65
 73
2
 40
0.2
 49
0.1
 74
0
 49
-0.1
 74
0
  0
ENDTAB
  0
TABLE
  2
LAYER
  5
2
100
AcDbSymbolTable
 70
36
  0
LAYER
  5
10
100
AcDbSymbolTableRecord
100
AcDbLayerTableRecord
  2
0
 70
0
 62
7
  6
CONTINUOUS
370
-3
390
F
  0
LAYER
  5
1FA
100
AcDbSymbolTableRecord
100
AcDbLayerTableRecord
  2
DEFAULT_1
 70
0
 62
7
  6
CENTER
370
-3
390
F
  0
LAYER
  5
1FB
100
AcDbSymbolTableRecord
100
AcDbLayerTableRecord
  2
DEFAULT_2
 70
0
 62
8
  6
HIDDEN
370
-3
390
F
  0
LAYER
  5
1FC
100
AcDbSymbolTableRecord
100
AcDbLayerTableRecord
  2
DEFAULT_3
 70
0
 62
7
  6
PHANTOM
370
-3
390
F
  0
LAYER
  5
1FD
100
AcDbSymbolTableRecord
100
AcDbLayerTableRecord
  2
ALL_FEATURES
 70
0
 62
7
  6
CONTINUOUS
370
-3
390
F
  0
LAYER
  5
1FE
100
AcDbSymbolTableRecord
100
AcDbLayerTableRecord
  2
AXES_FEATURES
 70
0
 62
7
  6
CONTINUOUS
370
-3
390
F
  0
LAYER
  5
1FF
100
AcDbSymbolTableRecord
100
AcDbLayerTableRecord
  2
DEFAULT_COORDINATE_SYSTEM
 70
0
 62
7
  6
CONTINUOUS
370
-3
390
F
  0
LAYER
  5
200
100
AcDbSymbolTableRecord
100
AcDbLayerTableRecord
  2
DEFAULT_DATUM_AXES
 70
0
 62
7
  6
CONTINUOUS
370
-3
390
F
  0
LAYER
  5
201
100
AcDbSymbolTableRecord
100
AcDbLayerTableRecord
  2
DEFAULT_DATUM_PLANES
 70
0
 62
7
  6
CONTINUOUS
370
-3
390
F
  0
LAYER
  5
202
100
AcDbSymbolTableRecord
100
AcDbLayerTableRecord
  2
DIMENSIONS
 70
0
 62
7
  6
CONTINUOUS
370
-3
390
F
  0
ENDTAB
  0
TABLE
  2
STYLE
  5
3
100
AcDbSymbolTable
 70
1
  0
STYLE
  5
11
100
AcDbSymbolTableRecord
100
AcDbTextStyleTableRecord
  2
STANDARD
 70
0
 40
0.0
 41
0.8
 50
0.0
 71
0
 42
0.2
  3
txt
  4

  0
STYLE
  5
203
100
AcDbSymbolTableRecord
100
AcDbTextStyleTableRecord
  2
TEXTSTYLE_1
 70
0
 40
0.0
 41
0.8
 50
0.0
 71
0
 42
0.2
  3
gdt
  4

  0
ENDTAB
  0
TABLE
  2
VIEW
  5
6
100
AcDbSymbolTable
 70
0
  0
ENDTAB
  0
TABLE
  2
UCS
  5
7
100
AcDbSymbolTable
 70
0
  0
ENDTAB
  0
TABLE
  2
APPID
  5
9
100
AcDbSymbolTable
 70
1
  0
APPID
  5
204
100
AcDbSymbolTableRecord
100
AcDbRegAppTableRecord
  2
ACAD
 70
0
  0
ENDTAB
  0
TABLE
  2
BLOCK_RECORD
  5
1
100
AcDbSymbolTable
 70
0
  0
BLOCK_RECORD
  5
205
100
AcDbSymbolTableRecord
100
AcDbBlockTableRecord
  2
*Model_Space
  0
BLOCK_RECORD
  5
206
100
AcDbSymbolTableRecord
100
AcDbBlockTableRecord
  2
*Paper_Space
  0
BLOCK_RECORD
  5
207
100
AcDbSymbolTableRecord
100
AcDbBlockTableRecord
  2
_FILLED
  0
ENDTAB
  0
TABLE
  2
DIMSTYLE
  5
A
100
AcDbSymbolTable
 70
1
100
AcDbDimStyleTable
 71
0
  0
DIMSTYLE
105
208
100
AcDbSymbolTableRecord
100
AcDbDimStyleTableRecord
  2
STANDARD
 70
0
  3

  4

 40
1.0
 41
0.1
 42
0.0625
 43
0.38
 44
0.125
 45
0.0
 46
0.0
 47
0.001
 48
0.001
140
0.08
141
0.09
142
0.0
143
25.4
144
1.0
145
0.0
146
1.0
147
0.09
 71
1.0
 72
0.0
 73
1
 74
1
 75
0
 76
0
 77
0
 78
4
 79
1
170
1
171
2
172
0
173
0
174
0
175
0
176
0
177
0
178
0
270
2
179
3
271
3
272
3
273
2
274
2
275
0
280
0
281
0
282
0
283
1
284
4
285
0
286
0
287
3
288
0
340
11
278
46
341
207
342
207
343
207
344
207
  0
ENDTAB
  0
ENDSEC
  0
SECTION
  2
BLOCKS
  0
BLOCK
  5
20
100
AcDbEntity
  8
0
100
AcDbBlockBegin
  2
*Model_Space
 70
0
 10
0.0
 20
0.0
 30
0.0
  3
*Model_Space
  1

  0
ENDBLK
  5
21
100
AcDbEntity
  8
0
100
AcDbBlockEnd
  0
BLOCK
  5
1C
100
AcDbEntity
  8
0
100
AcDbBlockBegin
  2
*Paper_Space
 70
0
 10
0.0
 20
0.0
 30
0.0
  3
*Paper_Space
  1

  0
ENDBLK
  5
1D
100
AcDbEntity
  8
0
100
AcDbBlockEnd
  0
BLOCK
  5
209
100
AcDbEntity
  8
0
100
AcDbBlockBegin
  2
_FILLED
 70
64
 10
0.0
 20
0.0
  3
_FILLED
  1

  0
SOLID
  5
20A
100
AcDbEntity
  8
0
  6
BYBLOCK
 62
0
100
AcDbTrace
 10
0.0
 20
0.0
 11
-1.0
 21
0.2
 12
-1.0
 22
-0.2
 13
-1.0
 23
-0.2
  0
ENDBLK
  5
20B
100
AcDbEntity
  8
0
  6
BYBLOCK
 62
0
100
AcDbBlockEnd
  0
ENDSEC
  0
SECTION
  2
ENTITIES
  0
LINE
  5
20C
100
AcDbEntity
  8
0
100
AcDbLine
 62
9
  6
CONTINUOUS
 10
8.9456719633
 20
8.6233739469
 11
8.9456719633
 21
9.3964096612
  0
LINE
  5
20D
100
AcDbEntity
  8
0
100
AcDbLine
 62
7
  6
CONTINUOUS
 10
8.9899834891
 20
8.5551607092
 11
8.9899834891
 21
9.4646228989
  0
LINE
  5
20E
100
AcDbEntity
  8
0
100
AcDbLine
 62
9
  6
CONTINUOUS
 10
9.0041465134
 20
8.5392665097
 11
9.0041465134
 21
9.4805170984
  0
LINE
  5
20F
100
AcDbEntity
  8
0
100
AcDbLine
 62
9
  6
CONTINUOUS
 10
9.0806778582
 20
8.4874020812
 11
9.0806778582
 21
9.5323815269
  0
LINE
  5
210
100
AcDbEntity
  8
0
100
AcDbLine
 62
9
  6
CONTINUOUS
 10
9.1358828355
 20
8.4717507879
 11
9.1358828355
 21
9.5480328202
  0
LINE
  5
211
100
AcDbEntity
  8
0
100
AcDbLine
 62
7
  6
CONTINUOUS
 10
9.1499834873
 20
8.479891803
 11
9.1499834873
 21
9.5398918051
  0
LINE
  5
212
100
AcDbEntity
  8
0
100
AcDbLine
 62
9
  6
CONTINUOUS
 10
9.1984536099
 20
8.4321331079
 11
9.1984536098
 21
9.5876505002
  0
LINE
  5
213
100
AcDbEntity
  8
0
100
AcDbLine
 62
7
  6
CONTINUOUS
 10
9.2539834891
 20
8.5951694511
 11
9.2539834891
 21
8.6139120066
  0
LINE
  5
214
100
AcDbEntity
  8
0
100
AcDbLine
 62
7
  6
CONTINUOUS
 10
9.2539834891
 20
9.4058716015
 11
9.2539834891
 21
9.424614157
  0
LINE
  5
215
100
AcDbEntity
  8
0
100
AcDbLine
 62
7
  6
CONTINUOUS
 10
9.6459834891
 20
8.5951694511
 11
9.6459834891
 21
8.6139120066
  0
LINE
  5
216
100
AcDbEntity
  8
0
100
AcDbLine
 62
7
  6
CONTINUOUS
 10
9.6459834891
 20
9.4058716015
 11
9.6459834891
 21
9.424614157
  0
LINE
  5
217
100
AcDbEntity
  8
0
100
AcDbLine
 62
9
  6
CONTINUOUS
 10
9.6962497699
 20
8.4303351449
 11
9.6962497699
 21
9.5894484632
  0
LINE
  5
218
100
AcDbEntity
  8
0
100
AcDbLine
 62
7
  6
CONTINUOUS
 10
9.5697734428
 20
9.6481909392
 11
9.6108103319
 21
9.6777774651
  0
LINE
  5
219
100
AcDbEntity
  8
0
100
AcDbLine
 62
7
  6
CONTINUOUS
 10
9.5697734428
 20
8.3715926689
 11
9.6108103319
 21
8.342006143
  0
LINE
  5
21A
100
AcDbEntity
  8
0
100
AcDbLine
 62
7
  6
CONTINUOUS
 10
9.7499834891
 20
8.5051867214
 11
9.7499834891
 21
9.5145968866
  0
LINE
  5
21B
100
AcDbEntity
  8
0
100
AcDbLine
 62
9
  6
CONTINUOUS
 10
9.8679834891
 20
9.259891804
 11
9.8679834891
 21
8.759891804
  0
LINE
  5
21C
100
AcDbEntity
  8
0
100
AcDbLine
 62
7
  6
CONTINUOUS
 10
12.2269834891
 20
7.827391804
 11
12.0928598901
 21
7.8585558168
  0
LINE
  5
21D
100
AcDbEntity
  8
0
100
AcDbLine
 62
7
  6
CONTINUOUS
 10
10.4119834891
 20
8.7198518
 11
10.4119834891
 21
9.299931808
  0
LINE
  5
21E
100
AcDbEntity
  8
0
100
AcDbLine
 62
7
  6
CONTINUOUS
 10
9.3301935354
 20
8.3715926689
 11
9.2891566464
 21
8.342006143
  0
LINE
  5
21F
100
AcDbEntity
  8
0
100
AcDbLine
 62
7
  6
CONTINUOUS
 10
9.1499834873
 20
8.479891803
 11
9.1358828355
 21
8.4717507879
  0
LINE
  5
220
100
AcDbEntity
  8
0
100
AcDbLine
 62
7
  6
CONTINUOUS
 10
10.6232621296
 20
8.6436706288
 11
10.7127048487
 21
8.6436706288
  0
LINE
  5
221
100
AcDbEntity
  8
0
100
AcDbLine
 62
7
  6
CONTINUOUS
 10
10.6232621296
 20
8.6794887034
 11
10.7127048487
 21
8.6794887034
  0
LINE
  5
222
100
AcDbEntity
  8
0
100
AcDbLine
 62
7
  6
CONTINUOUS
 10
10.6232621296
 20
8.7179671373
 11
10.7127048487
 21
8.7179671373
  0
LINE
  5
223
100
AcDbEntity
  8
0
100
AcDbLine
 62
7
  6
CONTINUOUS
 10
10.6232621296
 20
8.7587961074
 11
10.7127048487
 21
8.7587961074
  0
LINE
  5
224
100
AcDbEntity
  8
0
100
AcDbLine
 62
7
  6
CONTINUOUS
 10
10.4119834891
 20
8.759891804
 11
9.8679834891
 21
8.759891804
  0
LINE
  5
225
100
AcDbEntity
  8
0
100
AcDbLine
 62
7
  6
CONTINUOUS
 10
9.1499834873
 20
9.5398918051
 11
9.1358828355
 21
9.5480328202
  0
LINE
  5
226
100
AcDbEntity
  8
0
100
AcDbLine
 62
7
  6
CONTINUOUS
 10
9.3301935354
 20
9.6481909392
 11
9.2891566464
 21
9.6777774651
  0
LINE
  5
227
100
AcDbEntity
  8
0
100
AcDbLine
 62
7
  6
CONTINUOUS
 10
10.6079834891
 20
8.519891804
 11
10.6079834891
 21
9.499891804
  0
LINE
  5
228
100
AcDbEntity
  8
0
100
AcDbLine
 62
7
  6
CONTINUOUS
 10
10.7279834891
 20
8.519891804
 11
10.7279834891
 21
9.499891804
  0
LINE
  5
229
100
AcDbEntity
  8
0
100
AcDbLine
 62
7
  6
CONTINUOUS
 10
10.6232621296
 20
8.8016468646
 11
10.7127048487
 21
8.8016468646
  0
LINE
  5
22A
100
AcDbEntity
  8
0
100
AcDbLine
 62
7
  6
CONTINUOUS
 10
10.6232621296
 20
8.8461743808
 11
10.7127048487
 21
8.8461743808
  0
LINE
  5
22B
100
AcDbEntity
  8
0
100
AcDbLine
 62
7
  6
CONTINUOUS
 10
10.6232621296
 20
8.8920201266
 11
10.7127048487
 21
8.8920201266
  0
LINE
  5
22C
100
AcDbEntity
  8
0
100
AcDbLine
 62
7
  6
CONTINUOUS
 10
10.6232621296
 20
8.9388149584
 11
10.7127048487
 21
8.9388149584
  0
LINE
  5
22D
100
AcDbEntity
  8
0
100
AcDbLine
 62
7
  6
CONTINUOUS
 10
10.6232621296
 20
8.9861820911
 11
10.7127048487
 21
8.9861820911
  0
LINE
  5
22E
100
AcDbEntity
  8
0
100
AcDbLine
 62
7
  6
CONTINUOUS
 10
10.6232621296
 20
9.033740131
 11
10.7127048487
 21
9.033740131
  0
LINE
  5
22F
100
AcDbEntity
  8
0
100
AcDbLine
 62
7
  6
CONTINUOUS
 10
10.6232621296
 20
9.0811061475
 11
10.7127048487
 21
9.0811061475
  0
LINE
  5
230
100
AcDbEntity
  8
0
100
AcDbLine
 62
7
  6
CONTINUOUS
 10
10.6232621296
 20
9.1278987562
 11
10.7127048487
 21
9.1278987562
  0
LINE
  5
231
100
AcDbEntity
  8
0
100
AcDbLine
 62
7
  6
CONTINUOUS
 10
10.6232621296
 20
9.1737411895
 11
10.7127048487
 21
9.1737411895
  0
LINE
  5
232
100
AcDbEntity
  8
0
100
AcDbLine
 62
7
  6
CONTINUOUS
 10
10.6232621296
 20
9.2182643307
 11
10.7127048487
 21
9.2182643307
  0
LINE
  5
233
100
AcDbEntity
  8
0
100
AcDbLine
 62
7
  6
CONTINUOUS
 10
10.4119834891
 20
9.259891804
 11
9.8679834891
 21
9.259891804
  0
LINE
  5
234
100
AcDbEntity
  8
0
100
AcDbLine
 62
7
  6
CONTINUOUS
 10
10.6232621296
 20
9.2611096857
 11
10.7127048487
 21
9.2611096857
  0
LINE
  5
235
100
AcDbEntity
  8
0
100
AcDbLine
 62
7
  6
CONTINUOUS
 10
10.6232621296
 20
9.3019322697
 11
10.7127048487
 21
9.3019322697
  0
LINE
  5
236
100
AcDbEntity
  8
0
100
AcDbLine
 62
7
  6
CONTINUOUS
 10
10.6232621296
 20
9.340403385
 11
10.7127048487
 21
9.340403385
  0
LINE
  5
237
100
AcDbEntity
  8
0
100
AcDbLine
 62
7
  6
CONTINUOUS
 10
10.6232621296
 20
9.3762132677
 11
10.7127048487
 21
9.3762132677
  0
LINE
  5
238
100
AcDbEntity
  8
0
100
AcDbLine
 62
7
  6
CONTINUOUS
 10
11.5919975529
 20
8.343391804
 11
11.5919975529
 21
9.676391804
  0
LINE
  5
239
100
AcDbEntity
  8
0
100
AcDbLine
 62
7
  6
CONTINUOUS
 10
11.7519834891
 20
8.344891804
 11
11.7519834891
 21
9.674891804
  0
LINE
  5
23A
100
AcDbEntity
  8
0
100
AcDbLine
 62
7
  6
CONTINUOUS
 10
12.2269834891
 20
10.192391804
 11
12.0928598901
 21
10.1612277913
  0
LINE
  5
23B
100
AcDbEntity
  8
0
100
AcDbLine
 62
9
  6
CONTINUOUS
 10
11.8442054266
 20
8.1810146157
 11
11.8442054266
 21
9.8387689924
  0
LINE
  5
23C
100
AcDbEntity
  8
0
100
AcDbLine
 62
9
  6
CONTINUOUS
 10
12.0492188976
 20
7.9007712862
 11
12.0492188976
 21
10.1190123218
  0
LINE
  5
23D
100
AcDbEntity
  8
0
100
AcDbLine
 62
9
  6
CONTINUOUS
 10
12.0928598901
 20
7.8585558168
 11
12.0928598901
 21
10.1612277913
  0
LINE
  5
23E
100
AcDbEntity
  8
0
100
AcDbLine
 62
7
  6
CONTINUOUS
 10
12.2269834891
 20
12.1340572802
 11
12.2269834891
 21
5.8857263279
  0
LINE
  5
23F
100
AcDbEntity
  8
0
100
AcDbLine
 62
9
  6
CONTINUOUS
 10
12.2395027199
 20
12.1717493475
 11
12.2395027199
 21
5.8480342606
  0
LINE
  5
240
100
AcDbEntity
  8
0
100
AcDbLine
 62
7
  6
CONTINUOUS
 10
12.5399834891
 20
12.322391804
 11
12.5399834891
 21
5.697391804
  0
ARC
  5
241
100
AcDbEntity
  8
0
100
AcDbCircle
 62
7
  6
CONTINUOUS
 10
9.4499834891
 20
8.859891804
 40
0.77
100
AcDbArc
 50
71.3475770898
 51
78.6028386112
  0
ARC
  5
242
100
AcDbEntity
  8
0
100
AcDbCircle
 62
7
  6
CONTINUOUS
 10
9.4499834891
 20
8.859891804
 40
0.77
100
AcDbArc
 50
101.3934999304
 51
109.0663081681
  0
ARC
  5
243
100
AcDbEntity
  8
0
100
AcDbCircle
 62
7
  6
CONTINUOUS
 10
9.4499834891
 20
8.1189374234
 40
0.275
100
AcDbArc
 50
125.790620998
 51
54.2093783992
  0
ARC
  5
244
100
AcDbEntity
  8
0
100
AcDbCircle
 62
7
  6
CONTINUOUS
 10
9.4497963889
 20
8.1190163541
 40
0.2747968438
100
AcDbArc
 50
155.559295581
 51
158.335179584
  0
ARC
  5
245
100
AcDbEntity
  8
0
100
AcDbCircle
 62
7
  6
CONTINUOUS
 10
9.426341486
 20
8.6768022248
 40
0.2218998909
100
AcDbArc
 50
243.6378421598
 51
245.5027908053
  0
ARC
  5
246
100
AcDbEntity
  8
0
100
AcDbCircle
 62
7
  6
CONTINUOUS
 10
9.4741131383
 20
8.6757760218
 40
0.2207638937
100
AcDbArc
 50
294.4398369286
 51
296.2835240611
  0
ARC
  5
247
100
AcDbEntity
  8
0
100
AcDbCircle
 62
7
  6
CONTINUOUS
 10
10.6119834891
 20
8.7198518
 40
0.2
100
AcDbArc
 50
180.0
 51
268.8540080016
  0
ARC
  5
248
100
AcDbEntity
  8
0
100
AcDbCircle
 62
7
  6
CONTINUOUS
 10
9.4699942985
 20
8.6508765322
 40
0.1996821258
100
AcDbArc
 50
298.5361797165
 51
300.6498908084
  0
ARC
  5
249
100
AcDbEntity
  8
0
100
AcDbCircle
 62
7
  6
CONTINUOUS
 10
9.4293452868
 20
8.6497740371
 40
0.1984137777
100
AcDbArc
 50
239.2590391707
 51
241.3598213757
  0
ARC
  5
24A
100
AcDbEntity
  8
0
100
AcDbCircle
 62
9
  6
CONTINUOUS
 10
9.4261769374
 20
8.6405002955
 40
0.188506343
100
AcDbArc
 50
238.751440362
 51
240.7098907569
  0
ARC
  5
24B
100
AcDbEntity
  8
0
100
AcDbCircle
 62
9
  6
CONTINUOUS
 10
9.4742731957
 20
8.6396734367
 40
0.1875488244
100
AcDbArc
 50
299.2779166893
 51
301.1553809173
  0
ARC
  5
24C
100
AcDbEntity
  8
0
100
AcDbCircle
 62
9
  6
CONTINUOUS
 10
9.4761220623
 20
8.6365994353
 40
0.1839616633
100
AcDbArc
 50
301.1579248271
 51
301.5859764216
  0
ARC
  5
24D
100
AcDbEntity
  8
0
100
AcDbCircle
 62
9
  6
CONTINUOUS
 10
9.4235830143
 20
8.6361706927
 40
0.1834592577
100
AcDbArc
 50
238.2163811723
 51
238.7425771593
  0
ARC
  5
24E
100
AcDbEntity
  8
0
100
AcDbCircle
 62
7
  6
CONTINUOUS
 10
9.8679834891
 20
8.641891804
 40
0.118
100
AcDbArc
 50
90.0
 51
180.0
  0
ARC
  5
24F
100
AcDbEntity
  8
0
100
AcDbCircle
 62
7
  6
CONTINUOUS
 10
9.3599278157
 20
8.3156318831
 40
0.1059443266
100
AcDbArc
 50
180.0006661127
 51
182.2069572785
  0
ARC
  5
250
100
AcDbEntity
  8
0
100
AcDbCircle
 62
7
  6
CONTINUOUS
 10
9.5400395361
 20
8.3156319127
 40
0.105943953
100
AcDbArc
 50
357.7774209576
 51
359.9993178977
  0
ARC
  5
251
100
AcDbEntity
  8
0
100
AcDbCircle
 62
7
  6
CONTINUOUS
 10
9.3498766341
 20
8.6141824873
 40
0.104909349
100
AcDbArc
 50
186.3867019787
 51
192.4043648224
  0
ARC
  5
252
100
AcDbEntity
  8
0
100
AcDbCircle
 62
7
  6
CONTINUOUS
 10
9.5500903448
 20
8.6141824872
 40
0.1049093483
100
AcDbArc
 50
347.5956351551
 51
353.6133015579
  0
ARC
  5
253
100
AcDbEntity
  8
0
100
AcDbCircle
 62
7
  6
CONTINUOUS
 10
8.992665415
 20
8.4399277741
 40
0.1
100
AcDbArc
 50
28.3426227079
 51
83.407276973
  0
ARC
  5
254
100
AcDbEntity
  8
0
100
AcDbCircle
 62
7
  6
CONTINUOUS
 10
9.2242599222
 20
8.5067992598
 40
0.079
100
AcDbArc
 50
199.9134773481
 51
250.9336918347
  0
ARC
  5
255
100
AcDbEntity
  8
0
100
AcDbCircle
 62
7
  6
CONTINUOUS
 10
9.6709834891
 20
8.5051857631
 40
0.079
100
AcDbArc
 50
288.6524229102
 51
360.0
  0
ARC
  5
256
100
AcDbEntity
  8
0
100
AcDbCircle
 62
7
  6
CONTINUOUS
 10
10.6679834891
 20
8.519891804
 40
0.06
100
AcDbArc
 50
318.2489057864
 51
360.0
  0
ARC
  5
257
100
AcDbEntity
  8
0
100
AcDbCircle
 62
7
  6
CONTINUOUS
 10
10.6679834891
 20
8.519891804
 40
0.06
100
AcDbArc
 50
180.0
 51
221.7510942136
  0
ARC
  5
258
100
AcDbEntity
  8
0
100
AcDbCircle
 62
7
  6
CONTINUOUS
 10
8.9928647635
 20
8.639891804
 40
0.05
100
AcDbArc
 50
199.2904540361
 51
266.6811363865
  0
ARC
  5
259
100
AcDbEntity
  8
0
100
AcDbCircle
 62
7
  6
CONTINUOUS
 10
9.1158828355
 20
8.506391804
 40
0.04
100
AcDbArc
 50
208.3426227079
 51
300.0
  0
ARC
  5
25A
100
AcDbEntity
  8
0
100
AcDbCircle
 62
7
  6
CONTINUOUS
 10
9.0059834891
 20
8.5551607074
 40
0.016
100
AcDbArc
 50
180.0
 51
263.407276973
  0
ARC
  5
25B
100
AcDbEntity
  8
0
100
AcDbCircle
 62
7
  6
CONTINUOUS
 10
10.0499834891
 20
9.009891804
 40
1.17
100
AcDbArc
 50
160.7095459639
 51
199.2904540361
  0
ARC
  5
25C
100
AcDbEntity
  8
0
100
AcDbCircle
 62
7
  6
CONTINUOUS
 10
9.4499834891
 20
9.159891804
 40
0.77
100
AcDbArc
 50
281.4319904934
 51
288.6524229102
  0
ARC
  5
25D
100
AcDbEntity
  8
0
100
AcDbCircle
 62
7
  6
CONTINUOUS
 10
9.4499834891
 20
9.159891804
 40
0.77
100
AcDbArc
 50
250.9336918347
 51
258.5721685894
  0
ARC
  5
25E
100
AcDbEntity
  8
0
100
AcDbCircle
 62
7
  6
CONTINUOUS
 10
9.4499833457
 20
9.9008462557
 40
0.2750000044
100
AcDbArc
 50
305.7906552661
 51
234.2093331021
  0
ARC
  5
25F
100
AcDbEntity
  8
0
100
AcDbCircle
 62
7
  6
CONTINUOUS
 10
9.4498787027
 20
9.9007928935
 40
0.2748823668
100
AcDbArc
 50
204.4384687194
 51
209.0380785423
  0
ARC
  5
260
100
AcDbEntity
  8
0
100
AcDbCircle
 62
7
  6
CONTINUOUS
 10
9.4733881789
 20
9.3424632683
 40
0.2224697712
100
AcDbArc
 50
63.8945115094
 51
65.5409652093
  0
ARC
  5
261
100
AcDbEntity
  8
0
100
AcDbCircle
 62
7
  6
CONTINUOUS
 10
9.4257662643
 20
9.3441855854
 40
0.2205656015
100
AcDbArc
 50
114.4462158964
 51
116.3179336995
  0
ARC
  5
262
100
AcDbEntity
  8
0
100
AcDbCircle
 62
7
  6
CONTINUOUS
 10
10.6119834891
 20
9.299931808
 40
0.2
100
AcDbArc
 50
91.1459919984
 51
180.0
  0
ARC
  5
263
100
AcDbEntity
  8
0
100
AcDbCircle
 62
7
  6
CONTINUOUS
 10
9.4298001665
 20
9.3692076466
 40
0.1993355946
100
AcDbArc
 50
118.6293864647
 51
120.7780494998
  0
ARC
  5
264
100
AcDbEntity
  8
0
100
AcDbCircle
 62
7
  6
CONTINUOUS
 10
9.4703855868
 20
9.3695864614
 40
0.1988981911
100
AcDbArc
 50
59.5455925607
 51
61.3036615436
  0
ARC
  5
265
100
AcDbEntity
  8
0
100
AcDbCircle
 62
9
  6
CONTINUOUS
 10
9.4735958147
 20
9.3789423711
 40
0.1888987144
100
AcDbArc
 50
58.9992945682
 51
60.7194830274
  0
ARC
  5
266
100
AcDbEntity
  8
0
100
AcDbCircle
 62
9
  6
CONTINUOUS
 10
9.4255877404
 20
9.3802928889
 40
0.1873375843
100
AcDbArc
 50
119.2744903403
 51
121.2573204175
  0
ARC
  5
267
100
AcDbEntity
  8
0
100
AcDbCircle
 62
9
  6
CONTINUOUS
 10
9.4761166213
 20
9.3831751871
 40
0.1839721677
100
AcDbArc
 50
58.4037269759
 51
58.8598423133
  0
ARC
  5
268
100
AcDbEntity
  8
0
100
AcDbCircle
 62
7
  6
CONTINUOUS
 10
9.8679834891
 20
9.377891804
 40
0.118
100
AcDbArc
 50
180.0
 51
270.0
  0
ARC
  5
269
100
AcDbEntity
  8
0
100
AcDbCircle
 62
7
  6
CONTINUOUS
 10
9.5504206441
 20
9.4056544172
 40
0.1045753128
100
AcDbArc
 50
6.9161785518
 51
12.4149102018
  0
ARC
  5
26A
100
AcDbEntity
  8
0
100
AcDbCircle
 62
7
  6
CONTINUOUS
 10
9.3495449528
 20
9.405654662
 40
0.1045739111
100
AcDbArc
 50
167.5850581128
 51
173.0891322442
  0
ARC
  5
26B
100
AcDbEntity
  8
0
100
AcDbCircle
 62
7
  6
CONTINUOUS
 10
8.992665415
 20
9.5798558339
 40
0.1
100
AcDbArc
 50
276.592723027
 51
331.6573772921
  0
ARC
  5
26C
100
AcDbEntity
  8
0
100
AcDbCircle
 62
9
  6
CONTINUOUS
 10
9.3526983061
 20
9.4246407605
 40
0.0987146421
100
AcDbArc
 50
180.01544118
 51
190.7355589021
  0
ARC
  5
26D
100
AcDbEntity
  8
0
100
AcDbCircle
 62
7
  6
CONTINUOUS
 10
9.2242599221
 20
9.5129843482
 40
0.079
100
AcDbArc
 50
109.0663081681
 51
160.0865226333
  0
ARC
  5
26E
100
AcDbEntity
  8
0
100
AcDbCircle
 62
7
  6
CONTINUOUS
 10
9.6709834891
 20
9.514597845
 40
0.079
100
AcDbArc
 50
0.0
 51
71.3475770898
  0
ARC
  5
26F
100
AcDbEntity
  8
0
100
AcDbCircle
 62
7
  6
CONTINUOUS
 10
10.6679834891
 20
9.499891804
 40
0.06
100
AcDbArc
 50
0.0
 51
41.8103148958
  0
ARC
  5
270
100
AcDbEntity
  8
0
100
AcDbCircle
 62
7
  6
CONTINUOUS
 10
10.6679834891
 20
9.499891804
 40
0.06
100
AcDbArc
 50
138.1896851042
 51
180.0
  0
ARC
  5
271
100
AcDbEntity
  8
0
100
AcDbCircle
 62
7
  6
CONTINUOUS
 10
8.9928647635
 20
9.379891804
 40
0.05
100
AcDbArc
 50
93.3188636135
 51
160.7095459639
  0
ARC
  5
272
100
AcDbEntity
  8
0
100
AcDbCircle
 62
7
  6
CONTINUOUS
 10
9.1158828355
 20
9.513391804
 40
0.04
100
AcDbArc
 50
60.0
 51
151.6573772921
  0
ARC
  5
273
100
AcDbEntity
  8
0
100
AcDbCircle
 62
7
  6
CONTINUOUS
 10
9.0059834891
 20
9.4646229007
 40
0.016
100
AcDbArc
 50
96.592723027
 51
180.0
  0
ARC
  5
274
100
AcDbEntity
  8
0
100
AcDbCircle
 62
7
  6
CONTINUOUS
 10
10.9743494662
 20
7.5228798656
 40
1.027
100
AcDbArc
 50
53.0290504961
 51
103.8799876593
  0
ARC
  5
275
100
AcDbEntity
  8
0
100
AcDbCircle
 62
7
  6
CONTINUOUS
 10
11.5855380764
 20
7.7766741627
 40
0.48
100
AcDbArc
 50
14.9831919527
 51
57.3918704587
  0
ARC
  5
276
100
AcDbEntity
  8
0
100
AcDbCircle
 62
7
  6
CONTINUOUS
 10
12.5399834891
 20
6.072391804
 40
0.375
100
AcDbArc
 50
216.7472957769
 51
270.0
  0
ARC
  5
277
100
AcDbEntity
  8
0
100
AcDbCircle
 62
7
  6
CONTINUOUS
 10
11.9519834891
 20
8.3494898045
 40
0.2
100
AcDbArc
 50
180.0
 51
237.3918704587
  0
ARC
  5
278
100
AcDbEntity
  8
0
100
AcDbCircle
 62
7
  6
CONTINUOUS
 10
11.6719834891
 20
8.344891804
 40
0.08
100
AcDbArc
 50
181.0743588229
 51
360.0
  0
ARC
  5
279
100
AcDbEntity
  8
0
100
AcDbCircle
 62
7
  6
CONTINUOUS
 10
12.2899834891
 20
5.8857263279
 40
0.063
100
AcDbArc
 50
180.0
 51
216.7472957763
  0
ARC
  5
27A
100
AcDbEntity
  8
0
100
AcDbCircle
 62
7
  6
CONTINUOUS
 10
12.1062129985
 20
7.916024891
 40
0.059
100
AcDbArc
 50
194.9831919527
 51
256.9192612079
  0
ARC
  5
27B
100
AcDbEntity
  8
0
100
AcDbCircle
 62
7
  6
CONTINUOUS
 10
10.9743494662
 20
10.4969037425
 40
1.027
100
AcDbArc
 50
256.1200123407
 51
306.9709495039
  0
ARC
  5
27C
100
AcDbEntity
  8
0
100
AcDbCircle
 62
7
  6
CONTINUOUS
 10
11.5855380764
 20
10.2431094454
 40
0.48
100
AcDbArc
 50
302.6081295413
 51
345.0168080473
  0
ARC
  5
27D
100
AcDbEntity
  8
0
100
AcDbCircle
 62
7
  6
CONTINUOUS
 10
12.5399834891
 20
11.947391804
 40
0.375
100
AcDbArc
 50
90.0
 51
143.2527042231
  0
ARC
  5
27E
100
AcDbEntity
  8
0
100
AcDbCircle
 62
7
  6
CONTINUOUS
 10
11.9519834891
 20
9.6702938036
 40
0.2
100
AcDbArc
 50
122.6081295413
 51
180.0
  0
ARC
  5
27F
100
AcDbEntity
  8
0
100
AcDbCircle
 62
7
  6
CONTINUOUS
 10
11.6719834891
 20
9.674891804
 40
0.08
100
AcDbArc
 50
0.0
 51
178.9256411771
  0
ARC
  5
280
100
AcDbEntity
  8
0
100
AcDbCircle
 62
7
  6
CONTINUOUS
 10
12.2899834891
 20
12.1340572802
 40
0.063
100
AcDbArc
 50
143.2527042237
 51
180.0
  0
ARC
  5
281
100
AcDbEntity
  8
0
100
AcDbCircle
 62
7
  6
CONTINUOUS
 10
12.1062129985
 20
10.1037587171
 40
0.059
100
AcDbArc
 50
103.0807387921
 51
165.0168080473
  0
SPLINE
  5
282
100
AcDbEntity
  8
0
100
AcDbSpline
 62
7
  6
CONTINUOUS
 70
0
 71
3
 72
17
 73
13
 74
0
 42
0.0000001
 43
0.0000001
 44
0.0000000001
 40
0.0
 40
0.0
 40
0.0
 40
0.0
 40
0.1193016207
 40
0.2391539324
 40
0.2995171919
 40
0.3602284126
 40
0.4213644252
 40
0.4829916414
 40
0.6079223085
 40
0.7355384672
 40
0.8661723141
 40
1.0
 40
1.0
 40
1.0
 40
1.0
 10
9.2539834891
 20
8.5951694511
 30
0.0
 10
9.2539834891
 20
8.5894485879
 30
0.0
 10
9.2548548872
 20
8.5779627475
 30
0.0
 10
9.258087584
 20
8.5639129394
 30
0.0
 10
9.2618875705
 20
8.5529937785
 30
0.0
 10
9.2653432041
 20
8.5449604715
 30
0.0
 10
9.2693750722
 20
8.537132628
 30
0.0
 10
9.2755187856
 20
8.5269584825
 30
0.0
 10
9.2845658507
 20
8.5148561561
 30
0.0
 10
9.2973151137
 20
8.501566115
 30
0.0
 10
9.3118191458
 20
8.4895449669
 30
0.0
 10
9.3224090573
 20
8.4825205473
 30
0.0
 10
9.3279245969
 20
8.4792399619
 30
0.0
  0
SPLINE
  5
283
100
AcDbEntity
  8
0
100
AcDbSpline
 62
7
  6
CONTINUOUS
 70
0
 71
3
 72
17
 73
13
 74
0
 42
0.0000001
 43
0.0000001
 44
0.0000000001
 40
0.0
 40
0.0
 40
0.0
 40
0.0
 40
0.1338514999
 40
0.2645024825
 40
0.3921275059
 40
0.5170583298
 40
0.5786831812
 40
0.6398150726
 40
0.7005208741
 40
0.7608770611
 40
0.8807149627
 40
1.0
 40
1.0
 40
1.0
 40
1.0
 10
9.5717903935
 20
8.4790903091
 30
0.0
 10
9.5773230386
 20
8.4823699011
 30
0.0
 10
9.5879464135
 20
8.4893942722
 30
0.0
 10
9.6024981047
 20
8.5014218326
 30
0.0
 10
9.6152906019
 20
8.5147241732
 30
0.0
 10
9.6243694726
 20
8.5268416429
 30
0.0
 10
9.6305351476
 20
8.5370304389
 30
0.0
 10
9.6345815909
 20
8.5448703044
 30
0.0
 10
9.6380498007
 20
8.5529167226
 30
0.0
 10
9.6418639479
 20
8.5638545193
 30
0.0
 10
9.64510871
 20
8.577929972
 30
0.0
 10
9.6459834891
 20
8.5894377454
 30
0.0
 10
9.6459834891
 20
8.5951694511
 30
0.0
  0
SPLINE
  5
284
100
AcDbEntity
  8
0
100
AcDbSpline
 62
7
  6
CONTINUOUS
 70
0
 71
3
 72
11
 73
7
 74
0
 42
0.0000001
 43
0.0000001
 44
0.0000000001
 40
0.0
 40
0.0
 40
0.0
 40
0.0
 40
0.222211594
 40
0.4680838383
 40
0.729261528
 40
1.0
 40
1.0
 40
1.0
 40
1.0
 10
9.334918915
 20
8.431627871
 30
0.0
 10
9.3354634458
 20
8.4331556014
 30
0.0
 10
9.3364634155
 20
8.4364273583
 30
0.0
 10
9.3375949399
 20
8.4416348
 30
0.0
 10
9.3383146045
 20
8.4472726819
 30
0.0
 10
9.3384834891
 20
8.4511568635
 30
0.0
 10
9.3384834891
 20
8.4531329241
 30
0.0
  0
SPLINE
  5
285
100
AcDbEntity
  8
0
100
AcDbSpline
 62
7
  6
CONTINUOUS
 70
0
 71
3
 72
13
 73
9
 74
0
 42
0.0000001
 43
0.0000001
 44
0.0000000001
 40
0.0
 40
0.0
 40
0.0
 40
0.0
 40
0.2722058217
 40
0.4048106993
 40
0.5340763204
 40
0.6592463865
 40
0.7794581896
 40
1.0
 40
1.0
 40
1.0
 40
1.0
 10
9.5614834891
 20
8.4531329241
 30
0.0
 10
9.5614834891
 20
8.4511050118
 30
0.0
 10
9.561618668
 20
8.4480870209
 30
0.0
 10
9.5620551086
 20
8.4441314019
 30
0.0
 10
9.5624949486
 20
8.4412807502
 30
0.0
 10
9.5630417972
 20
8.4385427001
 30
0.0
 10
9.5638764741
 20
8.4351727045
 30
0.0
 10
9.5646399037
 20
8.432747403
 30
0.0
 10
9.5652041076
 20
8.4312042936
 30
0.0
  0
SPLINE
  5
286
100
AcDbEntity
  8
0
100
AcDbSpline
 62
7
  6
CONTINUOUS
 70
0
 71
3
 72
26
 73
22
 74
0
 42
0.0000001
 43
0.0000001
 44
0.0000000001
 40
0.0
 40
0.0
 40
0.0
 40
0.0
 40
0.0262610485
 40
0.0525987306
 40
0.0791003496
 40
0.1058424296
 40
0.1328959791
 40
0.1603297821
 40
0.2165218616
 40
0.2748314797
 40
0.3354389535
 40
0.3983319651
 40
0.4633151038
 40
0.5300373955
 40
0.5980248614
 40
0.6667181482
 40
0.7355121343
 40
0.8037951918
 40
0.837573667
 40
0.8710123736
 40
1.0
 40
1.0
 40
1.0
 40
1.0
 10
9.6459834891
 20
8.3156306514
 30
0.0
 10
9.6459834891
 20
8.3190920456
 30
0.0
 10
9.6456425847
 20
8.3260296647
 30
0.0
 10
9.6441168171
 20
8.3363591687
 30
0.0
 10
9.6415879819
 20
8.346555811
 30
0.0
 10
9.6380814201
 20
8.3565577644
 30
0.0
 10
9.633622999
 20
8.3663083472
 30
0.0
 10
9.626403765
 20
8.379003504
 30
0.0
 10
9.6150962722
 20
8.3940220954
 30
0.0
 10
9.598475968
 20
8.4101532277
 30
0.0
 10
9.5790529333
 20
8.4243129135
 30
0.0
 10
9.5572164413
 20
8.4362906052
 30
0.0
 10
9.5333794125
 20
8.4459106934
 30
0.0
 10
9.5079857207
 20
8.4530255733
 30
0.0
 10
9.4815074669
 20
8.4575225112
 30
0.0
 10
9.4544385071
 20
8.4593281699
 30
0.0
 10
9.4272871459
 20
8.458412852
 30
0.0
 10
9.4049297001
 20
8.4553836727
 30
0.0
 10
9.3874631782
 20
8.4516096995
 30
0.0
 10
9.3625135711
 20
8.4448181029
 30
0.0
 10
9.3425296958
 20
8.4364204221
 30
0.0
 10
9.3278219228
 20
8.4278921065
 30
0.0
  0
SPLINE
  5
287
100
AcDbEntity
  8
0
100
AcDbSpline
 62
7
  6
CONTINUOUS
 70
0
 71
3
 72
17
 73
13
 74
0
 42
0.0000001
 43
0.0000001
 44
0.0000000001
 40
0.0
 40
0.0
 40
0.0
 40
0.0
 40
0.1369836538
 40
0.2698900995
 40
0.3987997846
 40
0.5240049288
 40
0.5853976304
 40
0.6460646099
 40
0.7060915313
 40
0.7655770856
 40
0.883237435
 40
1.0
 40
1.0
 40
1.0
 40
1.0
 10
9.3278219228
 20
8.4278921065
 30
0.0
 10
9.3222640416
 20
8.424669364
 30
0.0
 10
9.3116135785
 20
8.4177811908
 30
0.0
 10
9.2970411706
 20
8.4059976481
 30
0.0
 10
9.2842872056
 20
8.3930237171
 30
0.0
 10
9.2752610583
 20
8.381241848
 30
0.0
 10
9.2691566385
 20
8.3713726509
 30
0.0
 10
9.2651680749
 20
8.363813363
 30
0.0
 10
9.2617572537
 20
8.3560735267
 30
0.0
 10
9.2580182189
 20
8.345588354
 30
0.0
 10
9.2548405697
 20
8.3321192854
 30
0.0
 10
9.2539834891
 20
8.3211069141
 30
0.0
 10
9.2539834891
 20
8.3156306514
 30
0.0
  0
SPLINE
  5
288
100
AcDbEntity
  8
0
100
AcDbSpline
 62
7
  6
CONTINUOUS
 70
0
 71
3
 72
34
 73
30
 74
0
 42
0.0000001
 43
0.0000001
 44
0.0000000001
 40
0.0
 40
0.0
 40
0.0
 40
0.0
 40
0.0042124424
 40
0.0074589537
 40
0.0097566862
 40
0.0111224508
 40
0.0115727093
 40
0.0120218979
 40
0.0133547959
 40
0.0155560956
 40
0.0186108918
 40
0.0225035867
 40
0.0272151891
 40
0.0327261529
 40
0.0390171638
 40
0.046069155
 40
0.0623808891
 40
0.0815144705
 40
0.1033276619
 40
0.154440384
 40
0.2146248097
 40
0.2828136263
 40
0.3579901907
 40
0.4391284345
 40
0.5251962457
 40
0.6151916512
 40
0.708257161
 40
0.8037935143
 40
1.0
 40
1.0
 40
1.0
 40
1.0
 10
9.5691688035
 20
8.483166254
 30
0.0
 10
9.5691989156
 20
8.4831998551
 30
0.0
 10
9.5692525096
 20
8.4832603373
 30
0.0
 10
9.5693191245
 20
8.4833368655
 30
0.0
 10
9.5693710919
 20
8.4833985809
 30
0.0
 10
9.5693920938
 20
8.4834234094
 30
0.0
 10
9.5694164223
 20
8.4834539374
 30
0.0
 10
9.5693923363
 20
8.4834239474
 30
0.0
 10
9.5693733192
 20
8.4833987721
 30
0.0
 10
9.5693269065
 20
8.4833375252
 30
0.0
 10
9.569270731
 20
8.4832605948
 30
0.0
 10
9.5691975334
 20
8.4831581134
 30
0.0
 10
9.5691113778
 20
8.4830343281
 30
0.0
 10
9.5690118256
 20
8.4828879682
 30
0.0
 10
9.5689000886
 20
8.4827197964
 30
0.0
 10
9.5687271412
 20
8.4824533498
 30
0.0
 10
9.5684857693
 20
8.4820673907
 30
0.0
 10
9.568171992
 20
8.4815403766
 30
0.0
 10
9.5676868179
 20
8.4806818522
 30
0.0
 10
9.5670319187
 20
8.4794147674
 30
0.0
 10
9.5662260344
 20
8.4776686941
 30
0.0
 10
9.5654014428
 20
8.4756495628
 30
0.0
 10
9.5645981433
 20
8.4733821093
 30
0.0
 10
9.5638424236
 20
8.4708974809
 30
0.0
 10
9.5631575973
 20
8.4682281204
 30
0.0
 10
9.5625682335
 20
8.465405329
 30
0.0
 10
9.5620955995
 20
8.4624577585
 30
0.0
 10
9.5616275228
 20
8.4583618337
 30
0.0
 10
9.5614834891
 20
8.4552344977
 30
0.0
 10
9.5614834891
 20
8.4531329241
 30
0.0
  0
SPLINE
  5
289
100
AcDbEntity
  8
0
100
AcDbSpline
 62
7
  6
CONTINUOUS
 70
0
 71
3
 72
26
 73
22
 74
0
 42
0.0000001
 43
0.0000001
 44
0.0000000001
 40
0.0
 40
0.0
 40
0.0
 40
0.0
 40
0.186516848
 40
0.3662125546
 40
0.4523140528
 40
0.5352046786
 40
0.6141255262
 40
0.688222562
 40
0.7566131533
 40
0.8184011031
 40
0.8727159114
 40
0.8967946673
 40
0.9186654698
 40
0.9382088937
 40
0.9553031023
 40
0.9698297694
 40
0.9816796334
 40
0.9907403637
 40
0.994188496
 40
0.9968951865
 40
1.0
 40
1.0
 40
1.0
 40
1.0
 10
9.3384834891
 20
8.4531329241
 30
0.0
 10
9.3384834891
 20
8.4551067217
 30
0.0
 10
9.3383142124
 20
8.4589839139
 30
0.0
 10
9.3377068541
 20
8.4637376699
 30
0.0
 10
9.3370038861
 20
8.4673611171
 30
0.0
 10
9.3363900834
 20
8.4699127073
 30
0.0
 10
9.335703863
 20
8.4723137665
 30
0.0
 10
9.3349674518
 20
8.4745387519
 30
0.0
 10
9.334203865
 20
8.4765618472
 30
0.0
 10
9.3334338411
 20
8.4783566523
 30
0.0
 10
9.3327898932
 20
8.4796936192
 30
0.0
 10
9.3322988152
 20
8.4806342215
 30
0.0
 10
9.331965279
 20
8.4812418888
 30
0.0
 10
9.3316561547
 20
8.4817781946
 30
0.0
 10
9.3313752044
 20
8.4822417729
 30
0.0
 10
9.3311288134
 20
8.4826282857
 30
0.0
 10
9.3309173765
 20
8.4829436842
 30
0.0
 10
9.3307760728
 20
8.4831466257
 30
0.0
 10
9.330672246
 20
8.4832893786
 30
0.0
 10
9.3306352411
 20
8.4833410088
 30
0.0
 10
9.3305420995
 20
8.483462685
 30
0.0
 10
9.3305633141
 20
8.4834375955
 30
0.0
  0
SPLINE
  5
28A
100
AcDbEntity
  8
0
100
AcDbSpline
 62
7
  6
CONTINUOUS
 70
0
 71
3
 72
15
 73
11
 74
0
 42
0.0000001
 43
0.0000001
 44
0.0000000001
 40
0.0
 40
0.0
 40
0.0
 40
0.0
 40
0.1338349628
 40
0.2644818074
 40
0.3921123049
 40
0.5170579098
 40
0.6397712397
 40
0.7607903527
 40
0.8806720722
 40
1.0
 40
1.0
 40
1.0
 40
1.0
 10
9.3277974014
 20
9.5404680191
 30
0.0
 10
9.322290517
 20
9.5371869365
 30
0.0
 10
9.3117173891
 20
9.5301623433
 30
0.0
 10
9.2972375423
 20
9.5181446807
 30
0.0
 10
9.2845096014
 20
9.504859559
 30
0.0
 10
9.2737253074
 20
9.4904187966
 30
0.0
 10
9.2650720406
 20
9.4749644036
 30
0.0
 10
9.2587306781
 20
9.4586797768
 30
0.0
 10
9.2548539151
 20
9.4418055119
 30
0.0
 10
9.2539834891
 20
9.4303295664
 30
0.0
 10
9.2539834891
 20
9.424614157
 30
0.0
  0
SPLINE
  5
28B
100
AcDbEntity
  8
0
100
AcDbSpline
 62
7
  6
CONTINUOUS
 70
0
 71
3
 72
17
 73
13
 74
0
 42
0.0000001
 43
0.0000001
 44
0.0000000001
 40
0.0
 40
0.0
 40
0.0
 40
0.0
 40
0.1192421543
 40
0.2390356352
 40
0.2993770291
 40
0.3600697848
 40
0.4211924101
 40
0.4828118894
 40
0.6077460735
 40
0.7353952098
 40
0.8660910008
 40
1.0
 40
1.0
 40
1.0
 40
1.0
 10
9.6459834891
 20
9.424614157
 30
0.0
 10
9.6459834891
 20
9.4303711236
 30
0.0
 10
9.6451010327
 20
9.4419297355
 30
0.0
 10
9.6418274594
 20
9.4560645907
 30
0.0
 10
9.6379809545
 20
9.4670459596
 30
0.0
 10
9.6344830107
 20
9.4751231644
 30
0.0
 10
9.6304023836
 20
9.482991254
 30
0.0
 10
9.6241852299
 20
9.4932146685
 30
0.0
 10
9.6150314473
 20
9.5053678661
 30
0.0
 10
9.6021369327
 20
9.5186992481
 30
0.0
 10
9.5874727533
 20
9.5307417276
 30
0.0
 10
9.57677064
 20
9.5377661835
 30
0.0
 10
9.571197646
 20
9.5410432173
 30
0.0
  0
SPLINE
  5
28C
100
AcDbEntity
  8
0
100
AcDbSpline
 62
7
  6
CONTINUOUS
 70
0
 71
3
 72
22
 73
18
 74
0
 42
0.0000001
 43
0.0000001
 44
0.0000000001
 40
0.0
 40
0.0
 40
0.0
 40
0.0
 40
0.0600846923
 40
0.1254517586
 40
0.1949459045
 40
0.2674890449
 40
0.4175618085
 40
0.4931576308
 40
0.5677895422
 40
0.6404462081
 40
0.7101066338
 40
0.7756903818
 40
0.8360433231
 40
0.8899668215
 40
0.9361909186
 40
0.9733408027
 40
1.0
 40
1.0
 40
1.0
 40
1.0
 10
9.5651737567
 20
9.5885044306
 30
0.0
 10
9.5648091739
 20
9.5875052314
 30
0.0
 10
9.56411282
 20
9.5853949076
 30
0.0
 10
9.5632170393
 20
9.582060444
 30
0.0
 10
9.5624710949
 20
9.578463091
 30
0.0
 10
9.5617234816
 20
9.5733442998
 30
0.0
 10
9.5614060326
 20
9.5680605455
 30
0.0
 10
9.5615585135
 20
9.5627444032
 30
0.0
 10
9.5618957254
 20
9.5588110713
 30
0.0
 10
9.5624407286
 20
9.5550072436
 30
0.0
 10
9.5631807557
 20
9.5513998605
 30
0.0
 10
9.5640706879
 20
9.5480518136
 30
0.0
 10
9.5650596971
 20
9.5450234971
 30
0.0
 10
9.5661020681
 20
9.542378554
 30
0.0
 10
9.5671226819
 20
9.5401713812
 30
0.0
 10
9.5680359388
 20
9.5384497156
 30
0.0
 10
9.568624711
 20
9.537484812
 30
0.0
 10
9.5688841328
 20
9.537090583
 30
0.0
  0
SPLINE
  5
28D
100
AcDbEntity
  8
0
100
AcDbSpline
 62
7
  6
CONTINUOUS
 70
0
 71
3
 72
11
 73
7
 74
0
 42
0.0000001
 43
0.0000001
 44
0.0000000001
 40
0.0
 40
0.0
 40
0.0
 40
0.0
 40
0.2578180034
 40
0.512308498
 40
0.7604969194
 40
1.0
 40
1.0
 40
1.0
 40
1.0
 10
9.4499834891
 20
9.5608737361
 30
0.0
 10
9.4609227047
 20
9.5608737361
 30
0.0
 10
9.4826833135
 20
9.5621903398
 30
0.0
 10
9.5144914902
 20
9.5680840023
 30
0.0
 10
9.5445533544
 20
9.5777492062
 30
0.0
 10
9.5632780016
 20
9.5867551371
 30
0.0
 10
9.5720714047
 20
9.5918487227
 30
0.0
  0
SPLINE
  5
28E
100
AcDbEntity
  8
0
100
AcDbSpline
 62
7
  6
CONTINUOUS
 70
0
 71
3
 72
17
 73
13
 74
0
 42
0.0000001
 43
0.0000001
 44
0.0000000001
 40
0.0
 40
0.0
 40
0.0
 40
0.0
 40
0.1372089577
 40
0.2042589119
 40
0.2702574132
 40
0.3991321269
 40
0.5242136902
 40
0.6460454055
 40
0.7653535928
 40
0.8829960827
 40
0.9415287633
 40
1.0
 40
1.0
 40
1.0
 40
1.0
 10
9.5720714047
 20
9.5918487227
 30
0.0
 10
9.5778052719
 20
9.5951700698
 30
0.0
 10
9.5861027537
 20
9.6005496174
 30
0.0
 10
9.5964344073
 20
9.6085338119
 30
0.0
 10
9.605991786
 20
9.6168288926
 30
0.0
 10
9.6167555311
 20
9.6279729396
 30
0.0
 10
9.6276281999
 20
9.6425690935
 30
0.0
 10
9.6361755529
 20
9.658121972
 30
0.0
 10
9.642228966
 20
9.6744256615
 30
0.0
 10
9.645086981
 20
9.6884726794
 30
0.0
 10
9.646005887
 20
9.6997768716
 30
0.0
 10
9.6460129891
 20
9.7054348689
 30
0.0
 10
9.6459038452
 20
9.7082565626
 30
0.0
  0
SPLINE
  5
28F
100
AcDbEntity
  8
0
100
AcDbSpline
 62
7
  6
CONTINUOUS
 70
0
 71
3
 72
33
 73
29
 74
0
 42
0.0000001
 43
0.0000001
 44
0.0000000001
 40
0.0
 40
0.0
 40
0.0
 40
0.0
 40
0.0003697443
 40
0.0010762504
 40
0.0028339637
 40
0.0056163133
 40
0.0093908397
 40
0.0141245869
 40
0.0197852152
 40
0.0263410472
 40
0.0420146964
 40
0.0609073883
 40
0.0827849391
 40
0.1074061214
 40
0.1345348568
 40
0.1639433114
 40
0.1954137048
 40
0.2287378453
 40
0.3001253643
 40
0.3765361575
 40
0.4565061486
 40
0.5386354583
 40
0.6215535759
 40
0.7039231476
 40
0.7843766863
 40
0.8615261266
 40
0.9339221806
 40
1.0
 40
1.0
 40
1.0
 40
1.0
 10
9.3305684357
 20
9.536351695
 30
0.0
 10
9.3305642259
 20
9.5363465242
 30
0.0
 10
9.3305450351
 20
9.5363221848
 30
0.0
 10
9.3306044362
 20
9.5363975843
 30
0.0
 10
9.3306402427
 20
9.5364471668
 30
0.0
 10
9.3307391936
 20
9.536582554
 30
0.0
 10
9.3308512826
 20
9.5367434809
 30
0.0
 10
9.3309964584
 20
9.5369571739
 30
0.0
 10
9.3311635972
 20
9.5372119435
 30
0.0
 10
9.3314334331
 20
9.5376369061
 30
0.0
 10
9.3318152925
 20
9.53827247
 30
0.0
 10
9.3323107144
 20
9.5391619765
 30
0.0
 10
9.3328496201
 20
9.5402110639
 30
0.0
 10
9.3334188086
 20
9.5414108801
 30
0.0
 10
9.3340040024
 20
9.542752625
 30
0.0
 10
9.3345913328
 20
9.5442273348
 30
0.0
 10
9.3351665513
 20
9.5458261351
 30
0.0
 10
9.3359224443
 20
9.5481631009
 30
0.0
 10
9.3367770301
 20
9.5513180985
 30
0.0
 10
9.3375925382
 20
9.5553467514
 30
0.0
 10
9.3381671338
 20
9.5596123396
 30
0.0
 10
9.3384819279
 20
9.5640226108
 30
0.0
 10
9.338506515
 20
9.5684876123
 30
0.0
 10
9.3382420724
 20
9.5729142317
 30
0.0
 10
9.337713933
 20
9.5772124002
 30
0.0
 10
9.3369363519
 20
9.5812896991
 30
0.0
 10
9.3359611518
 20
9.5850563577
 30
0.0
 10
9.3351853436
 20
9.5874320741
 30
0.0
 10
9.3347760211
 20
9.5885511737
 30
0.0
  0
SPLINE
  5
290
100
AcDbEntity
  8
0
100
AcDbSpline
 62
7
  6
CONTINUOUS
 70
0
 71
3
 72
18
 73
14
 74
0
 42
0.0000001
 43
0.0000001
 44
0.0000000001
 40
0.0
 40
0.0
 40
0.0
 40
0.0
 40
0.0584324781
 40
0.1169276049
 40
0.2345029425
 40
0.3537616639
 40
0.4143358914
 40
0.4756445538
 40
0.6007261786
 40
0.7296275001
 40
0.7956484129
 40
0.8627257407
 40
1.0
 40
1.0
 40
1.0
 40
1.0
 10
9.2540619806
 20
9.708225091
 30
0.0
 10
9.253953142
 20
9.7053901489
 30
0.0
 10
9.2539628251
 20
9.6997055396
 30
0.0
 10
9.2548962676
 20
9.6883484086
 30
0.0
 10
9.257787247
 20
9.6742380876
 30
0.0
 10
9.2628623029
 20
9.6606575101
 30
0.0
 10
9.2681441191
 20
9.6501990757
 30
0.0
 10
9.2743030775
 20
9.6399003967
 30
0.0
 10
9.2835143782
 20
9.6276122897
 30
0.0
 10
9.2943751119
 20
9.6164450969
 30
0.0
 10
9.3040166236
 20
9.6081378019
 30
0.0
 10
9.3144380338
 20
9.6001465456
 30
0.0
 10
9.3228048984
 20
9.5947683924
 30
0.0
 10
9.3285855728
 20
9.5914508996
 30
0.0
  0
SPLINE
  5
291
100
AcDbEntity
  8
0
100
AcDbSpline
 62
7
  6
CONTINUOUS
 70
0
 71
3
 72
11
 73
7
 74
0
 42
0.0000001
 43
0.0000001
 44
0.0000000001
 40
0.0
 40
0.0
 40
0.0
 40
0.0
 40
0.239630244
 40
0.4878456154
 40
0.7422817983
 40
1.0
 40
1.0
 40
1.0
 40
1.0
 10
9.3285855728
 20
9.5914508996
 30
0.0
 10
9.3373490199
 20
9.5864216123
 30
0.0
 10
9.3559906584
 20
9.577530951
 30
0.0
 10
9.3858883911
 20
9.5679898856
 30
0.0
 10
9.4174987959
 20
9.5621730801
 30
0.0
 10
9.4391167621
 20
9.5608737361
 30
0.0
 10
9.4499834891
 20
9.5608737361
 30
0.0
  0
SPLINE
  5
292
100
AcDbEntity
  8
0
100
AcDbSpline
 62
7
  6
CONTINUOUS
 70
0
 71
3
 72
9
 73
5
 74
0
 42
0.0000001
 43
0.0000001
 44
0.0000000001
 40
0.0
 40
0.0
 40
0.0
 40
0.0
 40
0.4968039309
 40
1.0
 40
1.0
 40
1.0
 40
1.0
 10
9.6549834891
 20
9.4286471851
 30
0.0
 10
9.6549834891
 20
9.42457241
 30
0.0
 10
9.6544919992
 20
9.4163635328
 30
0.0
 10
9.6530467637
 20
9.408269311
 30
0.0
 10
9.6520941491
 20
9.4042535506
 30
0.0
  0
SPLINE
  5
293
100
AcDbEntity
  8
0
100
AcDbSpline
 62
7
  6
CONTINUOUS
 70
0
 71
3
 72
18
 73
14
 74
0
 42
0.0000001
 43
0.0000001
 44
0.0000000001
 40
0.0
 40
0.0
 40
0.0
 40
0.0
 40
0.051610044
 40
0.1044663738
 40
0.1587833147
 40
0.2147121809
 40
0.3316003096
 40
0.3927021172
 40
0.4554720945
 40
0.5855010019
 40
0.7206466847
 40
0.859390501
 40
1.0
 40
1.0
 40
1.0
 40
1.0
 10
9.6520941491
 20
9.4042535506
 30
0.0
 10
9.6510817145
 20
9.3999856175
 30
0.0
 10
9.6485141748
 20
9.3914615919
 30
0.0
 10
9.643175342
 20
9.3790394434
 30
0.0
 10
9.6363525769
 20
9.366941965
 30
0.0
 10
9.6251940737
 20
9.3511568996
 30
0.0
 10
9.6113837975
 20
9.336672582
 30
0.0
 10
9.5954860159
 20
9.32376487
 30
0.0
 10
9.5776574143
 20
9.3115674854
 30
0.0
 10
9.5528498004
 20
9.2986101732
 30
0.0
 10
9.5203402186
 20
9.2872407309
 30
0.0
 10
9.4857067986
 20
9.2802511517
 30
0.0
 10
9.4619339896
 20
9.2786830257
 30
0.0
 10
9.4499834891
 20
9.2786830257
 30
0.0
  0
SPLINE
  5
294
100
AcDbEntity
  8
0
100
AcDbSpline
 62
7
  6
CONTINUOUS
 70
0
 71
3
 72
21
 73
17
 74
0
 42
0.0000001
 43
0.0000001
 44
0.0000000001
 40
0.0
 40
0.0
 40
0.0
 40
0.0
 40
0.0511243821
 40
0.1030614712
 40
0.1562149437
 40
0.210908151
 40
0.267376642
 40
0.3257679458
 40
0.3861463652
 40
0.4485018311
 40
0.5127603283
 40
0.5787929698
 40
0.7153311052
 40
0.7854927764
 40
0.8565277968
 40
1.0
 40
1.0
 40
1.0
 40
1.0
 10
9.2449836709
 20
8.5911364603
 30
0.0
 10
9.2449836709
 20
8.5959014493
 30
0.0
 10
9.2456570633
 20
8.6055197023
 30
0.0
 10
9.2486457389
 20
8.6198115843
 30
0.0
 10
9.2535826229
 20
8.6339053974
 30
0.0
 10
9.2604127003
 20
8.647654046
 30
0.0
 10
9.2690644167
 20
8.6609187572
 30
0.0
 10
9.2794508775
 20
8.6735634547
 30
0.0
 10
9.2914702673
 20
8.6854576282
 30
0.0
 10
9.305005925
 20
8.6964768928
 30
0.0
 10
9.3199300028
 20
8.7065050518
 30
0.0
 10
9.3417226544
 20
8.7185380988
 30
0.0
 10
9.3654669336
 20
8.7279761219
 30
0.0
 10
9.3904840433
 20
8.7347007236
 30
0.0
 10
9.4165757565
 20
8.7396216963
 30
0.0
 10
9.4366113282
 20
8.7411005824
 30
0.0
 10
9.4499834891
 20
8.7411005824
 30
0.0
  0
SPLINE
  5
295
100
AcDbEntity
  8
0
100
AcDbSpline
 62
7
  6
CONTINUOUS
 70
0
 71
3
 72
21
 73
17
 74
0
 42
0.0000001
 43
0.0000001
 44
0.0000000001
 40
0.0
 40
0.0
 40
0.0
 40
0.0
 40
0.1434722041
 40
0.2145072244
 40
0.2846688959
 40
0.4212070312
 40
0.4872396726
 40
0.5514981699
 40
0.6138536357
 40
0.6742320548
 40
0.7326233582
 40
0.7890918493
 40
0.8437850567
 40
0.8969385292
 40
0.948875618
 40
1.0
 40
1.0
 40
1.0
 40
1.0
 10
9.4499834891
 20
8.7411005824
 30
0.0
 10
9.4633556502
 20
8.7411005824
 30
0.0
 10
9.4833912219
 20
8.7396216963
 30
0.0
 10
9.5094829352
 20
8.7347007236
 30
0.0
 10
9.5345000449
 20
8.7279761218
 30
0.0
 10
9.5582443241
 20
8.7185380987
 30
0.0
 10
9.5800369757
 20
8.7065050516
 30
0.0
 10
9.5949610534
 20
8.6964768927
 30
0.0
 10
9.6084967111
 20
8.6854576281
 30
0.0
 10
9.6205161009
 20
8.6735634546
 30
0.0
 10
9.6309025617
 20
8.6609187571
 30
0.0
 10
9.639554278
 20
8.6476540459
 30
0.0
 10
9.6463843554
 20
8.6339053973
 30
0.0
 10
9.6513212393
 20
8.6198115842
 30
0.0
 10
9.654309915
 20
8.6055197023
 30
0.0
 10
9.6549833074
 20
8.5959014493
 30
0.0
 10
9.6549833074
 20
8.5911364603
 30
0.0
  0
SPLINE
  5
296
100
AcDbEntity
  8
0
100
AcDbSpline
 62
7
  6
CONTINUOUS
 70
0
 71
3
 72
18
 73
14
 74
0
 42
0.0000001
 43
0.0000001
 44
0.0000000001
 40
0.0
 40
0.0
 40
0.0
 40
0.0
 40
0.1406101245
 40
0.2793544658
 40
0.4145005141
 40
0.5445297517
 40
0.607299824
 40
0.6684016103
 40
0.7852893075
 40
0.8412178294
 40
0.8955343881
 40
0.948390349
 40
1.0
 40
1.0
 40
1.0
 40
1.0
 10
9.4499834891
 20
9.2786830257
 30
0.0
 10
9.4380327297
 20
9.2786830257
 30
0.0
 10
9.4142594118
 20
9.2802512184
 30
0.0
 10
9.3796252949
 20
9.2872410981
 30
0.0
 10
9.3471151354
 20
9.2986110161
 30
0.0
 10
9.3223071745
 20
9.3115688661
 30
0.0
 10
9.3044784213
 20
9.323766752
 30
0.0
 10
9.2885806215
 20
9.3366749537
 30
0.0
 10
9.2747704588
 20
9.3511597752
 30
0.0
 10
9.263612256
 20
9.3669453418
 30
0.0
 10
9.2567897776
 20
9.3790431519
 30
0.0
 10
9.2514513298
 20
9.3914656155
 30
0.0
 10
9.2488840871
 20
9.399989824
 30
0.0
 10
9.247871813
 20
9.4042578386
 30
0.0
  0
SPLINE
  5
297
100
AcDbEntity
  8
0
100
AcDbSpline
 62
7
  6
CONTINUOUS
 70
0
 71
3
 72
9
 73
5
 74
0
 42
0.0000001
 43
0.0000001
 44
0.0000000001
 40
0.0
 40
0.0
 40
0.0
 40
0.0
 40
0.5031944155
 40
1.0
 40
1.0
 40
1.0
 40
1.0
 10
9.247871813
 20
9.4042578386
 30
0.0
 10
9.2469195322
 20
9.4082729059
 30
0.0
 10
9.2454747951
 20
9.4163657167
 30
0.0
 10
9.2449834891
 20
9.424573125
 30
0.0
 10
9.2449834891
 20
9.4286471851
 30
0.0
  0
SPLINE
  5
298
100
AcDbEntity
  8
0
100
AcDbSpline
 62
7
  6
CONTINUOUS
 70
0
 71
3
 72
15
 73
11
 74
0
 42
0.0000001
 43
0.0000001
 44
0.0000000001
 40
0.0
 40
0.0
 40
0.0
 40
0.0
 40
0.1104552793
 40
0.2311653615
 40
0.3621598215
 40
0.4999999911
 40
0.6378401683
 40
0.7688346351
 40
0.8895447181
 40
1.0
 40
1.0
 40
1.0
 40
1.0
 10
10.6232621296
 20
9.5377663455
 30
0.0
 10
10.625813094
 20
9.5403518043
 30
0.0
 10
10.631711269
 20
9.5452362216
 30
0.0
 10
10.6422578841
 20
9.5509251178
 30
0.0
 10
10.6545880107
 20
9.5546995269
 30
0.0
 10
10.6679834885
 20
9.5560288099
 30
0.0
 10
10.6813789665
 20
9.5546995271
 30
0.0
 10
10.6937090937
 20
9.5509251181
 30
0.0
 10
10.704255709
 20
9.5452362217
 30
0.0
 10
10.7101538842
 20
9.5403518044
 30
0.0
 10
10.7127048487
 20
9.5377663455
 30
0.0
  0
SPLINE
  5
299
100
AcDbEntity
  8
0
100
AcDbSpline
 62
7
  6
CONTINUOUS
 70
0
 71
3
 72
15
 73
11
 74
0
 42
0.0000001
 43
0.0000001
 44
0.0000000001
 40
0.0
 40
0.0
 40
0.0
 40
0.0
 40
0.107563127
 40
0.2275377959
 40
0.3597436096
 40
0.499999991
 40
0.64025638
 40
0.7724622007
 40
0.8924368704
 40
1.0
 40
1.0
 40
1.0
 40
1.0
 10
10.6232621296
 20
9.5313905235
 30
0.0
 10
10.6258423167
 20
9.5337143804
 30
0.0
 10
10.6318095746
 20
9.5380864578
 30
0.0
 10
10.6423468248
 20
9.5431151982
 30
0.0
 10
10.6546416935
 20
9.546445478
 30
0.0
 10
10.6679834885
 20
9.5476169873
 30
0.0
 10
10.6813252838
 20
9.5464454782
 30
0.0
 10
10.693620153
 20
9.5431151984
 30
0.0
 10
10.7041574035
 20
9.5380864579
 30
0.0
 10
10.7101246615
 20
9.5337143805
 30
0.0
 10
10.7127048487
 20
9.5313905235
 30
0.0
  0
SPLINE
  5
29A
100
AcDbEntity
  8
0
100
AcDbSpline
 62
7
  6
CONTINUOUS
 70
0
 71
3
 72
17
 73
13
 74
0
 42
0.0000001
 43
0.0000001
 44
0.0000000001
 40
0.0
 40
0.0
 40
0.0
 40
0.0
 40
0.1045824356
 40
0.2238209769
 40
0.2889972252
 40
0.3573473555
 40
0.4999999908
 40
0.6426526339
 40
0.7110027705
 40
0.7761790198
 40
0.8954175619
 40
1.0
 40
1.0
 40
1.0
 40
1.0
 10
10.6232621296
 20
9.5208156675
 30
0.0
 10
10.6258763077
 20
9.5228561243
 30
0.0
 10
10.6319140211
 20
9.5266712032
 30
0.0
 10
10.6404272446
 20
9.530176527
 30
0.0
 10
10.6481522031
 20
9.5323391605
 30
0.0
 10
10.6567543455
 20
9.5340249457
 30
0.0
 10
10.6679834885
 20
9.5348764726
 30
0.0
 10
10.6792126318
 20
9.5340249458
 30
0.0
 10
10.6878147746
 20
9.5323391607
 30
0.0
 10
10.6955397334
 20
9.5301765271
 30
0.0
 10
10.7040529569
 20
9.5266712032
 30
0.0
 10
10.7100906705
 20
9.5228561243
 30
0.0
 10
10.7127048487
 20
9.5208156675
 30
0.0
  0
SPLINE
  5
29B
100
AcDbEntity
  8
0
100
AcDbSpline
 62
7
  6
CONTINUOUS
 70
0
 71
3
 72
21
 73
17
 74
0
 42
0.0000001
 43
0.0000001
 44
0.0000000001
 40
0.0
 40
0.0
 40
0.0
 40
0.0
 40
0.101653472
 40
0.1588182803
 40
0.2202851745
 40
0.2858445795
 40
0.3549709333
 40
0.4267680768
 40
0.4999999906
 40
0.5732319064
 40
0.645029056
 40
0.7141554162
 40
0.7797148222
 40
0.8411817147
 40
0.8983465255
 40
1.0
 40
1.0
 40
1.0
 40
1.0
 10
10.6232621296
 20
9.5061269245
 30
0.0
 10
10.6259144952
 20
9.5078619172
 30
0.0
 10
10.6303213953
 20
9.5101835893
 30
0.0
 10
10.6367185817
 20
9.5126913088
 30
0.0
 10
10.6422101459
 20
9.5143909712
 30
0.0
 10
10.6481690541
 20
9.515787425
 30
0.0
 10
10.6545267101
 20
9.5168308457
 30
0.0
 10
10.6611771855
 20
9.5174771956
 30
0.0
 10
10.6679834883
 20
9.5176963029
 30
0.0
 10
10.6747897913
 20
9.5174771956
 30
0.0
 10
10.6814402672
 20
9.5168308458
 30
0.0
 10
10.6877979236
 20
9.5157874251
 30
0.0
 10
10.693756832
 20
9.5143909713
 30
0.0
 10
10.6992483962
 20
9.5126913089
 30
0.0
 10
10.7056455828
 20
9.5101835894
 30
0.0
 10
10.710052483
 20
9.5078619172
 30
0.0
 10
10.7127048487
 20
9.5061269245
 30
0.0
  0
SPLINE
  5
29C
100
AcDbEntity
  8
0
100
AcDbSpline
 62
7
  6
CONTINUOUS
 70
0
 71
3
 72
23
 73
19
 74
0
 42
0.0000001
 43
0.0000001
 44
0.0000000001
 40
0.0
 40
0.0
 40
0.0
 40
0.0
 40
0.0471886252
 40
0.0990252359
 40
0.1556472535
 40
0.2170620738
 40
0.2830013919
 40
0.3528618678
 40
0.4256470266
 40
0.4999999905
 40
0.5743529563
 40
0.6471381213
 40
0.7169986038
 40
0.7829379229
 40
0.8443527415
 40
0.9009747617
 40
0.9528113742
 40
1.0
 40
1.0
 40
1.0
 40
1.0
 10
10.6232621296
 20
9.4874425663
 30
0.0
 10
10.6245462544
 20
9.4881134687
 30
0.0
 10
10.6272998373
 20
9.4894105178
 30
0.0
 10
10.6317606814
 20
9.4911341601
 30
0.0
 10
10.6367418889
 20
9.4926920205
 30
0.0
 10
10.642228876
 20
9.4940470907
 30
0.0
 10
10.6481838264
 20
9.4951607667
 30
0.0
 10
10.6545367865
 20
9.4959928534
 30
0.0
 10
10.6611823234
 20
9.4965083212
 30
0.0
 10
10.6679834883
 20
9.4966830582
 30
0.0
 10
10.6747846534
 20
9.4965083212
 30
0.0
 10
10.6814301907
 20
9.4959928536
 30
0.0
 10
10.6877831513
 20
9.4951607668
 30
0.0
 10
10.6937381019
 20
9.4940470908
 30
0.0
 10
10.699225089
 20
9.4926920206
 30
0.0
 10
10.7042062966
 20
9.4911341601
 30
0.0
 10
10.7086671409
 20
9.4894105178
 30
0.0
 10
10.7114207238
 20
9.4881134687
 30
0.0
 10
10.7127048487
 20
9.4874425663
 30
0.0
  0
SPLINE
  5
29D
100
AcDbEntity
  8
0
100
AcDbSpline
 62
7
  6
CONTINUOUS
 70
0
 71
3
 72
21
 73
17
 74
0
 42
0.0000001
 43
0.0000001
 44
0.0000000001
 40
0.0
 40
0.0
 40
0.0
 40
0.0
 40
0.0457794784
 40
0.0967112751
 40
0.1528938948
 40
0.2142892067
 40
0.2805735556
 40
0.3510751605
 40
0.4999999904
 40
0.6489248285
 40
0.7194264401
 40
0.78571079
 40
0.8471061002
 40
0.9032887225
 40
0.9542205211
 40
1.0
 40
1.0
 40
1.0
 40
1.0
 10
10.6232621296
 20
9.4649130366
 30
0.0
 10
10.6245561899
 20
9.4654132954
 30
0.0
 10
10.6273262822
 20
9.4663774216
 30
0.0
 10
10.6317837092
 20
9.4676504037
 30
0.0
 10
10.6367613263
 20
9.4688011952
 30
0.0
 10
10.6422446287
 20
9.4698023514
 30
0.0
 10
10.648195877
 20
9.4706253633
 30
0.0
 10
10.6568163473
 20
9.4714598259
 30
0.0
 10
10.6679834885
 20
9.4718746082
 30
0.0
 10
10.6791506299
 20
9.471459826
 30
0.0
 10
10.6877711007
 20
9.4706253634
 30
0.0
 10
10.6937223492
 20
9.4698023515
 30
0.0
 10
10.6992056516
 20
9.4688011953
 30
0.0
 10
10.7041832688
 20
9.4676504037
 30
0.0
 10
10.7086406959
 20
9.4663774217
 30
0.0
 10
10.7114107884
 20
9.4654132955
 30
0.0
 10
10.7127048487
 20
9.4649130366
 30
0.0
  0
SPLINE
  5
29E
100
AcDbEntity
  8
0
100
AcDbSpline
 62
7
  6
CONTINUOUS
 70
0
 71
3
 72
21
 73
17
 74
0
 42
0.0000001
 43
0.0000001
 44
0.0000000001
 40
0.0
 40
0.0
 40
0.0
 40
0.0
 40
0.0447008221
 40
0.0949490251
 40
0.1508041047
 40
0.2121878234
 40
0.2787317837
 40
0.3497116368
 40
0.5000000052
 40
0.6502883684
 40
0.7212682167
 40
0.7878121746
 40
0.8491958927
 40
0.9050509737
 40
0.9552991776
 40
1.0
 40
1.0
 40
1.0
 40
1.0
 10
10.6232621296
 20
9.4387197402
 30
0.0
 10
10.6245646337
 20
9.4390422271
 30
0.0
 10
10.6273476555
 20
9.4396618736
 30
0.0
 10
10.6318016262
 20
9.4404758323
 30
0.0
 10
10.6367759941
 20
9.4412118585
 30
0.0
 10
10.6422562714
 20
9.4418523227
 30
0.0
 10
10.648204587
 20
9.4423789008
 30
0.0
 10
10.6568284571
 20
9.4429132697
 30
0.0
 10
10.6679834894
 20
9.4431780522
 30
0.0
 10
10.6791385217
 20
9.4429132696
 30
0.0
 10
10.6877623914
 20
9.4423789008
 30
0.0
 10
10.6937107068
 20
9.4418523227
 30
0.0
 10
10.699190984
 20
9.4412118585
 30
0.0
 10
10.7041653519
 20
9.4404758323
 30
0.0
 10
10.7086193227
 20
9.4396618736
 30
0.0
 10
10.7114023445
 20
9.4390422271
 30
0.0
 10
10.7127048487
 20
9.4387197402
 30
0.0
  0
SPLINE
  5
29F
100
AcDbEntity
  8
0
100
AcDbSpline
 62
7
  6
CONTINUOUS
 70
0
 71
3
 72
17
 73
13
 74
0
 42
0.0000001
 43
0.0000001
 44
0.0000000001
 40
0.0
 40
0.0
 40
0.0
 40
0.0
 40
0.0440615165
 40
0.0939092794
 40
0.2109535745
 40
0.3489122094
 40
0.4999999902
 40
0.6510877795
 40
0.7890464221
 40
0.9060907182
 40
0.955938483
 40
1.0
 40
1.0
 40
1.0
 40
1.0
 10
10.6232621296
 20
9.4090735817
 30
0.0
 10
10.6245700417
 20
9.4092130123
 30
0.0
 10
10.6273608348
 20
9.4094804048
 30
0.0
 10
10.6336390805
 20
9.409973865
 30
0.0
 10
10.6427268343
 20
9.4104765051
 30
0.0
 10
10.6548443279
 20
9.410858831
 30
0.0
 10
10.6679834885
 20
9.4109932325
 30
0.0
 10
10.6811226494
 20
9.410858831
 30
0.0
 10
10.6932401435
 20
9.4104765052
 30
0.0
 10
10.7023278976
 20
9.4099738651
 30
0.0
 10
10.7086061434
 20
9.4094804048
 30
0.0
 10
10.7113969366
 20
9.4092130123
 30
0.0
 10
10.7127048487
 20
9.4090735817
 30
0.0
  0
SPLINE
  5
2A0
100
AcDbEntity
  8
0
100
AcDbSpline
 62
7
  6
CONTINUOUS
 70
0
 71
3
 72
17
 73
13
 74
0
 42
0.0000001
 43
0.0000001
 44
0.0000000001
 40
0.0
 40
0.0
 40
0.0
 40
0.0
 40
0.0440603679
 40
0.0939074123
 40
0.2109513786
 40
0.3489108001
 40
0.4999999894
 40
0.6510891891
 40
0.789048618
 40
0.9060925853
 40
0.9559396316
 40
1.0
 40
1.0
 40
1.0
 40
1.0
 10
10.7127048487
 20
8.6108013154
 30
0.0
 10
10.7113969266
 20
8.6106624239
 30
0.0
 10
10.7086061195
 20
8.6103960663
 30
0.0
 10
10.7023278531
 20
8.6099045166
 30
0.0
 10
10.6932400981
 20
8.6094038253
 30
0.0
 10
10.6811226276
 20
8.6090229819
 30
0.0
 10
10.6679834898
 20
8.6088891017
 30
0.0
 10
10.6548443518
 20
8.6090229819
 30
0.0
 10
10.6427268806
 20
8.6094038253
 30
0.0
 10
10.6336391254
 20
8.6099045166
 30
0.0
 10
10.6273608588
 20
8.6103960662
 30
0.0
 10
10.6245700516
 20
8.6106624239
 30
0.0
 10
10.6232621296
 20
8.6108013154
 30
0.0
  0
SPLINE
  5
2A1
100
AcDbEntity
  8
0
100
AcDbSpline
 62
7
  6
CONTINUOUS
 70
0
 71
3
 72
21
 73
17
 74
0
 42
0.0000001
 43
0.0000001
 44
0.0000000001
 40
0.0
 40
0.0
 40
0.0
 40
0.0
 40
0.0446982733
 40
0.0949448712
 40
0.1507991867
 40
0.2121828801
 40
0.2787274503
 40
0.3497084262
 40
0.5000000023
 40
0.650291577
 40
0.7212725505
 40
0.7878171198
 40
0.8492008133
 40
0.9050551288
 40
0.9553017267
 40
1.0
 40
1.0
 40
1.0
 40
1.0
 10
10.7127048487
 20
8.5811454223
 30
0.0
 10
10.7114023236
 20
8.5808234628
 30
0.0
 10
10.7086192711
 20
8.5802048344
 30
0.0
 10
10.7041653096
 20
8.5793922232
 30
0.0
 10
10.6991909502
 20
8.5786574148
 30
0.0
 10
10.6937106807
 20
8.57801801
 30
0.0
 10
10.6877623724
 20
8.5774923027
 30
0.0
 10
10.6791384944
 20
8.5769588163
 30
0.0
 10
10.667983489
 20
8.576694473
 30
0.0
 10
10.6568284836
 20
8.5769588163
 30
0.0
 10
10.6482046058
 20
8.5774923027
 30
0.0
 10
10.6422562975
 20
8.57801801
 30
0.0
 10
10.636776028
 20
8.5786574148
 30
0.0
 10
10.6318016687
 20
8.5793922232
 30
0.0
 10
10.6273477072
 20
8.5802048344
 30
0.0
 10
10.6245646546
 20
8.5808234628
 30
0.0
 10
10.6232621296
 20
8.5811454223
 30
0.0
  0
SPLINE
  5
2A2
100
AcDbEntity
  8
0
100
AcDbSpline
 62
7
  6
CONTINUOUS
 70
0
 71
3
 72
21
 73
17
 74
0
 42
0.0000001
 43
0.0000001
 44
0.0000000001
 40
0.0
 40
0.0
 40
0.0
 40
0.0
 40
0.0457757895
 40
0.0967052324
 40
0.1528867141
 40
0.2142819747
 40
0.2805672098
 40
0.3510704591
 40
0.4999999896
 40
0.6489295302
 40
0.719432786
 40
0.7857180219
 40
0.8471132808
 40
0.9032947652
 40
0.95422421
 40
1.0
 40
1.0
 40
1.0
 40
1.0
 10
10.7127048487
 20
8.5549417347
 30
0.0
 10
10.7114107608
 20
8.5544419847
 30
0.0
 10
10.7086406247
 20
8.553478848
 30
0.0
 10
10.7041832083
 20
8.5522071945
 30
0.0
 10
10.6992056015
 20
8.551057603
 30
0.0
 10
10.6937223091
 20
8.5500574903
 30
0.0
 10
10.6877710708
 20
8.5492353357
 30
0.0
 10
10.6791505885
 20
8.5484017399
 30
0.0
 10
10.6679834898
 20
8.5479873931
 30
0.0
 10
10.6568163909
 20
8.5484017398
 30
0.0
 10
10.648195908
 20
8.5492353357
 30
0.0
 10
10.6422446695
 20
8.5500574902
 30
0.0
 10
10.6367613771
 20
8.551057603
 30
0.0
 10
10.6317837702
 20
8.5522071944
 30
0.0
 10
10.6273263536
 20
8.553478848
 30
0.0
 10
10.6245562174
 20
8.5544419847
 30
0.0
 10
10.6232621296
 20
8.5549417347
 30
0.0
  0
SPLINE
  5
2A3
100
AcDbEntity
  8
0
100
AcDbSpline
 62
7
  6
CONTINUOUS
 70
0
 71
3
 72
23
 73
19
 74
0
 42
0.0000001
 43
0.0000001
 44
0.0000000001
 40
0.0
 40
0.0
 40
0.0
 40
0.0
 40
0.0471841339
 40
0.0990178325
 40
0.1556384142
 40
0.2170531427
 40
0.2829935437
 40
0.3528560607
 40
0.4256439436
 40
0.4999999897
 40
0.5743560384
 40
0.6471439287
 40
0.7170064521
 40
0.7829468538
 40
0.8443615807
 40
0.9009821651
 40
0.9528158656
 40
1.0
 40
1.0
 40
1.0
 40
1.0
 10
10.7127048487
 20
8.5324012409
 30
0.0
 10
10.7114206941
 20
8.5317308246
 30
0.0
 10
10.7086670596
 20
8.5304347267
 30
0.0
 10
10.7042062245
 20
8.5287123828
 30
0.0
 10
10.6992250272
 20
8.5271556952
 30
0.0
 10
10.6937380512
 20
8.5258016447
 30
0.0
 10
10.6877831125
 20
8.5246888063
 30
0.0
 10
10.681430165
 20
8.5238573452
 30
0.0
 10
10.6747846413
 20
8.5233422651
 30
0.0
 10
10.66798349
 20
8.5231676593
 30
0.0
 10
10.6611823385
 20
8.523342265
 30
0.0
 10
10.6545368143
 20
8.5238573451
 30
0.0
 10
10.6481838663
 20
8.5246888062
 30
0.0
 10
10.6422289275
 20
8.5258016446
 30
0.0
 10
10.6367419514
 20
8.5271556951
 30
0.0
 10
10.631760754
 20
8.5287123827
 30
0.0
 10
10.6272999188
 20
8.5304347266
 30
0.0
 10
10.6245462842
 20
8.5317308246
 30
0.0
 10
10.6232621296
 20
8.5324012409
 30
0.0
  0
SPLINE
  5
2A4
100
AcDbEntity
  8
0
100
AcDbSpline
 62
7
  6
CONTINUOUS
 70
0
 71
3
 72
21
 73
17
 74
0
 42
0.0000001
 43
0.0000001
 44
0.0000000001
 40
0.0
 40
0.0
 40
0.0
 40
0.0
 40
0.1016452787
 40
0.1588084219
 40
0.2202751575
 40
0.2858357405
 40
0.3549643742
 40
0.4267645888
 40
0.4999999899
 40
0.5732353935
 40
0.6450356154
 40
0.7141642553
 40
0.7797248391
 40
0.841191573
 40
0.8983547188
 40
1.0
 40
1.0
 40
1.0
 40
1.0
 10
10.7127048487
 20
8.5137054338
 30
0.0
 10
10.7100523669
 20
8.5119713647
 30
0.0
 10
10.7056454031
 20
8.5096510323
 30
0.0
 10
10.699248327
 20
8.5071448072
 30
0.0
 10
10.6937567736
 20
8.5054461329
 30
0.0
 10
10.6877978779
 20
8.5040504902
 30
0.0
 10
10.6814402362
 20
8.5030076758
 30
0.0
 10
10.6747897764
 20
8.5023617014
 30
0.0
 10
10.66798349
 20
8.5021427213
 30
0.0
 10
10.6611772034
 20
8.5023617013
 30
0.0
 10
10.6545267431
 20
8.5030076756
 30
0.0
 10
10.6481691009
 20
8.5040504901
 30
0.0
 10
10.642210205
 20
8.5054461328
 30
0.0
 10
10.6367186515
 20
8.5071448071
 30
0.0
 10
10.6303215753
 20
8.5096510322
 30
0.0
 10
10.6259146114
 20
8.5119713647
 30
0.0
 10
10.6232621296
 20
8.5137054338
 30
0.0
  0
SPLINE
  5
2A5
100
AcDbEntity
  8
0
100
AcDbSpline
 62
7
  6
CONTINUOUS
 70
0
 71
3
 72
17
 73
13
 74
0
 42
0.0000001
 43
0.0000001
 44
0.0000000001
 40
0.0
 40
0.0
 40
0.0
 40
0.0
 40
0.1045738399
 40
0.2238103928
 40
0.2889878278
 40
0.3573403341
 40
0.4999999901
 40
0.6426596556
 40
0.7110121681
 40
0.7761896038
 40
0.8954261576
 40
1.0
 40
1.0
 40
1.0
 40
1.0
 10
10.7127048487
 20
8.4990048494
 30
0.0
 10
10.7100905647
 20
8.4969652512
 30
0.0
 10
10.704052644
 20
8.4931518584
 30
0.0
 10
10.6955395839
 20
8.4896482627
 30
0.0
 10
10.687814724
 20
8.4874866593
 30
0.0
 10
10.6792125578
 20
8.4858016528
 30
0.0
 10
10.6679834898
 20
8.4849505354
 30
0.0
 10
10.6567544215
 20
8.4858016527
 30
0.0
 10
10.6481522548
 20
8.4874866592
 30
0.0
 10
10.6404273947
 20
8.4896482625
 30
0.0
 10
10.6319143345
 20
8.4931518584
 30
0.0
 10
10.6258764136
 20
8.4969652511
 30
0.0
 10
10.6232621296
 20
8.4990048494
 30
0.0
  0
SPLINE
  5
2A6
100
AcDbEntity
  8
0
100
AcDbSpline
 62
7
  6
CONTINUOUS
 70
0
 71
3
 72
15
 73
11
 74
0
 42
0.0000001
 43
0.0000001
 44
0.0000000001
 40
0.0
 40
0.0
 40
0.0
 40
0.0
 40
0.1075545433
 40
0.2275270889
 40
0.3597365047
 40
0.4999999903
 40
0.6402634852
 40
0.7724729077
 40
0.8924454542
 40
1.0
 40
1.0
 40
1.0
 40
1.0
 10
10.7127048487
 20
8.4884178547
 30
0.0
 10
10.7101245693
 20
8.4860947927
 30
0.0
 10
10.7041571053
 20
8.4817242755
 30
0.0
 10
10.6936198936
 20
8.4766975186
 30
0.0
 10
10.6813251319
 20
8.4733685666
 30
0.0
 10
10.6679834898
 20
8.4721975273
 30
0.0
 10
10.6546418475
 20
8.4733685664
 30
0.0
 10
10.6423470851
 20
8.4766975184
 30
0.0
 10
10.6318098732
 20
8.4817242754
 30
0.0
 10
10.625842409
 20
8.4860947926
 30
0.0
 10
10.6232621296
 20
8.4884178547
 30
0.0
  0
SPLINE
  5
2A7
100
AcDbEntity
  8
0
100
AcDbSpline
 62
7
  6
CONTINUOUS
 70
0
 71
3
 72
15
 73
11
 74
0
 42
0.0000001
 43
0.0000001
 44
0.0000000001
 40
0.0
 40
0.0
 40
0.0
 40
0.0
 40
0.1104470356
 40
0.2311549649
 40
0.3621528719
 40
0.4999999904
 40
0.6378471181
 40
0.7688450316
 40
0.8895529618
 40
1.0
 40
1.0
 40
1.0
 40
1.0
 10
10.7127048487
 20
8.4820296947
 30
0.0
 10
10.7101538059
 20
8.4794449671
 30
0.0
 10
10.7042554354
 20
8.4745619778
 30
0.0
 10
10.6937088367
 20
8.4688749452
 30
0.0
 10
10.6813788082
 20
8.4651017969
 30
0.0
 10
10.6679834898
 20
8.4637729634
 30
0.0
 10
10.6545881711
 20
8.4651017966
 30
0.0
 10
10.642258142
 20
8.4688749449
 30
0.0
 10
10.631711543
 20
8.4745619777
 30
0.0
 10
10.6258131724
 20
8.479444967
 30
0.0
 10
10.6232621296
 20
8.4820296947
 30
0.0
  0
SPLINE
  5
2A8
100
AcDbEntity
  8
0
100
AcDbSpline
 62
7
  6
CONTINUOUS
 70
0
 71
3
 72
21
 73
17
 74
0
 42
0.0000001
 43
0.0000001
 44
0.0000000001
 40
0.0
 40
0.0
 40
0.0
 40
0.0
 40
0.0556393137
 40
0.1132116582
 40
0.1728590188
 40
0.2346970986
 40
0.2986908492
 40
0.3646142977
 40
0.4999999913
 40
0.6353856921
 40
0.7013091467
 40
0.765302898
 40
0.8271409761
 40
0.8867883392
 40
0.9443606856
 40
1.0
 40
1.0
 40
1.0
 40
1.0
 10
10.6232621296
 20
9.539891804
 30
0.0
 10
10.6245052972
 20
9.5412817077
 30
0.0
 10
10.6271742303
 20
9.5439885177
 30
0.0
 10
10.6316356697
 20
9.5476987435
 30
0.0
 10
10.6366233962
 20
9.5510550572
 30
0.0
 10
10.6421230998
 20
9.5539767662
 30
0.0
 10
10.6480974948
 20
9.556379576
 30
0.0
 10
10.6566701205
 20
9.5587947431
 30
0.0
 10
10.6679834885
 20
9.5600419328
 30
0.0
 10
10.6792968567
 20
9.5587947433
 30
0.0
 10
10.6878694829
 20
9.5563795762
 30
0.0
 10
10.6938438781
 20
9.5539767664
 30
0.0
 10
10.6993435817
 20
9.5510550574
 30
0.0
 10
10.7043313083
 20
9.5476987437
 30
0.0
 10
10.7087927479
 20
9.5439885177
 30
0.0
 10
10.711461681
 20
9.5412817077
 30
0.0
 10
10.7127048487
 20
9.539891804
 30
0.0
  0
SPLINE
  5
2A9
100
AcDbEntity
  8
0
100
AcDbSpline
 62
7
  6
CONTINUOUS
 70
0
 71
3
 72
21
 73
17
 74
0
 42
0.0000001
 43
0.0000001
 44
0.0000000001
 40
0.0
 40
0.0
 40
0.0
 40
0.0
 40
0.0556306458
 40
0.1132079125
 40
0.1728531438
 40
0.2346906283
 40
0.2986861672
 40
0.3646106525
 40
0.4999999341
 40
0.6353892235
 40
0.7013137242
 40
0.7653092623
 40
0.8271467341
 40
0.8867920086
 40
0.944369325
 40
1.0
 40
1.0
 40
1.0
 40
1.0
 10
10.7127048487
 20
8.4798918061
 30
0.0
 10
10.7114633307
 20
8.4785008562
 30
0.0
 10
10.708794121
 20
8.4757942881
 30
0.0
 10
10.7043311627
 20
8.47208648
 30
0.0
 10
10.6993438361
 20
8.4687297142
 30
0.0
 10
10.6938441892
 20
8.465808075
 30
0.0
 10
10.6878696921
 20
8.4634056083
 30
0.0
 10
10.6792969753
 20
8.4609904894
 30
0.0
 10
10.6679834955
 20
8.4597434638
 30
0.0
 10
10.656670015
 20
8.4609904876
 30
0.0
 10
10.6480972967
 20
8.4634056041
 30
0.0
 10
10.6421227993
 20
8.4658080702
 30
0.0
 10
10.6366231513
 20
8.4687297093
 30
0.0
 10
10.6316358214
 20
8.4720864749
 30
0.0
 10
10.627172859
 20
8.4757942847
 30
0.0
 10
10.6245036482
 20
8.4785008554
 30
0.0
 10
10.6232621296
 20
8.4798918061
 30
0.0
  0
SPLINE
  5
2AA
100
AcDbEntity
  8
0
100
AcDbSpline
 62
9
  6
CONTINUOUS
 70
0
 71
3
 72
41
 73
37
 74
0
 42
0.0000001
 43
0.0000001
 44
0.0000000001
 40
0.0
 40
0.0
 40
0.0
 40
0.0
 40
0.0257265432
 40
0.0517037692
 40
0.0781483127
 40
0.1052658464
 40
0.1191342519
 40
0.1332266603
 40
0.1621219601
 40
0.1920342623
 40
0.2229897122
 40
0.2549735622
 40
0.2879348698
 40
0.321791275
 40
0.3564334581
 40
0.3917300024
 40
0.427532366
 40
0.46367908
 40
0.5000000001
 40
0.5363209202
 40
0.5724676341
 40
0.6082699978
 40
0.6435665423
 40
0.6782087255
 40
0.7120651309
 40
0.7450264387
 40
0.7770102885
 40
0.8079657378
 40
0.8378780397
 40
0.8667733396
 40
0.880865748
 40
0.8947341536
 40
0.9218516874
 40
0.9482962308
 40
0.9742734568
 40
1.0
 40
1.0
 40
1.0
 40
1.0
 10
9.2539834891
 20
8.5951694511
 30
0.0
 10
9.2539834891
 20
8.5997080616
 30
0.0
 10
9.2546212999
 20
8.6088418665
 30
0.0
 10
9.2574729153
 20
8.6223722039
 30
0.0
 10
9.2621911311
 20
8.635630084
 30
0.0
 10
9.2675959455
 20
8.6462643757
 30
0.0
 10
9.2727634739
 20
8.6544986388
 30
0.0
 10
9.2785871986
 20
8.6626715511
 30
0.0
 10
9.2869398311
 20
8.672488223
 30
0.0
 10
9.2984400023
 20
8.6834137094
 30
0.0
 10
9.3113912545
 20
8.6934842199
 30
0.0
 10
9.3256674521
 20
8.7026049978
 30
0.0
 10
9.341131812
 20
8.7106913298
 30
0.0
 10
9.3576365075
 20
8.7176670531
 30
0.0
 10
9.3750238621
 20
8.7234664327
 30
0.0
 10
9.3931276181
 20
8.7280351337
 30
0.0
 10
9.4117748534
 20
8.7313299266
 30
0.0
 10
9.4307874135
 20
8.7333191943
 30
0.0
 10
9.4499834892
 20
8.7339843164
 30
0.0
 10
9.4691795648
 20
8.7333191943
 30
0.0
 10
9.488192125
 20
8.7313299266
 30
0.0
 10
9.5068393603
 20
8.7280351336
 30
0.0
 10
9.5249431164
 20
8.7234664326
 30
0.0
 10
9.5423304711
 20
8.717667053
 30
0.0
 10
9.5588351666
 20
8.7106913297
 30
0.0
 10
9.5742995265
 20
8.7026049975
 30
0.0
 10
9.588575724
 20
8.6934842198
 30
0.0
 10
9.6015269761
 20
8.6834137093
 30
0.0
 10
9.6130271472
 20
8.672488223
 30
0.0
 10
9.6213797796
 20
8.6626715511
 30
0.0
 10
9.6272035043
 20
8.6544986388
 30
0.0
 10
9.6323710328
 20
8.6462643757
 30
0.0
 10
9.6377758471
 20
8.635630084
 30
0.0
 10
9.642494063
 20
8.6223722039
 30
0.0
 10
9.6453456784
 20
8.6088418665
 30
0.0
 10
9.6459834891
 20
8.5997080616
 30
0.0
 10
9.6459834891
 20
8.5951694511
 30
0.0
  0
SPLINE
  5
2AB
100
AcDbEntity
  8
0
100
AcDbSpline
 62
9
  6
CONTINUOUS
 70
0
 71
3
 72
25
 73
21
 74
0
 42
0.0000001
 43
0.0000001
 44
0.0000000001
 40
0.0
 40
0.0
 40
0.0
 40
0.0
 40
0.0257144432
 40
0.0514905815
 40
0.0773892151
 40
0.1034688129
 40
0.1563623123
 40
0.2105985121
 40
0.2383357822
 40
0.266521161
 40
0.3243136694
 40
0.3841400904
 40
0.446052387
 40
0.5100217468
 40
0.5759465195
 40
0.643660884
 40
0.7129473286
 40
0.7835429099
 40
0.8551455638
 40
1.0
 40
1.0
 40
1.0
 40
1.0
 10
9.6459833106
 20
9.424614157
 30
0.0
 10
9.6459833106
 20
9.422345981
 30
0.0
 10
9.6458256083
 20
9.4178025978
 30
0.0
 10
9.6451158748
 20
9.4110082204
 30
0.0
 10
9.6439348162
 20
9.4042465555
 30
0.0
 10
9.6417270664
 20
9.3952573427
 30
0.0
 10
9.6377757674
 20
9.3841529222
 30
0.0
 10
9.6323709159
 20
9.373519334
 30
0.0
 10
9.6272034528
 20
9.3652849987
 30
0.0
 10
9.6213799689
 20
9.3571119662
 30
0.0
 10
9.6130272198
 20
9.3472953122
 30
0.0
 10
9.601526801
 20
9.3363700818
 30
0.0
 10
9.5885757355
 20
9.3262993847
 30
0.0
 10
9.5742996426
 20
9.3171784085
 30
0.0
 10
9.5588351408
 20
9.3090923865
 30
0.0
 10
9.5423303412
 20
9.3021166737
 30
0.0
 10
9.5249433734
 20
9.2963170542
 30
0.0
 10
9.5068385578
 20
9.2917483892
 30
0.0
 10
9.4818903693
 20
9.2873399415
 30
0.0
 10
9.4627605633
 20
9.2860212279
 30
0.0
 10
9.4499834891
 20
9.2860212279
 30
0.0
  0
SPLINE
  5
2AC
100
AcDbEntity
  8
0
100
AcDbSpline
 62
7
  6
CONTINUOUS
 70
0
 71
3
 72
37
 73
33
 74
0
 42
0.0000001
 43
0.0000001
 44
0.0000000001
 40
0.0
 40
0.0
 40
0.0
 40
0.0
 40
0.0256682783
 40
0.0517598413
 40
0.0784564793
 40
0.1059006915
 40
0.1341994853
 40
0.1634244164
 40
0.1936099055
 40
0.2247568867
 40
0.2568350222
 40
0.2897862856
 40
0.3235293604
 40
0.3579622094
 40
0.4283704333
 40
0.4641130803
 40
0.500006621
 40
0.5359000654
 40
0.571642425
 40
0.6420495288
 40
0.6764815712
 40
0.7102236993
 40
0.7431738979
 40
0.7752508787
 40
0.8063966493
 40
0.8365809076
 40
0.8658046296
 40
0.8941022825
 40
0.9215454672
 40
0.9482412356
 40
0.9743321375
 40
1.0
 40
1.0
 40
1.0
 40
1.0
 10
9.2618504381
 20
8.3197589011
 30
0.0
 10
9.2624354363
 20
8.323855386
 30
0.0
 10
9.2641532453
 20
8.3320483836
 30
0.0
 10
9.2682912403
 20
8.3440326995
 30
0.0
 10
9.2739671056
 20
8.3556890328
 30
0.0
 10
9.2811278497
 20
8.3669176644
 30
0.0
 10
9.2897104966
 20
8.3776254452
 30
0.0
 10
9.2996403509
 20
8.3877235941
 30
0.0
 10
9.3108316656
 20
8.3971301807
 30
0.0
 10
9.3231900755
 20
8.4057675453
 30
0.0
 10
9.3366115247
 20
8.4135646809
 30
0.0
 10
9.3509826516
 20
8.4204581038
 30
0.0
 10
9.3661845
 20
8.4263904723
 30
0.0
 10
9.3875412258
 20
8.4330002621
 30
0.0
 10
9.4098536649
 20
8.4374232299
 30
0.0
 10
9.4326556103
 20
8.4396537311
 30
0.0
 10
9.4499945429
 20
8.4402158977
 30
0.0
 10
9.4673333831
 20
8.4396523002
 30
0.0
 10
9.4901349009
 20
8.4374199208
 30
0.0
 10
9.5124466174
 20
8.4329951232
 30
0.0
 10
9.5338023079
 20
8.4263835506
 30
0.0
 10
9.54900318
 20
8.420449927
 30
0.0
 10
9.5633731719
 20
8.4135553146
 30
0.0
 10
9.5767933372
 20
8.4057570664
 30
0.0
 10
9.5891503265
 20
8.3971186775
 30
0.0
 10
9.600340092
 20
8.3877111585
 30
0.0
 10
9.6102682831
 20
8.37761218
 30
0.0
 10
9.6188491663
 20
8.3669036795
 30
0.0
 10
9.6260080552
 20
8.3556744421
 30
0.0
 10
9.6316819946
 20
8.3440176267
 30
0.0
 10
9.6358180052
 20
8.3320329548
 30
0.0
 10
9.6375344439
 20
8.3238398463
 30
0.0
 10
9.6381187623
 20
8.319743332
 30
0.0
  0
SPLINE
  5
2AD
100
AcDbEntity
  8
0
100
AcDbSpline
 62
9
  6
CONTINUOUS
 70
0
 71
3
 72
31
 73
27
 74
0
 42
0.0000001
 43
0.0000001
 44
0.0000000001
 40
0.0
 40
0.0
 40
0.0
 40
0.0
 40
0.0257360178
 40
0.0519977601
 40
0.0789245221
 40
0.1066236428
 40
0.1351722611
 40
0.1646166074
 40
0.1949722389
 40
0.2262264534
 40
0.2912139879
 40
0.3590775881
 40
0.4290007586
 40
0.4999959811
 40
0.57099142
 40
0.640915223
 40
0.7087798208
 40
0.7737686325
 40
0.8050235516
 40
0.8353799083
 40
0.8648249782
 40
0.8933742966
 40
0.9210740676
 40
0.9480014062
 40
0.9742636283
 40
1.0
 40
1.0
 40
1.0
 40
1.0
 10
9.2717199999
 20
8.3280540261
 30
0.0
 10
9.2726233199
 20
8.3317585524
 30
0.0
 10
9.2749051666
 20
8.339139346
 30
0.0
 10
9.2796439935
 20
8.3498557622
 30
0.0
 10
9.2856869053
 20
8.3602325859
 30
0.0
 10
9.2929863791
 20
8.3701877963
 30
0.0
 10
9.3014833115
 20
8.379647911
 30
0.0
 10
9.3111115494
 20
8.3885419349
 30
0.0
 10
9.3217976939
 20
8.3968035746
 30
0.0
 10
9.3375462745
 20
8.4070243444
 30
0.0
 10
9.3594483442
 20
8.4178080691
 30
0.0
 10
9.3880787911
 20
8.4271980075
 30
0.0
 10
9.4185596496
 20
8.4329449679
 30
0.0
 10
9.4499771971
 20
8.4348796302
 30
0.0
 10
9.4813949325
 20
8.432946506
 30
0.0
 10
9.5118763485
 20
8.4272010385
 30
0.0
 10
9.5405077055
 20
8.4178125054
 30
0.0
 10
9.5624107979
 20
8.4070298722
 30
0.0
 10
9.5781603665
 20
8.3968098908
 30
0.0
 10
9.5888473224
 20
8.3885487808
 30
0.0
 10
9.5984764328
 20
8.3796552344
 30
0.0
 10
9.6069742953
 20
8.370195544
 30
0.0
 10
9.6142747477
 20
8.360240699
 30
0.0
 10
9.6203186812
 20
8.3498641796
 30
0.0
 10
9.6250585654
 20
8.339148004
 30
0.0
 10
9.6273411462
 20
8.331767309
 30
0.0
 10
9.628244834
 20
8.3280628185
 30
0.0
  0
SPLINE
  5
2AE
100
AcDbEntity
  8
0
100
AcDbSpline
 62
9
  6
CONTINUOUS
 70
0
 71
3
 72
32
 73
28
 74
0
 42
0.0000001
 43
0.0000001
 44
0.0000000001
 40
0.0
 40
0.0
 40
0.0
 40
0.0
 40
0.0751220069
 40
0.1493830466
 40
0.221979179
 40
0.2922020139
 40
0.3595032679
 40
0.4235462562
 40
0.4543380665
 40
0.4843160857
 40
0.5135230296
 40
0.5420223573
 40
0.5699003476
 40
0.5972630274
 40
0.6242353275
 40
0.6509564366
 40
0.6775754396
 40
0.7042455934
 40
0.7311178617
 40
0.7583355656
 40
0.7860286182
 40
0.8143098929
 40
0.8432723188
 40
0.8729870498
 40
0.9035038116
 40
0.9348500034
 40
1.0
 40
1.0
 40
1.0
 40
1.0
 10
9.4499834891
 20
9.3082824327
 30
0.0
 10
9.4405471203
 20
9.3082824327
 30
0.0
 10
9.4217666242
 20
9.3092874279
 30
0.0
 10
9.3941939605
 20
9.3137856221
 30
0.0
 10
9.3678820492
 20
9.3211709175
 30
0.0
 10
9.3434292233
 20
9.3312824108
 30
0.0
 10
9.321391505
 20
9.3438956657
 30
0.0
 10
9.3052394903
 20
9.3564375449
 30
0.0
 10
9.2940690363
 20
9.3674600685
 30
0.0
 10
9.286696698
 20
9.3760452319
 30
0.0
 10
9.2802648816
 20
9.3850045077
 30
0.0
 10
9.2748130417
 20
9.3942884683
 30
0.0
 10
9.2703723403
 20
9.4038426653
 30
0.0
 10
9.2669719446
 20
9.4136127978
 30
0.0
 10
9.2646312027
 20
9.4235410355
 30
0.0
 10
9.2633667616
 20
9.4335692181
 30
0.0
 10
9.2631852296
 20
9.4436374235
 30
0.0
 10
9.2640889647
 20
9.4536855995
 30
0.0
 10
9.2660713567
 20
9.4636538635
 30
0.0
 10
9.2691201001
 20
9.47348316
 30
0.0
 10
9.2732161002
 20
9.483115754
 30
0.0
 10
9.2783335937
 20
9.4924959724
 30
0.0
 10
9.2844423585
 20
9.5015694541
 30
0.0
 10
9.2915046778
 20
9.5102849783
 30
0.0
 10
9.299480942
 20
9.5185927786
 30
0.0
 10
9.3114182464
 20
9.529196382
 30
0.0
 10
9.3213859462
 20
9.5361908055
 30
0.0
 10
9.3283815497
 20
9.5404375953
 30
0.0
  0
SPLINE
  5
2AF
100
AcDbEntity
  8
0
100
AcDbSpline
 62
9
  6
CONTINUOUS
 70
0
 71
3
 72
21
 73
17
 74
0
 42
0.0000001
 43
0.0000001
 44
0.0000000001
 40
0.0
 40
0.0
 40
0.0
 40
0.0
 40
0.1426482621
 40
0.2132900808
 40
0.2830947793
 40
0.4191189555
 40
0.4849935299
 40
0.5491883265
 40
0.6115850287
 40
0.6721152024
 40
0.7307679446
 40
0.7875939646
 40
0.8427105103
 40
0.8963045108
 40
0.9486295046
 40
1.0
 40
1.0
 40
1.0
 40
1.0
 10
9.4499834891
 20
9.2860212279
 30
0.0
 10
9.4382796196
 20
9.2860212279
 30
0.0
 10
9.4207522166
 20
9.2871285017
 30
0.0
 10
9.397808863
 20
9.2908287389
 30
0.0
 10
9.3756883423
 20
9.2959070694
 30
0.0
 10
9.3544863805
 20
9.3030725355
 30
0.0
 10
9.3346851423
 20
9.3123075402
 30
0.0
 10
9.3209124803
 20
9.3200674429
 30
0.0
 10
9.3081758147
 20
9.3286713272
 30
0.0
 10
9.2965770586
 20
9.3380523967
 30
0.0
 10
9.286209865
 20
9.3481362282
 30
0.0
 10
9.2771590538
 20
9.3588440759
 30
0.0
 10
9.269500032
 20
9.3700916016
 30
0.0
 10
9.2632966525
 20
9.381789785
 30
0.0
 10
9.2586035771
 20
9.3938423437
 30
0.0
 10
9.2564943042
 20
9.4021110993
 30
0.0
 10
9.255711429
 20
9.4062525515
 30
0.0
  0
LINE
  5
2B0
100
AcDbEntity
  8
0
100
AcDbLine
 62
9
  6
CONTINUOUS
 10
9.5708878384
 20
9.5408589744
 11
9.5712547639
 21
9.5406378567
  0
SPLINE
  5
2B1
100
AcDbEntity
  8
0
100
AcDbSpline
 62
9
  6
CONTINUOUS
 70
0
 71
3
 72
32
 73
28
 74
0
 42
0.0000001
 43
0.0000001
 44
0.0000000001
 40
0.0
 40
0.0
 40
0.0
 40
0.0
 40
0.0650248357
 40
0.0963106487
 40
0.1267704454
 40
0.1564332143
 40
0.1853498987
 40
0.2135929522
 40
0.2412561343
 40
0.2684530445
 40
0.2953138203
 40
0.3219817074
 40
0.3486071697
 40
0.3753425892
 40
0.4023359466
 40
0.4297250518
 40
0.4576334558
 40
0.4861657356
 40
0.5154068624
 40
0.5454191134
 40
0.5762441928
 40
0.6403482127
 40
0.7076995951
 40
0.7779604809
 40
0.8505836555
 40
0.9248635737
 40
1.0
 40
1.0
 40
1.0
 40
1.0
 10
9.5725052514
 20
9.5398755077
 30
0.0
 10
9.5794425566
 20
9.535608215
 30
0.0
 10
9.5893212342
 20
9.5285882251
 30
0.0
 10
9.6011368153
 20
9.5179624215
 30
0.0
 10
9.6090236877
 20
9.5096440994
 30
0.0
 10
9.6159983315
 20
9.5009239853
 30
0.0
 10
9.6220215577
 20
9.49185138
 30
0.0
 10
9.62705667
 20
9.4824774953
 30
0.0
 10
9.6310736872
 20
9.4728561745
 30
0.0
 10
9.6340478702
 20
9.4630429515
 30
0.0
 10
9.6359602466
 20
9.4530950518
 30
0.0
 10
9.6367994427
 20
9.4430712035
 30
0.0
 10
9.6365589043
 20
9.4330307936
 30
0.0
 10
9.6352417002
 20
9.4230333667
 30
0.0
 10
9.6328544514
 20
9.4131383529
 30
0.0
 10
9.6294141995
 20
9.4034033205
 30
0.0
 10
9.6249402785
 20
9.3938856041
 30
0.0
 10
9.6194619323
 20
9.3846389497
 30
0.0
 10
9.6130102884
 20
9.3757172872
 30
0.0
 10
9.6056246367
 20
9.3671695931
 30
0.0
 10
9.5944453169
 20
9.3561972119
 30
0.0
 10
9.5782987363
 20
9.3437151846
 30
0.0
 10
9.5562881839
 20
9.331163909
 30
0.0
 10
9.5318808062
 20
9.3211036739
 30
0.0
 10
9.505628675
 20
9.3137566471
 30
0.0
 10
9.4781256434
 20
9.3092821169
 30
0.0
 10
9.4593947081
 20
9.3082824327
 30
0.0
 10
9.4499834891
 20
9.3082824327
 30
0.0
  0
SPLINE
  5
2B2
100
AcDbEntity
  8
0
100
AcDbSpline
 62
9
  6
CONTINUOUS
 70
0
 71
3
 72
14
 73
10
 74
0
 42
0.0000001
 43
0.0000001
 44
0.0000000001
 40
0.0
 40
0.0
 40
0.0
 40
0.0
 40
0.2339265027
 40
0.3561039463
 40
0.4811848994
 40
0.6086869289
 40
0.7380525553
 40
0.8687194371
 40
1.0
 40
1.0
 40
1.0
 40
1.0
 10
9.6108102823
 20
9.6777774995
 30
0.0
 10
9.6000353727
 20
9.6700093794
 30
0.0
 10
9.5824490652
 20
9.6597516137
 30
0.0
 10
9.5573243799
 20
9.6489735768
 30
0.0
 10
9.5371433858
 20
9.6421465976
 30
0.0
 10
9.5161125268
 20
9.6367688584
 30
0.0
 10
9.4944317856
 20
9.6328887172
 30
0.0
 10
9.472317669
 20
9.630546561
 30
0.0
 10
9.4574380564
 20
9.6300242163
 30
0.0
 10
9.4499834891
 20
9.6300242163
 30
0.0
  0
SPLINE
  5
2B3
100
AcDbEntity
  8
0
100
AcDbSpline
 62
9
  6
CONTINUOUS
 70
0
 71
3
 72
19
 73
15
 74
0
 42
0.0000001
 43
0.0000001
 44
0.0000000001
 40
0.0
 40
0.0
 40
0.0
 40
0.0
 40
0.1169832845
 40
0.1780829608
 40
0.2406339719
 40
0.3690065959
 40
0.4343418351
 40
0.5
 40
0.5656581649
 40
0.6309934041
 40
0.7593660281
 40
0.8219170392
 40
0.8830167155
 40
1.0
 40
1.0
 40
1.0
 40
1.0
 10
9.3301936587
 20
8.3715925834
 30
0.0
 10
9.3382191377
 20
8.3773786495
 30
0.0
 10
9.3513176785
 20
8.3850190293
 30
0.0
 10
9.3700325743
 20
8.3930470471
 30
0.0
 10
9.3902420456
 20
8.3998835906
 30
0.0
 10
9.411521086
 20
8.4044598265
 30
0.0
 10
9.4333475463
 20
8.4067721546
 30
0.0
 10
9.4499834891
 20
8.4073560614
 30
0.0
 10
9.466619432
 20
8.4067721546
 30
0.0
 10
9.4884458923
 20
8.4044598265
 30
0.0
 10
9.5097249327
 20
8.3998835906
 30
0.0
 10
9.529934404
 20
8.3930470471
 30
0.0
 10
9.5486492998
 20
8.3850190293
 30
0.0
 10
9.5617478405
 20
8.3773786495
 30
0.0
 10
9.5697733196
 20
8.3715925834
 30
0.0
  0
SPLINE
  5
2B4
100
AcDbEntity
  8
0
100
AcDbSpline
 62
7
  6
CONTINUOUS
 70
0
 71
3
 72
21
 73
17
 74
0
 42
0.0000001
 43
0.0000001
 44
0.0000000001
 40
0.0
 40
0.0
 40
0.0
 40
0.0
 40
0.0513320577
 40
0.1035268538
 40
0.156932061
 40
0.2118324416
 40
0.2684429336
 40
0.3269048515
 40
0.3872862734
 40
0.4495887309
 40
0.5137513177
 40
0.5796575616
 40
0.7159230946
 40
0.7859277348
 40
0.8568089519
 40
1.0
 40
1.0
 40
1.0
 40
1.0
 10
9.6380935629
 20
9.699863187
 30
0.0
 10
9.6375020238
 20
9.6957713116
 30
0.0
 10
9.6357716837
 20
9.6875872124
 30
0.0
 10
9.6316195999
 20
9.6756168542
 30
0.0
 10
9.6259320425
 20
9.6639744912
 30
0.0
 10
9.618762692
 20
9.6527604236
 30
0.0
 10
9.6101747974
 20
9.642067032
 30
0.0
 10
9.6002425956
 20
9.6319829857
 30
0.0
 10
9.589051747
 20
9.6225899413
 30
0.0
 10
9.5766967101
 20
9.6139653758
 30
0.0
 10
9.5632803518
 20
9.6061796767
 30
0.0
 10
9.5439198478
 20
9.5969020846
 30
0.0
 10
9.5231187804
 20
9.5897004763
 30
0.0
 10
9.5013752678
 20
9.5845938191
 30
0.0
 10
9.4787867667
 20
9.5808698576
 30
0.0
 10
9.4615164536
 20
9.579755601
 30
0.0
 10
9.4499834891
 20
9.579755601
 30
0.0
  0
SPLINE
  5
2B5
100
AcDbEntity
  8
0
100
AcDbSpline
 62
7
  6
CONTINUOUS
 70
0
 71
3
 72
9
 73
5
 74
0
 42
0.0000001
 43
0.0000001
 44
0.0000000001
 40
0.0
 40
0.0
 40
0.0
 40
0.0
 40
0.4974450543
 40
1.0
 40
1.0
 40
1.0
 40
1.0
 10
9.2539836671
 20
9.4058716015
 30
0.0
 10
9.2539836671
 20
9.4011469397
 30
0.0
 10
9.2546741745
 20
9.3916367121
 30
0.0
 10
9.2567196425
 20
9.3823253925
 30
0.0
 10
9.2580622099
 20
9.3777449011
 30
0.0
  0
SPLINE
  5
2B6
100
AcDbEntity
  8
0
100
AcDbSpline
 62
7
  6
CONTINUOUS
 70
0
 71
3
 72
21
 73
17
 74
0
 42
0.0000001
 43
0.0000001
 44
0.0000000001
 40
0.0
 40
0.0
 40
0.0
 40
0.0
 40
0.0513311757
 40
0.1035207512
 40
0.1569178586
 40
0.2118087103
 40
0.2684095728
 40
0.3268628225
 40
0.3872373954
 40
0.4495354225
 40
0.5136963186
 40
0.5796037578
 40
0.7158796729
 40
0.7858931475
 40
0.856784918
 40
1.0
 40
1.0
 40
1.0
 40
1.0
 10
9.2618469055
 20
9.7000478309
 30
0.0
 10
9.262430935
 20
9.6959517315
 30
0.0
 10
9.264147208
 20
9.6877585191
 30
0.0
 10
9.2682819464
 20
9.6757729473
 30
0.0
 10
9.2739556644
 20
9.6641146783
 30
0.0
 10
9.2811146778
 20
9.6528843515
 30
0.0
 10
9.289695722
 20
9.6421746952
 30
0.0
 10
9.2996244218
 20
9.6320746542
 30
0.0
 10
9.3108149841
 20
9.6226661762
 30
0.0
 10
9.3231727786
 20
9.6140270249
 30
0.0
 10
9.3365946976
 20
9.6062278042
 30
0.0
 10
9.3559665047
 20
9.5969335817
 30
0.0
 10
9.3767829613
 20
9.5897189125
 30
0.0
 10
9.3985444364
 20
9.5846028834
 30
0.0
 10
9.4211532375
 20
9.5808719405
 30
0.0
 10
9.438439703
 20
9.579755601
 30
0.0
 10
9.4499834891
 20
9.579755601
 30
0.0
  0
SPLINE
  5
2B7
100
AcDbEntity
  8
0
100
AcDbSpline
 62
9
  6
CONTINUOUS
 70
0
 71
3
 72
20
 73
16
 74
0
 42
0.0000001
 43
0.0000001
 44
0.0000000001
 40
0.0
 40
0.0
 40
0.0
 40
0.0
 40
0.0514650852
 40
0.1039788948
 40
0.1578185123
 40
0.2132029829
 40
0.2702870333
 40
0.3291635226
 40
0.3898643382
 40
0.4523646415
 40
0.5165901592
 40
0.5824197534
 40
0.7181481572
 40
0.8579967368
 40
1.0
 40
1.0
 40
1.0
 40
1.0
 10
9.6282853667
 20
9.6918881213
 30
0.0
 10
9.6273877241
 20
9.6881794418
 30
0.0
 10
9.6251165799
 20
9.6807897906
 30
0.0
 10
9.6203906958
 20
9.6700592578
 30
0.0
 10
9.6143573551
 20
9.6596682902
 30
0.0
 10
9.6070647686
 20
9.6496988335
 30
0.0
 10
9.5985719056
 20
9.6402245382
 30
0.0
 10
9.5889447751
 20
9.6313167393
 30
0.0
 10
9.5782575788
 20
9.6230422182
 30
0.0
 10
9.566593115
 20
9.6154619843
 30
0.0
 10
9.5540392779
 20
9.6086335069
 30
0.0
 10
9.5360656356
 20
9.6005183096
 30
0.0
 10
9.5119327688
 20
9.5925957328
 30
0.0
 10
9.481433639
 20
9.5868403453
 30
0.0
 10
9.4605120083
 20
9.5855518693
 30
0.0
 10
9.4499834891
 20
9.5855518694
 30
0.0
  0
SPLINE
  5
2B8
100
AcDbEntity
  8
0
100
AcDbSpline
 62
9
  6
CONTINUOUS
 70
0
 71
3
 72
20
 73
16
 74
0
 42
0.0000001
 43
0.0000001
 44
0.0000000001
 40
0.0
 40
0.0
 40
0.0
 40
0.0
 40
0.0514614858
 40
0.1039689129
 40
0.1578005592
 40
0.2131765418
 40
0.2702525268
 40
0.3291221591
 40
0.3898178664
 40
0.4523152112
 40
0.5165401221
 40
0.5823714957
 40
0.718109983
 40
0.857975728
 40
1.0
 40
1.0
 40
1.0
 40
1.0
 10
9.2716462171
 20
9.6920348697
 30
0.0
 10
9.2725384626
 20
9.6883225051
 30
0.0
 10
9.2747996514
 20
9.6809250462
 30
0.0
 10
9.279513475
 20
9.6701819231
 30
0.0
 10
9.2855374663
 20
9.6597780108
 30
0.0
 10
9.2928233734
 20
9.6497954947
 30
0.0
 10
9.3013121537
 20
9.6403082359
 30
0.0
 10
9.3109377403
 20
9.6313878143
 30
0.0
 10
9.3216257822
 20
9.6231011811
 30
0.0
 10
9.3332933509
 20
9.6155095545
 30
0.0
 10
9.3458523799
 20
9.6086705815
 30
0.0
 10
9.363835823
 20
9.6005425285
 30
0.0
 10
9.3879850621
 20
9.5926071938
 30
0.0
 10
9.4185076048
 20
9.5868424546
 30
0.0
 10
9.4394462812
 20
9.5855518693
 30
0.0
 10
9.4499834891
 20
9.5855518694
 30
0.0
  0
SPLINE
  5
2B9
100
AcDbEntity
  8
0
100
AcDbSpline
 62
7
  6
CONTINUOUS
 70
0
 71
3
 72
9
 73
5
 74
0
 42
0.0000001
 43
0.0000001
 44
0.0000000001
 40
0.0
 40
0.0
 40
0.0
 40
0.0
 40
0.5025504826
 40
1.0
 40
1.0
 40
1.0
 40
1.0
 10
9.6419120272
 20
9.3777696776
 30
0.0
 10
9.6432522325
 20
9.3823463213
 30
0.0
 10
9.6452940538
 20
9.3916495576
 30
0.0
 10
9.6459833112
 20
9.4011511677
 30
0.0
 10
9.6459833112
 20
9.4058716015
 30
0.0
  0
SPLINE
  5
2BA
100
AcDbEntity
  8
0
100
AcDbSpline
 62
7
  6
CONTINUOUS
 70
0
 71
3
 72
9
 73
5
 74
0
 42
0.0000001
 43
0.0000001
 44
0.0000000001
 40
0.0
 40
0.0
 40
0.0
 40
0.0
 40
0.4970230702
 40
1.0
 40
1.0
 40
1.0
 40
1.0
 10
9.6459834891
 20
8.6139120066
 30
0.0
 10
9.6459834891
 20
8.6189878603
 30
0.0
 10
9.645184638
 20
8.629215654
 30
0.0
 10
9.6428247392
 20
8.6391966835
 30
0.0
 10
9.6412789318
 20
8.6440952272
 30
0.0
  0
SPLINE
  5
2BB
100
AcDbEntity
  8
0
100
AcDbSpline
 62
7
  6
CONTINUOUS
 70
0
 71
3
 72
9
 73
5
 74
0
 42
0.0000001
 43
0.0000001
 44
0.0000000001
 40
0.0
 40
0.0
 40
0.0
 40
0.0
 40
0.5029769308
 40
1.0
 40
1.0
 40
1.0
 40
1.0
 10
9.2586880481
 20
8.6440952322
 30
0.0
 10
9.2571422402
 20
8.6391966878
 30
0.0
 10
9.2547823406
 20
8.6292156567
 30
0.0
 10
9.2539834891
 20
8.6189878611
 30
0.0
 10
9.2539834891
 20
8.6139120066
 30
0.0
  0
SPLINE
  5
2BC
100
AcDbEntity
  8
0
100
AcDbSpline
 62
9
  6
CONTINUOUS
 70
0
 71
3
 72
9
 73
5
 74
0
 42
0.0000001
 43
0.0000001
 44
0.0000000001
 40
0.0
 40
0.0
 40
0.0
 40
0.0
 40
0.2431328839
 40
1.0
 40
1.0
 40
1.0
 40
1.0
 10
9.2891567559
 20
8.342006067
 30
0.0
 10
9.2924171771
 20
8.3443568227
 30
0.0
 10
9.3061102565
 20
8.3536300718
 30
0.0
 10
9.3208465728
 20
8.3613342426
 30
0.0
 10
9.3323286704
 20
8.3663068743
 30
0.0
  0
SPLINE
  5
2BD
100
AcDbEntity
  8
0
100
AcDbSpline
 62
9
  6
CONTINUOUS
 70
0
 71
3
 72
17
 73
13
 74
0
 42
0.0000001
 43
0.0000001
 44
0.0000000001
 40
0.0
 40
0.0
 40
0.0
 40
0.0
 40
0.1232129327
 40
0.1864081559
 40
0.2503853351
 40
0.379775218
 40
0.5096577889
 40
0.6382119946
 40
0.7637121465
 40
0.8248706105
 40
0.8847320466
 40
1.0
 40
1.0
 40
1.0
 40
1.0
 10
9.3323286704
 20
8.3663068743
 30
0.0
 10
9.3432984317
 20
8.371057625
 30
0.0
 10
9.3604207337
 20
8.3770925144
 30
0.0
 10
9.384002286
 20
8.3829689351
 30
0.0
 10
9.4084965677
 20
8.3874831931
 30
0.0
 10
9.4398095075
 20
8.3903424266
 30
0.0
 10
9.4775094572
 20
8.3893157886
 30
0.0
 10
9.5144494786
 20
8.3838748328
 30
0.0
 10
9.544015233
 20
8.3757102547
 30
0.0
 10
9.5663416099
 20
8.3670826061
 30
0.0
 10
9.5871203796
 20
8.3573721883
 30
0.0
 10
9.6017387481
 20
8.3485465778
 30
0.0
 10
9.6108102223
 20
8.342006067
 30
0.0
  0
SPLINE
  5
2BE
100
AcDbEntity
  8
0
100
AcDbSpline
 62
7
  6
CONTINUOUS
 70
0
 71
3
 72
11
 73
7
 74
0
 42
0.0000001
 43
0.0000001
 44
0.0000000001
 40
0.0
 40
0.0
 40
0.0
 40
0.0
 40
0.2551493718
 40
0.5064939435
 40
0.7545772098
 40
1.0
 40
1.0
 40
1.0
 40
1.0
 10
9.259265987
 20
8.5607528534
 30
0.0
 10
9.2578910576
 20
8.5632191041
 30
0.0
 10
9.2553283214
 20
8.5682101352
 30
0.0
 10
9.2520499833
 20
8.5758979149
 30
0.0
 10
9.2493772203
 20
8.5837031503
 30
0.0
 10
9.2479993783
 20
8.5889942867
 30
0.0
 10
9.2474162977
 20
8.5916469384
 30
0.0
  0
SPLINE
  5
2BF
100
AcDbEntity
  8
0
100
AcDbSpline
 62
7
  6
CONTINUOUS
 70
0
 71
3
 72
11
 73
7
 74
0
 42
0.0000001
 43
0.0000001
 44
0.0000000001
 40
0.0
 40
0.0
 40
0.0
 40
0.0
 40
0.2551385889
 40
0.5064805765
 40
0.7545680092
 40
1.0
 40
1.0
 40
1.0
 40
1.0
 10
9.6407270711
 20
8.5607996572
 30
0.0
 10
9.6420986597
 20
8.5632624197
 30
0.0
 10
9.6446552574
 20
8.5682462472
 30
0.0
 10
9.6479260751
 20
8.5759224464
 30
0.0
 10
9.6505931868
 20
8.5837156552
 30
0.0
 10
9.6519685186
 20
8.5889984657
 30
0.0
 10
9.6525506806
 20
8.5916469384
 30
0.0
  0
SPLINE
  5
2C0
100
AcDbEntity
  8
0
100
AcDbSpline
 62
7
  6
CONTINUOUS
 70
0
 71
3
 72
18
 73
14
 74
0
 42
0.0000001
 43
0.0000001
 44
0.0000000001
 40
0.0
 40
0.0
 40
0.0
 40
0.0
 40
0.1419883291
 40
0.2782261942
 40
0.4087122294
 40
0.5338035909
 40
0.6542308188
 40
0.7130662931
 40
0.7711695243
 40
0.8287203431
 40
0.885910279
 40
0.9429367473
 40
1.0
 40
1.0
 40
1.0
 40
1.0
 10
9.3278082837
 20
8.4779787613
 30
0.0
 10
9.3215404402
 20
8.4810862678
 30
0.0
 10
9.3095423508
 20
8.4877755433
 30
0.0
 10
9.2930759796
 20
8.4994388431
 30
0.0
 10
9.2787125308
 20
8.5124129198
 30
0.0
 10
9.2666555074
 20
8.5265513223
 30
0.0
 10
9.258609308
 20
8.5392772777
 30
0.0
 10
9.2535380039
 20
8.5498270718
 30
0.0
 10
9.2504300868
 20
8.5578529946
 30
0.0
 10
9.2480017326
 20
8.5660253096
 30
0.0
 10
9.2462615849
 20
8.574317525
 30
0.0
 10
9.2452151042
 20
8.5827007713
 30
0.0
 10
9.2449836709
 20
8.5883249042
 30
0.0
 10
9.2449836709
 20
8.5911364603
 30
0.0
  0
SPLINE
  5
2C1
100
AcDbEntity
  8
0
100
AcDbSpline
 62
7
  6
CONTINUOUS
 70
0
 71
3
 72
15
 73
11
 74
0
 42
0.0000001
 43
0.0000001
 44
0.0000000001
 40
0.0
 40
0.0
 40
0.0
 40
0.0
 40
0.1421401171
 40
0.2785080561
 40
0.4090899427
 40
0.5342347808
 40
0.654672467
 40
0.7714893489
 40
0.8860806644
 40
1.0
 40
1.0
 40
1.0
 40
1.0
 10
9.5712804827
 20
9.5422378812
 30
0.0
 10
9.5776087974
 20
9.5391358977
 30
0.0
 10
9.5897247681
 20
9.5324509034
 30
0.0
 10
9.606360167
 20
9.520772609
 30
0.0
 10
9.6208759311
 20
9.5077643195
 30
0.0
 10
9.6330656398
 20
9.4935711671
 30
0.0
 10
9.6427502323
 20
9.4783575161
 30
0.0
 10
9.6497800684
 20
9.4623100221
 30
0.0
 10
9.6540389874
 20
9.4456488674
 30
0.0
 10
9.6549834891
 20
9.434295609
 30
0.0
 10
9.6549834891
 20
9.4286471851
 30
0.0
  0
SPLINE
  5
2C2
100
AcDbEntity
  8
0
100
AcDbSpline
 62
7
  6
CONTINUOUS
 70
0
 71
3
 72
31
 73
27
 74
0
 42
0.0000001
 43
0.0000001
 44
0.0000000001
 40
0.0
 40
0.0
 40
0.0
 40
0.0
 40
0.0558303163
 40
0.0853756112
 40
0.1164700331
 40
0.1496316627
 40
0.1855529453
 40
0.2250875966
 40
0.2689668224
 40
0.3167825578
 40
0.3656885534
 40
0.4118908067
 40
0.4537209531
 40
0.4914855165
 40
0.5260418477
 40
0.558180107
 40
0.5885092707
 40
0.6453763212
 40
0.6990617667
 40
0.7251548561
 40
0.7508919048
 40
0.8015948815
 40
0.8516361738
 40
0.9012862822
 40
0.950708618
 40
1.0
 40
1.0
 40
1.0
 40
1.0
 10
11.7301987982
 20
9.4985603384
 30
0.0
 10
11.7282106584
 20
9.4950035007
 30
0.0
 10
11.7248035508
 20
9.4897525029
 30
0.0
 10
11.7193592897
 20
9.4832135255
 30
0.0
 10
11.7145162241
 20
9.4783595056
 30
0.0
 10
11.7088434738
 20
9.4737247686
 30
0.0
 10
11.7021556806
 20
9.4694321597
 30
0.0
 10
11.6942552971
 20
9.4657012364
 30
0.0
 10
11.685054271
 20
9.4629061814
 30
0.0
 10
11.6748328781
 20
9.4615454668
 30
0.0
 10
11.6643566797
 20
9.4619617911
 30
0.0
 10
11.6545350896
 20
9.4640416827
 30
0.0
 10
11.6459252053
 20
9.4673239521
 30
0.0
 10
11.6386037346
 20
9.4713484416
 30
0.0
 10
11.6324069511
 20
9.4758181066
 30
0.0
 10
11.627135457
 20
9.4805648771
 30
0.0
 10
11.6212439803
 20
9.4869940166
 30
0.0
 10
11.6152795788
 20
9.4954241364
 30
0.0
 10
11.6106726794
 20
9.504296714
 30
0.0
 10
11.6076947556
 20
9.5114015037
 30
0.0
 10
11.6051398571
 20
9.5184379737
 30
0.0
 10
11.6025511549
 20
9.5273094702
 30
0.0
 10
11.6002059535
 20
9.5380390586
 30
0.0
 10
11.5984634445
 20
9.5487860958
 30
0.0
 10
11.5971928566
 20
9.5595421781
 30
0.0
 10
11.596593358
 20
9.5667231061
 30
0.0
 10
11.596343172
 20
9.5703119274
 30
0.0
  0
SPLINE
  5
2C3
100
AcDbEntity
  8
0
100
AcDbSpline
 62
7
  6
CONTINUOUS
 70
0
 71
3
 72
43
 73
39
 74
0
 42
0.0000001
 43
0.0000001
 44
0.0000000001
 40
0.0
 40
0.0
 40
0.0
 40
0.0
 40
0.0544225574
 40
0.1088024102
 40
0.1631975055
 40
0.190424799
 40
0.2176933058
 40
0.2450334628
 40
0.2724952569
 40
0.3001597499
 40
0.3281580245
 40
0.3567023661
 40
0.3861401091
 40
0.4170513953
 40
0.4333604939
 40
0.450465316
 40
0.4686157395
 40
0.4881427375
 40
0.5094597594
 40
0.5329796882
 40
0.5587632842
 40
0.5858509506
 40
0.6123086893
 40
0.6367103405
 40
0.6588113928
 40
0.6789571325
 40
0.6975801931
 40
0.7150439971
 40
0.7475104424
 40
0.7778785808
 40
0.8069883087
 40
0.8353324062
 40
0.863208159
 40
0.8907980437
 40
0.9182148776
 40
0.9455283659
 40
0.9727814185
 40
1.0
 40
1.0
 40
1.0
 40
1.0
 10
11.596343172
 20
9.5703119274
 30
0.0
 10
11.5958697029
 20
9.5771036587
 30
0.0
 10
11.5952706398
 20
9.5907068668
 30
0.0
 10
11.5951251179
 20
9.6111252567
 30
0.0
 10
11.5955867886
 20
9.6281375308
 30
0.0
 10
11.596402772
 20
9.6417364375
 30
0.0
 10
11.5972915249
 20
9.6519369223
 30
0.0
 10
11.5985203178
 20
9.6621323712
 30
0.0
 10
11.600176347
 20
9.6723187173
 30
0.0
 10
11.6023718939
 20
9.6824889002
 30
0.0
 10
11.6052519425
 20
9.6926309169
 30
0.0
 10
11.6090094547
 20
9.7027244968
 30
0.0
 10
11.6139084934
 20
9.7127311503
 30
0.0
 10
11.6191684903
 20
9.7207897286
 30
0.0
 10
11.624299437
 20
9.7269987313
 30
0.0
 10
11.6288207009
 20
9.7316120011
 30
0.0
 10
11.6340675272
 20
9.7360383955
 30
0.0
 10
11.6401938193
 20
9.7401813269
 30
0.0
 10
11.6473719528
 20
9.7438760931
 30
0.0
 10
11.6557250186
 20
9.7468425876
 30
0.0
 10
11.6651447536
 20
9.7486726008
 30
0.0
 10
11.6751095999
 20
9.7489789084
 30
0.0
 10
11.6848174319
 20
9.747685733
 30
0.0
 10
11.6936033772
 20
9.7450928179
 30
0.0
 10
11.7012146869
 20
9.7416303811
 30
0.0
 10
11.707715135
 20
9.7376312972
 30
0.0
 10
11.7132725863
 20
9.7332971377
 30
0.0
 10
11.7194898486
 20
9.7273741597
 30
0.0
 10
11.7258348343
 20
9.7195258222
 30
0.0
 10
11.7317320978
 20
9.7096162454
 30
0.0
 10
11.7362406907
 20
9.6995761374
 30
0.0
 10
11.739699279
 20
9.689464615
 30
0.0
 10
11.7423473438
 20
9.679312046
 30
0.0
 10
11.7443604866
 20
9.6691358357
 30
0.0
 10
11.7458721488
 20
9.6589460375
 30
0.0
 10
11.7469863064
 20
9.6487486657
 30
0.0
 10
11.7477827984
 20
9.6385471883
 30
0.0
 10
11.7481410761
 20
9.63174157
 30
0.0
 10
11.74828459
 20
9.6283395748
 30
0.0
  0
SPLINE
  5
2C4
100
AcDbEntity
  8
0
100
AcDbSpline
 62
7
  6
CONTINUOUS
 70
0
 71
3
 72
37
 73
33
 74
0
 42
0.0000001
 43
0.0000001
 44
0.0000000001
 40
0.0
 40
0.0
 40
0.0
 40
0.0
 40
0.0624710962
 40
0.1249469876
 40
0.1874190724
 40
0.2498902421
 40
0.312355442
 40
0.3436092237
 40
0.3748685716
 40
0.4061250682
 40
0.4373891663
 40
0.4530285587
 40
0.4686745266
 40
0.4843172981
 40
0.4999602458
 40
0.515605808
 40
0.5312484293
 40
0.546891911
 40
0.5625375966
 40
0.5937934025
 40
0.6250516476
 40
0.6563140224
 40
0.6875662084
 40
0.7188206454
 40
0.750068486
 40
0.7813168171
 40
0.8125605554
 40
0.8438050742
 40
0.875045179
 40
0.9062872841
 40
0.9375288536
 40
1.0
 40
1.0
 40
1.0
 40
1.0
 10
11.7301987982
 20
8.7964439425
 30
0.0
 10
11.7291026672
 20
8.7925219243
 30
0.0
 10
11.7267375681
 20
8.78472411
 30
0.0
 10
11.7225714771
 20
8.773231931
 30
0.0
 10
11.717654821
 20
8.7620350102
 30
0.0
 10
11.7118164247
 20
8.7512851283
 30
0.0
 10
11.7059826176
 20
8.7429003669
 30
0.0
 10
11.7005905399
 20
8.7367812827
 30
0.0
 10
11.6961368803
 20
8.7325791323
 30
0.0
 10
11.6912426284
 20
8.7288922583
 30
0.0
 10
11.6867812461
 20
8.7263890975
 30
0.0
 10
11.6830080896
 20
8.7248323247
 30
0.0
 10
11.680085625
 20
8.7239143516
 30
0.0
 10
11.6770911654
 20
8.7232658869
 30
0.0
 10
11.6740474293
 20
8.7229116123
 30
0.0
 10
11.6709836083
 20
8.7228584332
 30
0.0
 10
11.6679294756
 20
8.7231086321
 30
0.0
 10
11.6649149261
 20
8.7236576948
 30
0.0
 10
11.6609837636
 20
8.7247576128
 30
0.0
 10
11.656280246
 20
8.7267825888
 30
0.0
 10
11.6510780517
 20
8.7300280592
 30
0.0
 10
11.6463307601
 20
8.7339004122
 30
0.0
 10
11.6420140651
 20
8.7382408445
 30
0.0
 10
11.638092317
 20
8.7429365154
 30
0.0
 10
11.6345220752
 20
8.7479020884
 30
0.0
 10
11.6312669435
 20
8.7530774547
 30
0.0
 10
11.6282901173
 20
8.7584165529
 30
0.0
 10
11.6255646174
 20
8.7638869654
 30
0.0
 10
11.6230608481
 20
8.7694617493
 30
0.0
 10
11.6207603237
 20
8.7751229794
 30
0.0
 10
11.6179343836
 20
8.7827635475
 30
0.0
 10
11.6160627311
 20
8.7885825009
 30
0.0
 10
11.614906493
 20
8.7924872249
 30
0.0
  0
SPLINE
  5
2C5
100
AcDbEntity
  8
0
100
AcDbSpline
 62
7
  6
CONTINUOUS
 70
0
 71
3
 72
59
 73
55
 74
0
 42
0.0000001
 43
0.0000001
 44
0.0000000001
 40
0.0
 40
0.0
 40
0.0
 40
0.0
 40
0.0312468286
 40
0.046880229
 40
0.0625119317
 40
0.078138426
 40
0.0937628658
 40
0.1250097151
 40
0.1562555628
 40
0.1875029542
 40
0.2499916893
 40
0.2812362304
 40
0.3124804677
 40
0.3437247148
 40
0.3749688404
 40
0.4062129919
 40
0.4374571464
 40
0.4687014413
 40
0.4999456988
 40
0.531190122
 40
0.5624346773
 40
0.5936791909
 40
0.6249235326
 40
0.6405467273
 40
0.6561702882
 40
0.6717938251
 40
0.6874179678
 40
0.7030418945
 40
0.7186665534
 40
0.7342915833
 40
0.7499163818
 40
0.7655408652
 40
0.7811641745
 40
0.7889833074
 40
0.7968010804
 40
0.8046214745
 40
0.8124406651
 40
0.8202597363
 40
0.8280790539
 40
0.8319914597
 40
0.8359037292
 40
0.8437234877
 40
0.8515428965
 40
0.8593621688
 40
0.8671818489
 40
0.8749993871
 40
0.8828170545
 40
0.8906331446
 40
0.9062585551
 40
0.9218836467
 40
0.9375082102
 40
0.9531329883
 40
0.9687573043
 40
1.0
 40
1.0
 40
1.0
 40
1.0
 10
11.614906493
 20
8.7924872249
 30
0.0
 10
11.6129997928
 20
8.7989263291
 30
0.0
 10
11.610503453
 20
8.8086978142
 30
0.0
 10
11.6077544249
 20
8.8218490332
 30
0.0
 10
11.6059401049
 20
8.8317632932
 30
0.0
 10
11.6043422829
 20
8.84171235
 30
0.0
 10
11.6024753017
 20
8.8550145478
 30
0.0
 10
11.6005778571
 20
8.8716986528
 30
0.0
 10
11.5988388865
 20
8.8917716469
 30
0.0
 10
11.597113659
 20
8.9185785466
 30
0.0
 10
11.5960705888
 20
8.9454230284
 30
0.0
 10
11.5954887473
 20
8.9722766401
 30
0.0
 10
11.5952475581
 20
8.9924203647
 30
0.0
 10
11.5951858656
 20
9.0125652209
 30
0.0
 10
11.5952938542
 20
9.032709891
 30
0.0
 10
11.595584423
 20
9.0528527819
 30
0.0
 10
11.5960786851
 20
9.0729918396
 30
0.0
 10
11.5968158444
 20
9.0931236832
 30
0.0
 10
11.597851139
 20
9.1132427695
 30
0.0
 10
11.5992554696
 20
9.1333400018
 30
0.0
 10
11.6011225915
 20
9.1534004979
 30
0.0
 10
11.6035715745
 20
9.173399269
 30
0.0
 10
11.6062241961
 20
9.1899816101
 30
0.0
 10
11.6088153156
 20
9.2031610148
 30
0.0
 10
11.6110253511
 20
9.2129902739
 30
0.0
 10
11.6135405724
 20
9.2227465398
 30
0.0
 10
11.6164041283
 20
9.2324070957
 30
0.0
 10
11.6196731573
 20
9.2419393426
 30
0.0
 10
11.6234125114
 20
9.2512989046
 30
0.0
 10
11.6277082056
 20
9.2604192432
 30
0.0
 10
11.6326683599
 20
9.2692010773
 30
0.0
 10
11.6384273152
 20
9.2774869181
 30
0.0
 10
11.6440409786
 20
9.2837733708
 30
0.0
 10
11.649101648
 20
9.2882047355
 30
0.0
 10
11.6532046084
 20
9.2911498378
 30
0.0
 10
11.6576141125
 20
9.2936188668
 30
0.0
 10
11.6623117748
 20
9.295493721
 30
0.0
 10
11.6672361408
 20
9.2966626631
 30
0.0
 10
11.6714473886
 20
9.2969660446
 30
0.0
 10
11.6748085076
 20
9.29679646
 30
0.0
 10
11.678144552
 20
9.2963519809
 30
0.0
 10
11.6822327324
 20
9.2953059195
 30
0.0
 10
11.6868965006
 20
9.2933508147
 30
0.0
 10
11.691271083
 20
9.2908206973
 30
0.0
 10
11.6953355444
 20
9.287823707
 30
0.0
 10
11.6990989752
 20
9.2844605738
 30
0.0
 10
11.7025753028
 20
9.280804653
 30
0.0
 10
11.7068601009
 20
9.2756247998
 30
0.0
 10
11.7116176331
 20
9.2686852852
 30
0.0
 10
11.7165334202
 20
9.2598802232
 30
0.0
 10
11.720793862
 20
9.2507432478
 30
0.0
 10
11.7245029772
 20
9.2413716781
 30
0.0
 10
11.7288248677
 20
9.2286514545
 30
0.0
 10
11.7314693279
 20
9.2189202038
 30
0.0
 10
11.7330318599
 20
9.2123899562
 30
0.0
  0
SPLINE
  5
2C6
100
AcDbEntity
  8
0
100
AcDbSpline
 62
7
  6
CONTINUOUS
 70
0
 71
3
 72
39
 73
35
 74
0
 42
0.0000001
 43
0.0000001
 44
0.0000000001
 40
0.0
 40
0.0
 40
0.0
 40
0.0
 40
0.0294673465
 40
0.0604299008
 40
0.0766918198
 40
0.093625737
 40
0.1113834969
 40
0.1301519204
 40
0.1501500662
 40
0.1716168319
 40
0.1947377919
 40
0.2194887461
 40
0.2454073214
 40
0.2715260459
 40
0.2967715788
 40
0.3204877738
 40
0.3425244651
 40
0.3630168088
 40
0.4002547429
 40
0.4339256996
 40
0.4652189599
 40
0.4949112228
 40
0.5235114128
 40
0.5513593374
 40
0.5786860487
 40
0.6323479578
 40
0.6852990478
 40
0.7379161925
 40
0.7903824983
 40
0.8427856
 40
0.8951688495
 40
0.9213629186
 40
0.9475632019
 40
1.0
 40
1.0
 40
1.0
 40
1.0
 10
11.7301987982
 20
8.3077754082
 30
0.0
 10
11.7288130988
 20
8.3052963532
 30
0.0
 10
11.725736149
 20
8.3003393173
 30
0.0
 10
11.7211845612
 20
8.2944933267
 30
0.0
 10
11.7169533896
 20
8.2899788129
 30
0.0
 10
11.7133578897
 20
8.2866277646
 30
0.0
 10
11.7093394068
 20
8.2833950467
 30
0.0
 10
11.7048307496
 20
8.2803260341
 30
0.0
 10
11.6997602077
 20
8.2774831192
 30
0.0
 10
11.6940581926
 20
8.2749610535
 30
0.0
 10
11.6876879785
 20
8.2728986794
 30
0.0
 10
11.6807041803
 20
8.2714730176
 30
0.0
 10
11.6733103424
 20
8.2708607404
 30
0.0
 10
11.6658489386
 20
8.2711557128
 30
0.0
 10
11.6586884073
 20
8.2723113514
 30
0.0
 10
11.652088447
 20
8.2741699177
 30
0.0
 10
11.64615048
 20
8.2765470108
 30
0.0
 10
11.6393173377
 20
8.2800909114
 30
0.0
 10
11.6320542797
 20
8.285153019
 30
0.0
 10
11.6248964317
 20
8.2919640239
 30
0.0
 10
11.6191320122
 20
8.2990624573
 30
0.0
 10
11.6144424977
 20
8.3063292556
 30
0.0
 10
11.6106016212
 20
8.3137008681
 30
0.0
 10
11.6074450757
 20
8.3211402709
 30
0.0
 10
11.6040045226
 20
8.3310562317
 30
0.0
 10
11.6008234071
 20
8.3435914478
 30
0.0
 10
11.5982874444
 20
8.3587382062
 30
0.0
 10
11.5966692258
 20
8.3738899305
 30
0.0
 10
11.5957080946
 20
8.3890412629
 30
0.0
 10
11.5952372771
 20
8.4041918935
 30
0.0
 10
11.595178222
 20
8.4168170768
 30
0.0
 10
11.5953287027
 20
8.4269146572
 30
0.0
 10
11.5956137216
 20
8.4370143591
 30
0.0
 10
11.5960005488
 20
8.4445854283
 30
0.0
 10
11.5963540228
 20
8.4496268852
 30
0.0
  0
SPLINE
  5
2C7
100
AcDbEntity
  8
0
100
AcDbSpline
 62
7
  6
CONTINUOUS
 70
0
 71
3
 72
49
 73
45
 74
0
 42
0.0000001
 43
0.0000001
 44
0.0000000001
 40
0.0
 40
0.0
 40
0.0
 40
0.0
 40
0.0272093904
 40
0.0544843261
 40
0.0818692783
 40
0.1094371835
 40
0.1373047781
 40
0.1514085374
 40
0.1656658552
 40
0.1948119595
 40
0.225250733
 40
0.2412115467
 40
0.2578582534
 40
0.2753996327
 40
0.2941143374
 40
0.3143636104
 40
0.3365691235
 40
0.3610475367
 40
0.3875156703
 40
0.4145429887
 40
0.4402568802
 40
0.4637370297
 40
0.4850450724
 40
0.5045816963
 40
0.5227505863
 40
0.5398760683
 40
0.5562041576
 40
0.5719199853
 40
0.5871623922
 40
0.616613207
 40
0.6309758751
 40
0.6451623369
 40
0.6731452681
 40
0.700783963
 40
0.7282119771
 40
0.7555125362
 40
0.782737167
 40
0.8099175901
 40
0.8370732558
 40
0.8642160485
 40
0.8913540412
 40
0.9184933816
 40
0.9456409115
 40
1.0
 40
1.0
 40
1.0
 40
1.0
 10
11.5963540228
 20
8.4496268852
 30
0.0
 10
11.5965892266
 20
8.4529815024
 30
0.0
 10
11.5971464669
 20
8.4596932644
 30
0.0
 10
11.5983033496
 20
8.4697472783
 30
0.0
 10
11.5998611454
 20
8.4797931746
 30
0.0
 10
11.6019222117
 20
8.4898242394
 30
0.0
 10
11.604161019
 20
8.4981295994
 30
0.0
 10
11.6063448575
 20
8.5047288143
 30
0.0
 10
11.6088582835
 20
8.511378858
 30
0.0
 10
11.6126839577
 20
8.5196824302
 30
0.0
 10
11.6175570331
 20
8.5276798517
 30
0.0
 10
11.6222912107
 20
8.5338770077
 30
0.0
 10
11.6264370382
 20
8.5384941817
 30
0.0
 10
11.6312237593
 20
8.5429618004
 30
0.0
 10
11.6367830808
 20
8.5472092034
 30
0.0
 10
11.6432743693
 20
8.5511177384
 30
0.0
 10
11.6508561546
 20
8.5544854156
 30
0.0
 10
11.6595783918
 20
8.5569851894
 30
0.0
 10
11.6691794937
 20
8.558202626
 30
0.0
 10
11.6790066983
 20
8.5578584413
 30
0.0
 10
11.6882878859
 20
8.5560383612
 30
0.0
 10
11.6965265148
 20
8.5531149949
 30
0.0
 10
11.7036207795
 20
8.5494816305
 30
0.0
 10
11.7096888925
 20
8.5454082401
 30
0.0
 10
11.7148968268
 20
8.5410550183
 30
0.0
 10
11.7193922771
 20
8.5365158682
 30
0.0
 10
11.723293803
 20
8.5318484924
 30
0.0
 10
11.7266965011
 20
8.5270907367
 30
0.0
 10
11.7306187457
 20
8.5207327436
 30
0.0
 10
11.7338810194
 20
8.5141838143
 30
0.0
 10
11.7365884308
 20
8.5075447733
 30
0.0
 10
11.7389376536
 20
8.5009624111
 30
0.0
 10
11.741349782
 20
8.4926701561
 30
0.0
 10
11.74357661
 20
8.4826448884
 30
0.0
 10
11.7452658778
 20
8.4726023586
 30
0.0
 10
11.7465276288
 20
8.4625501784
 30
0.0
 10
11.747447018
 20
8.4524924609
 30
0.0
 10
11.7480917646
 20
8.4424318683
 30
0.0
 10
11.7485085276
 20
8.4323696741
 30
0.0
 10
11.7487316256
 20
8.4223067276
 30
0.0
 10
11.7487789459
 20
8.4122435414
 30
0.0
 10
11.7486543751
 20
8.4021802456
 30
0.0
 10
11.7482446934
 20
8.388758601
 30
0.0
 10
11.7476291476
 20
8.3786984477
 30
0.0
 10
11.7470228292
 20
8.3720075356
 30
0.0
  0
SPLINE
  5
2C8
100
AcDbEntity
  8
0
100
AcDbSpline
 62
9
  6
CONTINUOUS
 70
0
 71
3
 72
14
 73
10
 74
0
 42
0.0000001
 43
0.0000001
 44
0.0000000001
 40
0.0
 40
0.0
 40
0.0
 40
0.0
 40
0.2339265027
 40
0.3561039463
 40
0.4811848994
 40
0.6086869289
 40
0.7380525553
 40
0.8687194371
 40
1.0
 40
1.0
 40
1.0
 40
1.0
 10
9.289156696
 20
9.6777774995
 30
0.0
 10
9.2999316056
 20
9.6700093794
 30
0.0
 10
9.3175179131
 20
9.6597516137
 30
0.0
 10
9.3426425983
 20
9.6489735768
 30
0.0
 10
9.3628235924
 20
9.6421465976
 30
0.0
 10
9.3838544514
 20
9.6367688584
 30
0.0
 10
9.4055351926
 20
9.6328887172
 30
0.0
 10
9.4276493093
 20
9.630546561
 30
0.0
 10
9.4425289218
 20
9.6300242163
 30
0.0
 10
9.4499834891
 20
9.6300242163
 30
0.0
  0
SPLINE
  5
2C9
100
AcDbEntity
  8
0
100
AcDbSpline
 62
7
  6
CONTINUOUS
 70
0
 71
3
 72
23
 73
19
 74
0
 42
0.0000001
 43
0.0000001
 44
0.0000000001
 40
0.0
 40
0.0
 40
0.0
 40
0.0
 40
0.0570754591
 40
0.1156584379
 40
0.175861261
 40
0.2377911995
 40
0.3014337637
 40
0.3666192915
 40
0.4329878185
 40
0.4999999908
 40
0.5670121653
 40
0.6333806988
 40
0.6985662324
 40
0.762208797
 40
0.8241387338
 40
0.8843415595
 40
0.9429245403
 40
1.0
 40
1.0
 40
1.0
 40
1.0
 10
10.7127048487
 20
9.5377663455
 30
0.0
 10
10.7114665773
 20
9.539269085
 30
0.0
 10
10.7088097473
 20
9.5421961519
 30
0.0
 10
10.7043505617
 20
9.5462247719
 30
0.0
 10
10.6993641185
 20
9.5498702574
 30
0.0
 10
10.6938639338
 20
9.5530448765
 30
0.0
 10
10.6878878404
 20
9.5556565799
 30
0.0
 10
10.6815056069
 20
9.5576098604
 30
0.0
 10
10.6748242017
 20
9.5588207785
 30
0.0
 10
10.66798349
 20
9.5592314243
 30
0.0
 10
10.6611427781
 20
9.5588207786
 30
0.0
 10
10.6544613723
 20
9.5576098607
 30
0.0
 10
10.6480791384
 20
9.5556565801
 30
0.0
 10
10.6421030448
 20
9.5530448768
 30
0.0
 10
10.6366028601
 20
9.5498702576
 30
0.0
 10
10.6316164168
 20
9.546224772
 30
0.0
 10
10.627157231
 20
9.5421961519
 30
0.0
 10
10.624500401
 20
9.5392690851
 30
0.0
 10
10.6232621296
 20
9.5377663455
 30
0.0
  0
SPLINE
  5
2CA
100
AcDbEntity
  8
0
100
AcDbSpline
 62
7
  6
CONTINUOUS
 70
0
 71
3
 72
23
 73
19
 74
0
 42
0.0000001
 43
0.0000001
 44
0.0000000001
 40
0.0
 40
0.0
 40
0.0
 40
0.0
 40
0.0583774684
 40
0.1178935518
 40
0.178628519
 40
0.2406759024
 40
0.3040339941
 40
0.3685800044
 40
0.4340407145
 40
0.499999991
 40
0.5659592696
 40
0.631419986
 40
0.695966002
 40
0.7593240942
 40
0.8213714758
 40
0.8821064455
 40
0.9416225309
 40
1.0
 40
1.0
 40
1.0
 40
1.0
 10
10.7127048487
 20
9.5313905235
 30
0.0
 10
10.7114705651
 20
9.5329945327
 30
0.0
 10
10.7088239316
 20
9.5361189049
 30
0.0
 10
10.7043671314
 20
9.5404336573
 30
0.0
 10
10.6993823103
 20
9.5443391702
 30
0.0
 10
10.6938823482
 20
9.547741454
 30
0.0
 10
10.6879046202
 20
9.5505415284
 30
0.0
 10
10.681518539
 20
9.5526365195
 30
0.0
 10
10.6748312706
 20
9.5539357068
 30
0.0
 10
10.66798349
 20
9.5543763658
 30
0.0
 10
10.6611357092
 20
9.5539357068
 30
0.0
 10
10.6544484402
 20
9.5526365198
 30
0.0
 10
10.6480623586
 20
9.5505415286
 30
0.0
 10
10.6420846304
 20
9.5477414543
 30
0.0
 10
10.6365846683
 20
9.5443391704
 30
0.0
 10
10.6315998471
 20
9.5404336575
 30
0.0
 10
10.6271430467
 20
9.536118905
 30
0.0
 10
10.6244964132
 20
9.5329945327
 30
0.0
 10
10.6232621296
 20
9.5313905235
 30
0.0
  0
SPLINE
  5
2CB
100
AcDbEntity
  8
0
100
AcDbSpline
 62
7
  6
CONTINUOUS
 70
0
 71
3
 72
23
 73
19
 74
0
 42
0.0000001
 43
0.0000001
 44
0.0000000001
 40
0.0
 40
0.0
 40
0.0
 40
0.0
 40
0.0595068635
 40
0.1198397765
 40
0.1810473262
 40
0.2432065189
 40
0.3063223697
 40
0.3703099357
 40
0.4349711974
 40
0.4999999911
 40
0.565028787
 40
0.6296900549
 40
0.6936776264
 40
0.7567934777
 40
0.8189526687
 40
0.8801602209
 40
0.9404931358
 40
1.0
 40
1.0
 40
1.0
 40
1.0
 10
10.7127048487
 20
9.5208156675
 30
0.0
 10
10.7114737629
 20
9.5225084734
 30
0.0
 10
10.7088355312
 20
9.5258055722
 30
0.0
 10
10.7043810318
 20
9.5303713376
 30
0.0
 10
10.6993979805
 20
9.5345050471
 30
0.0
 10
10.6938986226
 20
9.5381073065
 30
0.0
 10
10.6879197969
 20
9.541073073
 30
0.0
 10
10.6815304552
 20
9.5432929335
 30
0.0
 10
10.6748378634
 20
9.5446700298
 30
0.0
 10
10.66798349
 20
9.5451372064
 30
0.0
 10
10.6611291164
 20
9.5446700299
 30
0.0
 10
10.654436524
 20
9.5432929338
 30
0.0
 10
10.6480471819
 20
9.5410730732
 30
0.0
 10
10.642068356
 20
9.5381073067
 30
0.0
 10
10.6365689981
 20
9.5345050473
 30
0.0
 10
10.6315859467
 20
9.5303713378
 30
0.0
 10
10.6271314471
 20
9.5258055723
 30
0.0
 10
10.6244932154
 20
9.5225084734
 30
0.0
 10
10.6232621296
 20
9.5208156675
 30
0.0
  0
SPLINE
  5
2CC
100
AcDbEntity
  8
0
100
AcDbSpline
 62
7
  6
CONTINUOUS
 70
0
 71
3
 72
23
 73
19
 74
0
 42
0.0000001
 43
0.0000001
 44
0.0000000001
 40
0.0
 40
0.0
 40
0.0
 40
0.0
 40
0.0604571897
 40
0.1214826008
 40
0.1830956248
 40
0.2453561587
 40
0.3082716656
 40
0.371786837
 40
0.4357667412
 40
0.4999999912
 40
0.5642332433
 40
0.6282131537
 40
0.6917283305
 40
0.7546438378
 40
0.8169043699
 40
0.8785173965
 40
0.9395428096
 40
1.0
 40
1.0
 40
1.0
 40
1.0
 10
10.7127048487
 20
9.5061269245
 30
0.0
 10
10.7114762821
 20
9.5078954262
 30
0.0
 10
10.7088448129
 20
9.5113395769
 30
0.0
 10
10.7043923892
 20
9.5161193275
 30
0.0
 10
10.6994110709
 20
9.520447611
 30
0.0
 10
10.6939125214
 20
9.5242204986
 30
0.0
 10
10.6879330251
 20
9.5273278123
 30
0.0
 10
10.6815410169
 20
9.5296545231
 30
0.0
 10
10.6748437718
 20
9.5310983966
 30
0.0
 10
10.66798349
 20
9.5315883258
 30
0.0
 10
10.661123208
 20
9.5310983967
 30
0.0
 10
10.6544259624
 20
9.5296545234
 30
0.0
 10
10.6480339537
 20
9.5273278126
 30
0.0
 10
10.6420544572
 20
9.5242204988
 30
0.0
 10
10.6365559077
 20
9.5204476112
 30
0.0
 10
10.6315745893
 20
9.5161193277
 30
0.0
 10
10.6271221655
 20
9.511339577
 30
0.0
 10
10.6244906962
 20
9.5078954262
 30
0.0
 10
10.6232621296
 20
9.5061269245
 30
0.0
  0
SPLINE
  5
2CD
100
AcDbEntity
  8
0
100
AcDbSpline
 62
7
  6
CONTINUOUS
 70
0
 71
3
 72
23
 73
19
 74
0
 42
0.0000001
 43
0.0000001
 44
0.0000000001
 40
0.0
 40
0.0
 40
0.0
 40
0.0
 40
0.0612258742
 40
0.1228147932
 40
0.1847609708
 40
0.2471083898
 40
0.3098643152
 40
0.3729958217
 40
0.4364187858
 40
0.4999999913
 40
0.5635811989
 40
0.627004169
 40
0.6901356809
 40
0.7528916067
 40
0.8152390239
 40
0.8771852041
 40
0.9387741251
 40
1.0
 40
1.0
 40
1.0
 40
1.0
 10
10.7127048487
 20
9.4874425663
 30
0.0
 10
10.7114782134
 20
9.4892731059
 30
0.0
 10
10.7088520153
 20
9.492837654
 30
0.0
 10
10.70440135
 20
9.497792747
 30
0.0
 10
10.6994215869
 20
9.5022804818
 30
0.0
 10
10.6939238932
 20
9.5061932666
 30
0.0
 10
10.6879440367
 20
9.5094167499
 30
0.0
 10
10.6815499366
 20
9.511831283
 30
0.0
 10
10.6748488102
 20
9.5133301272
 30
0.0
 10
10.66798349
 20
9.5138388053
 30
0.0
 10
10.6611181696
 20
9.5133301273
 30
0.0
 10
10.6544170426
 20
9.5118312833
 30
0.0
 10
10.6480229421
 20
9.5094167502
 30
0.0
 10
10.6420430854
 20
9.5061932669
 30
0.0
 10
10.6365453917
 20
9.502280482
 30
0.0
 10
10.6315656284
 20
9.4977927473
 30
0.0
 10
10.6271149631
 20
9.4928376541
 30
0.0
 10
10.6244887649
 20
9.4892731059
 30
0.0
 10
10.6232621296
 20
9.4874425663
 30
0.0
  0
SPLINE
  5
2CE
100
AcDbEntity
  8
0
100
AcDbSpline
 62
7
  6
CONTINUOUS
 70
0
 71
3
 72
21
 73
17
 74
0
 42
0.0000001
 43
0.0000001
 44
0.0000000001
 40
0.0
 40
0.0
 40
0.0
 40
0.0
 40
0.1237253045
 40
0.185946748
 40
0.2483814271
 40
0.3110351329
 40
0.3738910099
 40
0.4369035168
 40
0.4999999914
 40
0.563096468
 40
0.6261089809
 40
0.6889648633
 40
0.7516185694
 40
0.8140532468
 40
0.8762746928
 40
1.0
 40
1.0
 40
1.0
 40
1.0
 10
10.7127048487
 20
9.4649130366
 30
0.0
 10
10.7102531254
 20
9.4686719014
 30
0.0
 10
10.7060510191
 20
9.4740186973
 30
0.0
 10
10.6994299434
 20
9.4801497446
 30
0.0
 10
10.6939325449
 20
9.4841712475
 30
0.0
 10
10.6879526587
 20
9.4874843473
 30
0.0
 10
10.6815569737
 20
9.4899668954
 30
0.0
 10
10.6748528232
 20
9.4915083261
 30
0.0
 10
10.66798349
 20
9.4920315511
 30
0.0
 10
10.6611141566
 20
9.4915083262
 30
0.0
 10
10.6544100055
 20
9.4899668957
 30
0.0
 10
10.6480143201
 20
9.4874843475
 30
0.0
 10
10.6420344337
 20
9.4841712478
 30
0.0
 10
10.6365370352
 20
9.4801497449
 30
0.0
 10
10.6299159594
 20
9.4740186976
 30
0.0
 10
10.625713853
 20
9.4686719014
 30
0.0
 10
10.6232621296
 20
9.4649130366
 30
0.0
  0
SPLINE
  5
2CF
100
AcDbEntity
  8
0
100
AcDbSpline
 62
7
  6
CONTINUOUS
 70
0
 71
3
 72
21
 73
17
 74
0
 42
0.0000001
 43
0.0000001
 44
0.0000000001
 40
0.0
 40
0.0
 40
0.0
 40
0.0
 40
0.1244306993
 40
0.1868315167
 40
0.2493155532
 40
0.3118869105
 40
0.3745393183
 40
0.4372537989
 40
0.5000000018
 40
0.5627462047
 40
0.6254606844
 40
0.6881130901
 40
0.7506844467
 40
0.8131684833
 40
0.8755693008
 40
1.0
 40
1.0
 40
1.0
 40
1.0
 10
10.7127048487
 20
9.4387197402
 30
0.0
 10
10.7102571045
 20
9.4425422196
 30
0.0
 10
10.7060614401
 20
9.4479837755
 30
0.0
 10
10.6994354268
 20
9.4542348858
 30
0.0
 10
10.6939386314
 20
9.4583317359
 30
0.0
 10
10.687958695
 20
9.4617075012
 30
0.0
 10
10.6815619658
 20
9.4642375217
 30
0.0
 10
10.6748556823
 20
9.4658087387
 30
0.0
 10
10.6679834889
 20
9.4663421395
 30
0.0
 10
10.6611112956
 20
9.4658087387
 30
0.0
 10
10.6544050122
 20
9.4642375216
 30
0.0
 10
10.6480082832
 20
9.4617075012
 30
0.0
 10
10.6420283468
 20
9.4583317359
 30
0.0
 10
10.6365315514
 20
9.4542348858
 30
0.0
 10
10.6299055381
 20
9.4479837755
 30
0.0
 10
10.6257098738
 20
9.4425422196
 30
0.0
 10
10.6232621296
 20
9.4387197402
 30
0.0
  0
SPLINE
  5
2D0
100
AcDbEntity
  8
0
100
AcDbSpline
 62
7
  6
CONTINUOUS
 70
0
 71
3
 72
21
 73
17
 74
0
 42
0.0000001
 43
0.0000001
 44
0.0000000001
 40
0.0
 40
0.0
 40
0.0
 40
0.0
 40
0.1248225237
 40
0.1873234287
 40
0.2498354005
 40
0.3123613553
 40
0.3749006952
 40
0.4374491347
 40
0.4999999915
 40
0.5625508503
 40
0.6250992956
 40
0.6876386409
 40
0.750164596
 40
0.812676566
 40
0.8751774735
 40
1.0
 40
1.0
 40
1.0
 40
1.0
 10
10.7127048487
 20
9.4090735817
 30
0.0
 10
10.7102592721
 20
9.4129315787
 30
0.0
 10
10.7060671653
 20
9.4184259957
 30
0.0
 10
10.6994384598
 20
9.4247441904
 30
0.0
 10
10.6939420195
 20
9.428883115
 30
0.0
 10
10.6879620772
 20
9.4322938861
 30
0.0
 10
10.6815647791
 20
9.4348504395
 30
0.0
 10
10.6748573008
 20
9.4364383171
 30
0.0
 10
10.66798349
 20
9.4369774118
 30
0.0
 10
10.661109679
 20
9.4364383172
 30
0.0
 10
10.6544022001
 20
9.4348504399
 30
0.0
 10
10.6480049016
 20
9.4322938863
 30
0.0
 10
10.6420249591
 20
9.4288831153
 30
0.0
 10
10.6365285188
 20
9.4247441906
 30
0.0
 10
10.6298998131
 20
9.4184259959
 30
0.0
 10
10.6257077062
 20
9.4129315787
 30
0.0
 10
10.6232621296
 20
9.4090735817
 30
0.0
  0
SPLINE
  5
2D1
100
AcDbEntity
  8
0
100
AcDbSpline
 62
7
  6
CONTINUOUS
 70
0
 71
3
 72
21
 73
17
 74
0
 42
0.0000001
 43
0.0000001
 44
0.0000000001
 40
0.0
 40
0.0
 40
0.0
 40
0.0
 40
0.1249012822
 40
0.1874223433
 40
0.2499399727
 40
0.3124568294
 40
0.3749734393
 40
0.4374884652
 40
0.4999999915
 40
0.5625115198
 40
0.6250265516
 40
0.6875431668
 40
0.7500600238
 40
0.8125776515
 40
0.8750987151
 40
1.0
 40
1.0
 40
1.0
 40
1.0
 10
10.7127048487
 20
9.3762132677
 30
0.0
 10
10.7102597043
 20
9.3800784203
 30
0.0
 10
10.7060683108
 20
9.3855834831
 30
0.0
 10
10.6994390685
 20
9.3919151969
 30
0.0
 10
10.6939427016
 20
9.3960625986
 30
0.0
 10
10.68796276
 20
9.3994804235
 30
0.0
 10
10.6815653484
 20
9.402042325
 30
0.0
 10
10.6748576288
 20
9.4036335617
 30
0.0
 10
10.66798349
 20
9.4041738048
 30
0.0
 10
10.661109351
 20
9.4036335618
 30
0.0
 10
10.6544016308
 20
9.4020423254
 30
0.0
 10
10.6480042188
 20
9.3994804237
 30
0.0
 10
10.6420242771
 20
9.3960625989
 30
0.0
 10
10.6365279101
 20
9.3919151972
 30
0.0
 10
10.6298986677
 20
9.3855834833
 30
0.0
 10
10.625707274
 20
9.3800784204
 30
0.0
 10
10.6232621296
 20
9.3762132677
 30
0.0
  0
SPLINE
  5
2D2
100
AcDbEntity
  8
0
100
AcDbSpline
 62
7
  6
CONTINUOUS
 70
0
 71
3
 72
15
 73
11
 74
0
 42
0.0000001
 43
0.0000001
 44
0.0000000001
 40
0.0
 40
0.0
 40
0.0
 40
0.0
 40
0.0936932308
 40
0.2106997569
 40
0.3487492981
 40
0.4999999902
 40
0.6512506908
 40
0.7893002397
 40
0.9063067668
 40
1.0
 40
1.0
 40
1.0
 40
1.0
 10
10.6232621296
 20
9.3762132677
 30
0.0
 10
10.6260541737
 20
9.3761148837
 30
0.0
 10
10.6323346183
 20
9.3759397966
 30
0.0
 10
10.642732106
 20
9.3757493783
 30
0.0
 10
10.6548469622
 20
9.3756231932
 30
0.0
 10
10.6679834885
 20
9.3755787348
 30
0.0
 10
10.681120015
 20
9.3756231932
 30
0.0
 10
10.6932348717
 20
9.3757493783
 30
0.0
 10
10.7036323598
 20
9.3759397966
 30
0.0
 10
10.7099128044
 20
9.3761148837
 30
0.0
 10
10.7127048487
 20
9.3762132677
 30
0.0
  0
SPLINE
  5
2D3
100
AcDbEntity
  8
0
100
AcDbSpline
 62
7
  6
CONTINUOUS
 70
0
 71
3
 72
21
 73
17
 74
0
 42
0.0000001
 43
0.0000001
 44
0.0000000001
 40
0.0
 40
0.0
 40
0.0
 40
0.0
 40
0.1246671038
 40
0.187128271
 40
0.249629121
 40
0.3121730584
 40
0.3747572499
 40
0.4373715863
 40
0.4999999915
 40
0.5626283987
 40
0.625242741
 40
0.6878269378
 40
0.7503708755
 40
0.8128717237
 40
0.8753328935
 40
1.0
 40
1.0
 40
1.0
 40
1.0
 10
10.7127048487
 20
9.340403385
 30
0.0
 10
10.7102584159
 20
9.3442472776
 30
0.0
 10
10.7060648996
 20
9.3497207068
 30
0.0
 10
10.6994372576
 20
9.3560122575
 30
0.0
 10
10.6939406744
 20
9.3601344733
 30
0.0
 10
10.6879607324
 20
9.3635313419
 30
0.0
 10
10.6815636591
 20
9.366077356
 30
0.0
 10
10.6748566561
 20
9.367658615
 30
0.0
 10
10.66798349
 20
9.3681954473
 30
0.0
 10
10.6611103237
 20
9.3676586151
 30
0.0
 10
10.6544033201
 20
9.3660773564
 30
0.0
 10
10.6480062464
 20
9.3635313421
 30
0.0
 10
10.6420263042
 20
9.3601344736
 30
0.0
 10
10.636529721
 20
9.3560122577
 30
0.0
 10
10.6299020788
 20
9.349720707
 30
0.0
 10
10.6257085624
 20
9.3442472777
 30
0.0
 10
10.6232621296
 20
9.340403385
 30
0.0
  0
SPLINE
  5
2D4
100
AcDbEntity
  8
0
100
AcDbSpline
 62
7
  6
CONTINUOUS
 70
0
 71
3
 72
19
 73
15
 74
0
 42
0.0000001
 43
0.0000001
 44
0.0000000001
 40
0.0
 40
0.0
 40
0.0
 40
0.0
 40
0.0443190867
 40
0.0943279197
 40
0.1500701156
 40
0.2114521126
 40
0.3492319759
 40
0.4999999902
 40
0.650768013
 40
0.788547884
 40
0.8499298794
 40
0.9056720779
 40
0.9556809128
 40
1.0
 40
1.0
 40
1.0
 40
1.0
 10
10.6232621296
 20
9.340403385
 30
0.0
 10
10.6245678273
 20
9.3401725425
 30
0.0
 10
10.6273554865
 20
9.3397295248
 30
0.0
 10
10.6318080439
 20
9.3391486783
 30
0.0
 10
10.6367811579
 20
9.3386233216
 30
0.0
 10
10.6443815478
 20
9.3379894899
 30
0.0
 10
10.6548393422
 20
9.3374431415
 30
0.0
 10
10.6679834885
 20
9.3372196028
 30
0.0
 10
10.681127635
 20
9.3374431415
 30
0.0
 10
10.6915854299
 20
9.3379894899
 30
0.0
 10
10.69918582
 20
9.3386233215
 30
0.0
 10
10.7041589341
 20
9.3391486783
 30
0.0
 10
10.7086114917
 20
9.3397295248
 30
0.0
 10
10.7113991509
 20
9.3401725425
 30
0.0
 10
10.7127048487
 20
9.340403385
 30
0.0
  0
SPLINE
  5
2D5
100
AcDbEntity
  8
0
100
AcDbSpline
 62
7
  6
CONTINUOUS
 70
0
 71
3
 72
21
 73
17
 74
0
 42
0.0000001
 43
0.0000001
 44
0.0000000001
 40
0.0
 40
0.0
 40
0.0
 40
0.0
 40
0.1241196356
 40
0.1864412262
 40
0.2489033557
 40
0.3115109352
 40
0.3742530796
 40
0.4370991118
 40
0.4999999914
 40
0.5629008731
 40
0.6257469112
 40
0.6884890609
 40
0.7510966408
 40
0.8135587686
 40
0.8758803617
 40
1.0
 40
1.0
 40
1.0
 40
1.0
 10
10.7127048487
 20
9.3019322697
 30
0.0
 10
10.710255362
 20
9.3057266457
 30
0.0
 10
10.7060568625
 20
9.311126352
 30
0.0
 10
10.6994330119
 20
9.3173244068
 30
0.0
 10
10.6939359441
 20
9.3213879681
 30
0.0
 10
10.6879560234
 20
9.3247360442
 30
0.0
 10
10.6815597519
 20
9.3272450837
 30
0.0
 10
10.6748544129
 20
9.3288031333
 30
0.0
 10
10.66798349
 20
9.3293320348
 30
0.0
 10
10.6611125669
 20
9.3288031334
 30
0.0
 10
10.6544072273
 20
9.3272450841
 30
0.0
 10
10.6480109554
 20
9.3247360445
 30
0.0
 10
10.6420310345
 20
9.3213879685
 30
0.0
 10
10.6365339668
 20
9.317324407
 30
0.0
 10
10.6299101159
 20
9.3111263522
 30
0.0
 10
10.6257116163
 20
9.3057266458
 30
0.0
 10
10.6232621296
 20
9.3019322697
 30
0.0
  0
SPLINE
  5
2D6
100
AcDbEntity
  8
0
100
AcDbSpline
 62
7
  6
CONTINUOUS
 70
0
 71
3
 72
21
 73
17
 74
0
 42
0.0000001
 43
0.0000001
 44
0.0000000001
 40
0.0
 40
0.0
 40
0.0
 40
0.0
 40
0.0451875315
 40
0.0957430188
 40
0.1517446
 40
0.2131327097
 40
0.2795593962
 40
0.350324061
 40
0.4999999903
 40
0.6496759279
 40
0.7204405994
 40
0.7868672869
 40
0.848255395
 40
0.9042569787
 40
0.9548124679
 40
1.0
 40
1.0
 40
1.0
 40
1.0
 10
10.6232621296
 20
9.3019322697
 30
0.0
 10
10.6245607236
 20
9.3015207039
 30
0.0
 10
10.6273378805
 20
9.3007287619
 30
0.0
 10
10.6317935059
 20
9.2996860434
 30
0.0
 10
10.6367693944
 20
9.2987432857
 30
0.0
 10
10.6422510598
 20
9.2979230205
 30
0.0
 10
10.6482007024
 20
9.2972486605
 30
0.0
 10
10.6568230714
 20
9.2965645903
 30
0.0
 10
10.6679834885
 20
9.2962251559
 30
0.0
 10
10.6791439059
 20
9.2965645903
 30
0.0
 10
10.6877662753
 20
9.2972486604
 30
0.0
 10
10.6937159181
 20
9.2979230204
 30
0.0
 10
10.6991975836
 20
9.2987432856
 30
0.0
 10
10.7041734721
 20
9.2996860433
 30
0.0
 10
10.7086290977
 20
9.3007287619
 30
0.0
 10
10.7114062546
 20
9.3015207039
 30
0.0
 10
10.7127048487
 20
9.3019322697
 30
0.0
  0
SPLINE
  5
2D7
100
AcDbEntity
  8
0
100
AcDbSpline
 62
7
  6
CONTINUOUS
 70
0
 71
3
 72
21
 73
17
 74
0
 42
0.0000001
 43
0.0000001
 44
0.0000000001
 40
0.0
 40
0.0
 40
0.0
 40
0.0
 40
0.1232583242
 40
0.1853615909
 40
0.2477642375
 40
0.3104728739
 40
0.3734633936
 40
0.4366726007
 40
0.4999999914
 40
0.5633273841
 40
0.6265365972
 40
0.6895271222
 40
0.752235759
 40
0.8146384039
 40
0.8767416731
 40
1.0
 40
1.0
 40
1.0
 40
1.0
 10
10.7127048487
 20
9.2611096857
 30
0.0
 10
10.7102504358
 20
9.2648266553
 30
0.0
 10
10.7060440397
 20
9.2701109876
 30
0.0
 10
10.6994262985
 20
9.2761630331
 30
0.0
 10
10.6939285281
 20
9.2801349253
 30
0.0
 10
10.6879487032
 20
9.2834067799
 30
0.0
 10
10.6815537223
 20
9.285858103
 30
0.0
 10
10.6748509683
 20
9.2873799556
 30
0.0
 10
10.66798349
 20
9.2878964958
 30
0.0
 10
10.6611160115
 20
9.2873799557
 30
0.0
 10
10.654413257
 20
9.2858581034
 30
0.0
 10
10.6480182756
 20
9.2834067801
 30
0.0
 10
10.6420384505
 20
9.2801349256
 30
0.0
 10
10.6365406801
 20
9.2761630334
 30
0.0
 10
10.6299229388
 20
9.2701109879
 30
0.0
 10
10.6257165425
 20
9.2648266554
 30
0.0
 10
10.6232621296
 20
9.2611096857
 30
0.0
  0
SPLINE
  5
2D8
100
AcDbEntity
  8
0
100
AcDbSpline
 62
7
  6
CONTINUOUS
 70
0
 71
3
 72
23
 73
19
 74
0
 42
0.0000001
 43
0.0000001
 44
0.0000000001
 40
0.0
 40
0.0
 40
0.0
 40
0.0
 40
0.046443367
 40
0.0977988872
 40
0.1541850941
 40
0.2155863462
 40
0.2817056161
 40
0.3519035418
 40
0.4251385054
 40
0.4999999904
 40
0.5748614774
 40
0.6480964473
 40
0.7182943795
 40
0.7844136505
 40
0.8458149009
 40
0.9022011104
 40
0.9535566324
 40
1.0
 40
1.0
 40
1.0
 40
1.0
 10
10.6232621296
 20
9.2611096857
 30
0.0
 10
10.6245513505
 20
9.2605237148
 30
0.0
 10
10.6273135807
 20
9.2593926131
 30
0.0
 10
10.6317727724
 20
9.2578945457
 30
0.0
 10
10.6367521768
 20
9.2565404402
 30
0.0
 10
10.6422372684
 20
9.255362501
 30
0.0
 10
10.6481902523
 20
9.2543943426
 30
0.0
 10
10.6545411436
 20
9.2536709549
 30
0.0
 10
10.6611845256
 20
9.2532228155
 30
0.0
 10
10.6679834883
 20
9.2530709003
 30
0.0
 10
10.6747824512
 20
9.2532228155
 30
0.0
 10
10.6814258337
 20
9.2536709548
 30
0.0
 10
10.6877767254
 20
9.2543943426
 30
0.0
 10
10.6937297095
 20
9.2553625009
 30
0.0
 10
10.6992148012
 20
9.2565404401
 30
0.0
 10
10.7041942056
 20
9.2578945456
 30
0.0
 10
10.7086533974
 20
9.2593926131
 30
0.0
 10
10.7114156278
 20
9.2605237148
 30
0.0
 10
10.7127048487
 20
9.2611096857
 30
0.0
  0
SPLINE
  5
2D9
100
AcDbEntity
  8
0
100
AcDbSpline
 62
7
  6
CONTINUOUS
 70
0
 71
3
 72
23
 73
19
 74
0
 42
0.0000001
 43
0.0000001
 44
0.0000000001
 40
0.0
 40
0.0
 40
0.0
 40
0.0
 40
0.0608669102
 40
0.122192309
 40
0.183982335
 40
0.2462886298
 40
0.3091187951
 40
0.3724296354
 40
0.4361133306
 40
0.4999999913
 40
0.5638866541
 40
0.6275703553
 40
0.690881201
 40
0.7537113667
 40
0.8160176598
 40
0.8778076883
 40
0.9391330891
 40
1.0
 40
1.0
 40
1.0
 40
1.0
 10
10.7127048487
 20
9.2182643307
 30
0.0
 10
10.7114773229
 20
9.2200658012
 30
0.0
 10
10.708848685
 20
9.2235739478
 30
0.0
 10
10.7043971905
 20
9.2284468861
 30
0.0
 10
10.6994166846
 20
9.2328599106
 30
0.0
 10
10.6939185688
 20
9.23670714
 30
0.0
 10
10.6879388595
 20
9.2398761739
 30
0.0
 10
10.6815457282
 20
9.2422495292
 30
0.0
 10
10.6748464275
 20
9.243722589
 30
0.0
 10
10.66798349
 20
9.2442224705
 30
0.0
 10
10.6611205523
 20
9.2437225891
 30
0.0
 10
10.654421251
 20
9.2422495296
 30
0.0
 10
10.6480281194
 20
9.2398761741
 30
0.0
 10
10.6420484099
 20
9.2367071403
 30
0.0
 10
10.636550294
 20
9.2328599109
 30
0.0
 10
10.631569788
 20
9.2284468863
 30
0.0
 10
10.6271182933
 20
9.2235739479
 30
0.0
 10
10.6244896554
 20
9.2200658012
 30
0.0
 10
10.6232621296
 20
9.2182643307
 30
0.0
  0
SPLINE
  5
2DA
100
AcDbEntity
  8
0
100
AcDbSpline
 62
7
  6
CONTINUOUS
 70
0
 71
3
 72
23
 73
19
 74
0
 42
0.0000001
 43
0.0000001
 44
0.0000000001
 40
0.0
 40
0.0
 40
0.0
 40
0.0
 40
0.0479780312
 40
0.1003288323
 40
0.1572059715
 40
0.2186388171
 40
0.2843882379
 40
0.3538887793
 40
0.4261923295
 40
0.4999999906
 40
0.5738076535
 40
0.6461112099
 40
0.7156117578
 40
0.7813611796
 40
0.8427940234
 40
0.8996711652
 40
0.9520219682
 40
1.0
 40
1.0
 40
1.0
 40
1.0
 10
10.6232621296
 20
9.2182643307
 30
0.0
 10
10.6245411911
 20
9.2175116805
 30
0.0
 10
10.6272857966
 20
9.2160545364
 30
0.0
 10
10.6317480415
 20
9.2141114398
 30
0.0
 10
10.6367309321
 20
9.2123553273
 30
0.0
 10
10.6422198124
 20
9.2108279002
 30
0.0
 10
10.6481768145
 20
9.2095726277
 30
0.0
 10
10.6545319985
 20
9.208634769
 30
0.0
 10
10.6611798934
 20
9.2080537854
 30
0.0
 10
10.6679834883
 20
9.2078568406
 30
0.0
 10
10.6747870834
 20
9.2080537854
 30
0.0
 10
10.6814349788
 20
9.2086347689
 30
0.0
 10
10.6877901632
 20
9.2095726276
 30
0.0
 10
10.6937471655
 20
9.2108279
 30
0.0
 10
10.6992360459
 20
9.2123553273
 30
0.0
 10
10.7042189365
 20
9.2141114397
 30
0.0
 10
10.7086811816
 20
9.2160545363
 30
0.0
 10
10.7114257872
 20
9.2175116805
 30
0.0
 10
10.7127048487
 20
9.2182643307
 30
0.0
  0
SPLINE
  5
2DB
100
AcDbEntity
  8
0
100
AcDbSpline
 62
7
  6
CONTINUOUS
 70
0
 71
3
 72
23
 73
19
 74
0
 42
0.0000001
 43
0.0000001
 44
0.0000000001
 40
0.0
 40
0.0
 40
0.0
 40
0.0
 40
0.0600078717
 40
0.120705285
 40
0.1821257107
 40
0.2443374907
 40
0.3073473057
 40
0.3710861039
 40
0.4353891597
 40
0.5000000019
 40
0.5646108441
 40
0.6289138989
 40
0.692652695
 40
0.7556625091
 40
0.8178742893
 40
0.879294715
 40
0.9399921284
 40
1.0
 40
1.0
 40
1.0
 40
1.0
 10
10.7127048487
 20
9.1737411895
 30
0.0
 10
10.7114751097
 20
9.1754737752
 30
0.0
 10
10.7088404776
 20
9.1788481739
 30
0.0
 10
10.7043870582
 20
9.1835263962
 30
0.0
 10
10.699404894
 20
9.1877623578
 30
0.0
 10
10.6939059286
 20
9.1914542732
 30
0.0
 10
10.6879267194
 20
9.1944943955
 30
0.0
 10
10.6815359616
 20
9.196770365
 30
0.0
 10
10.6748409355
 20
9.1981825131
 30
0.0
 10
10.6679834889
 20
9.1986616301
 30
0.0
 10
10.6611260424
 20
9.1981825131
 30
0.0
 10
10.6544310164
 20
9.1967703649
 30
0.0
 10
10.6480402588
 20
9.1944943954
 30
0.0
 10
10.6420610497
 20
9.1914542732
 30
0.0
 10
10.6365620843
 20
9.1877623578
 30
0.0
 10
10.6315799201
 20
9.1835263962
 30
0.0
 10
10.6271265006
 20
9.1788481739
 30
0.0
 10
10.6244918686
 20
9.1754737752
 30
0.0
 10
10.6232621296
 20
9.1737411895
 30
0.0
  0
SPLINE
  5
2DC
100
AcDbEntity
  8
0
100
AcDbSpline
 62
7
  6
CONTINUOUS
 70
0
 71
3
 72
21
 73
17
 74
0
 42
0.0000001
 43
0.0000001
 44
0.0000000001
 40
0.0
 40
0.0
 40
0.0
 40
0.0
 40
0.103070416
 40
0.1605256607
 40
0.2220221457
 40
0.2873787923
 40
0.3561102924
 40
0.4273741456
 40
0.500000005
 40
0.5726258633
 40
0.6438897128
 40
0.7126212081
 40
0.7779778522
 40
0.8394743366
 40
0.8969295828
 40
1.0
 40
1.0
 40
1.0
 40
1.0
 10
10.6232621296
 20
9.1737411895
 30
0.0
 10
10.6258950823
 20
9.171851716
 30
0.0
 10
10.6302906076
 20
9.1693046817
 30
0.0
 10
10.6367065727
 20
9.1665442247
 30
0.0
 10
10.6421999096
 20
9.1646779479
 30
0.0
 10
10.6481609462
 20
9.16314469
 30
0.0
 10
10.654521084
 20
9.1619990182
 30
0.0
 10
10.6611743036
 20
9.161289331
 30
0.0
 10
10.6679834896
 20
9.161048751
 30
0.0
 10
10.6747926755
 20
9.1612893311
 30
0.0
 10
10.6814458947
 20
9.1619990183
 30
0.0
 10
10.6878060322
 20
9.16314469
 30
0.0
 10
10.6937670685
 20
9.1646779479
 30
0.0
 10
10.6992604054
 20
9.1665442247
 30
0.0
 10
10.7056763706
 20
9.1693046817
 30
0.0
 10
10.7100718959
 20
9.171851716
 30
0.0
 10
10.7127048487
 20
9.1737411895
 30
0.0
  0
SPLINE
  5
2DD
100
AcDbEntity
  8
0
100
AcDbSpline
 62
7
  6
CONTINUOUS
 70
0
 71
3
 72
23
 73
19
 74
0
 42
0.0000001
 43
0.0000001
 44
0.0000000001
 40
0.0
 40
0.0
 40
0.0
 40
0.0
 40
0.0589681034
 40
0.118910515
 40
0.1798913612
 40
0.2419960559
 40
0.3052269192
 40
0.3694812966
 40
0.4345253147
 40
0.499999991
 40
0.5654746695
 40
0.6305186939
 40
0.6947730769
 40
0.7580039406
 40
0.8201086336
 40
0.8810894823
 40
0.9410318959
 40
1.0
 40
1.0
 40
1.0
 40
1.0
 10
10.7127048487
 20
9.1278987562
 30
0.0
 10
10.7114722662
 20
9.1295490657
 30
0.0
 10
10.7088300769
 20
9.132763532
 30
0.0
 10
10.7043744555
 20
9.1372091612
 30
0.0
 10
10.6993905195
 20
9.1412336467
 30
0.0
 10
10.6938908253
 20
9.1447401702
 30
0.0
 10
10.6879124841
 20
9.1476265864
 30
0.0
 10
10.681524687
 20
9.1497866197
 30
0.0
 10
10.6748346624
 20
9.1511263719
 30
0.0
 10
10.66798349
 20
9.1515808344
 30
0.0
 10
10.6611323174
 20
9.151126372
 30
0.0
 10
10.6544422922
 20
9.14978662
 30
0.0
 10
10.6480544947
 20
9.1476265866
 30
0.0
 10
10.6420761533
 20
9.1447401704
 30
0.0
 10
10.6365764591
 20
9.1412336469
 30
0.0
 10
10.631592523
 20
9.1372091614
 30
0.0
 10
10.6271369015
 20
9.1327635321
 30
0.0
 10
10.6244947121
 20
9.1295490657
 30
0.0
 10
10.6232621296
 20
9.1278987562
 30
0.0
  0
SPLINE
  5
2DE
100
AcDbEntity
  8
0
100
AcDbSpline
 62
7
  6
CONTINUOUS
 70
0
 71
3
 72
15
 73
11
 74
0
 42
0.0000001
 43
0.0000001
 44
0.0000000001
 40
0.0
 40
0.0
 40
0.0
 40
0.0
 40
0.1060752035
 40
0.2256870956
 40
0.3585176562
 40
0.4999999909
 40
0.6414823333
 40
0.7743129011
 40
0.893924794
 40
1.0
 40
1.0
 40
1.0
 40
1.0
 10
10.6232621296
 20
9.1278987562
 30
0.0
 10
10.6258588465
 20
9.1257148316
 30
0.0
 10
10.6318618699
 20
9.121617603
 30
0.0
 10
10.642391478
 20
9.1169357039
 30
0.0
 10
10.654667666
 20
9.1138370643
 30
0.0
 10
10.6679834885
 20
9.1127474551
 30
0.0
 10
10.6812993112
 20
9.1138370642
 30
0.0
 10
10.6935754998
 20
9.1169357036
 30
0.0
 10
10.7041051082
 20
9.1216176029
 30
0.0
 10
10.7101081317
 20
9.1257148315
 30
0.0
 10
10.7127048487
 20
9.1278987562
 30
0.0
  0
SPLINE
  5
2DF
100
AcDbEntity
  8
0
100
AcDbSpline
 62
7
  6
CONTINUOUS
 70
0
 71
3
 72
23
 73
19
 74
0
 42
0.0000001
 43
0.0000001
 44
0.0000000001
 40
0.0
 40
0.0
 40
0.0
 40
0.0
 40
0.0577518591
 40
0.1168184255
 40
0.1772959972
 40
0.2392854301
 40
0.3027795394
 40
0.3676334259
 40
0.4335321807
 40
0.4999999909
 40
0.5664678033
 40
0.6323665645
 40
0.6972204567
 40
0.7607145664
 40
0.8227039977
 40
0.8831815718
 40
0.9422481402
 40
1.0
 40
1.0
 40
1.0
 40
1.0
 10
10.7127048487
 20
9.0811061475
 30
0.0
 10
10.7114686912
 20
9.0826613842
 30
0.0
 10
10.7088172278
 20
9.0856907753
 30
0.0
 10
10.7043592426
 20
9.0898676943
 30
0.0
 10
10.6993735843
 20
9.0936479338
 30
0.0
 10
10.6938734525
 20
9.0969405067
 30
0.0
 10
10.6878964631
 20
9.0996497708
 30
0.0
 10
10.681512221
 20
9.1016764143
 30
0.0
 10
10.674827806
 20
9.1029330109
 30
0.0
 10
10.66798349
 20
9.1033591846
 30
0.0
 10
10.6611391738
 20
9.1029330109
 30
0.0
 10
10.6544547583
 20
9.1016764146
 30
0.0
 10
10.6480705158
 20
9.099649771
 30
0.0
 10
10.6420935261
 20
9.0969405069
 30
0.0
 10
10.6365933943
 20
9.093647934
 30
0.0
 10
10.6316077359
 20
9.0898676945
 30
0.0
 10
10.6271497505
 20
9.0856907754
 30
0.0
 10
10.624498287
 20
9.0826613842
 30
0.0
 10
10.6232621296
 20
9.0811061475
 30
0.0
  0
SPLINE
  5
2E0
100
AcDbEntity
  8
0
100
AcDbSpline
 62
7
  6
CONTINUOUS
 70
0
 71
3
 72
15
 73
11
 74
0
 42
0.0000001
 43
0.0000001
 44
0.0000000001
 40
0.0
 40
0.0
 40
0.0
 40
0.0
 40
0.1090140161
 40
0.2293526273
 40
0.3609502052
 40
0.4999999911
 40
0.6390497844
 40
0.7706473693
 40
0.8909859814
 40
1.0
 40
1.0
 40
1.0
 40
1.0
 10
10.6232621296
 20
9.0811061475
 30
0.0
 10
10.6258272043
 20
9.0786496555
 30
0.0
 10
10.6317596982
 20
9.0740174825
 30
0.0
 10
10.6423025529
 20
9.0686557677
 30
0.0
 10
10.6546153071
 20
9.0651020615
 30
0.0
 10
10.6679834885
 20
9.0638513208
 30
0.0
 10
10.6813516702
 20
9.0651020613
 30
0.0
 10
10.6936644249
 20
9.0686557675
 30
0.0
 10
10.7042072799
 20
9.0740174824
 30
0.0
 10
10.7101397739
 20
9.0786496554
 30
0.0
 10
10.7127048487
 20
9.0811061475
 30
0.0
  0
SPLINE
  5
2E1
100
AcDbEntity
  8
0
100
AcDbSpline
 62
7
  6
CONTINUOUS
 70
0
 71
3
 72
23
 73
19
 74
0
 42
0.0000001
 43
0.0000001
 44
0.0000000001
 40
0.0
 40
0.0
 40
0.0
 40
0.0
 40
0.0563683241
 40
0.1144484872
 40
0.1743680401
 40
0.2362392591
 40
0.3000385052
 40
0.3655693283
 40
0.4324247226
 40
0.4999999907
 40
0.5675752611
 40
0.6344306619
 40
0.6999614909
 40
0.7637607374
 40
0.8256319547
 40
0.8855515102
 40
0.9436316752
 40
1.0
 40
1.0
 40
1.0
 40
1.0
 10
10.7127048487
 20
9.033740131
 30
0.0
 10
10.711464264
 20
9.0351881533
 30
0.0
 10
10.7088016597
 20
9.0380084669
 30
0.0
 10
10.7043413182
 20
9.0418826145
 30
0.0
 10
10.6993541925
 20
9.0453877779
 30
0.0
 10
10.6938540961
 20
9.0484396381
 30
0.0
 10
10.6878790414
 20
9.0509498841
 30
0.0
 10
10.6814989248
 20
9.0528269393
 30
0.0
 10
10.6748205835
 20
9.0539904341
 30
0.0
 10
10.66798349
 20
9.0543849665
 30
0.0
 10
10.6611463963
 20
9.0539904342
 30
0.0
 10
10.6544680545
 20
9.0528269396
 30
0.0
 10
10.6480879374
 20
9.0509498843
 30
0.0
 10
10.6421128825
 20
9.0484396384
 30
0.0
 10
10.6366127861
 20
9.0453877781
 30
0.0
 10
10.6316256603
 20
9.0418826147
 30
0.0
 10
10.6271653186
 20
9.038008467
 30
0.0
 10
10.6245027143
 20
9.0351881533
 30
0.0
 10
10.6232621296
 20
9.033740131
 30
0.0
  0
SPLINE
  5
2E2
100
AcDbEntity
  8
0
100
AcDbSpline
 62
7
  6
CONTINUOUS
 70
0
 71
3
 72
21
 73
17
 74
0
 42
0.0000001
 43
0.0000001
 44
0.0000000001
 40
0.0
 40
0.0
 40
0.0
 40
0.0
 40
0.0548502969
 40
0.1118678499
 40
0.1712075673
 40
0.2329865019
 40
0.2971558741
 40
0.3634579348
 40
0.4999999912
 40
0.636542055
 40
0.7028441217
 40
0.7670134947
 40
0.8287924276
 40
0.8881321475
 40
0.9451497024
 40
1.0
 40
1.0
 40
1.0
 40
1.0
 10
10.6232621296
 20
9.033740131
 30
0.0
 10
10.6245081455
 20
9.0324111384
 30
0.0
 10
10.6271839098
 20
9.0298234114
 30
0.0
 10
10.6316463606
 20
9.0262847548
 30
0.0
 10
10.6366344903
 20
9.0230841708
 30
0.0
 10
10.6421337762
 20
9.0202985314
 30
0.0
 10
10.6481067262
 20
9.0180079836
 30
0.0
 10
10.6566846395
 20
9.0157039474
 30
0.0
 10
10.6679834885
 20
9.0145186635
 30
0.0
 10
10.6792823377
 20
9.0157039472
 30
0.0
 10
10.6878602515
 20
9.0180079835
 30
0.0
 10
10.6938332017
 20
9.0202985312
 30
0.0
 10
10.6993324876
 20
9.0230841707
 30
0.0
 10
10.7043206174
 20
9.0262847546
 30
0.0
 10
10.7087830684
 20
9.0298234114
 30
0.0
 10
10.7114588327
 20
9.0324111384
 30
0.0
 10
10.7127048487
 20
9.033740131
 30
0.0
  0
SPLINE
  5
2E3
100
AcDbEntity
  8
0
100
AcDbSpline
 62
7
  6
CONTINUOUS
 70
0
 71
3
 72
21
 73
17
 74
0
 42
0.0000001
 43
0.0000001
 44
0.0000000001
 40
0.0
 40
0.0
 40
0.0
 40
0.0
 40
0.0548549802
 40
0.1118758153
 40
0.1712173434
 40
0.2329966163
 40
0.2971649414
 40
0.3634647608
 40
0.4999999905
 40
0.6365352294
 40
0.7028350546
 40
0.7670033802
 40
0.8287826514
 40
0.8881241822
 40
0.9451450192
 40
1.0
 40
1.0
 40
1.0
 40
1.0
 10
10.7127048487
 20
8.9861820911
 30
0.0
 10
10.7114588501
 20
8.9875114458
 30
0.0
 10
10.708783127
 20
8.9900998812
 30
0.0
 10
10.7043206817
 20
8.9936395572
 30
0.0
 10
10.6993325539
 20
8.9968410662
 30
0.0
 10
10.693833265
 20
8.9996275136
 30
0.0
 10
10.687860306
 20
9.0019187277
 30
0.0
 10
10.6792824232
 20
9.004223424
 30
0.0
 10
10.6679834898
 20
9.0054090738
 30
0.0
 10
10.6566845561
 20
9.0042234243
 30
0.0
 10
10.6481066728
 20
9.0019187279
 30
0.0
 10
10.6421337137
 20
8.9996275138
 30
0.0
 10
10.6366344247
 20
8.9968410663
 30
0.0
 10
10.6316462968
 20
8.9936395574
 30
0.0
 10
10.6271838513
 20
8.9900998813
 30
0.0
 10
10.6245081282
 20
8.9875114459
 30
0.0
 10
10.6232621296
 20
8.9861820911
 30
0.0
  0
SPLINE
  5
2E4
100
AcDbEntity
  8
0
100
AcDbSpline
 62
7
  6
CONTINUOUS
 70
0
 71
3
 72
23
 73
19
 74
0
 42
0.0000001
 43
0.0000001
 44
0.0000000001
 40
0.0
 40
0.0
 40
0.0
 40
0.0
 40
0.0563640582
 40
0.1144411967
 40
0.1743590532
 40
0.2362299287
 40
0.3000301241
 40
0.3655630254
 40
0.4324213442
 40
0.4999999914
 40
0.5675786402
 40
0.6344369645
 40
0.6999698718
 40
0.7637700679
 40
0.8256409417
 40
0.8855588006
 40
0.9436359411
 40
1.0
 40
1.0
 40
1.0
 40
1.0
 10
10.6232621296
 20
8.9861820911
 30
0.0
 10
10.6245027286
 20
8.9847343985
 30
0.0
 10
10.6271653682
 20
8.9819147287
 30
0.0
 10
10.6316257164
 20
8.9780415117
 30
0.0
 10
10.6366128457
 20
8.9745371936
 30
0.0
 10
10.6421129412
 20
8.9714860726
 30
0.0
 10
10.6480879893
 20
8.9689764373
 30
0.0
 10
10.6544680931
 20
8.9670998408
 30
0.0
 10
10.6611464162
 20
8.9659366312
 30
0.0
 10
10.6679834883
 20
8.9655421957
 30
0.0
 10
10.6748205607
 20
8.9659366311
 30
0.0
 10
10.6814988842
 20
8.9670998405
 30
0.0
 10
10.6878789884
 20
8.9689764372
 30
0.0
 10
10.6938540367
 20
8.9714860723
 30
0.0
 10
10.6993541322
 20
8.9745371934
 30
0.0
 10
10.7043412616
 20
8.9780415115
 30
0.0
 10
10.70880161
 20
8.9819147286
 30
0.0
 10
10.7114642497
 20
8.9847343985
 30
0.0
 10
10.7127048487
 20
8.9861820911
 30
0.0
  0
SPLINE
  5
2E5
100
AcDbEntity
  8
0
100
AcDbSpline
 62
7
  6
CONTINUOUS
 70
0
 71
3
 72
15
 73
11
 74
0
 42
0.0000001
 43
0.0000001
 44
0.0000000001
 40
0.0
 40
0.0
 40
0.0
 40
0.0
 40
0.1090224629
 40
0.2293632224
 40
0.360957263
 40
0.4999999903
 40
0.639042727
 40
0.7706367742
 40
0.8909775345
 40
1.0
 40
1.0
 40
1.0
 40
1.0
 10
10.7127048487
 20
8.9388149584
 30
0.0
 10
10.7101398592
 20
8.9412722136
 30
0.0
 10
10.7042075672
 20
8.9459058813
 30
0.0
 10
10.6936646851
 20
8.9512695227
 30
0.0
 10
10.681351828
 20
8.954824525
 30
0.0
 10
10.6679834898
 20
8.9560757261
 30
0.0
 10
10.6546151514
 20
8.9548245252
 30
0.0
 10
10.6423022936
 20
8.9512695229
 30
0.0
 10
10.6317594113
 20
8.9459058814
 30
0.0
 10
10.6258271192
 20
8.9412722136
 30
0.0
 10
10.6232621296
 20
8.9388149584
 30
0.0
  0
SPLINE
  5
2E6
100
AcDbEntity
  8
0
100
AcDbSpline
 62
7
  6
CONTINUOUS
 70
0
 71
3
 72
23
 73
19
 74
0
 42
0.0000001
 43
0.0000001
 44
0.0000000001
 40
0.0
 40
0.0
 40
0.0
 40
0.0
 40
0.0577480611
 40
0.1168119051
 40
0.1772879238
 40
0.2392770136
 40
0.3027719522
 40
0.3676277041
 40
0.4335291084
 40
0.4999999916
 40
0.5664708763
 40
0.632372286
 40
0.6972280437
 40
0.760722983
 40
0.8227120711
 40
0.8831880922
 40
0.9422519382
 40
1.0
 40
1.0
 40
1.0
 40
1.0
 10
10.6232621296
 20
8.9388149584
 30
0.0
 10
10.6244982986
 20
8.9372600172
 30
0.0
 10
10.6271497918
 20
8.9342312015
 30
0.0
 10
10.631607784
 20
8.9300551171
 30
0.0
 10
10.636593447
 20
8.9262756361
 30
0.0
 10
10.6420935795
 20
8.9229837273
 30
0.0
 10
10.6480705642
 20
8.9202750126
 30
0.0
 10
10.654454795
 20
8.9182487825
 30
0.0
 10
10.661139193
 20
8.9169924435
 30
0.0
 10
10.6679834883
 20
8.9165663573
 30
0.0
 10
10.6748277838
 20
8.9169924434
 30
0.0
 10
10.6815121823
 20
8.9182487823
 30
0.0
 10
10.6878964135
 20
8.9202750124
 30
0.0
 10
10.6938733984
 20
8.922983727
 30
0.0
 10
10.6993735309
 20
8.9262756359
 30
0.0
 10
10.7043591941
 20
8.9300551169
 30
0.0
 10
10.7088171864
 20
8.9342312014
 30
0.0
 10
10.7114686796
 20
8.9372600171
 30
0.0
 10
10.7127048487
 20
8.9388149584
 30
0.0
  0
SPLINE
  5
2E7
100
AcDbEntity
  8
0
100
AcDbSpline
 62
7
  6
CONTINUOUS
 70
0
 71
3
 72
15
 73
11
 74
0
 42
0.0000001
 43
0.0000001
 44
0.0000000001
 40
0.0
 40
0.0
 40
0.0
 40
0.0
 40
0.1060838473
 40
0.2256978162
 40
0.3585247456
 40
0.4999999902
 40
0.6414752442
 40
0.7743021804
 40
0.8939161502
 40
1.0
 40
1.0
 40
1.0
 40
1.0
 10
10.7127048487
 20
8.8920201266
 30
0.0
 10
10.7101082309
 20
8.8942048778
 30
0.0
 10
10.7041054155
 20
8.8983037307
 30
0.0
 10
10.6935757574
 20
8.9029876642
 30
0.0
 10
10.6812994601
 20
8.9060876596
 30
0.0
 10
10.6679834898
 20
8.9071777476
 30
0.0
 10
10.6546675193
 20
8.9060876597
 30
0.0
 10
10.6423912213
 20
8.9029876644
 30
0.0
 10
10.6318615629
 20
8.8983037308
 30
0.0
 10
10.6258587474
 20
8.8942048778
 30
0.0
 10
10.6232621296
 20
8.8920201266
 30
0.0
  0
SPLINE
  5
2E8
100
AcDbEntity
  8
0
100
AcDbSpline
 62
7
  6
CONTINUOUS
 70
0
 71
3
 72
23
 73
19
 74
0
 42
0.0000001
 43
0.0000001
 44
0.0000000001
 40
0.0
 40
0.0
 40
0.0
 40
0.0
 40
0.0589648096
 40
0.1189048386
 40
0.179884306
 40
0.2419886741
 40
0.3052202434
 40
0.3694762492
 40
0.4345226002
 40
0.4999999917
 40
0.5654773848
 40
0.630523741
 40
0.6947797526
 40
0.7580113225
 40
0.8201156888
 40
0.8810951587
 40
0.9410351897
 40
1.0
 40
1.0
 40
1.0
 40
1.0
 10
10.6232621296
 20
8.8920201266
 30
0.0
 10
10.6244947214
 20
8.8903700761
 30
0.0
 10
10.6271369352
 20
8.8871561134
 30
0.0
 10
10.6315925632
 20
8.8827112164
 30
0.0
 10
10.6365765045
 20
8.8786873965
 30
0.0
 10
10.6420762004
 20
8.8751814563
 30
0.0
 10
10.6480545384
 20
8.8722955234
 30
0.0
 10
10.654442326
 20
8.8701358543
 30
0.0
 10
10.6611323351
 20
8.8687963294
 30
0.0
 10
10.6679834883
 20
8.8683419442
 30
0.0
 10
10.6748346417
 20
8.8687963293
 30
0.0
 10
10.6815246513
 20
8.870135854
 30
0.0
 10
10.6879124393
 20
8.8722955232
 30
0.0
 10
10.6938907775
 20
8.8751814561
 30
0.0
 10
10.6993904735
 20
8.8786873963
 30
0.0
 10
10.7043744148
 20
8.8827112162
 30
0.0
 10
10.708830043
 20
8.8871561133
 30
0.0
 10
10.7114722568
 20
8.890370076
 30
0.0
 10
10.7127048487
 20
8.8920201266
 30
0.0
  0
SPLINE
  5
2E9
100
AcDbEntity
  8
0
100
AcDbSpline
 62
7
  6
CONTINUOUS
 70
0
 71
3
 72
21
 73
17
 74
0
 42
0.0000001
 43
0.0000001
 44
0.0000000001
 40
0.0
 40
0.0
 40
0.0
 40
0.0
 40
0.1030788448
 40
0.1605358298
 40
0.2220324981
 40
0.2873879394
 40
0.3561170852
 40
0.4273777606
 40
0.5000000022
 40
0.5726222437
 40
0.6438829178
 40
0.7126120614
 40
0.7779675017
 40
0.8394641702
 40
0.8969211553
 40
1.0
 40
1.0
 40
1.0
 40
1.0
 10
10.7127048487
 20
8.8461743808
 30
0.0
 10
10.7100720076
 20
8.8480647452
 30
0.0
 10
10.7056765522
 20
8.8506130864
 30
0.0
 10
10.6992604774
 20
8.8533750168
 30
0.0
 10
10.693767131
 20
8.8552422624
 30
0.0
 10
10.6878060822
 20
8.8567763156
 30
0.0
 10
10.6814459296
 20
8.8579225823
 30
0.0
 10
10.6747926931
 20
8.8586326379
 30
0.0
 10
10.6679834889
 20
8.858873343
 30
0.0
 10
10.6611742848
 20
8.8586326379
 30
0.0
 10
10.6545210484
 20
8.8579225823
 30
0.0
 10
10.6481608959
 20
8.8567763156
 30
0.0
 10
10.6421998473
 20
8.8552422624
 30
0.0
 10
10.6367065008
 20
8.8533750169
 30
0.0
 10
10.6302904261
 20
8.8506130863
 30
0.0
 10
10.6258949707
 20
8.8480647452
 30
0.0
 10
10.6232621296
 20
8.8461743808
 30
0.0
  0
SPLINE
  5
2EA
100
AcDbEntity
  8
0
100
AcDbSpline
 62
7
  6
CONTINUOUS
 70
0
 71
3
 72
23
 73
19
 74
0
 42
0.0000001
 43
0.0000001
 44
0.0000000001
 40
0.0
 40
0.0
 40
0.0
 40
0.0
 40
0.0600051015
 40
0.1207004969
 40
0.1821197425
 40
0.2443312315
 40
0.3073416346
 40
0.3710818105
 40
0.4353868466
 40
0.5000000044
 40
0.5646131613
 40
0.6289181942
 40
0.6926583658
 40
0.7556687665
 40
0.8178802548
 40
0.8792995016
 40
0.9399948981
 40
1.0
 40
1.0
 40
1.0
 40
1.0
 10
10.6232621296
 20
8.8461743808
 30
0.0
 10
10.6244918759
 20
8.8444420159
 30
0.0
 10
10.6271265277
 20
8.8410680459
 30
0.0
 10
10.6315799534
 20
8.8363904476
 30
0.0
 10
10.6365621229
 20
8.8321550532
 30
0.0
 10
10.6420610912
 20
8.8284636355
 30
0.0
 10
10.6480402987
 20
8.8254239258
 30
0.0
 10
10.6544310488
 20
8.8231482684
 30
0.0
 10
10.6611260609
 20
8.8217363152
 30
0.0
 10
10.6679834896
 20
8.8212572648
 30
0.0
 10
10.6748409182
 20
8.8217363152
 30
0.0
 10
10.6815359299
 20
8.8231482686
 30
0.0
 10
10.6879266797
 20
8.8254239259
 30
0.0
 10
10.6939058869
 20
8.8284636354
 30
0.0
 10
10.6994048552
 20
8.8321550531
 30
0.0
 10
10.7043870247
 20
8.8363904475
 30
0.0
 10
10.7088404505
 20
8.8410680459
 30
0.0
 10
10.7114751024
 20
8.8444420159
 30
0.0
 10
10.7127048487
 20
8.8461743808
 30
0.0
  0
SPLINE
  5
2EB
100
AcDbEntity
  8
0
100
AcDbSpline
 62
7
  6
CONTINUOUS
 70
0
 71
3
 72
23
 73
19
 74
0
 42
0.0000001
 43
0.0000001
 44
0.0000000001
 40
0.0
 40
0.0
 40
0.0
 40
0.0
 40
0.0479827986
 40
0.1003367192
 40
0.1572154157
 40
0.2186483815
 40
0.2843966582
 40
0.3538950186
 40
0.4261956435
 40
0.4999999898
 40
0.5738043386
 40
0.6461049709
 40
0.7156033377
 40
0.781351615
 40
0.8427845793
 40
0.8996632784
 40
0.9520172009
 40
1.0
 40
1.0
 40
1.0
 40
1.0
 10
10.7127048487
 20
8.8016468646
 30
0.0
 10
10.7114258168
 20
8.8023999888
 30
0.0
 10
10.7086812649
 20
8.803858062
 30
0.0
 10
10.7042190125
 20
8.8058024375
 30
0.0
 10
10.6992361125
 20
8.8075597053
 30
0.0
 10
10.6937472211
 20
8.8090881371
 30
0.0
 10
10.6877902067
 20
8.8103442349
 30
0.0
 10
10.6814350092
 20
8.8112827101
 30
0.0
 10
10.6747870998
 20
8.8118640756
 30
0.0
 10
10.66798349
 20
8.8120611499
 30
0.0
 10
10.6611798799
 20
8.8118640757
 30
0.0
 10
10.6545319701
 20
8.8112827103
 30
0.0
 10
10.6481767721
 20
8.810344235
 30
0.0
 10
10.6422197575
 20
8.8090881372
 30
0.0
 10
10.6367308661
 20
8.8075597054
 30
0.0
 10
10.631747966
 20
8.8058024376
 30
0.0
 10
10.6272857134
 20
8.8038580621
 30
0.0
 10
10.6245411615
 20
8.8023999888
 30
0.0
 10
10.6232621296
 20
8.8016468646
 30
0.0
  0
SPLINE
  5
2EC
100
AcDbEntity
  8
0
100
AcDbSpline
 62
7
  6
CONTINUOUS
 70
0
 71
3
 72
23
 73
19
 74
0
 42
0.0000001
 43
0.0000001
 44
0.0000000001
 40
0.0
 40
0.0
 40
0.0
 40
0.0
 40
0.0608646692
 40
0.122188425
 40
0.1839774793
 40
0.2462835205
 40
0.3091141506
 40
0.3724261091
 40
0.4361114291
 40
0.4999999919
 40
0.5638885563
 40
0.6275738813
 40
0.6908858454
 40
0.7537164761
 40
0.8160225155
 40
0.8778115723
 40
0.93913533
 40
1.0
 40
1.0
 40
1.0
 40
1.0
 10
10.6232621296
 20
8.8016468646
 30
0.0
 10
10.624489661
 20
8.799845575
 30
0.0
 10
10.6271183142
 20
8.7963377796
 30
0.0
 10
10.6315698139
 20
8.7914653526
 30
0.0
 10
10.6365503243
 20
8.7870527931
 30
0.0
 10
10.6420484427
 20
8.7832059716
 30
0.0
 10
10.6480281509
 20
8.7800372766
 30
0.0
 10
10.654421276
 20
8.7776641774
 30
0.0
 10
10.6611205655
 20
8.776191278
 30
0.0
 10
10.6679834883
 20
8.7756914511
 30
0.0
 10
10.6748464113
 20
8.7761912779
 30
0.0
 10
10.6815457013
 20
8.777664177
 30
0.0
 10
10.6879388268
 20
8.7800372763
 30
0.0
 10
10.6939185352
 20
8.7832059713
 30
0.0
 10
10.6994166536
 20
8.7870527928
 30
0.0
 10
10.7043971642
 20
8.7914653524
 30
0.0
 10
10.708848664
 20
8.7963377795
 30
0.0
 10
10.7114773173
 20
8.799845575
 30
0.0
 10
10.7127048487
 20
8.8016468646
 30
0.0
  0
SPLINE
  5
2ED
100
AcDbEntity
  8
0
100
AcDbSpline
 62
7
  6
CONTINUOUS
 70
0
 71
3
 72
15
 73
11
 74
0
 42
0.0000001
 43
0.0000001
 44
0.0000000001
 40
0.0
 40
0.0
 40
0.0
 40
0.0
 40
0.1140027855
 40
0.2286682398
 40
0.3455363968
 40
0.4659944677
 40
0.5911246788
 40
0.7216585286
 40
0.8579514245
 40
1.0
 40
1.0
 40
1.0
 40
1.0
 10
9.2449834891
 20
9.4286471851
 30
0.0
 10
9.2449834891
 20
9.4342697948
 30
0.0
 10
9.2459192827
 20
9.4455704697
 30
0.0
 10
9.250138963
 20
9.462157589
 30
0.0
 10
9.2571048815
 20
9.4781389417
 30
0.0
 10
9.2667029489
 20
9.4932971506
 30
0.0
 10
9.2787862995
 20
9.5074476968
 30
0.0
 10
9.293178926
 20
9.5204279621
 30
0.0
 10
9.3096779025
 20
9.5320942289
 30
0.0
 10
9.321698633
 20
9.5387826567
 30
0.0
 10
9.3279781142
 20
9.5418890559
 30
0.0
  0
SPLINE
  5
2EE
100
AcDbEntity
  8
0
100
AcDbSpline
 62
7
  6
CONTINUOUS
 70
0
 71
3
 72
23
 73
19
 74
0
 42
0.0000001
 43
0.0000001
 44
0.0000000001
 40
0.0
 40
0.0
 40
0.0
 40
0.0
 40
0.0464474971
 40
0.0978056716
 40
0.1541931717
 40
0.2155944898
 40
0.2817127611
 40
0.3519088235
 40
0.4251413066
 40
0.4999999897
 40
0.5748586752
 40
0.6480911658
 40
0.7182872347
 40
0.7844055068
 40
0.8458068232
 40
0.902194326
 40
0.9535525023
 40
1.0
 40
1.0
 40
1.0
 40
1.0
 10
10.7127048487
 20
8.7587961074
 30
0.0
 10
10.7114156569
 20
8.7593825761
 30
0.0
 10
10.708653475
 20
8.7605146492
 30
0.0
 10
10.7041942733
 20
8.7620140316
 30
0.0
 10
10.6992148584
 20
8.7633693248
 30
0.0
 10
10.6937297559
 20
8.7645482966
 30
0.0
 10
10.687776761
 20
8.7655173032
 30
0.0
 10
10.6814258584
 20
8.7662413246
 30
0.0
 10
10.6747824646
 20
8.7666898565
 30
0.0
 10
10.66798349
 20
8.7668419047
 30
0.0
 10
10.6611845151
 20
8.7666898566
 30
0.0
 10
10.6545411209
 20
8.7662413247
 30
0.0
 10
10.6481902178
 20
8.7655173033
 30
0.0
 10
10.6422372227
 20
8.7645482966
 30
0.0
 10
10.6367521202
 20
8.7633693249
 30
0.0
 10
10.6317727052
 20
8.7620140317
 30
0.0
 10
10.6273135033
 20
8.7605146493
 30
0.0
 10
10.6245513213
 20
8.7593825761
 30
0.0
 10
10.6232621296
 20
8.7587961074
 30
0.0
  0
SPLINE
  5
2EF
100
AcDbEntity
  8
0
100
AcDbSpline
 62
7
  6
CONTINUOUS
 70
0
 71
3
 72
10
 73
6
 74
0
 42
0.0000001
 43
0.0000001
 44
0.0000000001
 40
0.0
 40
0.0
 40
0.0
 40
0.0
 40
0.245562496
 40
0.4937521177
 40
1.0
 40
1.0
 40
1.0
 40
1.0
 10
9.2474163724
 20
9.4281370094
 30
0.0
 10
9.2479932124
 20
9.4307612297
 30
0.0
 10
9.2493542658
 20
9.4359961242
 30
0.0
 10
9.252888136
 20
9.4463584305
 30
0.0
 10
9.2564061732
 20
9.4538664586
 30
0.0
 10
9.2590891852
 20
9.4587125209
 30
0.0
  0
SPLINE
  5
2F0
100
AcDbEntity
  8
0
100
AcDbSpline
 62
7
  6
CONTINUOUS
 70
0
 71
3
 72
21
 73
17
 74
0
 42
0.0000001
 43
0.0000001
 44
0.0000000001
 40
0.0
 40
0.0
 40
0.0
 40
0.0
 40
0.1232553527
 40
0.185357869
 40
0.2477603135
 40
0.3104693002
 40
0.3734606761
 40
0.436671134
 40
0.499999992
 40
0.5633288516
 40
0.6265393144
 40
0.6895306958
 40
0.7522396831
 40
0.8146421259
 40
0.8767446446
 40
1.0
 40
1.0
 40
1.0
 40
1.0
 10
10.6232621296
 20
8.7587961074
 30
0.0
 10
10.6257165597
 20
8.7550794038
 30
0.0
 10
10.6299229832
 20
8.7497954683
 30
0.0
 10
10.636540703
 20
8.7437439243
 30
0.0
 10
10.6420384757
 20
8.7397723472
 30
0.0
 10
10.6480183001
 20
8.7365007544
 30
0.0
 10
10.6544132765
 20
8.7340496295
 30
0.0
 10
10.6611160216
 20
8.7325279011
 30
0.0
 10
10.6679834883
 20
8.7320114033
 30
0.0
 10
10.6748509552
 20
8.732527901
 30
0.0
 10
10.6815537008
 20
8.7340496291
 30
0.0
 10
10.6879486776
 20
8.7365007542
 30
0.0
 10
10.6939285023
 20
8.7397723469
 30
0.0
 10
10.6994262749
 20
8.743743924
 30
0.0
 10
10.7060439949
 20
8.749795468
 30
0.0
 10
10.7102504185
 20
8.7550794037
 30
0.0
 10
10.7127048487
 20
8.7587961074
 30
0.0
  0
SPLINE
  5
2F1
100
AcDbEntity
  8
0
100
AcDbSpline
 62
7
  6
CONTINUOUS
 70
0
 71
3
 72
21
 73
17
 74
0
 42
0.0000001
 43
0.0000001
 44
0.0000000001
 40
0.0
 40
0.0
 40
0.0
 40
0.0
 40
0.0451906883
 40
0.0957481749
 40
0.1517507131
 40
0.2131388558
 40
0.2795647825
 40
0.350328049
 40
0.4999999895
 40
0.6496719403
 40
0.7204352132
 40
0.7868611408
 40
0.8482492818
 40
0.9042518227
 40
0.9548093112
 40
1.0
 40
1.0
 40
1.0
 40
1.0
 10
10.7127048487
 20
8.7179671373
 30
0.0
 10
10.7114062794
 20
8.7183792218
 30
0.0
 10
10.7086291604
 20
8.719172169
 30
0.0
 10
10.7041735249
 20
8.7202162268
 30
0.0
 10
10.6991976268
 20
8.7211601946
 30
0.0
 10
10.6937159525
 20
8.7219815121
 30
0.0
 10
10.6877663012
 20
8.722656737
 30
0.0
 10
10.6791439422
 20
8.7233416827
 30
0.0
 10
10.6679834898
 20
8.7236815547
 30
0.0
 10
10.6568230371
 20
8.7233416828
 30
0.0
 10
10.6482006776
 20
8.722656737
 30
0.0
 10
10.6422510261
 20
8.7219815122
 30
0.0
 10
10.6367693518
 20
8.7211601946
 30
0.0
 10
10.6317934537
 20
8.7202162268
 30
0.0
 10
10.6273378179
 20
8.7191721691
 30
0.0
 10
10.6245606988
 20
8.7183792218
 30
0.0
 10
10.6232621296
 20
8.7179671373
 30
0.0
  0
SPLINE
  5
2F2
100
AcDbEntity
  8
0
100
AcDbSpline
 62
7
  6
CONTINUOUS
 70
0
 71
3
 72
21
 73
17
 74
0
 42
0.0000001
 43
0.0000001
 44
0.0000000001
 40
0.0
 40
0.0
 40
0.0
 40
0.0
 40
0.12411758
 40
0.1864386478
 40
0.2489006333
 40
0.3115084525
 40
0.3742511893
 40
0.4370980909
 40
0.4999999921
 40
0.5629018947
 40
0.6257488012
 40
0.6884915436
 40
0.7510993632
 40
0.813561347
 40
0.8758824172
 40
1.0
 40
1.0
 40
1.0
 40
1.0
 10
10.6232621296
 20
8.7179671373
 30
0.0
 10
10.6257116279
 20
8.7141729467
 30
0.0
 10
10.6299101461
 20
8.7087735166
 30
0.0
 10
10.6365339824
 20
8.7025758118
 30
0.0
 10
10.6420310519
 20
8.6985124701
 30
0.0
 10
10.6480109724
 20
8.6951645767
 30
0.0
 10
10.6544072409
 20
8.6926556756
 30
0.0
 10
10.6611125737
 20
8.6910977129
 30
0.0
 10
10.6679834883
 20
8.690568841
 30
0.0
 10
10.674854403
 20
8.6910977128
 30
0.0
 10
10.6815597364
 20
8.6926556753
 30
0.0
 10
10.6879560053
 20
8.6951645764
 30
0.0
 10
10.693935926
 20
8.6985124698
 30
0.0
 10
10.6994329955
 20
8.7025758116
 30
0.0
 10
10.706056832
 20
8.7087735164
 30
0.0
 10
10.7102553503
 20
8.7141729466
 30
0.0
 10
10.7127048487
 20
8.7179671373
 30
0.0
  0
SPLINE
  5
2F3
100
AcDbEntity
  8
0
100
AcDbSpline
 62
7
  6
CONTINUOUS
 70
0
 71
3
 72
19
 73
15
 74
0
 42
0.0000001
 43
0.0000001
 44
0.0000000001
 40
0.0
 40
0.0
 40
0.0
 40
0.0
 40
0.044320961
 40
0.0943309689
 40
0.1500737209
 40
0.2114557315
 40
0.3492343003
 40
0.4999999895
 40
0.6507656889
 40
0.7885442651
 40
0.849926274
 40
0.9056690287
 40
0.9556790385
 40
1.0
 40
1.0
 40
1.0
 40
1.0
 10
10.7127048487
 20
8.6794887034
 30
0.0
 10
10.7113991668
 20
8.6797200803
 30
0.0
 10
10.7086115305
 20
8.680164126
 30
0.0
 10
10.7041589659
 20
8.6807463257
 30
0.0
 10
10.6991858456
 20
8.6812729061
 30
0.0
 10
10.6915854748
 20
8.6819082116
 30
0.0
 10
10.681127673
 20
8.6824558335
 30
0.0
 10
10.6679834898
 20
8.6826798934
 30
0.0
 10
10.6548393063
 20
8.6824558335
 30
0.0
 10
10.644381504
 20
8.6819082116
 30
0.0
 10
10.636781133
 20
8.6812729061
 30
0.0
 10
10.6318080126
 20
8.6807463257
 30
0.0
 10
10.6273554479
 20
8.680164126
 30
0.0
 10
10.6245678114
 20
8.6797200803
 30
0.0
 10
10.6232621296
 20
8.6794887034
 30
0.0
  0
SPLINE
  5
2F4
100
AcDbEntity
  8
0
100
AcDbSpline
 62
7
  6
CONTINUOUS
 70
0
 71
3
 72
21
 73
17
 74
0
 42
0.0000001
 43
0.0000001
 44
0.0000000001
 40
0.0
 40
0.0
 40
0.0
 40
0.0
 40
0.1246659628
 40
0.1871268386
 40
0.2496276072
 40
0.3121716764
 40
0.3747561968
 40
0.4373710174
 40
0.4999999921
 40
0.5626289683
 40
0.6252437938
 40
0.6878283196
 40
0.7503723894
 40
0.8128731562
 40
0.8753340344
 40
1.0
 40
1.0
 40
1.0
 40
1.0
 10
10.6232621296
 20
8.6794887034
 30
0.0
 10
10.6257085687
 20
8.6756449143
 30
0.0
 10
10.6299020953
 20
8.6701716392
 30
0.0
 10
10.6365297295
 20
8.6638802838
 30
0.0
 10
10.6420263137
 20
8.6597581906
 30
0.0
 10
10.6480062557
 20
8.656361424
 30
0.0
 10
10.6544033273
 20
8.6538154871
 30
0.0
 10
10.6611103268
 20
8.6522342767
 30
0.0
 10
10.6679834883
 20
8.651697461
 30
0.0
 10
10.6748566499
 20
8.6522342766
 30
0.0
 10
10.68156365
 20
8.6538154868
 30
0.0
 10
10.687960722
 20
8.6563614237
 30
0.0
 10
10.6939406642
 20
8.6597581903
 30
0.0
 10
10.6994372484
 20
8.6638802836
 30
0.0
 10
10.7060648828
 20
8.6701716389
 30
0.0
 10
10.7102584095
 20
8.6756449143
 30
0.0
 10
10.7127048487
 20
8.6794887034
 30
0.0
  0
SPLINE
  5
2F5
100
AcDbEntity
  8
0
100
AcDbSpline
 62
7
  6
CONTINUOUS
 70
0
 71
3
 72
15
 73
11
 74
0
 42
0.0000001
 43
0.0000001
 44
0.0000000001
 40
0.0
 40
0.0
 40
0.0
 40
0.0
 40
0.0936938506
 40
0.2107004885
 40
0.348749769
 40
0.4999999894
 40
0.6512502202
 40
0.7892995081
 40
0.906306147
 40
1.0
 40
1.0
 40
1.0
 40
1.0
 10
10.7127048487
 20
8.6436706288
 30
0.0
 10
10.7099128179
 20
8.6437701678
 30
0.0
 10
10.7036323848
 20
8.6439473111
 30
0.0
 10
10.6932348879
 20
8.644139966
 30
0.0
 10
10.6811200236
 20
8.6442676332
 30
0.0
 10
10.6679834898
 20
8.6443126138
 30
0.0
 10
10.6548469558
 20
8.6442676332
 30
0.0
 10
10.6427320909
 20
8.644139966
 30
0.0
 10
10.6323345936
 20
8.6439473111
 30
0.0
 10
10.6260541605
 20
8.6437701678
 30
0.0
 10
10.6232621296
 20
8.6436706288
 30
0.0
  0
SPLINE
  5
2F6
100
AcDbEntity
  8
0
100
AcDbSpline
 62
7
  6
CONTINUOUS
 70
0
 71
3
 72
21
 73
17
 74
0
 42
0.0000001
 43
0.0000001
 44
0.0000000001
 40
0.0
 40
0.0
 40
0.0
 40
0.0
 40
0.1249010542
 40
0.187422057
 40
0.2499396701
 40
0.3124565528
 40
0.3749732281
 40
0.4374883514
 40
0.4999999921
 40
0.5625116343
 40
0.6250267624
 40
0.6875434432
 40
0.7500603264
 40
0.8125779378
 40
0.875098943
 40
1.0
 40
1.0
 40
1.0
 40
1.0
 10
10.6232621296
 20
8.6436706288
 30
0.0
 10
10.6257072752
 20
8.6398054969
 30
0.0
 10
10.6298986708
 20
8.6343004649
 30
0.0
 10
10.6365279115
 20
8.6279687902
 30
0.0
 10
10.6420242787
 20
8.6238214132
 30
0.0
 10
10.6480042202
 20
8.6204036087
 30
0.0
 10
10.6544016314
 20
8.6178417226
 30
0.0
 10
10.6611093504
 20
8.6162504956
 30
0.0
 10
10.6679834883
 20
8.6157102559
 30
0.0
 10
10.6748576264
 20
8.6162504955
 30
0.0
 10
10.6815653459
 20
8.6178417222
 30
0.0
 10
10.6879627575
 20
8.6204036084
 30
0.0
 10
10.6939426992
 20
8.6238214129
 30
0.0
 10
10.6994390664
 20
8.62796879
 30
0.0
 10
10.7060683073
 20
8.6343004647
 30
0.0
 10
10.710259703
 20
8.6398054968
 30
0.0
 10
10.7127048487
 20
8.6436706288
 30
0.0
  0
SPLINE
  5
2F7
100
AcDbEntity
  8
0
100
AcDbSpline
 62
7
  6
CONTINUOUS
 70
0
 71
3
 72
21
 73
17
 74
0
 42
0.0000001
 43
0.0000001
 44
0.0000000001
 40
0.0
 40
0.0
 40
0.0
 40
0.0
 40
0.1248232084
 40
0.1873242887
 40
0.2498363095
 40
0.312362185
 40
0.3749013269
 40
0.4374494766
 40
0.4999999921
 40
0.5625505091
 40
0.6250986636
 40
0.6876378111
 40
0.750163687
 40
0.8126757061
 40
0.8751767888
 40
1.0
 40
1.0
 40
1.0
 40
1.0
 10
10.6232621296
 20
8.6108013154
 30
0.0
 10
10.6257077024
 20
8.6069432562
 30
0.0
 10
10.629899803
 20
8.6014487466
 30
0.0
 10
10.6365285132
 20
8.5951304345
 30
0.0
 10
10.6420249528
 20
8.5909914362
 30
0.0
 10
10.6480048951
 20
8.5875806038
 30
0.0
 10
10.6544021942
 20
8.5850240039
 30
0.0
 10
10.6611096746
 20
8.5834360971
 30
0.0
 10
10.6679834883
 20
8.5828969924
 30
0.0
 10
10.6748573022
 20
8.583436097
 30
0.0
 10
10.6815647831
 20
8.5850240035
 30
0.0
 10
10.6879620826
 20
8.5875806036
 30
0.0
 10
10.6939420251
 20
8.5909914359
 30
0.0
 10
10.6994384647
 20
8.5951304342
 30
0.0
 10
10.7060671751
 20
8.6014487464
 30
0.0
 10
10.7102592759
 20
8.6069432561
 30
0.0
 10
10.7127048487
 20
8.6108013154
 30
0.0
  0
SPLINE
  5
2F8
100
AcDbEntity
  8
0
100
AcDbSpline
 62
7
  6
CONTINUOUS
 70
0
 71
3
 72
11
 73
7
 74
0
 42
0.0000001
 43
0.0000001
 44
0.0000000001
 40
0.0
 40
0.0
 40
0.0
 40
0.0
 40
0.2453762297
 40
0.4934384102
 40
0.744796063
 40
1.0
 40
1.0
 40
1.0
 40
1.0
 10
9.6525506059
 20
9.4281370094
 30
0.0
 10
9.651962879
 20
9.4308107572
 30
0.0
 10
9.6505723297
 20
9.4361439232
 30
0.0
 10
9.6478709423
 20
9.4440098537
 30
0.0
 10
9.6445545021
 20
9.4517560584
 30
0.0
 10
9.6419606643
 20
9.4567834115
 30
0.0
 10
9.6405688091
 20
9.4592672457
 30
0.0
  0
SPLINE
  5
2F9
100
AcDbEntity
  8
0
100
AcDbSpline
 62
7
  6
CONTINUOUS
 70
0
 71
3
 72
21
 73
17
 74
0
 42
0.0000001
 43
0.0000001
 44
0.0000000001
 40
0.0
 40
0.0
 40
0.0
 40
0.0
 40
0.1244323002
 40
0.1868335279
 40
0.2493176825
 40
0.3118888582
 40
0.3745408048
 40
0.4372546019
 40
0.5000000042
 40
0.5627454057
 40
0.6254591999
 40
0.6881111422
 40
0.7506823155
 40
0.8131664693
 40
0.8755676983
 40
1.0
 40
1.0
 40
1.0
 40
1.0
 10
10.6232621296
 20
8.5811454223
 30
0.0
 10
10.6257098649
 20
8.5773227982
 30
0.0
 10
10.6299055149
 20
8.5718810269
 30
0.0
 10
10.6365315395
 20
8.5656296432
 30
0.0
 10
10.642028334
 20
8.5615326218
 30
0.0
 10
10.6480082708
 20
8.5581567137
 30
0.0
 10
10.6544050023
 20
8.5556265857
 30
0.0
 10
10.6611112903
 20
8.554055301
 30
0.0
 10
10.6679834896
 20
8.5535218773
 30
0.0
 10
10.6748556887
 20
8.554055301
 30
0.0
 10
10.6815619764
 20
8.5556265859
 30
0.0
 10
10.6879587076
 20
8.5581567137
 30
0.0
 10
10.6939386441
 20
8.5615326217
 30
0.0
 10
10.6994354386
 20
8.5656296431
 30
0.0
 10
10.7060614633
 20
8.5718810268
 30
0.0
 10
10.7102571133
 20
8.5773227982
 30
0.0
 10
10.7127048487
 20
8.5811454223
 30
0.0
  0
SPLINE
  5
2FA
100
AcDbEntity
  8
0
100
AcDbSpline
 62
7
  6
CONTINUOUS
 70
0
 71
3
 72
21
 73
17
 74
0
 42
0.0000001
 43
0.0000001
 44
0.0000000001
 40
0.0
 40
0.0
 40
0.0
 40
0.0
 40
0.1237278183
 40
0.1859498992
 40
0.2483847523
 40
0.3110381629
 40
0.3738933147
 40
0.4369047621
 40
0.499999992
 40
0.5630952235
 40
0.6261066759
 40
0.6889618331
 40
0.7516152443
 40
0.8140500956
 40
0.876272179
 40
1.0
 40
1.0
 40
1.0
 40
1.0
 10
10.6232621296
 20
8.5549417347
 30
0.0
 10
10.6257138385
 20
8.551182644
 30
0.0
 10
10.6299159218
 20
8.5458355112
 30
0.0
 10
10.6365370153
 20
8.5397040376
 30
0.0
 10
10.6420344117
 20
8.5356822671
 30
0.0
 10
10.6480142982
 20
8.5323689448
 30
0.0
 10
10.6544099869
 20
8.5298862282
 30
0.0
 10
10.661114145
 20
8.5283446918
 30
0.0
 10
10.6679834883
 20
8.5278214306
 30
0.0
 10
10.6748528318
 20
8.5283446917
 30
0.0
 10
10.6815569904
 20
8.5298862278
 30
0.0
 10
10.6879526795
 20
8.5323689446
 30
0.0
 10
10.6939325662
 20
8.5356822668
 30
0.0
 10
10.6994299626
 20
8.5397040374
 30
0.0
 10
10.7060510563
 20
8.545835511
 30
0.0
 10
10.7102531397
 20
8.5511826439
 30
0.0
 10
10.7127048487
 20
8.5549417347
 30
0.0
  0
SPLINE
  5
2FB
100
AcDbEntity
  8
0
100
AcDbSpline
 62
7
  6
CONTINUOUS
 70
0
 71
3
 72
18
 73
14
 74
0
 42
0.0000001
 43
0.0000001
 44
0.0000000001
 40
0.0
 40
0.0
 40
0.0
 40
0.0
 40
0.0570462227
 40
0.1140559788
 40
0.1712302118
 40
0.2287669986
 40
0.2868584728
 40
0.3456849718
 40
0.4661038167
 40
0.5912009794
 40
0.7217063793
 40
0.8579745772
 40
1.0
 40
1.0
 40
1.0
 40
1.0
 10
9.6549833074
 20
8.5911364603
 30
0.0
 10
9.6549833074
 20
8.5883196321
 30
0.0
 10
9.6547510028
 20
8.5826849273
 30
0.0
 10
9.6537005786
 20
8.5742860906
 30
0.0
 10
9.6519538954
 20
8.5659787335
 30
0.0
 10
9.6495164396
 20
8.5577918921
 30
0.0
 10
9.6463969517
 20
8.5497521943
 30
0.0
 10
9.6413067227
 20
8.5391848222
 30
0.0
 10
9.6332307255
 20
8.5264394612
 30
0.0
 10
9.6211304174
 20
8.5122836376
 30
0.0
 10
9.6067168486
 20
8.4992980573
 30
0.0
 10
9.5901949436
 20
8.4876297583
 30
0.0
 10
9.5781580693
 20
8.4809418224
 30
0.0
 10
9.5718703441
 20
8.4778360677
 30
0.0
  0
SPLINE
  5
2FC
100
AcDbEntity
  8
0
100
AcDbSpline
 62
7
  6
CONTINUOUS
 70
0
 71
3
 72
23
 73
19
 74
0
 42
0.0000001
 43
0.0000001
 44
0.0000000001
 40
0.0
 40
0.0
 40
0.0
 40
0.0
 40
0.0612278498
 40
0.1228182208
 40
0.1847652607
 40
0.2471129087
 40
0.3098684267
 40
0.372998945
 40
0.4364204716
 40
0.499999992
 40
0.5635795138
 40
0.6270010455
 40
0.6901315693
 40
0.7528870879
 40
0.8152347342
 40
0.8771817764
 40
0.9387721495
 40
1.0
 40
1.0
 40
1.0
 40
1.0
 10
10.6232621296
 20
8.5324012409
 30
0.0
 10
10.62448876
 20
8.5305705408
 30
0.0
 10
10.6271149448
 20
8.5270056814
 30
0.0
 10
10.6315656055
 20
8.5220501348
 30
0.0
 10
10.6365453645
 20
8.5175619876
 30
0.0
 10
10.6420430557
 20
8.5136488409
 30
0.0
 10
10.6480229129
 20
8.5104250569
 30
0.0
 10
10.6544170182
 20
8.5080102964
 30
0.0
 10
10.6611181548
 20
8.5065113097
 30
0.0
 10
10.6679834883
 20
8.506002583
 30
0.0
 10
10.674848822
 20
8.5065113096
 30
0.0
 10
10.6815499591
 20
8.508010296
 30
0.0
 10
10.6879440648
 20
8.5104250566
 30
0.0
 10
10.6939239222
 20
8.5136488406
 30
0.0
 10
10.6994216135
 20
8.5175619874
 30
0.0
 10
10.7044013726
 20
8.5220501346
 30
0.0
 10
10.7088520334
 20
8.5270056813
 30
0.0
 10
10.7114782183
 20
8.5305705408
 30
0.0
 10
10.7127048487
 20
8.5324012409
 30
0.0
  0
SPLINE
  5
2FD
100
AcDbEntity
  8
0
100
AcDbSpline
 62
7
  6
CONTINUOUS
 70
0
 71
3
 72
23
 73
19
 74
0
 42
0.0000001
 43
0.0000001
 44
0.0000000001
 40
0.0
 40
0.0
 40
0.0
 40
0.0
 40
0.0604596963
 40
0.1214869401
 40
0.1831010431
 40
0.2453618531
 40
0.3082768358
 40
0.3717907578
 40
0.4357688551
 40
0.4999999919
 40
0.5642311302
 40
0.6282092326
 40
0.6917231602
 40
0.7546381434
 40
0.8168989518
 40
0.8785130572
 40
0.9395403029
 40
1.0
 40
1.0
 40
1.0
 40
1.0
 10
10.6232621296
 20
8.5137054338
 30
0.0
 10
10.6244906897
 20
8.511936731
 30
0.0
 10
10.6271221415
 20
8.50849219
 30
0.0
 10
10.6315745595
 20
8.5037118711
 30
0.0
 10
10.6365558729
 20
8.4993830708
 30
0.0
 10
10.6420544199
 20
8.4956097299
 30
0.0
 10
10.6480339177
 20
8.4925020399
 30
0.0
 10
10.6544259328
 20
8.4901750449
 30
0.0
 10
10.6611231904
 20
8.4887309936
 30
0.0
 10
10.6679834883
 20
8.4882410037
 30
0.0
 10
10.6748437864
 20
8.4887309935
 30
0.0
 10
10.6815410445
 20
8.4901750445
 30
0.0
 10
10.68793306
 20
8.4925020397
 30
0.0
 10
10.693912558
 20
8.4956097296
 30
0.0
 10
10.699411105
 20
8.4993830706
 30
0.0
 10
10.7043924185
 20
8.5037118708
 30
0.0
 10
10.7088448367
 20
8.5084921899
 30
0.0
 10
10.7114762885
 20
8.511936731
 30
0.0
 10
10.7127048487
 20
8.5137054338
 30
0.0
  0
SPLINE
  5
2FE
100
AcDbEntity
  8
0
100
AcDbSpline
 62
7
  6
CONTINUOUS
 70
0
 71
3
 72
23
 73
19
 74
0
 42
0.0000001
 43
0.0000001
 44
0.0000000001
 40
0.0
 40
0.0
 40
0.0
 40
0.0
 40
0.0595098976
 40
0.119845014
 40
0.1810538469
 40
0.2432133526
 40
0.3063285584
 40
0.3703146193
 40
0.4349737189
 40
0.4999999918
 40
0.5650262662
 40
0.629685371
 40
0.6936714376
 40
0.7567866439
 40
0.8189461479
 40
0.8801549833
 40
0.9404901017
 40
1.0
 40
1.0
 40
1.0
 40
1.0
 10
10.6232621296
 20
8.4990048494
 30
0.0
 10
10.6244932071
 20
8.4973118034
 30
0.0
 10
10.6271314167
 20
8.4940142378
 30
0.0
 10
10.6315859097
 20
8.4894477936
 30
0.0
 10
10.6365689558
 20
8.485313467
 30
0.0
 10
10.6420683116
 20
8.4817106665
 30
0.0
 10
10.6480471398
 20
8.4787444514
 30
0.0
 10
10.6544364901
 20
8.4765242525
 30
0.0
 10
10.6611290966
 20
8.4751469449
 30
0.0
 10
10.6679834883
 20
8.4746796964
 30
0.0
 10
10.6748378802
 20
8.4751469448
 30
0.0
 10
10.6815304872
 20
8.4765242522
 30
0.0
 10
10.6879198379
 20
8.4787444511
 30
0.0
 10
10.6938986663
 20
8.4817106662
 30
0.0
 10
10.6993980221
 20
8.4853134668
 30
0.0
 10
10.7043810684
 20
8.4894477934
 30
0.0
 10
10.7088355615
 20
8.4940142377
 30
0.0
 10
10.7114737711
 20
8.4973118033
 30
0.0
 10
10.7127048487
 20
8.4990048494
 30
0.0
  0
SPLINE
  5
2FF
100
AcDbEntity
  8
0
100
AcDbSpline
 62
7
  6
CONTINUOUS
 70
0
 71
3
 72
23
 73
19
 74
0
 42
0.0000001
 43
0.0000001
 44
0.0000000001
 40
0.0
 40
0.0
 40
0.0
 40
0.0
 40
0.0583810178
 40
0.1178996575
 40
0.178636094
 40
0.2406838142
 40
0.3040411377
 40
0.3685853978
 40
0.4340436136
 40
0.4999999916
 40
0.5659563712
 40
0.6314145923
 40
0.6959588582
 40
0.7593161823
 40
0.8213639009
 40
0.8821003398
 40
0.9416189815
 40
1.0
 40
1.0
 40
1.0
 40
1.0
 10
10.6232621296
 20
8.4884178547
 30
0.0
 10
10.6244964027
 20
8.4868135681
 30
0.0
 10
10.6271430092
 20
8.4836886559
 30
0.0
 10
10.6315998025
 20
8.4793731193
 30
0.0
 10
10.6365846185
 20
8.4754668936
 30
0.0
 10
10.6420845793
 20
8.4720639854
 30
0.0
 10
10.6480623112
 20
8.4692633941
 30
0.0
 10
10.6544484028
 20
8.4671680136
 30
0.0
 10
10.6611356877
 20
8.4658685837
 30
0.0
 10
10.6679834883
 20
8.4654278421
 30
0.0
 10
10.6748312891
 20
8.4658685836
 30
0.0
 10
10.6815185745
 20
8.4671680134
 30
0.0
 10
10.6879046665
 20
8.4692633938
 30
0.0
 10
10.6938823986
 20
8.4720639851
 30
0.0
 10
10.6993823594
 20
8.4754668934
 30
0.0
 10
10.7043671755
 20
8.4793731191
 30
0.0
 10
10.708823969
 20
8.4836886558
 30
0.0
 10
10.7114705755
 20
8.4868135681
 30
0.0
 10
10.7127048487
 20
8.4884178547
 30
0.0
  0
SPLINE
  5
300
100
AcDbEntity
  8
0
100
AcDbSpline
 62
7
  6
CONTINUOUS
 70
0
 71
3
 72
23
 73
19
 74
0
 42
0.0000001
 43
0.0000001
 44
0.0000000001
 40
0.0
 40
0.0
 40
0.0
 40
0.0
 40
0.0570794971
 40
0.1156653554
 40
0.1758698079
 40
0.2378000919
 40
0.3014417653
 40
0.3666253167
 40
0.4329910517
 40
0.4999999915
 40
0.5670089329
 40
0.6333746733
 40
0.6985582306
 40
0.7621999047
 40
0.824130187
 40
0.8843346419
 40
0.9429205022
 40
1.0
 40
1.0
 40
1.0
 40
1.0
 10
10.6232621296
 20
8.4820296947
 30
0.0
 10
10.6245003881
 20
8.4805266423
 30
0.0
 10
10.6271571856
 20
8.4775989654
 30
0.0
 10
10.6316163643
 20
8.4735694619
 30
0.0
 10
10.6366028032
 20
8.4699231736
 30
0.0
 10
10.6421029879
 20
8.466747852
 30
0.0
 10
10.6480790869
 20
8.4641355679
 30
0.0
 10
10.6544613325
 20
8.4621818508
 30
0.0
 10
10.6611427555
 20
8.460970661
 30
0.0
 10
10.6679834883
 20
8.4605599228
 30
0.0
 10
10.6748242213
 20
8.4609706609
 30
0.0
 10
10.6815056448
 20
8.4621818505
 30
0.0
 10
10.6878878908
 20
8.4641355677
 30
0.0
 10
10.69386399
 20
8.4667478518
 30
0.0
 10
10.6993641747
 20
8.4699231734
 30
0.0
 10
10.7043506138
 20
8.4735694617
 30
0.0
 10
10.7088097926
 20
8.4775989653
 30
0.0
 10
10.7114665902
 20
8.4805266423
 30
0.0
 10
10.7127048487
 20
8.4820296947
 30
0.0
  0
SPLINE
  5
301
100
AcDbEntity
  8
0
100
AcDbSpline
 62
9
  6
CONTINUOUS
 70
0
 71
3
 72
13
 73
9
 74
0
 42
0.0000001
 43
0.0000001
 44
0.0000000001
 40
0.0
 40
0.0
 40
0.0
 40
0.0
 40
0.2339643449
 40
0.3561619118
 40
0.4812639311
 40
0.6087857446
 40
0.7381720112
 40
1.0
 40
1.0
 40
1.0
 40
1.0
 10
9.5697733193
 20
9.6481910249
 30
0.0
 10
9.5617478374
 20
9.6424049539
 30
0.0
 10
9.5486489706
 20
9.6347644957
 30
0.0
 10
9.5299349754
 20
9.6267367262
 30
0.0
 10
9.5149037099
 20
9.6216518621
 30
0.0
 10
9.4992380188
 20
9.617645947
 30
0.0
 10
9.477631815
 20
9.6137791087
 30
0.0
 10
9.4610555599
 20
9.6126225019
 30
0.0
 10
9.4499834891
 20
9.6126225019
 30
0.0
  0
SPLINE
  5
302
100
AcDbEntity
  8
0
100
AcDbSpline
 62
9
  6
CONTINUOUS
 70
0
 71
3
 72
13
 73
9
 74
0
 42
0.0000001
 43
0.0000001
 44
0.0000000001
 40
0.0
 40
0.0
 40
0.0
 40
0.0
 40
0.2339643449
 40
0.3561619118
 40
0.4812639311
 40
0.6087857446
 40
0.7381720112
 40
1.0
 40
1.0
 40
1.0
 40
1.0
 10
9.330193659
 20
9.6481910249
 30
0.0
 10
9.3382191409
 20
9.6424049539
 30
0.0
 10
9.3513180077
 20
9.6347644957
 30
0.0
 10
9.3700320029
 20
9.6267367262
 30
0.0
 10
9.3850632684
 20
9.6216518621
 30
0.0
 10
9.4007289595
 20
9.617645947
 30
0.0
 10
9.4223351633
 20
9.6137791087
 30
0.0
 10
9.4389114184
 20
9.6126225019
 30
0.0
 10
9.4499834891
 20
9.6126225019
 30
0.0
  0
SPLINE
  5
303
100
AcDbEntity
  8
0
100
AcDbSpline
 62
9
  6
CONTINUOUS
 70
0
 71
3
 72
15
 73
11
 74
0
 42
0.0000001
 43
0.0000001
 44
0.0000000001
 40
0.0
 40
0.0
 40
0.0
 40
0.0
 40
0.1140850148
 40
0.2294771032
 40
0.3473084287
 40
0.4686116619
 40
0.5941477235
 40
0.7244284871
 40
0.8597086119
 40
1.0
 40
1.0
 40
1.0
 40
1.0
 10
9.6366614251
 20
8.579499941
 30
0.0
 10
9.6366614251
 20
8.5747930722
 30
0.0
 10
9.6359398457
 20
8.5653102128
 30
0.0
 10
9.6327173044
 20
8.5512970954
 30
0.0
 10
9.6273933192
 20
8.5376202431
 30
0.0
 10
9.6200405942
 20
8.5244428506
 30
0.0
 10
9.610749187
 20
8.5119126425
 30
0.0
 10
9.5996313911
 20
8.500168586
 30
0.0
 10
9.5868189733
 20
8.4893404581
 30
0.0
 10
9.5774076183
 20
8.4829224344
 30
0.0
 10
9.5724770284
 20
8.4798907435
 30
0.0
  0
SPLINE
  5
304
100
AcDbEntity
  8
0
100
AcDbSpline
 62
9
  6
CONTINUOUS
 70
0
 71
3
 72
15
 73
11
 74
0
 42
0.0000001
 43
0.0000001
 44
0.0000000001
 40
0.0
 40
0.0
 40
0.0
 40
0.0
 40
0.1402143624
 40
0.2754334757
 40
0.4056758385
 40
0.5312002733
 40
0.6525194324
 40
0.7703917984
 40
0.8858444665
 40
1.0
 40
1.0
 40
1.0
 40
1.0
 10
9.3269526778
 20
8.4802223765
 30
0.0
 10
9.3220603279
 20
8.4832538755
 30
0.0
 10
9.3127230793
 20
8.4896672375
 30
0.0
 10
9.3000153392
 20
8.5004752855
 30
0.0
 10
9.2889908883
 20
8.5121876514
 30
0.0
 10
9.2797792895
 20
8.5246760234
 30
0.0
 10
9.2724909096
 20
8.5378030591
 30
0.0
 10
9.2672142207
 20
8.551422871
 30
0.0
 10
9.2640206201
 20
8.5653743315
 30
0.0
 10
9.2633055532
 20
8.5748141503
 30
0.0
 10
9.2633055532
 20
8.579499941
 30
0.0
  0
SPLINE
  5
305
100
AcDbEntity
  8
0
100
AcDbSpline
 62
9
  6
CONTINUOUS
 70
0
 71
3
 72
37
 73
33
 74
0
 42
0.0000001
 43
0.0000001
 44
0.0000000001
 40
0.0
 40
0.0
 40
0.0
 40
0.0
 40
0.0257288487
 40
0.0517100208
 40
0.0781575803
 40
0.1052781568
 40
0.1332302904
 40
0.1621289189
 40
0.1920448377
 40
0.2230039147
 40
0.2549914118
 40
0.2879566808
 40
0.3218171238
 40
0.3564632592
 40
0.4275238973
 40
0.4636747783
 40
0.5000000001
 40
0.5363252218
 40
0.5724761027
 40
0.6435367411
 40
0.6781828767
 40
0.7120433198
 40
0.7450085891
 40
0.776996086
 40
0.8079551624
 40
0.8378710809
 40
0.8667697094
 40
0.8947218431
 40
0.9218424197
 40
0.9482899791
 40
0.9742711512
 40
1.0
 40
1.0
 40
1.0
 40
1.0
 10
9.2633055532
 20
8.579499941
 30
0.0
 10
9.2633055532
 20
8.5838225669
 30
0.0
 10
9.2639131966
 20
8.5925220003
 30
0.0
 10
9.2666288766
 20
8.6054087085
 30
0.0
 10
9.2711230373
 20
8.6180367347
 30
0.0
 10
9.2773444954
 20
8.630277856
 30
0.0
 10
9.2852282921
 20
8.6420163253
 30
0.0
 10
9.2946939656
 20
8.6531408674
 30
0.0
 10
9.3056478318
 20
8.6635472509
 30
0.0
 10
9.3179829571
 20
8.6731385516
 30
0.0
 10
9.3315800984
 20
8.6818258291
 30
0.0
 10
9.3463087808
 20
8.6895274049
 30
0.0
 10
9.3620294205
 20
8.6961713835
 30
0.0
 10
9.3842901429
 20
8.7035965994
 30
0.0
 10
9.4077016689
 20
8.7085679546
 30
0.0
 10
9.4316995018
 20
8.7110788611
 30
0.0
 10
9.4499834892
 20
8.7117128405
 30
0.0
 10
9.4682674765
 20
8.7110788611
 30
0.0
 10
9.4922653095
 20
8.7085679546
 30
0.0
 10
9.5156768355
 20
8.7035965994
 30
0.0
 10
9.537937558
 20
8.6961713834
 30
0.0
 10
9.5536581977
 20
8.6895274047
 30
0.0
 10
9.5683868802
 20
8.6818258289
 30
0.0
 10
9.5819840214
 20
8.6731385515
 30
0.0
 10
9.5943191465
 20
8.6635472508
 30
0.0
 10
9.6052730126
 20
8.6531408674
 30
0.0
 10
9.6147386861
 20
8.6420163253
 30
0.0
 10
9.6226224829
 20
8.6302778561
 30
0.0
 10
9.6288439409
 20
8.6180367347
 30
0.0
 10
9.6333381016
 20
8.6054087085
 30
0.0
 10
9.6360537816
 20
8.5925220003
 30
0.0
 10
9.6366614251
 20
8.583822567
 30
0.0
 10
9.6366614251
 20
8.579499941
 30
0.0
  0
SPLINE
  5
306
100
AcDbEntity
  8
0
100
AcDbSpline
 62
7
  6
CONTINUOUS
 70
0
 71
3
 72
21
 73
17
 74
0
 42
0.0000001
 43
0.0000001
 44
0.0000000001
 40
0.0
 40
0.0
 40
0.0
 40
0.0
 40
0.1231281327
 40
0.2462247671
 40
0.3077865989
 40
0.3693714388
 40
0.4926823737
 40
0.5544778994
 40
0.616429215
 40
0.678617748
 40
0.7411624007
 40
0.804246236
 40
0.8360746431
 40
0.8681468739
 40
0.9332153926
 40
1.0
 40
1.0
 40
1.0
 40
1.0
 10
11.74828459
 20
9.6283395748
 30
0.0
 10
11.7485137515
 20
9.6229073037
 30
0.0
 10
11.7487904861
 20
9.6120360854
 30
0.0
 10
11.7487608029
 20
9.5984431247
 30
0.0
 10
11.7485017591
 20
9.587572161
 30
0.0
 10
11.7480769762
 20
9.5766971282
 30
0.0
 10
11.7473588464
 20
9.565823695
 30
0.0
 10
11.7462576635
 20
9.5549687143
 30
0.0
 10
11.7451911789
 20
9.5468262947
 30
0.0
 10
11.7438392242
 20
9.5386923925
 30
0.0
 10
11.7421537972
 20
9.5305691874
 30
0.0
 10
11.7404063403
 20
9.5238355036
 30
0.0
 10
11.738763596
 20
9.5184733213
 30
0.0
 10
11.7369286844
 20
9.5130811652
 30
0.0
 10
11.7342430855
 20
9.5063518001
 30
0.0
 10
11.7316376957
 20
9.5011345663
 30
0.0
 10
11.7301987982
 20
9.4985603384
 30
0.0
  0
SPLINE
  5
307
100
AcDbEntity
  8
0
100
AcDbSpline
 62
7
  6
CONTINUOUS
 70
0
 71
3
 72
31
 73
27
 74
0
 42
0.0000001
 43
0.0000001
 44
0.0000000001
 40
0.0
 40
0.0
 40
0.0
 40
0.0
 40
0.0312494671
 40
0.0624990724
 40
0.0937482857
 40
0.1249971575
 40
0.1562459963
 40
0.1874944228
 40
0.2499896565
 40
0.3124849724
 40
0.3749801761
 40
0.4374753306
 40
0.468723106
 40
0.499970931
 40
0.5624662579
 40
0.6249618748
 40
0.6874585026
 40
0.7499589941
 40
0.7812086538
 40
0.8124584172
 40
0.8437095187
 40
0.8749613013
 40
0.9062185515
 40
0.937487297
 40
0.9687508456
 40
1.0
 40
1.0
 40
1.0
 40
1.0
 10
11.7330318599
 20
9.2123899562
 30
0.0
 10
11.7340459327
 20
9.208151869
 30
0.0
 10
11.7359054239
 20
9.1996346722
 30
0.0
 10
11.7382646827
 20
9.1867742685
 30
0.0
 10
11.7402593043
 20
9.1738527339
 30
0.0
 10
11.7419422745
 20
9.1608874897
 30
0.0
 10
11.7433566916
 20
9.1478905752
 30
0.0
 10
11.7449359646
 20
9.1305314094
 30
0.0
 10
11.7464140092
 20
9.108791274
 30
0.0
 10
11.7475973482
 20
9.0826717793
 30
0.0
 10
11.7483317971
 20
9.05653633
 30
0.0
 10
11.7486514443
 20
9.0347507776
 30
0.0
 10
11.7487543946
 20
9.0173211181
 30
0.0
 10
11.7487621093
 20
8.9998911275
 30
0.0
 10
11.748587334
 20
8.9781039287
 30
0.0
 10
11.7480652107
 20
8.9519633157
 30
0.0
 10
11.7471468266
 20
8.9258326012
 30
0.0
 10
11.7459701326
 20
8.9040738038
 30
0.0
 10
11.7446873153
 20
8.8866893611
 30
0.0
 10
11.7435303975
 20
8.8736666427
 30
0.0
 10
11.7421519335
 20
8.8606650126
 30
0.0
 10
11.7405074869
 20
8.8476929468
 30
0.0
 10
11.7385540452
 20
8.8347610435
 30
0.0
 10
11.7362517864
 20
8.8218843671
 30
0.0
 10
11.7335252603
 20
8.8090912819
 30
0.0
 10
11.7313717398
 20
8.8006407931
 30
0.0
 10
11.7301987982
 20
8.7964439425
 30
0.0
  0
SPLINE
  5
308
100
AcDbEntity
  8
0
100
AcDbSpline
 62
7
  6
CONTINUOUS
 70
0
 71
3
 72
16
 73
12
 74
0
 42
0.0000001
 43
0.0000001
 44
0.0000000001
 40
0.0
 40
0.0
 40
0.0
 40
0.0
 40
0.1218018397
 40
0.2439139425
 40
0.3664970369
 40
0.4897856191
 40
0.6141388727
 40
0.6768802903
 40
0.7401021222
 40
0.8683650316
 40
1.0
 40
1.0
 40
1.0
 40
1.0
 10
11.7470228292
 20
8.3720075356
 30
0.0
 10
11.7467777938
 20
8.3693034932
 30
0.0
 10
11.7462233288
 20
8.3638939595
 30
0.0
 10
11.7451541118
 20
8.3557931791
 30
0.0
 10
11.7438001894
 20
8.3477009439
 30
0.0
 10
11.7421146052
 20
8.3396195187
 30
0.0
 10
11.740369573
 20
8.3329205208
 30
0.0
 10
11.738730321
 20
8.3275860479
 30
0.0
 10
11.7369001155
 20
8.3222218759
 30
0.0
 10
11.7342239818
 20
8.3155274574
 30
0.0
 10
11.7316304916
 20
8.3103367477
 30
0.0
 10
11.7301987982
 20
8.3077754082
 30
0.0
  0
ENDSEC
  0
SECTION
  2
OBJECTS
  0
DICTIONARY
  5
C
100
AcDbDictionary
280
0
281
1
  3
ACAD_GROUP
350
D
  3
ACAD_MLINESTYLE
350
17
  3
ACAD_LAYOUT
350
1A
  3
ACAD_PLOTSETTINGS
350
19
  3
ACAD_PLOTSTYLENAME
350
E
  0
DICTIONARY
  5
D
102
{ACAD_REACTORS
330
C
102
}
100
AcDbDictionary
280
0
281
1
  0
ACDBDICTIONARYWDFLT
  5
E
102
{ACAD_REACTORS
330
C
102
}
100
AcDbDictionary
281
1
  3
Normal
350
F
100
AcDbDictionaryWithDefault
340
F
  0
DICTIONARY
  5
17
102
{ACAD_REACTORS
330
C
102
}
100
AcDbDictionary
280
0
281
1
  3
Standard
350
18
  0
DICTIONARY
  5
19
102
{ACAD_REACTORS
330
C
102
}
100
AcDbDictionary
281
1
  0
DICTIONARY
  5
1A
102
{ACAD_REACTORS
330
C
102
}
100
AcDbDictionary
281
1
  3
Model
350
309
  3
Layout1
350
30A
  0
ACDBPLACEHOLDER
  5
F
102
{ACAD_REACTORS
330
E
102
}
  0
MLINESTYLE
  5
18
102
{ACAD_REACTORS
330
17
102
}
100
AcDbMlineStyle
  2
STANDARD
 70
0
  3

 62
256
 51
90.0
 52
90.0
 71
2
 49
0.5
 62
256
  6
BYLAYER
 49
-0.5
 62
256
  6
BYLAYER
  0
LAYOUT
  5
309
102
{ACAD_REACTORS
330
1A
102
}
100
AcDbPlotSettings
  1

  2
none_device
  4
ANSI_C_(22.00_x_17.00_Inches)
  6

 40
0.0
 41
0.0
 42
0.0
 43
0.0
 44
558.8
 45
431.8
 46
0.0
 47
0.0
 48
0.0
 49
0.0
140
0.0
141
0.0
142
1.0
143
1.0
 70
1024
 72
0
 73
0
 74
0
  7

 75
0
147
1.0
148
0.0
149
0.0
100
AcDbLayout
  1
Model
 70
0
 71
0
 10
0.0
 20
0.0
 11
22.0
 21
17.0
 12
0.0
 22
0.0
 32
0.0
 14
0.0
 24
0.0
 34
0.0
 15
0.0
 25
0.0
 35
0.0
146
0.0
 13
0.0
 23
0.0
 33
0.0
 16
1.0
 26
0.0
 36
0.0
 17
0.0
 27
1.0
 37
0.0
 76
0
330
205
345
0
346
0
  0
LAYOUT
  5
30A
102
{ACAD_REACTORS
330
1A
102
}
100
AcDbPlotSettings
  1

  2
none_device
  4
ANSI_C_(22.00_x_17.00_Inches)
  6

 40
0.0
 41
0.0
 42
0.0
 43
0.0
 44
558.8
 45
431.8
 46
0.0
 47
0.0
 48
0.0
 49
0.0
140
0.0
141
0.0
142
1.0
143
1.0
 70
0
 72
0
 73
0
 74
0
  7

 75
0
147
1.0
148
0.0
149
0.0
100
AcDbLayout
  1
Layout1
 70
0
 71
1
 10
0.0
 20
0.0
 11
22.0
 21
17.0
 12
0.0
 22
0.0
 32
0.0
 14
0.0
 24
0.0
 34
0.0
 15
0.0
 25
0.0
 35
0.0
146
0.0
 13
0.0
 23
0.0
 33
0.0
 16
1.0
 26
0.0
 36
0.0
 17
0.0
 27
1.0
 37
0.0
 76
0
330
206
345
0
346
0
  0
ENDSEC
  0
EOF
