999
DXF file: E:\BT Custom\CADOUTPUT\_RIGHT.dxf
999
Pro/ENGINEER 2018400 by Parametric Technology Corporation
  0
SECTION
  2
HEADER
  9
$ACADVER
  1
AC1018
  9
$DWGCODEPAGE
  3
ANSI_1252
  9
$EXTMAX
 10
22.0
 20
17.0
 30
0.0
  9
$EXTMIN
 10
0.0
 20
0.0
 30
0.0
  9
$LIMMIN
 10
0.0
 20
0.0
  9
$LIMMAX
 10
22.0
 20
17.0
  9
$VIEWCTR
 10
11.0
 20
8.5
  9
$VIEWSIZE
 40
17.0
  9
$CLAYER
  8
0
  9
$LTSCALE
 40
1.21
  9
$CELTYPE
  6
BYLAYER
  9
$DIMSCALE
 40
1.0
  9
$DIMASZ
 40
0.1
  9
$DIMEXO
 40
0.0625
  9
$DIMDLI
 40
0.836
  9
$DIMEXE
 40
0.125
  9
$DIMCEN
 40
0.198
  9
$DIMLFAC
 40
1.0
  9
$DIMBLK
  1
_FILLED
  9
$DIMALT
 70
1
  9
$DIMALTD
 70
2
  9
$DIMALTTD
 70
2
  9
$DIMALTF
 40
25.4
  9
$DIMTXT
 40
0.08
  9
$DIMTOL
 70
1
  9
$DIMLIM
 70
0
  9
$DIMTFAC
 40
1.0
  9
$DIMTP
 40
0.001
  9
$DIMTM
 40
0.001
  9
$DIMGAP
 40
0.09
  9
$DIMDSEP
 70
46
  9
$AUNITS
 70
0
  9
$PDMODE
 70
3
  9
$PDSIZE
 40
0.06
  9
$HANDSEED
  5
2D4
  9
$TILEMODE
 70
1
  9
$MEASUREMENT
 70
0
  9
$INSUNITS
 70
1
  0
ENDSEC
  0
SECTION
  2
CLASSES
  0
CLASS
  1
ACDBDICTIONARYWDFLT
  2
AcDbDictionaryWithDefault
  3
AutoCAD 2000
 90
0
 91
1
280
0
281
0
  0
CLASS
  1
ACDBPLACEHOLDER
  2
AcDbPlaceHolder
  3
AutoCAD 2000
 90
0
 91
1
280
0
281
0
  0
CLASS
  1
LAYOUT
  2
AcDbLayout
  3
AutoCAD 2000
 90
0
 91
0
280
0
281
0
  0
ENDSEC
  0
SECTION
  2
TABLES
  0
TABLE
  2
VPORT
  5
8
100
AcDbSymbolTable
 70
2
  0
VPORT
  5
1F4
100
AcDbSymbolTableRecord
100
AcDbViewportTableRecord
  2
*ACTIVE
 70
0
 10
0.0
 20
0.0
 11
1.0
 21
1.0
 12
11.0
 22
8.5
 13
0.0
 23
0.0
 14
1.0
 24
1.0
 15
0.0
 25
0.0
 16
0.0
 26
0.0
 36
1.0
 17
0.0
 27
0.0
 37
0.0
 40
17.0
 41
1.2941176471
 42
50.0
 43
0.0
 44
0.0
 50
0.0
 51
0.0
 71
0
 72
100
 73
1
 74
1
 75
0
 76
0
 77
0
 78
0
  0
ENDTAB
  0
TABLE
  2
LTYPE
  5
5
100
AcDbSymbolTable
 70
6
  0
LTYPE
  5
14
100
AcDbSymbolTableRecord
100
AcDbLinetypeTableRecord
  2
BYBLOCK
 70
0
  3

 72
65
 73
0
 40
0.0
  0
LTYPE
  5
15
100
AcDbSymbolTableRecord
100
AcDbLinetypeTableRecord
  2
BYLAYER
 70
0
  3

 72
65
 73
0
 40
0.0
  0
LTYPE
  5
16
100
AcDbSymbolTableRecord
100
AcDbLinetypeTableRecord
  2
CONTINUOUS
 70
64
  3
Solid line
 72
65
 73
0
 40
0.0
  0
LTYPE
  5
1F5
100
AcDbSymbolTableRecord
100
AcDbLinetypeTableRecord
  2
CENTER
 70
64
  3
____ _ ____ _ ____ _ ____ _ ____ _ ____ _ ____
 72
65
 73
4
 40
0.6
 49
0.375
 74
0
 49
-0.075
 74
0
 49
0.075
 74
0
 49
-0.075
 74
0
  0
LTYPE
  5
1F6
100
AcDbSymbolTableRecord
100
AcDbLinetypeTableRecord
  2
HIDDEN
 70
64
  3
- - - - - - - - - - - - - - - - - - - -
 72
65
 73
2
 40
0.2
 49
0.1
 74
0
 49
-0.1
 74
0
  0
LTYPE
  5
1F7
100
AcDbSymbolTableRecord
100
AcDbLinetypeTableRecord
  2
PHANTOM
 70
64
  3
_____ _ _ _____ _ _ _____ _ _ _____
 72
65
 73
6
 40
0.8
 49
0.45
 74
0
 49
-0.05
 74
0
 49
0.1
 74
0
 49
-0.05
 74
0
 49
0.1
 74
0
 49
-0.05
 74
0
  0
LTYPE
  5
1F8
100
AcDbSymbolTableRecord
100
AcDbLinetypeTableRecord
  2
DOT
 70
64
  3
. . . . . . . . . . . . . . . . . . . .
 72
65
 73
2
 40
0.2
 49
0.1
 74
0
 49
-0.1
 74
0
  0
LTYPE
  5
1F9
100
AcDbSymbolTableRecord
100
AcDbLinetypeTableRecord
  2
DASHED
 70
64
  3
- - - - - - - - - - - - - - - - - - - -
 72
65
 73
2
 40
0.2
 49
0.1
 74
0
 49
-0.1
 74
0
  0
ENDTAB
  0
TABLE
  2
LAYER
  5
2
100
AcDbSymbolTable
 70
36
  0
LAYER
  5
10
100
AcDbSymbolTableRecord
100
AcDbLayerTableRecord
  2
0
 70
0
 62
7
  6
CONTINUOUS
370
-3
390
F
  0
LAYER
  5
1FA
100
AcDbSymbolTableRecord
100
AcDbLayerTableRecord
  2
DEFAULT_1
 70
0
 62
7
  6
CENTER
370
-3
390
F
  0
LAYER
  5
1FB
100
AcDbSymbolTableRecord
100
AcDbLayerTableRecord
  2
DEFAULT_2
 70
0
 62
8
  6
HIDDEN
370
-3
390
F
  0
LAYER
  5
1FC
100
AcDbSymbolTableRecord
100
AcDbLayerTableRecord
  2
DEFAULT_3
 70
0
 62
7
  6
PHANTOM
370
-3
390
F
  0
LAYER
  5
1FD
100
AcDbSymbolTableRecord
100
AcDbLayerTableRecord
  2
ALL_FEATURES
 70
0
 62
7
  6
CONTINUOUS
370
-3
390
F
  0
LAYER
  5
1FE
100
AcDbSymbolTableRecord
100
AcDbLayerTableRecord
  2
AXES_FEATURES
 70
0
 62
7
  6
CONTINUOUS
370
-3
390
F
  0
LAYER
  5
1FF
100
AcDbSymbolTableRecord
100
AcDbLayerTableRecord
  2
DEFAULT_COORDINATE_SYSTEM
 70
0
 62
7
  6
CONTINUOUS
370
-3
390
F
  0
LAYER
  5
200
100
AcDbSymbolTableRecord
100
AcDbLayerTableRecord
  2
DEFAULT_DATUM_AXES
 70
0
 62
7
  6
CONTINUOUS
370
-3
390
F
  0
LAYER
  5
201
100
AcDbSymbolTableRecord
100
AcDbLayerTableRecord
  2
DEFAULT_DATUM_PLANES
 70
0
 62
7
  6
CONTINUOUS
370
-3
390
F
  0
LAYER
  5
202
100
AcDbSymbolTableRecord
100
AcDbLayerTableRecord
  2
DIMENSIONS
 70
0
 62
7
  6
CONTINUOUS
370
-3
390
F
  0
ENDTAB
  0
TABLE
  2
STYLE
  5
3
100
AcDbSymbolTable
 70
1
  0
STYLE
  5
11
100
AcDbSymbolTableRecord
100
AcDbTextStyleTableRecord
  2
STANDARD
 70
0
 40
0.0
 41
0.8
 50
0.0
 71
0
 42
0.2
  3
txt
  4

  0
STYLE
  5
203
100
AcDbSymbolTableRecord
100
AcDbTextStyleTableRecord
  2
TEXTSTYLE_1
 70
0
 40
0.0
 41
0.8
 50
0.0
 71
0
 42
0.2
  3
gdt
  4

  0
ENDTAB
  0
TABLE
  2
VIEW
  5
6
100
AcDbSymbolTable
 70
0
  0
ENDTAB
  0
TABLE
  2
UCS
  5
7
100
AcDbSymbolTable
 70
0
  0
ENDTAB
  0
TABLE
  2
APPID
  5
9
100
AcDbSymbolTable
 70
1
  0
APPID
  5
204
100
AcDbSymbolTableRecord
100
AcDbRegAppTableRecord
  2
ACAD
 70
0
  0
ENDTAB
  0
TABLE
  2
BLOCK_RECORD
  5
1
100
AcDbSymbolTable
 70
0
  0
BLOCK_RECORD
  5
205
100
AcDbSymbolTableRecord
100
AcDbBlockTableRecord
  2
*Model_Space
  0
BLOCK_RECORD
  5
206
100
AcDbSymbolTableRecord
100
AcDbBlockTableRecord
  2
*Paper_Space
  0
BLOCK_RECORD
  5
207
100
AcDbSymbolTableRecord
100
AcDbBlockTableRecord
  2
_FILLED
  0
ENDTAB
  0
TABLE
  2
DIMSTYLE
  5
A
100
AcDbSymbolTable
 70
1
100
AcDbDimStyleTable
 71
0
  0
DIMSTYLE
105
208
100
AcDbSymbolTableRecord
100
AcDbDimStyleTableRecord
  2
STANDARD
 70
0
  3

  4

 40
1.0
 41
0.1
 42
0.0625
 43
0.38
 44
0.125
 45
0.0
 46
0.0
 47
0.001
 48
0.001
140
0.08
141
0.09
142
0.0
143
25.4
144
1.0
145
0.0
146
1.0
147
0.09
 71
1.0
 72
0.0
 73
1
 74
1
 75
0
 76
0
 77
0
 78
4
 79
1
170
1
171
2
172
0
173
0
174
0
175
0
176
0
177
0
178
0
270
2
179
3
271
3
272
3
273
2
274
2
275
0
280
0
281
0
282
0
283
1
284
4
285
0
286
0
287
3
288
0
340
11
278
46
341
207
342
207
343
207
344
207
  0
ENDTAB
  0
ENDSEC
  0
SECTION
  2
BLOCKS
  0
BLOCK
  5
20
100
AcDbEntity
  8
0
100
AcDbBlockBegin
  2
*Model_Space
 70
0
 10
0.0
 20
0.0
 30
0.0
  3
*Model_Space
  1

  0
ENDBLK
  5
21
100
AcDbEntity
  8
0
100
AcDbBlockEnd
  0
BLOCK
  5
1C
100
AcDbEntity
  8
0
100
AcDbBlockBegin
  2
*Paper_Space
 70
0
 10
0.0
 20
0.0
 30
0.0
  3
*Paper_Space
  1

  0
ENDBLK
  5
1D
100
AcDbEntity
  8
0
100
AcDbBlockEnd
  0
BLOCK
  5
209
100
AcDbEntity
  8
0
100
AcDbBlockBegin
  2
_FILLED
 70
64
 10
0.0
 20
0.0
  3
_FILLED
  1

  0
SOLID
  5
20A
100
AcDbEntity
  8
0
  6
BYBLOCK
 62
0
100
AcDbTrace
 10
0.0
 20
0.0
 11
-1.0
 21
0.2
 12
-1.0
 22
-0.2
 13
-1.0
 23
-0.2
  0
ENDBLK
  5
20B
100
AcDbEntity
  8
0
  6
BYBLOCK
 62
0
100
AcDbBlockEnd
  0
ENDSEC
  0
SECTION
  2
ENTITIES
  0
LINE
  5
20C
100
AcDbEntity
  8
0
100
AcDbLine
 62
7
  6
CONTINUOUS
 10
9.0739834891
 20
5.651641804
 11
9.7629834891
 21
5.651641804
  0
LINE
  5
20D
100
AcDbEntity
  8
0
100
AcDbLine
 62
7
  6
CONTINUOUS
 10
9.7629834891
 20
5.752641804
 11
9.0739834891
 21
5.752641804
  0
LINE
  5
20E
100
AcDbEntity
  8
0
100
AcDbLine
 62
9
  6
CONTINUOUS
 10
9.0739834891
 20
7.0451080729
 11
9.7629834891
 21
7.0451080729
  0
LINE
  5
20F
100
AcDbEntity
  8
0
100
AcDbLine
 62
9
  6
CONTINUOUS
 10
8.9141719633
 20
8.7901239469
 11
8.9141719633
 21
9.5631596612
  0
LINE
  5
210
100
AcDbEntity
  8
0
100
AcDbLine
 62
7
  6
CONTINUOUS
 10
8.9584834891
 20
8.7219062271
 11
8.9584834891
 21
9.631377381
  0
LINE
  5
211
100
AcDbEntity
  8
0
100
AcDbLine
 62
9
  6
CONTINUOUS
 10
8.9726421733
 20
8.7060125317
 11
8.9726421733
 21
9.6472710764
  0
LINE
  5
212
100
AcDbEntity
  8
0
100
AcDbLine
 62
9
  6
CONTINUOUS
 10
9.0491514828
 20
8.654141804
 11
9.0491514828
 21
9.699141804
  0
LINE
  5
213
100
AcDbEntity
  8
0
100
AcDbLine
 62
9
  6
CONTINUOUS
 10
9.1043584962
 20
8.6384867355
 11
9.1043584962
 21
9.7147968725
  0
LINE
  5
214
100
AcDbEntity
  8
0
100
AcDbLine
 62
7
  6
CONTINUOUS
 10
9.1184834873
 20
8.646641803
 11
9.1184834873
 21
9.7066418051
  0
LINE
  5
215
100
AcDbEntity
  8
0
100
AcDbLine
 62
9
  6
CONTINUOUS
 10
9.1669536099
 20
8.5988831079
 11
9.1669536098
 21
9.7544005002
  0
LINE
  5
216
100
AcDbEntity
  8
0
100
AcDbLine
 62
7
  6
CONTINUOUS
 10
9.2224834891
 20
8.5675178193
 11
9.2224834891
 21
8.5850452296
  0
LINE
  5
217
100
AcDbEntity
  8
0
100
AcDbLine
 62
7
  6
CONTINUOUS
 10
9.2224834891
 20
9.7682383785
 11
9.2224834891
 21
9.776641804
  0
LINE
  5
218
100
AcDbEntity
  8
0
100
AcDbLine
 62
7
  6
CONTINUOUS
 10
9.6144834891
 20
8.5675178193
 11
9.6144834891
 21
8.5850452296
  0
LINE
  5
219
100
AcDbEntity
  8
0
100
AcDbLine
 62
7
  6
CONTINUOUS
 10
9.6144834891
 20
9.7682383785
 11
9.6144834891
 21
9.776641804
  0
LINE
  5
21A
100
AcDbEntity
  8
0
100
AcDbLine
 62
9
  6
CONTINUOUS
 10
9.6647497699
 20
8.5970851449
 11
9.6647497699
 21
9.7561984632
  0
LINE
  5
21B
100
AcDbEntity
  8
0
100
AcDbLine
 62
7
  6
CONTINUOUS
 10
9.2134834891
 20
9.7688513432
 11
9.1669536098
 21
9.7544005002
  0
LINE
  5
21C
100
AcDbEntity
  8
0
100
AcDbLine
 62
7
  6
CONTINUOUS
 10
9.7184834891
 20
8.6719373939
 11
9.7184834891
 21
9.6813462142
  0
LINE
  5
21D
100
AcDbEntity
  8
0
100
AcDbLine
 62
9
  6
CONTINUOUS
 10
9.8364834891
 20
9.426641804
 11
9.8364834891
 21
8.926641804
  0
LINE
  5
21E
100
AcDbEntity
  8
0
100
AcDbLine
 62
7
  6
CONTINUOUS
 10
9.6894834891
 20
8.252641804
 11
9.1474834891
 21
8.252641804
  0
LINE
  5
21F
100
AcDbEntity
  8
0
100
AcDbLine
 62
7
  6
CONTINUOUS
 10
9.2134834891
 20
8.5844322649
 11
9.1669536099
 21
8.5988831079
  0
LINE
  5
220
100
AcDbEntity
  8
0
100
AcDbLine
 62
7
  6
CONTINUOUS
 10
9.6894834891
 20
8.352641804
 11
9.1474834891
 21
8.352641804
  0
LINE
  5
221
100
AcDbEntity
  8
0
100
AcDbLine
 62
7
  6
CONTINUOUS
 10
11.6267090532
 20
8.489141804
 11
11.7802524814
 21
8.489141804
  0
LINE
  5
222
100
AcDbEntity
  8
0
100
AcDbLine
 62
7
  6
CONTINUOUS
 10
12.1243598901
 20
8.0253058168
 11
12.2584834891
 21
7.994141804
  0
LINE
  5
223
100
AcDbEntity
  8
0
100
AcDbLine
 62
7
  6
CONTINUOUS
 10
10.4434834891
 20
9.466680113
 11
10.4434834891
 21
8.8866018
  0
LINE
  5
224
100
AcDbEntity
  8
0
100
AcDbLine
 62
7
  6
CONTINUOUS
 10
9.1184834873
 20
8.646641803
 11
9.1043584962
 21
8.6384867355
  0
LINE
  5
225
100
AcDbEntity
  8
0
100
AcDbLine
 62
9
  6
CONTINUOUS
 10
9.2224834891
 20
8.5675178193
 11
9.6144834891
 21
8.5675178193
  0
LINE
  5
226
100
AcDbEntity
  8
0
100
AcDbLine
 62
7
  6
CONTINUOUS
 10
10.6394834891
 20
9.666641804
 11
10.6394834891
 21
8.686641804
  0
LINE
  5
227
100
AcDbEntity
  8
0
100
AcDbLine
 62
7
  6
CONTINUOUS
 10
10.6547621296
 20
8.8279959832
 11
10.7442048487
 21
8.8279959832
  0
LINE
  5
228
100
AcDbEntity
  8
0
100
AcDbLine
 62
7
  6
CONTINUOUS
 10
10.6547621296
 20
8.8651829766
 11
10.7442048487
 21
8.8651829766
  0
LINE
  5
229
100
AcDbEntity
  8
0
100
AcDbLine
 62
7
  6
CONTINUOUS
 10
10.6547621296
 20
8.9048777926
 11
10.7442048487
 21
8.9048777926
  0
LINE
  5
22A
100
AcDbEntity
  8
0
100
AcDbLine
 62
7
  6
CONTINUOUS
 10
10.4434834891
 20
8.926641804
 11
9.8364834891
 21
8.926641804
  0
LINE
  5
22B
100
AcDbEntity
  8
0
100
AcDbLine
 62
7
  6
CONTINUOUS
 10
10.6547621296
 20
8.9467608142
 11
10.7442048487
 21
8.9467608142
  0
LINE
  5
22C
100
AcDbEntity
  8
0
100
AcDbLine
 62
7
  6
CONTINUOUS
 10
10.6547621296
 20
8.990494805
 11
10.7442048487
 21
8.990494805
  0
LINE
  5
22D
100
AcDbEntity
  8
0
100
AcDbLine
 62
7
  6
CONTINUOUS
 10
10.6547621296
 20
9.0357276253
 11
10.7442048487
 21
9.0357276253
  0
LINE
  5
22E
100
AcDbEntity
  8
0
100
AcDbLine
 62
7
  6
CONTINUOUS
 10
9.1184834873
 20
9.7066418051
 11
9.1043584962
 21
9.7147968725
  0
LINE
  5
22F
100
AcDbEntity
  8
0
100
AcDbLine
 62
7
  6
CONTINUOUS
 10
10.7594834891
 20
9.666641804
 11
10.7594834891
 21
8.686641804
  0
LINE
  5
230
100
AcDbEntity
  8
0
100
AcDbLine
 62
7
  6
CONTINUOUS
 10
9.6647497699
 20
8.5970851449
 11
9.6234834891
 21
8.5844322649
  0
LINE
  5
231
100
AcDbEntity
  8
0
100
AcDbLine
 62
7
  6
CONTINUOUS
 10
10.6547621296
 20
9.0820950666
 11
10.7442048487
 21
9.0820950666
  0
LINE
  5
232
100
AcDbEntity
  8
0
100
AcDbLine
 62
7
  6
CONTINUOUS
 10
10.6547621296
 20
9.1292237849
 11
10.7442048487
 21
9.1292237849
  0
LINE
  5
233
100
AcDbEntity
  8
0
100
AcDbLine
 62
7
  6
CONTINUOUS
 10
10.6547621296
 20
9.176641804
 11
10.7442048487
 21
9.176641804
  0
LINE
  5
234
100
AcDbEntity
  8
0
100
AcDbLine
 62
7
  6
CONTINUOUS
 10
10.6547621296
 20
9.2241519539
 11
10.7442048487
 21
9.2241519539
  0
LINE
  5
235
100
AcDbEntity
  8
0
100
AcDbLine
 62
7
  6
CONTINUOUS
 10
10.6547621296
 20
9.2712795587
 11
10.7442048487
 21
9.2712795587
  0
LINE
  5
236
100
AcDbEntity
  8
0
100
AcDbLine
 62
7
  6
CONTINUOUS
 10
10.6547621296
 20
9.3176451537
 11
10.7442048487
 21
9.3176451537
  0
LINE
  5
237
100
AcDbEntity
  8
0
100
AcDbLine
 62
7
  6
CONTINUOUS
 10
10.6547621296
 20
9.3628754096
 11
10.7442048487
 21
9.3628754096
  0
LINE
  5
238
100
AcDbEntity
  8
0
100
AcDbLine
 62
7
  6
CONTINUOUS
 10
10.6547621296
 20
9.4066061387
 11
10.7442048487
 21
9.4066061387
  0
LINE
  5
239
100
AcDbEntity
  8
0
100
AcDbLine
 62
7
  6
CONTINUOUS
 10
10.4434834891
 20
9.426641804
 11
9.8364834891
 21
9.426641804
  0
LINE
  5
23A
100
AcDbEntity
  8
0
100
AcDbLine
 62
7
  6
CONTINUOUS
 10
10.6547621296
 20
9.4484852275
 11
10.7442048487
 21
9.4484852275
  0
LINE
  5
23B
100
AcDbEntity
  8
0
100
AcDbLine
 62
7
  6
CONTINUOUS
 10
10.6547621296
 20
9.4881754713
 11
10.7442048487
 21
9.4881754713
  0
LINE
  5
23C
100
AcDbEntity
  8
0
100
AcDbLine
 62
7
  6
CONTINUOUS
 10
10.6547621296
 20
9.52535729
 11
10.7442048487
 21
9.52535729
  0
LINE
  5
23D
100
AcDbEntity
  8
0
100
AcDbLine
 62
7
  6
CONTINUOUS
 10
9.6647497699
 20
9.7561984632
 11
9.6234834891
 21
9.7688513432
  0
LINE
  5
23E
100
AcDbEntity
  8
0
100
AcDbLine
 62
7
  6
CONTINUOUS
 10
9.2224834891
 20
9.776641804
 11
9.6144834891
 21
9.776641804
  0
LINE
  5
23F
100
AcDbEntity
  8
0
100
AcDbLine
 62
7
  6
CONTINUOUS
 10
11.6234975529
 20
8.510141804
 11
11.6234975529
 21
9.843141804
  0
LINE
  5
240
100
AcDbEntity
  8
0
100
AcDbLine
 62
7
  6
CONTINUOUS
 10
11.7834834891
 20
9.841641804
 11
11.7834834891
 21
8.511641804
  0
LINE
  5
241
100
AcDbEntity
  8
0
100
AcDbLine
 62
7
  6
CONTINUOUS
 10
12.1243598901
 20
10.3279777913
 11
12.2584834891
 21
10.359141804
  0
LINE
  5
242
100
AcDbEntity
  8
0
100
AcDbLine
 62
7
  6
CONTINUOUS
 10
11.7802524814
 20
9.864141804
 11
11.6267090532
 21
9.864141804
  0
LINE
  5
243
100
AcDbEntity
  8
0
100
AcDbLine
 62
7
  6
CONTINUOUS
 10
9.2234834891
 20
9.914641804
 11
9.6134834891
 21
9.914641804
  0
LINE
  5
244
100
AcDbEntity
  8
0
100
AcDbLine
 62
7
  6
CONTINUOUS
 10
9.2234834891
 20
9.994641804
 11
9.6134834891
 21
9.994641804
  0
LINE
  5
245
100
AcDbEntity
  8
0
100
AcDbLine
 62
9
  6
CONTINUOUS
 10
11.8757054266
 20
8.3477646157
 11
11.8757054266
 21
10.0055189924
  0
LINE
  5
246
100
AcDbEntity
  8
0
100
AcDbLine
 62
9
  6
CONTINUOUS
 10
12.0807188976
 20
8.0675212862
 11
12.0807188976
 21
10.2857623218
  0
LINE
  5
247
100
AcDbEntity
  8
0
100
AcDbLine
 62
9
  6
CONTINUOUS
 10
12.1243598901
 20
8.0253058168
 11
12.1243598901
 21
10.3279777913
  0
LINE
  5
248
100
AcDbEntity
  8
0
100
AcDbLine
 62
7
  6
CONTINUOUS
 10
12.2584834891
 20
12.3008072802
 11
12.2584834891
 21
6.0524763279
  0
LINE
  5
249
100
AcDbEntity
  8
0
100
AcDbLine
 62
9
  6
CONTINUOUS
 10
12.2710027199
 20
12.3384993475
 11
12.2710027199
 21
6.0147842606
  0
LINE
  5
24A
100
AcDbEntity
  8
0
100
AcDbLine
 62
7
  6
CONTINUOUS
 10
12.5714834891
 20
12.489141804
 11
12.5714834891
 21
5.864141804
  0
ARC
  5
24B
100
AcDbEntity
  8
0
100
AcDbCircle
 62
7
  6
CONTINUOUS
 10
9.4170430466
 20
5.6600050849
 40
2.931503571
100
AcDbArc
 50
89.9718468252
 51
93.9817408882
  0
ARC
  5
24C
100
AcDbEntity
  8
0
100
AcDbCircle
 62
7
  6
CONTINUOUS
 10
9.4199239314
 20
5.6600050851
 40
2.9315035709
100
AcDbArc
 50
86.0182591066
 51
90.0281531698
  0
ARC
  5
24D
100
AcDbEntity
  8
0
100
AcDbCircle
 62
7
  6
CONTINUOUS
 10
6.957934265
 20
7.7799112308
 40
2.24
100
AcDbArc
 50
340.8503198608
 51
12.1833313251
  0
ARC
  5
24E
100
AcDbEntity
  8
0
100
AcDbCircle
 62
7
  6
CONTINUOUS
 10
7.9019937697
 20
6.3988749385
 40
1.97
100
AcDbArc
 50
340.8503198608
 51
19.1496801392
  0
ARC
  5
24F
100
AcDbEntity
  8
0
100
AcDbCircle
 62
7
  6
CONTINUOUS
 10
9.4184834891
 20
5.920641804
 40
0.39
100
AcDbArc
 50
223.6098152012
 51
316.3901847988
  0
ARC
  5
250
100
AcDbEntity
  8
0
100
AcDbCircle
 62
7
  6
CONTINUOUS
 10
8.8734834891
 20
8.5675178193
 40
0.349
100
AcDbArc
 50
321.9957995254
 51
360.0
  0
ARC
  5
251
100
AcDbEntity
  8
0
100
AcDbCircle
 62
7
  6
CONTINUOUS
 10
8.9611339493
 20
8.6066769349
 40
0.1
100
AcDbArc
 50
28.3364788227
 51
83.3916314553
  0
ARC
  5
252
100
AcDbEntity
  8
0
100
AcDbCircle
 62
7
  6
CONTINUOUS
 10
9.1927599222
 20
8.6735492598
 40
0.079
100
AcDbArc
 50
199.9134773481
 51
250.9336918347
  0
ARC
  5
253
100
AcDbEntity
  8
0
100
AcDbCircle
 62
7
  6
CONTINUOUS
 10
9.6394834891
 20
8.6719357631
 40
0.079
100
AcDbArc
 50
288.6524229102
 51
360.0
  0
ARC
  5
254
100
AcDbEntity
  8
0
100
AcDbCircle
 62
7
  6
CONTINUOUS
 10
9.0739834891
 20
5.702141804
 40
0.0505
100
AcDbArc
 50
90.0
 51
270.0
  0
ARC
  5
255
100
AcDbEntity
  8
0
100
AcDbCircle
 62
7
  6
CONTINUOUS
 10
9.7629834891
 20
5.702141804
 40
0.0505
100
AcDbArc
 50
270.0
 51
90.0
  0
ARC
  5
256
100
AcDbEntity
  8
0
100
AcDbCircle
 62
7
  6
CONTINUOUS
 10
8.9613647635
 20
8.806641804
 40
0.05
100
AcDbArc
 50
199.2904540361
 51
266.6811363865
  0
ARC
  5
257
100
AcDbEntity
  8
0
100
AcDbCircle
 62
7
  6
CONTINUOUS
 10
9.6894834891
 20
8.302641804
 40
0.05
100
AcDbArc
 50
270.0
 51
90.0
  0
ARC
  5
258
100
AcDbEntity
  8
0
100
AcDbCircle
 62
7
  6
CONTINUOUS
 10
9.1474834891
 20
8.302641804
 40
0.05
100
AcDbArc
 50
90.0
 51
270.0
  0
ARC
  5
259
100
AcDbEntity
  8
0
100
AcDbCircle
 62
7
  6
CONTINUOUS
 10
9.0843584962
 20
8.6731277517
 40
0.04
100
AcDbArc
 50
208.3364788227
 51
300.0
  0
ARC
  5
25A
100
AcDbEntity
  8
0
100
AcDbCircle
 62
7
  6
CONTINUOUS
 10
8.9744834891
 20
8.7219062271
 40
0.016
100
AcDbArc
 50
180.0
 51
263.3916314553
  0
ARC
  5
25B
100
AcDbEntity
  8
0
100
AcDbCircle
 62
7
  6
CONTINUOUS
 10
9.4170430464
 20
12.6932785231
 40
2.9315035709
100
AcDbArc
 50
266.0182591162
 51
270.0281531793
  0
ARC
  5
25C
100
AcDbEntity
  8
0
100
AcDbCircle
 62
7
  6
CONTINUOUS
 10
9.4199239319
 20
12.6932785231
 40
2.9315035709
100
AcDbArc
 50
269.9718468203
 51
273.9817408834
  0
ARC
  5
25D
100
AcDbEntity
  8
0
100
AcDbCircle
 62
7
  6
CONTINUOUS
 10
9.4184834891
 20
9.890641804
 40
0.221
100
AcDbArc
 50
28.0724869359
 51
151.9275130641
  0
ARC
  5
25E
100
AcDbEntity
  8
0
100
AcDbCircle
 62
7
  6
CONTINUOUS
 10
8.9611339493
 20
9.7466066732
 40
0.1
100
AcDbArc
 50
276.6083685447
 51
331.6635211773
  0
ARC
  5
25F
100
AcDbEntity
  8
0
100
AcDbCircle
 62
7
  6
CONTINUOUS
 10
9.6863607986
 20
9.8461662773
 40
0.1
100
AcDbArc
 50
136.7836366413
 51
224.046722441
  0
ARC
  5
260
100
AcDbEntity
  8
0
100
AcDbCircle
 62
7
  6
CONTINUOUS
 10
9.1506061797
 20
9.8461662773
 40
0.1
100
AcDbArc
 50
315.953277559
 51
43.2163633587
  0
ARC
  5
261
100
AcDbEntity
  8
0
100
AcDbCircle
 62
7
  6
CONTINUOUS
 10
9.1927599221
 20
9.6797343482
 40
0.079
100
AcDbArc
 50
109.0663081681
 51
160.0865226333
  0
ARC
  5
262
100
AcDbEntity
  8
0
100
AcDbCircle
 62
7
  6
CONTINUOUS
 10
9.6394834891
 20
9.681347845
 40
0.079
100
AcDbArc
 50
0.0
 51
71.3475770898
  0
ARC
  5
263
100
AcDbEntity
  8
0
100
AcDbCircle
 62
7
  6
CONTINUOUS
 10
8.9613647635
 20
9.546641804
 40
0.05
100
AcDbArc
 50
93.3188636135
 51
160.7095459639
  0
ARC
  5
264
100
AcDbEntity
  8
0
100
AcDbCircle
 62
7
  6
CONTINUOUS
 10
9.0843584962
 20
9.6801558564
 40
0.04
100
AcDbArc
 50
60.0
 51
151.6635211773
  0
ARC
  5
265
100
AcDbEntity
  8
0
100
AcDbCircle
 62
7
  6
CONTINUOUS
 10
9.6134834891
 20
9.954641804
 40
0.04
100
AcDbArc
 50
270.0
 51
90.0
  0
ARC
  5
266
100
AcDbEntity
  8
0
100
AcDbCircle
 62
7
  6
CONTINUOUS
 10
9.2234834891
 20
9.954641804
 40
0.04
100
AcDbArc
 50
90.0
 51
270.0
  0
ARC
  5
267
100
AcDbEntity
  8
0
100
AcDbCircle
 62
7
  6
CONTINUOUS
 10
8.9744834891
 20
9.631377381
 40
0.016
100
AcDbArc
 50
96.6083685447
 51
180.0
  0
ARC
  5
268
100
AcDbEntity
  8
0
100
AcDbCircle
 62
7
  6
CONTINUOUS
 10
11.8790327133
 20
7.7799112308
 40
2.24
100
AcDbArc
 50
167.8166686749
 51
199.1496801392
  0
ARC
  5
269
100
AcDbEntity
  8
0
100
AcDbCircle
 62
7
  6
CONTINUOUS
 10
10.9349732086
 20
6.3988749385
 40
1.97
100
AcDbArc
 50
160.8503198608
 51
199.1496801392
  0
ARC
  5
26A
100
AcDbEntity
  8
0
100
AcDbCircle
 62
7
  6
CONTINUOUS
 10
11.0058494662
 20
7.6896298656
 40
1.027
100
AcDbArc
 50
53.0290504961
 51
103.8799876593
  0
ARC
  5
26B
100
AcDbEntity
  8
0
100
AcDbCircle
 62
7
  6
CONTINUOUS
 10
11.6170380764
 20
7.9434241627
 40
0.48
100
AcDbArc
 50
14.9831919527
 51
57.3918704587
  0
ARC
  5
26C
100
AcDbEntity
  8
0
100
AcDbCircle
 62
7
  6
CONTINUOUS
 10
12.5714834891
 20
6.239141804
 40
0.375
100
AcDbArc
 50
216.7472957769
 51
270.0
  0
ARC
  5
26D
100
AcDbEntity
  8
0
100
AcDbCircle
 62
7
  6
CONTINUOUS
 10
9.9634834891
 20
8.5675178193
 40
0.349
100
AcDbArc
 50
180.0
 51
218.0042004746
  0
ARC
  5
26E
100
AcDbEntity
  8
0
100
AcDbCircle
 62
7
  6
CONTINUOUS
 10
10.6434834891
 20
8.8866018
 40
0.2
100
AcDbArc
 50
180.0
 51
268.8540080016
  0
ARC
  5
26F
100
AcDbEntity
  8
0
100
AcDbCircle
 62
7
  6
CONTINUOUS
 10
11.9834834891
 20
8.5162398045
 40
0.2
100
AcDbArc
 50
180.0
 51
237.3918704587
  0
ARC
  5
270
100
AcDbEntity
  8
0
100
AcDbCircle
 62
7
  6
CONTINUOUS
 10
9.8364834891
 20
8.808641804
 40
0.118
100
AcDbArc
 50
90.0
 51
180.0
  0
ARC
  5
271
100
AcDbEntity
  8
0
100
AcDbCircle
 62
7
  6
CONTINUOUS
 10
11.7034834891
 20
8.511641804
 40
0.08
100
AcDbArc
 50
343.6651772193
 51
360.0
  0
ARC
  5
272
100
AcDbEntity
  8
0
100
AcDbCircle
 62
7
  6
CONTINUOUS
 10
11.7034834891
 20
8.511641804
 40
0.08
100
AcDbArc
 50
181.0743588229
 51
196.3348227807
  0
ARC
  5
273
100
AcDbEntity
  8
0
100
AcDbCircle
 62
7
  6
CONTINUOUS
 10
12.3214834891
 20
6.0524763279
 40
0.063
100
AcDbArc
 50
180.0
 51
216.7472957763
  0
ARC
  5
274
100
AcDbEntity
  8
0
100
AcDbCircle
 62
7
  6
CONTINUOUS
 10
10.6994834891
 20
8.686641804
 40
0.06
100
AcDbArc
 50
180.0
 51
222.3529411765
  0
ARC
  5
275
100
AcDbEntity
  8
0
100
AcDbCircle
 62
7
  6
CONTINUOUS
 10
10.6994834891
 20
8.686641804
 40
0.06
100
AcDbArc
 50
317.6470588235
 51
360.0
  0
ARC
  5
276
100
AcDbEntity
  8
0
100
AcDbCircle
 62
7
  6
CONTINUOUS
 10
12.1377129985
 20
8.082774891
 40
0.059
100
AcDbArc
 50
194.9831919527
 51
256.919261208
  0
ARC
  5
277
100
AcDbEntity
  8
0
100
AcDbCircle
 62
7
  6
CONTINUOUS
 10
10.0184834891
 20
9.176641804
 40
1.17
100
AcDbArc
 50
160.7095459639
 51
199.2904540361
  0
ARC
  5
278
100
AcDbEntity
  8
0
100
AcDbCircle
 62
7
  6
CONTINUOUS
 10
11.0058494662
 20
10.6636537425
 40
1.027
100
AcDbArc
 50
256.1200123407
 51
306.9709495039
  0
ARC
  5
279
100
AcDbEntity
  8
0
100
AcDbCircle
 62
7
  6
CONTINUOUS
 10
11.6170380764
 20
10.4098594454
 40
0.48
100
AcDbArc
 50
302.6081295413
 51
345.0168080473
  0
ARC
  5
27A
100
AcDbEntity
  8
0
100
AcDbCircle
 62
7
  6
CONTINUOUS
 10
12.5714834891
 20
12.114141804
 40
0.375
100
AcDbArc
 50
90.0
 51
143.2527042231
  0
ARC
  5
27B
100
AcDbEntity
  8
0
100
AcDbCircle
 62
7
  6
CONTINUOUS
 10
10.6434834891
 20
9.466681808
 40
0.2
100
AcDbArc
 50
91.1459919984
 51
180.0
  0
ARC
  5
27C
100
AcDbEntity
  8
0
100
AcDbCircle
 62
7
  6
CONTINUOUS
 10
11.9834834891
 20
9.8370438036
 40
0.2
100
AcDbArc
 50
122.6081295413
 51
180.0
  0
ARC
  5
27D
100
AcDbEntity
  8
0
100
AcDbCircle
 62
7
  6
CONTINUOUS
 10
9.8364834891
 20
9.544641804
 40
0.118
100
AcDbArc
 50
180.0
 51
270.0
  0
ARC
  5
27E
100
AcDbEntity
  8
0
100
AcDbCircle
 62
7
  6
CONTINUOUS
 10
11.7034834891
 20
9.841641804
 40
0.08
100
AcDbArc
 50
0.0
 51
16.3348227807
  0
ARC
  5
27F
100
AcDbEntity
  8
0
100
AcDbCircle
 62
7
  6
CONTINUOUS
 10
11.7034834891
 20
9.841641804
 40
0.08
100
AcDbArc
 50
163.6651772193
 51
178.9256411771
  0
ARC
  5
280
100
AcDbEntity
  8
0
100
AcDbCircle
 62
7
  6
CONTINUOUS
 10
12.3214834891
 20
12.3008072802
 40
0.063
100
AcDbArc
 50
143.2527042237
 51
180.0
  0
ARC
  5
281
100
AcDbEntity
  8
0
100
AcDbCircle
 62
7
  6
CONTINUOUS
 10
10.6994834891
 20
9.666641804
 40
0.06
100
AcDbArc
 50
137.6470588235
 51
180.0
  0
ARC
  5
282
100
AcDbEntity
  8
0
100
AcDbCircle
 62
7
  6
CONTINUOUS
 10
10.6994834891
 20
9.666641804
 40
0.06
100
AcDbArc
 50
0.0
 51
42.3529411765
  0
ARC
  5
283
100
AcDbEntity
  8
0
100
AcDbCircle
 62
7
  6
CONTINUOUS
 10
12.1377129985
 20
10.2705087171
 40
0.059
100
AcDbArc
 50
103.080738792
 51
165.0168080473
  0
LINE
  5
284
100
AcDbEntity
  8
0
100
AcDbLine
 62
7
  6
CONTINUOUS
 10
9.2139489587
 20
8.5844647898
 11
9.2134836709
 21
8.5844323177
  0
LINE
  5
285
100
AcDbEntity
  8
0
100
AcDbLine
 62
7
  6
CONTINUOUS
 10
9.6230180224
 20
9.7688188185
 11
9.6234833074
 21
9.7688512904
  0
SPLINE
  5
286
100
AcDbEntity
  8
0
100
AcDbSpline
 62
7
  6
CONTINUOUS
 70
0
 71
3
 72
15
 73
11
 74
0
 42
0.0000001
 43
0.0000001
 44
0.0000000001
 40
0.0
 40
0.0
 40
0.0
 40
0.0
 40
0.0936932308
 40
0.2106997569
 40
0.3487492988
 40
0.4999999894
 40
0.6512506904
 40
0.7893002397
 40
0.9063067668
 40
1.0
 40
1.0
 40
1.0
 40
1.0
 10
10.7442048487
 20
8.7936162367
 30
0.0
 10
10.7414128045
 20
8.7935178527
 30
0.0
 10
10.73513236
 20
8.7933427655
 30
0.0
 10
10.7247348722
 20
8.7931523473
 30
0.0
 10
10.7126200161
 20
8.7930261622
 30
0.0
 10
10.6994834898
 20
8.7929817038
 30
0.0
 10
10.6863469633
 20
8.7930261622
 30
0.0
 10
10.6742321066
 20
8.7931523473
 30
0.0
 10
10.6638346184
 20
8.7933427655
 30
0.0
 10
10.6575541738
 20
8.7935178527
 30
0.0
 10
10.6547621296
 20
8.7936162367
 30
0.0
  0
SPLINE
  5
287
100
AcDbEntity
  8
0
100
AcDbSpline
 62
7
  6
CONTINUOUS
 70
0
 71
3
 72
19
 73
15
 74
0
 42
0.0000001
 43
0.0000001
 44
0.0000000001
 40
0.0
 40
0.0
 40
0.0
 40
0.0
 40
0.0443190867
 40
0.0943279197
 40
0.1500701156
 40
0.2114521125
 40
0.3492319766
 40
0.4999999895
 40
0.6507680126
 40
0.7885478841
 40
0.8499298793
 40
0.9056720779
 40
0.9556809128
 40
1.0
 40
1.0
 40
1.0
 40
1.0
 10
10.7442048487
 20
8.7623205581
 30
0.0
 10
10.7428991509
 20
8.7620897156
 30
0.0
 10
10.7401114918
 20
8.7616466979
 30
0.0
 10
10.7356589344
 20
8.7610658514
 30
0.0
 10
10.7306858203
 20
8.7605404946
 30
0.0
 10
10.7230854305
 20
8.759906663
 30
0.0
 10
10.7126276361
 20
8.7593603146
 30
0.0
 10
10.6994834898
 20
8.7591367759
 30
0.0
 10
10.6863393433
 20
8.7593603145
 30
0.0
 10
10.6758815483
 20
8.7599066629
 30
0.0
 10
10.6682811582
 20
8.7605404946
 30
0.0
 10
10.6633080441
 20
8.7610658514
 30
0.0
 10
10.6588554866
 20
8.7616466979
 30
0.0
 10
10.6560678274
 20
8.7620897155
 30
0.0
 10
10.6547621296
 20
8.7623205581
 30
0.0
  0
SPLINE
  5
288
100
AcDbEntity
  8
0
100
AcDbSpline
 62
7
  6
CONTINUOUS
 70
0
 71
3
 72
21
 73
17
 74
0
 42
0.0000001
 43
0.0000001
 44
0.0000000001
 40
0.0
 40
0.0
 40
0.0
 40
0.0
 40
0.0451875316
 40
0.0957430189
 40
0.1517446
 40
0.2131327097
 40
0.2795593964
 40
0.3503240617
 40
0.4999999895
 40
0.6496759275
 40
0.7204405994
 40
0.7868672869
 40
0.8482553949
 40
0.9042569787
 40
0.9548124679
 40
1.0
 40
1.0
 40
1.0
 40
1.0
 10
10.7442048487
 20
8.7343609358
 30
0.0
 10
10.7429062546
 20
8.73394937
 30
0.0
 10
10.7401290977
 20
8.733157428
 30
0.0
 10
10.7356734724
 20
8.7321147095
 30
0.0
 10
10.7306975839
 20
8.7311719518
 30
0.0
 10
10.7252159185
 20
8.7303516866
 30
0.0
 10
10.7192662758
 20
8.7296773266
 30
0.0
 10
10.7106439069
 20
8.7289932564
 30
0.0
 10
10.6994834898
 20
8.728653822
 30
0.0
 10
10.6883230724
 20
8.7289932564
 30
0.0
 10
10.679700703
 20
8.7296773265
 30
0.0
 10
10.6737510601
 20
8.7303516865
 30
0.0
 10
10.6682693947
 20
8.7311719517
 30
0.0
 10
10.6632935061
 20
8.7321147094
 30
0.0
 10
10.6588378806
 20
8.733157428
 30
0.0
 10
10.6560607237
 20
8.73394937
 30
0.0
 10
10.6547621296
 20
8.7343609358
 30
0.0
  0
SPLINE
  5
289
100
AcDbEntity
  8
0
100
AcDbSpline
 62
7
  6
CONTINUOUS
 70
0
 71
3
 72
23
 73
19
 74
0
 42
0.0000001
 43
0.0000001
 44
0.0000000001
 40
0.0
 40
0.0
 40
0.0
 40
0.0
 40
0.0464433671
 40
0.0977988872
 40
0.1541850941
 40
0.2155863461
 40
0.2817056163
 40
0.3519035425
 40
0.4251385053
 40
0.4999999897
 40
0.5748614766
 40
0.6480964469
 40
0.7182943795
 40
0.7844136505
 40
0.8458149008
 40
0.9022011104
 40
0.9535566324
 40
1.0
 40
1.0
 40
1.0
 40
1.0
 10
10.7442048487
 20
8.7099624967
 30
0.0
 10
10.7429156278
 20
8.7093765258
 30
0.0
 10
10.7401533975
 20
8.7082454241
 30
0.0
 10
10.7356942058
 20
8.7067473567
 30
0.0
 10
10.7307148015
 20
8.7053932512
 30
0.0
 10
10.7252297099
 20
8.704215312
 30
0.0
 10
10.7192767259
 20
8.7032471536
 30
0.0
 10
10.7129258346
 20
8.7025237659
 30
0.0
 10
10.7062824527
 20
8.7020756265
 30
0.0
 10
10.69948349
 20
8.7019237113
 30
0.0
 10
10.6926845271
 20
8.7020756264
 30
0.0
 10
10.6860411446
 20
8.7025237658
 30
0.0
 10
10.6796902529
 20
8.7032471535
 30
0.0
 10
10.6737372688
 20
8.7042153119
 30
0.0
 10
10.6682521771
 20
8.7053932511
 30
0.0
 10
10.6632727727
 20
8.7067473566
 30
0.0
 10
10.6588135808
 20
8.708245424
 30
0.0
 10
10.6560513505
 20
8.7093765258
 30
0.0
 10
10.6547621296
 20
8.7099624967
 30
0.0
  0
SPLINE
  5
28A
100
AcDbEntity
  8
0
100
AcDbSpline
 62
7
  6
CONTINUOUS
 70
0
 71
3
 72
23
 73
19
 74
0
 42
0.0000001
 43
0.0000001
 44
0.0000000001
 40
0.0
 40
0.0
 40
0.0
 40
0.0
 40
0.0479780312
 40
0.1003288324
 40
0.1572059715
 40
0.218638817
 40
0.2843882381
 40
0.3538887799
 40
0.4261923294
 40
0.4999999898
 40
0.5738076527
 40
0.6461112096
 40
0.7156117578
 40
0.7813611796
 40
0.8427940234
 40
0.8996711652
 40
0.9520219682
 40
1.0
 40
1.0
 40
1.0
 40
1.0
 10
10.7442048487
 20
8.6893216935
 30
0.0
 10
10.7429257872
 20
8.6885690433
 30
0.0
 10
10.7401811817
 20
8.6871118992
 30
0.0
 10
10.7357189367
 20
8.6851688026
 30
0.0
 10
10.7307360462
 20
8.6834126902
 30
0.0
 10
10.7252471658
 20
8.681885263
 30
0.0
 10
10.7192901637
 20
8.6806299905
 30
0.0
 10
10.7129349797
 20
8.6796921318
 30
0.0
 10
10.7062870848
 20
8.6791111482
 30
0.0
 10
10.69948349
 20
8.6789142034
 30
0.0
 10
10.6926798949
 20
8.6791111482
 30
0.0
 10
10.6860319995
 20
8.6796921317
 30
0.0
 10
10.6796768151
 20
8.6806299904
 30
0.0
 10
10.6737198128
 20
8.6818852629
 30
0.0
 10
10.6682309324
 20
8.6834126901
 30
0.0
 10
10.6632480418
 20
8.6851688025
 30
0.0
 10
10.6587857967
 20
8.6871118991
 30
0.0
 10
10.6560411911
 20
8.6885690433
 30
0.0
 10
10.6547621296
 20
8.6893216935
 30
0.0
  0
SPLINE
  5
28B
100
AcDbEntity
  8
0
100
AcDbSpline
 62
7
  6
CONTINUOUS
 70
0
 71
3
 72
21
 73
17
 74
0
 42
0.0000001
 43
0.0000001
 44
0.0000000001
 40
0.0
 40
0.0
 40
0.0
 40
0.0
 40
0.1030704137
 40
0.1605256559
 40
0.2220221352
 40
0.2873787773
 40
0.3561102765
 40
0.4273741373
 40
0.5000000022
 40
0.5726258669
 40
0.6438897266
 40
0.7126212234
 40
0.7779778646
 40
0.8394743441
 40
0.8969295863
 40
1.0
 40
1.0
 40
1.0
 40
1.0
 10
10.7442048487
 20
8.6726047232
 30
0.0
 10
10.741571896
 20
8.6707152497
 30
0.0
 10
10.7371763709
 20
8.6681682155
 30
0.0
 10
10.730760406
 20
8.6654077586
 30
0.0
 10
10.7252670696
 20
8.6635414818
 30
0.0
 10
10.7193060333
 20
8.662008224
 30
0.0
 10
10.7129458955
 20
8.660862552
 30
0.0
 10
10.7062926755
 20
8.6601528648
 30
0.0
 10
10.6994834889
 20
8.6599122846
 30
0.0
 10
10.6926743024
 20
8.6601528648
 30
0.0
 10
10.6860210825
 20
8.660862552
 30
0.0
 10
10.6796609448
 20
8.6620082241
 30
0.0
 10
10.6736999087
 20
8.6635414818
 30
0.0
 10
10.6682065722
 20
8.6654077586
 30
0.0
 10
10.6617906074
 20
8.6681682155
 30
0.0
 10
10.6573950823
 20
8.6707152497
 30
0.0
 10
10.6547621296
 20
8.6726047232
 30
0.0
  0
SPLINE
  5
28C
100
AcDbEntity
  8
0
100
AcDbSpline
 62
7
  6
CONTINUOUS
 70
0
 71
3
 72
15
 73
11
 74
0
 42
0.0000001
 43
0.0000001
 44
0.0000000001
 40
0.0
 40
0.0
 40
0.0
 40
0.0
 40
0.1060752035
 40
0.2256870955
 40
0.3585176569
 40
0.4999999902
 40
0.6414823329
 40
0.7743129011
 40
0.893924794
 40
1.0
 40
1.0
 40
1.0
 40
1.0
 10
10.7442048487
 20
8.6599461884
 30
0.0
 10
10.7416081317
 20
8.6577622638
 30
0.0
 10
10.7356051084
 20
8.6536650352
 30
0.0
 10
10.7250755003
 20
8.6489831361
 30
0.0
 10
10.7127993123
 20
8.6458844965
 30
0.0
 10
10.6994834898
 20
8.6447948873
 30
0.0
 10
10.6861676671
 20
8.6458844963
 30
0.0
 10
10.6738914785
 20
8.6489831358
 30
0.0
 10
10.66336187
 20
8.6536650351
 30
0.0
 10
10.6573588466
 20
8.6577622637
 30
0.0
 10
10.6547621296
 20
8.6599461884
 30
0.0
  0
SPLINE
  5
28D
100
AcDbEntity
  8
0
100
AcDbSpline
 62
7
  6
CONTINUOUS
 70
0
 71
3
 72
15
 73
11
 74
0
 42
0.0000001
 43
0.0000001
 44
0.0000000001
 40
0.0
 40
0.0
 40
0.0
 40
0.0
 40
0.1090140161
 40
0.2293526273
 40
0.3609502059
 40
0.4999999903
 40
0.6390497841
 40
0.7706473693
 40
0.8909859814
 40
1.0
 40
1.0
 40
1.0
 40
1.0
 10
10.7442048487
 20
8.6514480138
 30
0.0
 10
10.7416397739
 20
8.6489915218
 30
0.0
 10
10.7357072801
 20
8.6443593488
 30
0.0
 10
10.7251644253
 20
8.6389976341
 30
0.0
 10
10.7128516712
 20
8.6354439278
 30
0.0
 10
10.6994834898
 20
8.6341931872
 30
0.0
 10
10.6861153081
 20
8.6354439276
 30
0.0
 10
10.6738025534
 20
8.6389976338
 30
0.0
 10
10.6632596984
 20
8.6443593487
 30
0.0
 10
10.6573272044
 20
8.6489915218
 30
0.0
 10
10.6547621296
 20
8.6514480138
 30
0.0
  0
SPLINE
  5
28E
100
AcDbEntity
  8
0
100
AcDbSpline
 62
7
  6
CONTINUOUS
 70
0
 71
3
 72
21
 73
17
 74
0
 42
0.0000001
 43
0.0000001
 44
0.0000000001
 40
0.0
 40
0.0
 40
0.0
 40
0.0
 40
0.0548502969
 40
0.1118678499
 40
0.1712075673
 40
0.2329865018
 40
0.2971558743
 40
0.3634579354
 40
0.4999999905
 40
0.6365420547
 40
0.7028441217
 40
0.7670134947
 40
0.8287924276
 40
0.8881321475
 40
0.9451497024
 40
1.0
 40
1.0
 40
1.0
 40
1.0
 10
10.7442048487
 20
8.6471786256
 30
0.0
 10
10.7429588327
 20
8.645849633
 30
0.0
 10
10.7402830685
 20
8.6432619061
 30
0.0
 10
10.7358206176
 20
8.6397232494
 30
0.0
 10
10.730832488
 20
8.6365226655
 30
0.0
 10
10.7253332021
 20
8.633737026
 30
0.0
 10
10.719360252
 20
8.6314464783
 30
0.0
 10
10.7107823387
 20
8.6291424421
 30
0.0
 10
10.6994834898
 20
8.6279571582
 30
0.0
 10
10.6881846406
 20
8.6291424419
 30
0.0
 10
10.6796067268
 20
8.6314464781
 30
0.0
 10
10.6736337766
 20
8.6337370258
 30
0.0
 10
10.6681344906
 20
8.6365226653
 30
0.0
 10
10.6631463609
 20
8.6397232493
 30
0.0
 10
10.6586839099
 20
8.643261906
 30
0.0
 10
10.6560081455
 20
8.645849633
 30
0.0
 10
10.6547621296
 20
8.6471786256
 30
0.0
  0
SPLINE
  5
28F
100
AcDbEntity
  8
0
100
AcDbSpline
 62
7
  6
CONTINUOUS
 70
0
 71
3
 72
21
 73
17
 74
0
 42
0.0000001
 43
0.0000001
 44
0.0000000001
 40
0.0
 40
0.0
 40
0.0
 40
0.0
 40
0.0548534192
 40
0.1118731603
 40
0.1712140849
 40
0.2329932451
 40
0.297161919
 40
0.3634624851
 40
0.4999999912
 40
0.6365375047
 40
0.7028380768
 40
0.7670067515
 40
0.82878591
 40
0.8881268371
 40
0.9451465802
 40
1.0
 40
1.0
 40
1.0
 40
1.0
 10
10.6547621296
 20
9.7061091367
 30
0.0
 10
10.6560081339
 20
9.7074383708
 30
0.0
 10
10.6586838708
 20
9.71002657
 30
0.0
 10
10.6631463179
 20
9.7135659063
 30
0.0
 10
10.6681344464
 20
9.7167671069
 30
0.0
 10
10.6736337343
 20
9.719553285
 30
0.0
 10
10.6796066902
 20
9.721844277
 30
0.0
 10
10.6881845832
 20
9.7241487533
 30
0.0
 10
10.6994834885
 20
9.7253342812
 30
0.0
 10
10.710782394
 20
9.7241487536
 30
0.0
 10
10.7193602875
 20
9.7218442772
 30
0.0
 10
10.7253332436
 20
9.7195532853
 30
0.0
 10
10.7308325316
 20
9.7167671071
 30
0.0
 10
10.7358206601
 20
9.7135659064
 30
0.0
 10
10.7402831074
 20
9.7100265701
 30
0.0
 10
10.7429588443
 20
9.7074383708
 30
0.0
 10
10.7442048487
 20
9.7061091367
 30
0.0
  0
SPLINE
  5
290
100
AcDbEntity
  8
0
100
AcDbSpline
 62
7
  6
CONTINUOUS
 70
0
 71
3
 72
15
 73
11
 74
0
 42
0.0000001
 43
0.0000001
 44
0.0000000001
 40
0.0
 40
0.0
 40
0.0
 40
0.0
 40
0.1090196474
 40
0.2293596908
 40
0.36095491
 40
0.4999999911
 40
0.6390450796
 40
0.7706403058
 40
0.89098035
 40
1.0
 40
1.0
 40
1.0
 40
1.0
 10
10.6547621296
 20
9.7018480155
 30
0.0
 10
10.6573271475
 20
9.7043050163
 30
0.0
 10
10.6632595068
 20
9.7089381858
 30
0.0
 10
10.6738023797
 20
9.714301185
 30
0.0
 10
10.6861152026
 20
9.7178557554
 30
0.0
 10
10.6994834885
 20
9.719106803
 30
0.0
 10
10.7128517747
 20
9.7178557556
 30
0.0
 10
10.7251645981
 20
9.7143011853
 30
0.0
 10
10.7357074713
 20
9.7089381859
 30
0.0
 10
10.7416398307
 20
9.7043050164
 30
0.0
 10
10.7442048487
 20
9.7018480155
 30
0.0
  0
SPLINE
  5
291
100
AcDbEntity
  8
0
100
AcDbSpline
 62
7
  6
CONTINUOUS
 70
0
 71
3
 72
15
 73
11
 74
0
 42
0.0000001
 43
0.0000001
 44
0.0000000001
 40
0.0
 40
0.0
 40
0.0
 40
0.0
 40
0.106080966
 40
0.2256942426
 40
0.358522382
 40
0.4999999909
 40
0.6414776075
 40
0.774305754
 40
0.8939190314
 40
1.0
 40
1.0
 40
1.0
 40
1.0
 10
10.6547621296
 20
9.6933580079
 30
0.0
 10
10.6573587804
 20
9.6955424837
 30
0.0
 10
10.6633616651
 20
9.6996407952
 30
0.0
 10
10.6738913065
 20
9.7043240506
 30
0.0
 10
10.6861675675
 20
9.707423594
 30
0.0
 10
10.6994834885
 20
9.7085135224
 30
0.0
 10
10.7127994098
 20
9.7074235942
 30
0.0
 10
10.7250756712
 20
9.7043240508
 30
0.0
 10
10.735605313
 20
9.6996407952
 30
0.0
 10
10.7416081978
 20
9.6955424837
 30
0.0
 10
10.7442048487
 20
9.6933580079
 30
0.0
  0
SPLINE
  5
292
100
AcDbEntity
  8
0
100
AcDbSpline
 62
7
  6
CONTINUOUS
 70
0
 71
3
 72
21
 73
17
 74
0
 42
0.0000001
 43
0.0000001
 44
0.0000000001
 40
0.0
 40
0.0
 40
0.0
 40
0.0
 40
0.1030760365
 40
0.1605324432
 40
0.2220290542
 40
0.2873849002
 40
0.3561148315
 40
0.4273765611
 40
0.500000005
 40
0.5726234478
 40
0.6438851737
 40
0.7126151002
 40
0.7779709438
 40
0.8394675541
 40
0.8969239622
 40
1.0
 40
1.0
 40
1.0
 40
1.0
 10
10.6547621296
 20
9.6807074743
 30
0.0
 10
10.6573950079
 20
9.6825975418
 30
0.0
 10
10.6617904867
 20
9.6851454474
 30
0.0
 10
10.6682065251
 20
9.6879068869
 30
0.0
 10
10.6736998687
 20
9.6897738095
 30
0.0
 10
10.6796609136
 20
9.6913075977
 30
0.0
 10
10.6860210612
 20
9.6924536659
 30
0.0
 10
10.6926742919
 20
9.6931635987
 30
0.0
 10
10.6994834896
 20
9.693404262
 30
0.0
 10
10.7062926871
 20
9.6931635987
 30
0.0
 10
10.7129459175
 20
9.6924536659
 30
0.0
 10
10.7193060648
 20
9.6913075977
 30
0.0
 10
10.7252671094
 20
9.6897738095
 30
0.0
 10
10.730760453
 20
9.6879068869
 30
0.0
 10
10.7371764915
 20
9.6851454475
 30
0.0
 10
10.7415719703
 20
9.6825975419
 30
0.0
 10
10.7442048487
 20
9.6807074743
 30
0.0
  0
SPLINE
  5
293
100
AcDbEntity
  8
0
100
AcDbSpline
 62
7
  6
CONTINUOUS
 70
0
 71
3
 72
23
 73
19
 74
0
 42
0.0000001
 43
0.0000001
 44
0.0000000001
 40
0.0
 40
0.0
 40
0.0
 40
0.0
 40
0.0479812093
 40
0.1003340899
 40
0.1572122673
 40
0.2186451931
 40
0.2843938509
 40
0.3538929381
 40
0.4261945388
 40
0.4999999906
 40
0.5738054442
 40
0.646107051
 40
0.7156061448
 40
0.7813548036
 40
0.8427877277
 40
0.8996659076
 40
0.9520187902
 40
1.0
 40
1.0
 40
1.0
 40
1.0
 10
10.6547621296
 20
9.663998275
 30
0.0
 10
10.6560411714
 20
9.6647512412
 30
0.0
 10
10.6587857411
 20
9.6662090047
 30
0.0
 10
10.663247991
 20
9.6681529539
 30
0.0
 10
10.6682308879
 20
9.6699098367
 30
0.0
 10
10.6737197756
 20
9.6714379336
 30
0.0
 10
10.6796767858
 20
9.6726937563
 30
0.0
 10
10.6860319789
 20
9.673632026
 30
0.0
 10
10.6926798834
 20
9.6742132642
 30
0.0
 10
10.6994834883
 20
9.6744102953
 30
0.0
 10
10.7062870934
 20
9.6742132643
 30
0.0
 10
10.7129349984
 20
9.6736320261
 30
0.0
 10
10.7192901919
 20
9.6726937564
 30
0.0
 10
10.7252472023
 20
9.6714379337
 30
0.0
 10
10.7307360901
 20
9.6699098367
 30
0.0
 10
10.735718987
 20
9.668152954
 30
0.0
 10
10.7401812371
 20
9.6662090048
 30
0.0
 10
10.7429258069
 20
9.6647512412
 30
0.0
 10
10.7442048487
 20
9.663998275
 30
0.0
  0
SPLINE
  5
294
100
AcDbEntity
  8
0
100
AcDbSpline
 62
7
  6
CONTINUOUS
 70
0
 71
3
 72
23
 73
19
 74
0
 42
0.0000001
 43
0.0000001
 44
0.0000000001
 40
0.0
 40
0.0
 40
0.0
 40
0.0
 40
0.0464461202
 40
0.0978034096
 40
0.1541904786
 40
0.2155917747
 40
0.2817103788
 40
0.3519070621
 40
0.4251403728
 40
0.4999999904
 40
0.57485961
 40
0.6480929269
 40
0.7182896169
 40
0.7844082219
 40
0.8458095163
 40
0.9021965879
 40
0.9535538793
 40
1.0
 40
1.0
 40
1.0
 40
1.0
 10
10.6547621296
 20
9.6433649501
 30
0.0
 10
10.656051331
 20
9.6439512529
 30
0.0
 10
10.6588135291
 20
9.6450830022
 30
0.0
 10
10.6632727275
 20
9.6465819463
 30
0.0
 10
10.6682521389
 20
9.6479368436
 30
0.0
 10
10.6737372377
 20
9.6491154712
 30
0.0
 10
10.6796902289
 20
9.6500841951
 30
0.0
 10
10.6860411278
 20
9.6508080053
 30
0.0
 10
10.6926845176
 20
9.6512564063
 30
0.0
 10
10.6994834883
 20
9.6514084102
 30
0.0
 10
10.7062824592
 20
9.6512564064
 30
0.0
 10
10.7129258495
 20
9.6508080054
 30
0.0
 10
10.7192767488
 20
9.6500841951
 30
0.0
 10
10.7252297402
 20
9.6491154713
 30
0.0
 10
10.7307148391
 20
9.6479368437
 30
0.0
 10
10.7356942506
 20
9.6465819464
 30
0.0
 10
10.7401534491
 20
9.6450830023
 30
0.0
 10
10.7429156472
 20
9.6439512529
 30
0.0
 10
10.7442048487
 20
9.6433649501
 30
0.0
  0
SPLINE
  5
295
100
AcDbEntity
  8
0
100
AcDbSpline
 62
7
  6
CONTINUOUS
 70
0
 71
3
 72
21
 73
17
 74
0
 42
0.0000001
 43
0.0000001
 44
0.0000000001
 40
0.0
 40
0.0
 40
0.0
 40
0.0
 40
0.0451896357
 40
0.0957464556
 40
0.1517486747
 40
0.2131368064
 40
0.2795629863
 40
0.3503267187
 40
0.4999999903
 40
0.6496732702
 40
0.7204370093
 40
0.7868631903
 40
0.8482513203
 40
0.904253542
 40
0.9548103638
 40
1.0
 40
1.0
 40
1.0
 40
1.0
 10
10.6547621296
 20
9.6189736362
 30
0.0
 10
10.6560607071
 20
9.6193855479
 30
0.0
 10
10.6588378387
 20
9.62017816
 30
0.0
 10
10.6632934709
 20
9.6212217714
 30
0.0
 10
10.6682693658
 20
9.6221653358
 30
0.0
 10
10.6737510371
 20
9.6229863026
 30
0.0
 10
10.6797006855
 20
9.6236612391
 30
0.0
 10
10.6883230478
 20
9.624345893
 30
0.0
 10
10.6994834885
 20
9.6246856192
 30
0.0
 10
10.7106439294
 20
9.6243458931
 30
0.0
 10
10.7192662922
 20
9.6236612392
 30
0.0
 10
10.7252159408
 20
9.6229863026
 30
0.0
 10
10.7306976122
 20
9.6221653359
 30
0.0
 10
10.7356735071
 20
9.6212217714
 30
0.0
 10
10.7401291394
 20
9.6201781601
 30
0.0
 10
10.7429062711
 20
9.6193855479
 30
0.0
 10
10.7442048487
 20
9.6189736362
 30
0.0
  0
SPLINE
  5
296
100
AcDbEntity
  8
0
100
AcDbSpline
 62
7
  6
CONTINUOUS
 70
0
 71
3
 72
19
 73
15
 74
0
 42
0.0000001
 43
0.0000001
 44
0.0000000001
 40
0.0
 40
0.0
 40
0.0
 40
0.0
 40
0.0443203357
 40
0.0943299518
 40
0.1500725183
 40
0.2114545244
 40
0.3492335245
 40
0.4999999902
 40
0.6507664644
 40
0.7885454723
 40
0.8499274767
 40
0.9056700458
 40
0.9556796638
 40
1.0
 40
1.0
 40
1.0
 40
1.0
 10
10.6547621296
 20
9.5910207288
 30
0.0
 10
10.6560678167
 20
9.5912519276
 30
0.0
 10
10.6588554607
 20
9.5916956306
 30
0.0
 10
10.6633080229
 20
9.5922773793
 30
0.0
 10
10.6682811411
 20
9.5928035518
 30
0.0
 10
10.6758815182
 20
9.593438366
 30
0.0
 10
10.6863393176
 20
9.5939855634
 30
0.0
 10
10.6994834885
 20
9.5942094496
 30
0.0
 10
10.7126276597
 20
9.5939855634
 30
0.0
 10
10.7230854595
 20
9.593438366
 30
0.0
 10
10.7306858368
 20
9.5928035518
 30
0.0
 10
10.7356589551
 20
9.5922773793
 30
0.0
 10
10.7401115175
 20
9.5916956306
 30
0.0
 10
10.7428991615
 20
9.5912519276
 30
0.0
 10
10.7442048487
 20
9.5910207288
 30
0.0
  0
SPLINE
  5
297
100
AcDbEntity
  8
0
100
AcDbSpline
 62
7
  6
CONTINUOUS
 70
0
 71
3
 72
15
 73
11
 74
0
 42
0.0000001
 43
0.0000001
 44
0.0000000001
 40
0.0
 40
0.0
 40
0.0
 40
0.0
 40
0.0936936432
 40
0.2107002437
 40
0.3487496109
 40
0.4999999902
 40
0.6512503779
 40
0.7892997529
 40
0.9063063544
 40
1.0
 40
1.0
 40
1.0
 40
1.0
 10
10.6547621296
 20
9.5597313007
 30
0.0
 10
10.6575541649
 20
9.5598304547
 30
0.0
 10
10.6638346017
 20
9.5600069127
 30
0.0
 10
10.6742320956
 20
9.560198822
 30
0.0
 10
10.6863469572
 20
9.5603259952
 30
0.0
 10
10.6994834885
 20
9.5603708017
 30
0.0
 10
10.71262002
 20
9.5603259952
 30
0.0
 10
10.7247348822
 20
9.560198822
 30
0.0
 10
10.7351323764
 20
9.5600069127
 30
0.0
 10
10.7414128133
 20
9.5598304547
 30
0.0
 10
10.7442048487
 20
9.5597313007
 30
0.0
  0
SPLINE
  5
298
100
AcDbEntity
  8
0
100
AcDbSpline
 62
7
  6
CONTINUOUS
 70
0
 71
3
 72
40
 73
36
 74
0
 42
0.0000001
 43
0.0000001
 44
0.0000000001
 40
0.0
 40
0.0
 40
0.0
 40
0.0
 40
0.0305307918
 40
0.0611996089
 40
0.0920500084
 40
0.1231545973
 40
0.1388363091
 40
0.1546239611
 40
0.1705358603
 40
0.1865999312
 40
0.2028382414
 40
0.2192870439
 40
0.2528373695
 40
0.2699963592
 40
0.2786512672
 40
0.2873384546
 40
0.3047398121
 40
0.3220815242
 40
0.3307010727
 40
0.3392657401
 40
0.3562143427
 40
0.3893353816
 40
0.4216434694
 40
0.4533507283
 40
0.4846312697
 40
0.5156088555
 40
0.5463689202
 40
0.5769691193
 40
0.6378308808
 40
0.6984240895
 40
0.7588611747
 40
0.8192064208
 40
0.8794976657
 40
0.9397580644
 40
1.0
 40
1.0
 40
1.0
 40
1.0
 10
11.7616987982
 20
8.6480405335
 30
0.0
 10
11.7607312309
 20
8.6450423451
 30
0.0
 10
11.7586599499
 20
8.6390736981
 30
0.0
 10
11.7550865203
 20
8.63026764
 30
0.0
 10
11.7509541644
 20
8.6216419465
 30
0.0
 10
11.746964063
 20
8.6146832441
 30
0.0
 10
11.7433740042
 20
8.6093135974
 30
0.0
 10
11.7404507219
 20
8.6053914445
 30
0.0
 10
11.7372769211
 20
8.6016165099
 30
0.0
 10
11.7338304646
 20
8.5980230275
 30
0.0
 10
11.7300773857
 20
8.594663614
 30
0.0
 10
11.7246077633
 20
8.5905565543
 30
0.0
 10
11.7184379529
 20
8.5872443695
 30
0.0
 10
11.7125667961
 20
8.585433469
 30
0.0
 10
11.7090700044
 20
8.5847487541
 30
0.0
 10
11.7055075116
 20
8.5843221617
 30
0.0
 10
11.7010075911
 20
8.5842920913
 30
0.0
 10
11.6965630663
 20
8.5849425585
 30
0.0
 10
11.6931109099
 20
8.5858328349
 30
0.0
 10
11.689767031
 20
8.5869473562
 30
0.0
 10
11.6842256489
 20
8.589414827
 30
0.0
 10
11.6771149005
 20
8.5941905142
 30
0.0
 10
11.669870608
 20
8.6011690841
 30
0.0
 10
11.6637403639
 20
8.6088867989
 30
0.0
 10
11.6585195898
 20
8.6170733814
 30
0.0
 10
11.6540407232
 20
8.625572793
 30
0.0
 10
11.6501773155
 20
8.6342893045
 30
0.0
 10
11.6457234709
 20
8.6460942548
 30
0.0
 10
11.6412350869
 20
8.6611498392
 30
0.0
 10
11.6371402404
 20
8.679477571
 30
0.0
 10
11.6340363446
 20
8.6979414726
 30
0.0
 10
11.6316992276
 20
8.7164835647
 30
0.0
 10
11.6299605759
 20
8.7350715389
 30
0.0
 10
11.6286916676
 20
8.7536857711
 30
0.0
 10
11.6280931675
 20
8.7661066437
 30
0.0
 10
11.627843172
 20
8.7723179312
 30
0.0
  0
SPLINE
  5
299
100
AcDbEntity
  8
0
100
AcDbSpline
 62
7
  6
CONTINUOUS
 70
0
 71
3
 72
58
 73
54
 74
0
 42
0.0000001
 43
0.0000001
 44
0.0000000001
 40
0.0
 40
0.0
 40
0.0
 40
0.0
 40
0.0612365745
 40
0.1224678388
 40
0.1837006118
 40
0.2143211776
 40
0.2449468835
 40
0.2755816751
 40
0.3062319598
 40
0.3369079116
 40
0.3676264011
 40
0.3984153481
 40
0.4138520357
 40
0.4293270159
 40
0.4448517424
 40
0.4604428843
 40
0.4761218205
 40
0.491919985
 40
0.5078822402
 40
0.515946465
 40
0.5240787057
 40
0.5322890248
 40
0.5405935702
 40
0.54900183
 40
0.5575284058
 40
0.5661721878
 40
0.5749228965
 40
0.5837481318
 40
0.5881750519
 40
0.5925998571
 40
0.6014111261
 40
0.6101369146
 40
0.6187518712
 40
0.6272482406
 40
0.635629467
 40
0.6439092666
 40
0.6602042524
 40
0.6682537864
 40
0.6762479752
 40
0.6841966437
 40
0.6921052545
 40
0.7078250388
 40
0.723445762
 40
0.7389933943
 40
0.7544854645
 40
0.7853484883
 40
0.8161114784
 40
0.8468142976
 40
0.8774807863
 40
0.9081253843
 40
0.9387567861
 40
0.9693805656
 40
1.0
 40
1.0
 40
1.0
 40
1.0
 10
11.627843172
 20
8.7723179312
 30
0.0
 10
11.6273692778
 20
8.7840921161
 30
0.0
 10
11.626770598
 20
8.8076539974
 30
0.0
 10
11.6266251683
 20
8.8430048469
 30
0.0
 10
11.6270864535
 20
8.8724619751
 30
0.0
 10
11.6279023013
 20
8.8960171217
 30
0.0
 10
11.6287903717
 20
8.913676306
 30
0.0
 10
11.6300176433
 20
8.9313213582
 30
0.0
 10
11.6316704146
 20
8.9489421176
 30
0.0
 10
11.633859102
 20
8.9665220021
 30
0.0
 10
11.6367251929
 20
8.9840328251
 30
0.0
 10
11.6398295161
 20
8.9985189741
 30
0.0
 10
11.6428659261
 20
9.0099993139
 30
0.0
 10
11.6454643975
 20
9.0185512971
 30
0.0
 10
11.6484309292
 20
9.0270149593
 30
0.0
 10
11.651822862
 20
9.0353608858
 30
0.0
 10
11.6557162731
 20
9.0435454783
 30
0.0
 10
11.6602026917
 20
9.0515050368
 30
0.0
 10
11.6645214615
 20
9.0578512325
 30
0.0
 10
11.6683979051
 20
9.0626786367
 30
0.0
 10
11.6715516213
 20
9.0661631771
 30
0.0
 10
11.6749683753
 20
9.0694583945
 30
0.0
 10
11.6786677123
 20
9.0725189995
 30
0.0
 10
11.6826735524
 20
9.0752777109
 30
0.0
 10
11.686992936
 20
9.0776571114
 30
0.0
 10
11.6916183459
 20
9.0795560599
 30
0.0
 10
11.6965037339
 20
9.0808738276
 30
0.0
 10
11.7007199976
 20
9.0814032198
 30
0.0
 10
11.7041235497
 20
9.0814659665
 30
0.0
 10
11.7075199793
 20
9.0812812383
 30
0.0
 10
11.7117067983
 20
9.0806047589
 30
0.0
 10
11.7165330878
 20
9.079131109
 30
0.0
 10
11.7210847906
 20
9.0771027369
 30
0.0
 10
11.7253252248
 20
9.0746192174
 30
0.0
 10
11.7292534517
 20
9.0717784723
 30
0.0
 10
11.7340618621
 20
9.067634725
 30
0.0
 10
11.7383530992
 20
9.063022975
 30
0.0
 10
11.7421819594
 20
9.058115448
 30
0.0
 10
11.7448336872
 20
9.0543335251
 30
0.0
 10
11.7472927139
 20
9.0504564671
 30
0.0
 10
11.7503356211
 20
9.0451952963
 30
0.0
 10
11.7537473066
 20
9.0384497636
 30
0.0
 10
11.7573186295
 20
9.0301591166
 30
0.0
 10
11.7604366576
 20
9.0217352391
 30
0.0
 10
11.7640716491
 20
9.0103882771
 30
0.0
 10
11.7677848648
 20
8.9960075339
 30
0.0
 10
11.771220622
 20
8.9785689691
 30
0.0
 10
11.7738574178
 20
8.9610322784
 30
0.0
 10
11.7758651346
 20
8.9434373969
 30
0.0
 10
11.777374214
 20
8.9258075774
 30
0.0
 10
11.7784871839
 20
8.9081572454
 30
0.0
 10
11.7792831457
 20
8.8904950528
 30
0.0
 10
11.7796411271
 20
8.8787150977
 30
0.0
 10
11.77978459
 20
8.8728247649
 30
0.0
  0
SPLINE
  5
29A
100
AcDbEntity
  8
0
100
AcDbSpline
 62
7
  6
CONTINUOUS
 70
0
 71
3
 72
15
 73
11
 74
0
 42
0.0000001
 43
0.0000001
 44
0.0000000001
 40
0.0
 40
0.0
 40
0.0
 40
0.0
 40
0.1104552793
 40
0.2311653615
 40
0.3621598221
 40
0.4999999904
 40
0.6378401679
 40
0.7688346351
 40
0.8895447181
 40
1.0
 40
1.0
 40
1.0
 40
1.0
 10
10.7442048487
 20
9.1292237849
 30
0.0
 10
10.7416538842
 20
9.1318092438
 30
0.0
 10
10.7357557092
 20
9.1366936611
 30
0.0
 10
10.7252090942
 20
9.1423825573
 30
0.0
 10
10.7128789675
 20
9.1461569664
 30
0.0
 10
10.6994834898
 20
9.1474862494
 30
0.0
 10
10.6860880118
 20
9.1461569666
 30
0.0
 10
10.6737578846
 20
9.1423825576
 30
0.0
 10
10.6632112692
 20
9.1366936612
 30
0.0
 10
10.6573130941
 20
9.1318092439
 30
0.0
 10
10.6547621296
 20
9.1292237849
 30
0.0
  0
SPLINE
  5
29B
100
AcDbEntity
  8
0
100
AcDbSpline
 62
7
  6
CONTINUOUS
 70
0
 71
3
 72
23
 73
19
 74
0
 42
0.0000001
 43
0.0000001
 44
0.0000000001
 40
0.0
 40
0.0
 40
0.0
 40
0.0
 40
0.057075459
 40
0.1156584379
 40
0.175861261
 40
0.2377911996
 40
0.3014337635
 40
0.3666192909
 40
0.4329878186
 40
0.4999999915
 40
0.567012166
 40
0.6333806991
 40
0.6985662324
 40
0.762208797
 40
0.8241387338
 40
0.8843415595
 40
0.9429245403
 40
1.0
 40
1.0
 40
1.0
 40
1.0
 10
10.6547621296
 20
9.1292237849
 30
0.0
 10
10.656000401
 20
9.1277210454
 30
0.0
 10
10.658657231
 20
9.1247939786
 30
0.0
 10
10.6631164165
 20
9.1207653585
 30
0.0
 10
10.6681028598
 20
9.117119873
 30
0.0
 10
10.6736030444
 20
9.1139452539
 30
0.0
 10
10.6795791378
 20
9.1113335505
 30
0.0
 10
10.6859613713
 20
9.10938027
 30
0.0
 10
10.6926427766
 20
9.1081693519
 30
0.0
 10
10.6994834883
 20
9.1077587061
 30
0.0
 10
10.7063242002
 20
9.1081693518
 30
0.0
 10
10.713005606
 20
9.1093802697
 30
0.0
 10
10.7193878399
 20
9.1113335503
 30
0.0
 10
10.7253639335
 20
9.1139452536
 30
0.0
 10
10.7308641181
 20
9.1171198728
 30
0.0
 10
10.7358505615
 20
9.1207653584
 30
0.0
 10
10.7403097472
 20
9.1247939785
 30
0.0
 10
10.7429665773
 20
9.1277210453
 30
0.0
 10
10.7442048487
 20
9.1292237849
 30
0.0
  0
SPLINE
  5
29C
100
AcDbEntity
  8
0
100
AcDbSpline
 62
7
  6
CONTINUOUS
 70
0
 71
3
 72
15
 73
11
 74
0
 42
0.0000001
 43
0.0000001
 44
0.0000000001
 40
0.0
 40
0.0
 40
0.0
 40
0.0
 40
0.1075631271
 40
0.2275377959
 40
0.3597436102
 40
0.4999999903
 40
0.6402563797
 40
0.7724622007
 40
0.8924368704
 40
1.0
 40
1.0
 40
1.0
 40
1.0
 10
10.7442048487
 20
9.0820950666
 30
0.0
 10
10.7416246616
 20
9.0844189235
 30
0.0
 10
10.7356574037
 20
9.0887910008
 30
0.0
 10
10.7251201534
 20
9.0938197413
 30
0.0
 10
10.7128252848
 20
9.097150021
 30
0.0
 10
10.6994834898
 20
9.0983215304
 30
0.0
 10
10.6861416945
 20
9.0971500212
 30
0.0
 10
10.6738468253
 20
9.0938197415
 30
0.0
 10
10.6633095748
 20
9.0887910009
 30
0.0
 10
10.6573423168
 20
9.0844189235
 30
0.0
 10
10.6547621296
 20
9.0820950666
 30
0.0
  0
SPLINE
  5
29D
100
AcDbEntity
  8
0
100
AcDbSpline
 62
7
  6
CONTINUOUS
 70
0
 71
3
 72
23
 73
19
 74
0
 42
0.0000001
 43
0.0000001
 44
0.0000000001
 40
0.0
 40
0.0
 40
0.0
 40
0.0
 40
0.0583774684
 40
0.1178935518
 40
0.178628519
 40
0.2406759024
 40
0.3040339939
 40
0.3685800038
 40
0.4340407146
 40
0.4999999916
 40
0.5659592703
 40
0.6314199863
 40
0.695966002
 40
0.7593240942
 40
0.8213714758
 40
0.8821064455
 40
0.9416225309
 40
1.0
 40
1.0
 40
1.0
 40
1.0
 10
10.6547621296
 20
9.0820950666
 30
0.0
 10
10.6559964132
 20
9.0804910574
 30
0.0
 10
10.6586430467
 20
9.0773666853
 30
0.0
 10
10.6630998469
 20
9.0730519329
 30
0.0
 10
10.6680846679
 20
9.0691464199
 30
0.0
 10
10.67358463
 20
9.0657441361
 30
0.0
 10
10.679562358
 20
9.0629440618
 30
0.0
 10
10.6859484392
 20
9.0608490707
 30
0.0
 10
10.6926357077
 20
9.0595498834
 30
0.0
 10
10.6994834883
 20
9.0591092243
 30
0.0
 10
10.7063312691
 20
9.0595498833
 30
0.0
 10
10.7130185381
 20
9.0608490704
 30
0.0
 10
10.7194046197
 20
9.0629440616
 30
0.0
 10
10.7253823479
 20
9.0657441359
 30
0.0
 10
10.73088231
 20
9.0691464197
 30
0.0
 10
10.7358671312
 20
9.0730519327
 30
0.0
 10
10.7403239315
 20
9.0773666852
 30
0.0
 10
10.7429705651
 20
9.0804910574
 30
0.0
 10
10.7442048487
 20
9.0820950666
 30
0.0
  0
SPLINE
  5
29E
100
AcDbEntity
  8
0
100
AcDbSpline
 62
7
  6
CONTINUOUS
 70
0
 71
3
 72
17
 73
13
 74
0
 42
0.0000001
 43
0.0000001
 44
0.0000000001
 40
0.0
 40
0.0
 40
0.0
 40
0.0
 40
0.1045824356
 40
0.2238209768
 40
0.2889972254
 40
0.3573473562
 40
0.4999999901
 40
0.6426526335
 40
0.7110027705
 40
0.7761790198
 40
0.8954175619
 40
1.0
 40
1.0
 40
1.0
 40
1.0
 10
10.7442048487
 20
9.0357276253
 30
0.0
 10
10.7415906705
 20
9.0377680821
 30
0.0
 10
10.7355529571
 20
9.041583161
 30
0.0
 10
10.7270397337
 20
9.0450884848
 30
0.0
 10
10.7193147751
 20
9.0472511183
 30
0.0
 10
10.7107126328
 20
9.0489369035
 30
0.0
 10
10.6994834898
 20
9.0497884304
 30
0.0
 10
10.6882543465
 20
9.0489369036
 30
0.0
 10
10.6796522037
 20
9.0472511185
 30
0.0
 10
10.6719272449
 20
9.0450884849
 30
0.0
 10
10.6634140213
 20
9.041583161
 30
0.0
 10
10.6573763078
 20
9.0377680821
 30
0.0
 10
10.6547621296
 20
9.0357276253
 30
0.0
  0
SPLINE
  5
29F
100
AcDbEntity
  8
0
100
AcDbSpline
 62
7
  6
CONTINUOUS
 70
0
 71
3
 72
23
 73
19
 74
0
 42
0.0000001
 43
0.0000001
 44
0.0000000001
 40
0.0
 40
0.0
 40
0.0
 40
0.0
 40
0.0595068635
 40
0.1198397764
 40
0.1810473262
 40
0.2432065189
 40
0.3063223695
 40
0.3703099351
 40
0.4349711975
 40
0.4999999918
 40
0.5650287876
 40
0.6296900552
 40
0.6936776265
 40
0.7567934777
 40
0.8189526687
 40
0.8801602209
 40
0.9404931358
 40
1.0
 40
1.0
 40
1.0
 40
1.0
 10
10.6547621296
 20
9.0357276253
 30
0.0
 10
10.6559932154
 20
9.0340348194
 30
0.0
 10
10.658631447
 20
9.0307377205
 30
0.0
 10
10.6630859464
 20
9.0261719551
 30
0.0
 10
10.6680689978
 20
9.0220382457
 30
0.0
 10
10.6735683556
 20
9.0184359863
 30
0.0
 10
10.6795471813
 20
9.0154702197
 30
0.0
 10
10.685936523
 20
9.0132503592
 30
0.0
 10
10.6926291149
 20
9.011873263
 30
0.0
 10
10.6994834883
 20
9.0114060864
 30
0.0
 10
10.7063378619
 20
9.0118732629
 30
0.0
 10
10.7130304543
 20
9.0132503589
 30
0.0
 10
10.7194197964
 20
9.0154702195
 30
0.0
 10
10.7253986223
 20
9.018435986
 30
0.0
 10
10.7308979802
 20
9.0220382455
 30
0.0
 10
10.7358810316
 20
9.0261719549
 30
0.0
 10
10.7403355312
 20
9.0307377204
 30
0.0
 10
10.7429737629
 20
9.0340348193
 30
0.0
 10
10.7442048487
 20
9.0357276253
 30
0.0
  0
SPLINE
  5
2A0
100
AcDbEntity
  8
0
100
AcDbSpline
 62
7
  6
CONTINUOUS
 70
0
 71
3
 72
21
 73
17
 74
0
 42
0.0000001
 43
0.0000001
 44
0.0000000001
 40
0.0
 40
0.0
 40
0.0
 40
0.0
 40
0.1016534721
 40
0.1588182803
 40
0.2202851744
 40
0.2858445797
 40
0.3549709339
 40
0.4267680767
 40
0.4999999899
 40
0.5732319056
 40
0.6450290557
 40
0.7141554162
 40
0.7797148222
 40
0.8411817147
 40
0.8983465255
 40
1.0
 40
1.0
 40
1.0
 40
1.0
 10
10.7442048487
 20
8.990494805
 30
0.0
 10
10.7415524831
 20
8.9922297977
 30
0.0
 10
10.737145583
 20
8.9945514699
 30
0.0
 10
10.7307483965
 20
8.9970591894
 30
0.0
 10
10.7252568323
 20
8.9987588517
 30
0.0
 10
10.7192979241
 20
9.0001553056
 30
0.0
 10
10.7129402681
 20
9.0011987262
 30
0.0
 10
10.7062897927
 20
9.0018450761
 30
0.0
 10
10.69948349
 20
9.0020641834
 30
0.0
 10
10.692677187
 20
9.0018450761
 30
0.0
 10
10.6860267111
 20
9.0011987263
 30
0.0
 10
10.6796690547
 20
9.0001553057
 30
0.0
 10
10.6737101463
 20
8.9987588518
 30
0.0
 10
10.668218582
 20
8.9970591895
 30
0.0
 10
10.6618213955
 20
8.99455147
 30
0.0
 10
10.6574144953
 20
8.9922297978
 30
0.0
 10
10.6547621296
 20
8.990494805
 30
0.0
  0
SPLINE
  5
2A1
100
AcDbEntity
  8
0
100
AcDbSpline
 62
7
  6
CONTINUOUS
 70
0
 71
3
 72
23
 73
19
 74
0
 42
0.0000001
 43
0.0000001
 44
0.0000000001
 40
0.0
 40
0.0
 40
0.0
 40
0.0
 40
0.0604571897
 40
0.1214826008
 40
0.1830956248
 40
0.2453561588
 40
0.3082716654
 40
0.3717868364
 40
0.4357667413
 40
0.4999999919
 40
0.564233244
 40
0.628213154
 40
0.6917283306
 40
0.7546438378
 40
0.81690437
 40
0.8785173965
 40
0.9395428096
 40
1.0
 40
1.0
 40
1.0
 40
1.0
 10
10.6547621296
 20
8.990494805
 30
0.0
 10
10.6559906962
 20
8.9887263033
 30
0.0
 10
10.6586221654
 20
8.9852821527
 30
0.0
 10
10.6630745891
 20
8.980502402
 30
0.0
 10
10.6680559073
 20
8.9761741185
 30
0.0
 10
10.6735544568
 20
8.972401231
 30
0.0
 10
10.6795339531
 20
8.9692939172
 30
0.0
 10
10.6859259614
 20
8.9669672064
 30
0.0
 10
10.6926232065
 20
8.9655233329
 30
0.0
 10
10.6994834883
 20
8.9650334037
 30
0.0
 10
10.7063437703
 20
8.9655233328
 30
0.0
 10
10.7130410159
 20
8.9669672061
 30
0.0
 10
10.7194330246
 20
8.969293917
 30
0.0
 10
10.7254125211
 20
8.9724012307
 30
0.0
 10
10.7309110706
 20
8.9761741183
 30
0.0
 10
10.735892389
 20
8.9805024018
 30
0.0
 10
10.7403448128
 20
8.9852821525
 30
0.0
 10
10.7429762821
 20
8.9887263033
 30
0.0
 10
10.7442048487
 20
8.990494805
 30
0.0
  0
SPLINE
  5
2A2
100
AcDbEntity
  8
0
100
AcDbSpline
 62
7
  6
CONTINUOUS
 70
0
 71
3
 72
23
 73
19
 74
0
 42
0.0000001
 43
0.0000001
 44
0.0000000001
 40
0.0
 40
0.0
 40
0.0
 40
0.0
 40
0.0471886252
 40
0.0990252359
 40
0.1556472535
 40
0.2170620737
 40
0.2830013921
 40
0.3528618685
 40
0.4256470265
 40
0.4999999897
 40
0.5743529555
 40
0.6471381209
 40
0.7169986037
 40
0.7829379229
 40
0.8443527415
 40
0.9009747617
 40
0.9528113742
 40
1.0
 40
1.0
 40
1.0
 40
1.0
 10
10.7442048487
 20
8.9467608142
 30
0.0
 10
10.7429207238
 20
8.9474317166
 30
0.0
 10
10.740167141
 20
8.9487287657
 30
0.0
 10
10.7357062969
 20
8.950452408
 30
0.0
 10
10.7307250893
 20
8.9520102685
 30
0.0
 10
10.7252381022
 20
8.9533653386
 30
0.0
 10
10.7192831518
 20
8.9544790146
 30
0.0
 10
10.7129301917
 20
8.9553111013
 30
0.0
 10
10.7062846549
 20
8.9558265691
 30
0.0
 10
10.69948349
 20
8.9560013062
 30
0.0
 10
10.6926823249
 20
8.9558265691
 30
0.0
 10
10.6860367876
 20
8.9553111015
 30
0.0
 10
10.679683827
 20
8.9544790147
 30
0.0
 10
10.6737288764
 20
8.9533653387
 30
0.0
 10
10.6682418892
 20
8.9520102685
 30
0.0
 10
10.6632606816
 20
8.9504524081
 30
0.0
 10
10.6587998374
 20
8.9487287658
 30
0.0
 10
10.6560462544
 20
8.9474317167
 30
0.0
 10
10.6547621296
 20
8.9467608142
 30
0.0
  0
SPLINE
  5
2A3
100
AcDbEntity
  8
0
100
AcDbSpline
 62
7
  6
CONTINUOUS
 70
0
 71
3
 72
23
 73
19
 74
0
 42
0.0000001
 43
0.0000001
 44
0.0000000001
 40
0.0
 40
0.0
 40
0.0
 40
0.0
 40
0.0612258742
 40
0.1228147932
 40
0.1847609708
 40
0.2471083899
 40
0.309864315
 40
0.3729958211
 40
0.4364187859
 40
0.499999992
 40
0.5635811996
 40
0.6270041693
 40
0.690135681
 40
0.7528916067
 40
0.815239024
 40
0.8771852041
 40
0.9387741251
 40
1.0
 40
1.0
 40
1.0
 40
1.0
 10
10.6547621296
 20
8.9467608142
 30
0.0
 10
10.6559887648
 20
8.9449302746
 30
0.0
 10
10.658614963
 20
8.9413657264
 30
0.0
 10
10.6630656282
 20
8.9364106334
 30
0.0
 10
10.6680453914
 20
8.9319228987
 30
0.0
 10
10.673543085
 20
8.9280101138
 30
0.0
 10
10.6795229416
 20
8.9247866305
 30
0.0
 10
10.6859170416
 20
8.9223720975
 30
0.0
 10
10.692618168
 20
8.9208732532
 30
0.0
 10
10.6994834883
 20
8.9203645752
 30
0.0
 10
10.7063488088
 20
8.9208732531
 30
0.0
 10
10.7130499357
 20
8.9223720971
 30
0.0
 10
10.7194440361
 20
8.9247866303
 30
0.0
 10
10.7254238929
 20
8.9280101135
 30
0.0
 10
10.7309215865
 20
8.9319228985
 30
0.0
 10
10.7359013498
 20
8.9364106332
 30
0.0
 10
10.7403520152
 20
8.9413657263
 30
0.0
 10
10.7429782134
 20
8.9449302745
 30
0.0
 10
10.7442048487
 20
8.9467608142
 30
0.0
  0
SPLINE
  5
2A4
100
AcDbEntity
  8
0
100
AcDbSpline
 62
7
  6
CONTINUOUS
 70
0
 71
3
 72
21
 73
17
 74
0
 42
0.0000001
 43
0.0000001
 44
0.0000000001
 40
0.0
 40
0.0
 40
0.0
 40
0.0
 40
0.0457794784
 40
0.0967112751
 40
0.1528938948
 40
0.2142892066
 40
0.2805735558
 40
0.3510751612
 40
0.4999999896
 40
0.6489248282
 40
0.71942644
 40
0.78571079
 40
0.8471061002
 40
0.9032887225
 40
0.9542205211
 40
1.0
 40
1.0
 40
1.0
 40
1.0
 10
10.7442048487
 20
8.9048777926
 30
0.0
 10
10.7429107884
 20
8.9053780515
 30
0.0
 10
10.740140696
 20
8.9063421776
 30
0.0
 10
10.7356832691
 20
8.9076151597
 30
0.0
 10
10.7307056519
 20
8.9087659512
 30
0.0
 10
10.7252223495
 20
8.9097671074
 30
0.0
 10
10.7192711012
 20
8.9105901193
 30
0.0
 10
10.710650631
 20
8.9114245819
 30
0.0
 10
10.6994834898
 20
8.9118393642
 30
0.0
 10
10.6883163484
 20
8.911424582
 30
0.0
 10
10.6796958776
 20
8.9105901194
 30
0.0
 10
10.6737446291
 20
8.9097671075
 30
0.0
 10
10.6682613267
 20
8.9087659513
 30
0.0
 10
10.6632837094
 20
8.9076151597
 30
0.0
 10
10.6588262823
 20
8.9063421777
 30
0.0
 10
10.6560561899
 20
8.9053780515
 30
0.0
 10
10.6547621296
 20
8.9048777926
 30
0.0
  0
SPLINE
  5
2A5
100
AcDbEntity
  8
0
100
AcDbSpline
 62
7
  6
CONTINUOUS
 70
0
 71
3
 72
21
 73
17
 74
0
 42
0.0000001
 43
0.0000001
 44
0.0000000001
 40
0.0
 40
0.0
 40
0.0
 40
0.0
 40
0.1237253044
 40
0.185946748
 40
0.2483814272
 40
0.3110351327
 40
0.3738910093
 40
0.4369035169
 40
0.499999992
 40
0.5630964687
 40
0.6261089812
 40
0.6889648634
 40
0.7516185694
 40
0.8140532469
 40
0.8762746928
 40
1.0
 40
1.0
 40
1.0
 40
1.0
 10
10.6547621296
 20
8.9048777926
 30
0.0
 10
10.6572138529
 20
8.9011189279
 30
0.0
 10
10.6614159592
 20
8.895772132
 30
0.0
 10
10.6680370349
 20
8.8896410846
 30
0.0
 10
10.6735344334
 20
8.8856195818
 30
0.0
 10
10.6795143196
 20
8.882306482
 30
0.0
 10
10.6859100045
 20
8.8798239339
 30
0.0
 10
10.6926141551
 20
8.8782825032
 30
0.0
 10
10.6994834883
 20
8.8777592782
 30
0.0
 10
10.7063528217
 20
8.8782825031
 30
0.0
 10
10.7130569728
 20
8.8798239336
 30
0.0
 10
10.7194526581
 20
8.8823064818
 30
0.0
 10
10.7254325445
 20
8.8856195815
 30
0.0
 10
10.730929943
 20
8.8896410844
 30
0.0
 10
10.7375510189
 20
8.8957721317
 30
0.0
 10
10.7417531253
 20
8.9011189278
 30
0.0
 10
10.7442048487
 20
8.9048777926
 30
0.0
  0
SPLINE
  5
2A6
100
AcDbEntity
  8
0
100
AcDbSpline
 62
7
  6
CONTINUOUS
 70
0
 71
3
 72
21
 73
17
 74
0
 42
0.0000001
 43
0.0000001
 44
0.0000000001
 40
0.0
 40
0.0
 40
0.0
 40
0.0
 40
0.0447008214
 40
0.094949023
 40
0.1508040999
 40
0.2121878127
 40
0.2787317684
 40
0.3497116204
 40
0.5000000023
 40
0.6502883828
 40
0.7212682324
 40
0.7878121871
 40
0.8491959001
 40
0.905050977
 40
0.9552991786
 40
1.0
 40
1.0
 40
1.0
 40
1.0
 10
10.7442048487
 20
8.8651829766
 30
0.0
 10
10.7429023446
 20
8.8655054635
 30
0.0
 10
10.7401193228
 20
8.86612511
 30
0.0
 10
10.7356653523
 20
8.8669390687
 30
0.0
 10
10.7306909847
 20
8.8676750949
 30
0.0
 10
10.7252107078
 20
8.868315559
 30
0.0
 10
10.7192623925
 20
8.8688421371
 30
0.0
 10
10.7106385222
 20
8.8693765061
 30
0.0
 10
10.699483489
 20
8.8696412887
 30
0.0
 10
10.6883284558
 20
8.8693765061
 30
0.0
 10
10.6797045856
 20
8.8688421371
 30
0.0
 10
10.6737562704
 20
8.868315559
 30
0.0
 10
10.6682759936
 20
8.8676750949
 30
0.0
 10
10.663301626
 20
8.8669390687
 30
0.0
 10
10.6588476554
 20
8.86612511
 30
0.0
 10
10.6560646337
 20
8.8655054635
 30
0.0
 10
10.6547621296
 20
8.8651829766
 30
0.0
  0
SPLINE
  5
2A7
100
AcDbEntity
  8
0
100
AcDbSpline
 62
7
  6
CONTINUOUS
 70
0
 71
3
 72
21
 73
17
 74
0
 42
0.0000001
 43
0.0000001
 44
0.0000000001
 40
0.0
 40
0.0
 40
0.0
 40
0.0
 40
0.1244307018
 40
0.1868315219
 40
0.2493155632
 40
0.3118869246
 40
0.3745393323
 40
0.4372538061
 40
0.5000000042
 40
0.5627462015
 40
0.6254606722
 40
0.6881130757
 40
0.7506844348
 40
0.8131684754
 40
0.8755692968
 40
1.0
 40
1.0
 40
1.0
 40
1.0
 10
10.6547621296
 20
8.8651829766
 30
0.0
 10
10.6572098739
 20
8.8613604971
 30
0.0
 10
10.6614055383
 20
8.8559189412
 30
0.0
 10
10.6680315519
 20
8.8496678305
 30
0.0
 10
10.6735283478
 20
8.8455709804
 30
0.0
 10
10.6795082845
 20
8.8421952148
 30
0.0
 10
10.6859050137
 20
8.8396651948
 30
0.0
 10
10.6926112968
 20
8.8380939779
 30
0.0
 10
10.6994834896
 20
8.8375605774
 30
0.0
 10
10.7063556822
 20
8.838093978
 30
0.0
 10
10.713061965
 20
8.839665195
 30
0.0
 10
10.7194586939
 20
8.8421952149
 30
0.0
 10
10.7254386303
 20
8.8455709804
 30
0.0
 10
10.7309354262
 20
8.8496678304
 30
0.0
 10
10.7375614398
 20
8.855918941
 30
0.0
 10
10.7417571044
 20
8.8613604971
 30
0.0
 10
10.7442048487
 20
8.8651829766
 30
0.0
  0
SPLINE
  5
2A8
100
AcDbEntity
  8
0
100
AcDbSpline
 62
7
  6
CONTINUOUS
 70
0
 71
3
 72
17
 73
13
 74
0
 42
0.0000001
 43
0.0000001
 44
0.0000000001
 40
0.0
 40
0.0
 40
0.0
 40
0.0
 40
0.0440615166
 40
0.0939092794
 40
0.2109535744
 40
0.3489122101
 40
0.4999999894
 40
0.6510877791
 40
0.7890464222
 40
0.9060907182
 40
0.955938483
 40
1.0
 40
1.0
 40
1.0
 40
1.0
 10
10.7442048487
 20
8.8279959832
 30
0.0
 10
10.7428969366
 20
8.8281354138
 30
0.0
 10
10.7401061435
 20
8.8284028063
 30
0.0
 10
10.7338278977
 20
8.8288962665
 30
0.0
 10
10.724740144
 20
8.8293989066
 30
0.0
 10
10.7126226504
 20
8.8297812325
 30
0.0
 10
10.6994834898
 20
8.829915634
 30
0.0
 10
10.6863443289
 20
8.8297812325
 30
0.0
 10
10.6742268348
 20
8.8293989067
 30
0.0
 10
10.6651390807
 20
8.8288962666
 30
0.0
 10
10.6588608349
 20
8.8284028063
 30
0.0
 10
10.6560700417
 20
8.8281354138
 30
0.0
 10
10.6547621296
 20
8.8279959832
 30
0.0
  0
SPLINE
  5
2A9
100
AcDbEntity
  8
0
100
AcDbSpline
 62
7
  6
CONTINUOUS
 70
0
 71
3
 72
21
 73
17
 74
0
 42
0.0000001
 43
0.0000001
 44
0.0000000001
 40
0.0
 40
0.0
 40
0.0
 40
0.0
 40
0.1248225237
 40
0.1873234288
 40
0.2498354005
 40
0.3123613551
 40
0.3749006947
 40
0.4374491347
 40
0.4999999921
 40
0.562550851
 40
0.6250992959
 40
0.687638641
 40
0.750164596
 40
0.8126765661
 40
0.8751774735
 40
1.0
 40
1.0
 40
1.0
 40
1.0
 10
10.6547621296
 20
8.8279959832
 30
0.0
 10
10.6572077061
 20
8.8241379862
 30
0.0
 10
10.6613998129
 20
8.8186435691
 30
0.0
 10
10.6680285185
 20
8.8123253745
 30
0.0
 10
10.6735249587
 20
8.8081864499
 30
0.0
 10
10.6795049011
 20
8.8047756788
 30
0.0
 10
10.6859021992
 20
8.8022191253
 30
0.0
 10
10.6926096775
 20
8.8006312477
 30
0.0
 10
10.6994834883
 20
8.800092153
 30
0.0
 10
10.7063572993
 20
8.8006312476
 30
0.0
 10
10.7130647782
 20
8.8022191249
 30
0.0
 10
10.7194620766
 20
8.8047756785
 30
0.0
 10
10.7254420192
 20
8.8081864496
 30
0.0
 10
10.7309384595
 20
8.8123253742
 30
0.0
 10
10.7375671652
 20
8.8186435689
 30
0.0
 10
10.7417592721
 20
8.8241379861
 30
0.0
 10
10.7442048487
 20
8.8279959832
 30
0.0
  0
SPLINE
  5
2AA
100
AcDbEntity
  8
0
100
AcDbSpline
 62
7
  6
CONTINUOUS
 70
0
 71
3
 72
21
 73
17
 74
0
 42
0.0000001
 43
0.0000001
 44
0.0000000001
 40
0.0
 40
0.0
 40
0.0
 40
0.0
 40
0.1249012821
 40
0.1874223433
 40
0.2499399728
 40
0.3124568292
 40
0.3749734387
 40
0.4374884653
 40
0.4999999921
 40
0.5625115204
 40
0.6250265519
 40
0.6875431669
 40
0.7500600238
 40
0.8125776515
 40
0.8750987151
 40
1.0
 40
1.0
 40
1.0
 40
1.0
 10
10.6547621296
 20
8.7936162367
 30
0.0
 10
10.657207274
 20
8.7897510842
 30
0.0
 10
10.6613986675
 20
8.7842460214
 30
0.0
 10
10.6680279098
 20
8.7779143075
 30
0.0
 10
10.6735242767
 20
8.7737669059
 30
0.0
 10
10.6795042182
 20
8.770349081
 30
0.0
 10
10.6859016298
 20
8.7677871794
 30
0.0
 10
10.6926093495
 20
8.7661959427
 30
0.0
 10
10.6994834883
 20
8.7656556997
 30
0.0
 10
10.7063576273
 20
8.7661959426
 30
0.0
 10
10.7130653475
 20
8.7677871791
 30
0.0
 10
10.7194627595
 20
8.7703490807
 30
0.0
 10
10.7254427012
 20
8.7737669056
 30
0.0
 10
10.7309390681
 20
8.7779143073
 30
0.0
 10
10.7375683106
 20
8.7842460211
 30
0.0
 10
10.7417597042
 20
8.7897510841
 30
0.0
 10
10.7442048487
 20
8.7936162367
 30
0.0
  0
SPLINE
  5
2AB
100
AcDbEntity
  8
0
100
AcDbSpline
 62
7
  6
CONTINUOUS
 70
0
 71
3
 72
21
 73
17
 74
0
 42
0.0000001
 43
0.0000001
 44
0.0000000001
 40
0.0
 40
0.0
 40
0.0
 40
0.0
 40
0.1246671038
 40
0.187128271
 40
0.2496291211
 40
0.3121730582
 40
0.3747572493
 40
0.4373715864
 40
0.4999999921
 40
0.5626283993
 40
0.6252427413
 40
0.6878269379
 40
0.7503708755
 40
0.8128717238
 40
0.8753328935
 40
1.0
 40
1.0
 40
1.0
 40
1.0
 10
10.6547621296
 20
8.7623205581
 30
0.0
 10
10.6572085624
 20
8.7584766656
 30
0.0
 10
10.6614020786
 20
8.7530032364
 30
0.0
 10
10.6680297207
 20
8.7467116857
 30
0.0
 10
10.6735263039
 20
8.7425894699
 30
0.0
 10
10.6795062458
 20
8.7391926013
 30
0.0
 10
10.6859033191
 20
8.7366465871
 30
0.0
 10
10.6926103221
 20
8.7350653282
 30
0.0
 10
10.6994834883
 20
8.7345284958
 30
0.0
 10
10.7063566547
 20
8.7350653281
 30
0.0
 10
10.7130636582
 20
8.7366465868
 30
0.0
 10
10.7194607319
 20
8.739192601
 30
0.0
 10
10.725440674
 20
8.7425894695
 30
0.0
 10
10.7309372572
 20
8.7467116854
 30
0.0
 10
10.7375648995
 20
8.7530032362
 30
0.0
 10
10.7417584158
 20
8.7584766655
 30
0.0
 10
10.7442048487
 20
8.7623205581
 30
0.0
  0
SPLINE
  5
2AC
100
AcDbEntity
  8
0
100
AcDbSpline
 62
7
  6
CONTINUOUS
 70
0
 71
3
 72
21
 73
17
 74
0
 42
0.0000001
 43
0.0000001
 44
0.0000000001
 40
0.0
 40
0.0
 40
0.0
 40
0.0
 40
0.1241196356
 40
0.1864412262
 40
0.2489033557
 40
0.3115109351
 40
0.374253079
 40
0.4370991119
 40
0.4999999921
 40
0.5629008737
 40
0.6257469115
 40
0.688489061
 40
0.7510966408
 40
0.8135587686
 40
0.8758803617
 40
1.0
 40
1.0
 40
1.0
 40
1.0
 10
10.6547621296
 20
8.7343609358
 30
0.0
 10
10.6572116163
 20
8.7305665597
 30
0.0
 10
10.6614101157
 20
8.7251668535
 30
0.0
 10
10.6680339664
 20
8.7189687987
 30
0.0
 10
10.6735310342
 20
8.7149052373
 30
0.0
 10
10.6795109548
 20
8.7115571612
 30
0.0
 10
10.6859072263
 20
8.7090481218
 30
0.0
 10
10.6926125654
 20
8.7074900722
 30
0.0
 10
10.6994834883
 20
8.7069611707
 30
0.0
 10
10.7063544114
 20
8.7074900721
 30
0.0
 10
10.713059751
 20
8.7090481214
 30
0.0
 10
10.7194560229
 20
8.711557161
 30
0.0
 10
10.7254359438
 20
8.714905237
 30
0.0
 10
10.7309330115
 20
8.7189687984
 30
0.0
 10
10.7375568624
 20
8.7251668533
 30
0.0
 10
10.7417553619
 20
8.7305665597
 30
0.0
 10
10.7442048487
 20
8.7343609358
 30
0.0
  0
SPLINE
  5
2AD
100
AcDbEntity
  8
0
100
AcDbSpline
 62
7
  6
CONTINUOUS
 70
0
 71
3
 72
21
 73
17
 74
0
 42
0.0000001
 43
0.0000001
 44
0.0000000001
 40
0.0
 40
0.0
 40
0.0
 40
0.0
 40
0.1232583241
 40
0.1853615909
 40
0.2477642376
 40
0.3104728737
 40
0.373463393
 40
0.4366726008
 40
0.499999992
 40
0.5633273847
 40
0.6265365975
 40
0.6895271223
 40
0.752235759
 40
0.8146384039
 40
0.8767416731
 40
1.0
 40
1.0
 40
1.0
 40
1.0
 10
10.6547621296
 20
8.7099624967
 30
0.0
 10
10.6572165425
 20
8.706245527
 30
0.0
 10
10.6614229386
 20
8.7009611947
 30
0.0
 10
10.6680406798
 20
8.6949091492
 30
0.0
 10
10.6735384501
 20
8.6909372571
 30
0.0
 10
10.679518275
 20
8.6876654024
 30
0.0
 10
10.685913256
 20
8.6852140793
 30
0.0
 10
10.6926160099
 20
8.6836922268
 30
0.0
 10
10.6994834883
 20
8.6831756866
 30
0.0
 10
10.7063509669
 20
8.6836922267
 30
0.0
 10
10.7130537213
 20
8.685214079
 30
0.0
 10
10.7194487027
 20
8.6876654022
 30
0.0
 10
10.7254285278
 20
8.6909372568
 30
0.0
 10
10.7309262982
 20
8.6949091489
 30
0.0
 10
10.7375440395
 20
8.7009611945
 30
0.0
 10
10.7417504357
 20
8.706245527
 30
0.0
 10
10.7442048487
 20
8.7099624967
 30
0.0
  0
SPLINE
  5
2AE
100
AcDbEntity
  8
0
100
AcDbSpline
 62
7
  6
CONTINUOUS
 70
0
 71
3
 72
23
 73
19
 74
0
 42
0.0000001
 43
0.0000001
 44
0.0000000001
 40
0.0
 40
0.0
 40
0.0
 40
0.0
 40
0.0608669102
 40
0.122192309
 40
0.183982335
 40
0.2462886298
 40
0.3091187949
 40
0.3724296348
 40
0.4361133307
 40
0.4999999919
 40
0.5638866547
 40
0.6275703556
 40
0.6908812011
 40
0.7537113667
 40
0.8160176599
 40
0.8778076883
 40
0.9391330891
 40
1.0
 40
1.0
 40
1.0
 40
1.0
 10
10.6547621296
 20
8.6893216935
 30
0.0
 10
10.6559896553
 20
8.687520223
 30
0.0
 10
10.6586182932
 20
8.6840120764
 30
0.0
 10
10.6630697878
 20
8.6791391382
 30
0.0
 10
10.6680502937
 20
8.6747261136
 30
0.0
 10
10.6735484095
 20
8.6708788842
 30
0.0
 10
10.6795281188
 20
8.6677098503
 30
0.0
 10
10.68592125
 20
8.665336495
 30
0.0
 10
10.6926205508
 20
8.6638634352
 30
0.0
 10
10.6994834883
 20
8.6633635537
 30
0.0
 10
10.706346426
 20
8.6638634351
 30
0.0
 10
10.7130457273
 20
8.6653364947
 30
0.0
 10
10.7194388589
 20
8.6677098501
 30
0.0
 10
10.7254185684
 20
8.6708788839
 30
0.0
 10
10.7309166843
 20
8.6747261134
 30
0.0
 10
10.7358971903
 20
8.6791391379
 30
0.0
 10
10.740348685
 20
8.6840120763
 30
0.0
 10
10.7429773229
 20
8.687520223
 30
0.0
 10
10.7442048487
 20
8.6893216935
 30
0.0
  0
SPLINE
  5
2AF
100
AcDbEntity
  8
0
100
AcDbSpline
 62
7
  6
CONTINUOUS
 70
0
 71
3
 72
23
 73
19
 74
0
 42
0.0000001
 43
0.0000001
 44
0.0000000001
 40
0.0
 40
0.0
 40
0.0
 40
0.0
 40
0.0600078725
 40
0.1207052875
 40
0.1821257158
 40
0.2443375009
 40
0.3073473199
 40
0.3710861183
 40
0.4353891671
 40
0.5000000044
 40
0.5646108408
 40
0.6289138864
 40
0.6926526804
 40
0.7556624971
 40
0.8178742814
 40
0.8792947111
 40
0.9399921271
 40
1.0
 40
1.0
 40
1.0
 40
1.0
 10
10.6547621296
 20
8.6726047232
 30
0.0
 10
10.6559918686
 20
8.6708721375
 30
0.0
 10
10.6586265007
 20
8.6674977387
 30
0.0
 10
10.6630799203
 20
8.6628195162
 30
0.0
 10
10.6680620847
 20
8.6585835544
 30
0.0
 10
10.6735610507
 20
8.654891639
 30
0.0
 10
10.6795402601
 20
8.6518515166
 30
0.0
 10
10.685931018
 20
8.6495755475
 30
0.0
 10
10.6926260436
 20
8.6481633994
 30
0.0
 10
10.6994834896
 20
8.6476842827
 30
0.0
 10
10.7063409354
 20
8.6481633995
 30
0.0
 10
10.7130359607
 20
8.6495755476
 30
0.0
 10
10.7194267183
 20
8.6518515166
 30
0.0
 10
10.7254059275
 20
8.654891639
 30
0.0
 10
10.7309048933
 20
8.6585835543
 30
0.0
 10
10.7358870578
 20
8.6628195161
 30
0.0
 10
10.7403404775
 20
8.6674977386
 30
0.0
 10
10.7429751097
 20
8.6708721375
 30
0.0
 10
10.7442048487
 20
8.6726047232
 30
0.0
  0
SPLINE
  5
2B0
100
AcDbEntity
  8
0
100
AcDbSpline
 62
7
  6
CONTINUOUS
 70
0
 71
3
 72
23
 73
19
 74
0
 42
0.0000001
 43
0.0000001
 44
0.0000000001
 40
0.0
 40
0.0
 40
0.0
 40
0.0
 40
0.0589681033
 40
0.118910515
 40
0.1798913612
 40
0.241996056
 40
0.305226919
 40
0.369481296
 40
0.4345253148
 40
0.4999999917
 40
0.5654746702
 40
0.6305186942
 40
0.6947730769
 40
0.7580039406
 40
0.8201086336
 40
0.8810894824
 40
0.9410318959
 40
1.0
 40
1.0
 40
1.0
 40
1.0
 10
10.6547621296
 20
8.6599461884
 30
0.0
 10
10.6559947121
 20
8.6582958789
 30
0.0
 10
10.6586369014
 20
8.6550814125
 30
0.0
 10
10.6630925227
 20
8.6506357833
 30
0.0
 10
10.6680764588
 20
8.6466112978
 30
0.0
 10
10.6735761529
 20
8.6431047744
 30
0.0
 10
10.6795544941
 20
8.6402183582
 30
0.0
 10
10.6859422912
 20
8.6380583249
 30
0.0
 10
10.6926323158
 20
8.6367185726
 30
0.0
 10
10.6994834883
 20
8.6362641101
 30
0.0
 10
10.706334661
 20
8.6367185725
 30
0.0
 10
10.7130246861
 20
8.6380583246
 30
0.0
 10
10.7194124836
 20
8.640218358
 30
0.0
 10
10.725390825
 20
8.6431047741
 30
0.0
 10
10.7308905192
 20
8.6466112976
 30
0.0
 10
10.7358744553
 20
8.6506357831
 30
0.0
 10
10.7403300768
 20
8.6550814124
 30
0.0
 10
10.7429722661
 20
8.6582958789
 30
0.0
 10
10.7442048487
 20
8.6599461884
 30
0.0
  0
SPLINE
  5
2B1
100
AcDbEntity
  8
0
100
AcDbSpline
 62
7
  6
CONTINUOUS
 70
0
 71
3
 72
23
 73
19
 74
0
 42
0.0000001
 43
0.0000001
 44
0.0000000001
 40
0.0
 40
0.0
 40
0.0
 40
0.0
 40
0.0577518591
 40
0.1168184255
 40
0.1772959972
 40
0.2392854302
 40
0.3027795392
 40
0.3676334253
 40
0.4335321808
 40
0.4999999916
 40
0.566467804
 40
0.6323665648
 40
0.6972204567
 40
0.7607145664
 40
0.8227039977
 40
0.8831815718
 40
0.9422481402
 40
1.0
 40
1.0
 40
1.0
 40
1.0
 10
10.6547621296
 20
8.6514480138
 30
0.0
 10
10.655998287
 20
8.6498927772
 30
0.0
 10
10.6586497504
 20
8.646863386
 30
0.0
 10
10.6631077357
 20
8.642686467
 30
0.0
 10
10.6680933939
 20
8.6389062275
 30
0.0
 10
10.6735935258
 20
8.6356136547
 30
0.0
 10
10.6795705152
 20
8.6329043905
 30
0.0
 10
10.6859547573
 20
8.630877747
 30
0.0
 10
10.6926391723
 20
8.6296211505
 30
0.0
 10
10.6994834883
 20
8.6291949768
 30
0.0
 10
10.7063278045
 20
8.6296211504
 30
0.0
 10
10.71301222
 20
8.6308777468
 30
0.0
 10
10.7193964625
 20
8.6329043903
 30
0.0
 10
10.7253734521
 20
8.6356136544
 30
0.0
 10
10.730873584
 20
8.6389062274
 30
0.0
 10
10.7358592424
 20
8.6426864668
 30
0.0
 10
10.7403172278
 20
8.6468633859
 30
0.0
 10
10.7429686912
 20
8.6498927771
 30
0.0
 10
10.7442048487
 20
8.6514480138
 30
0.0
  0
SPLINE
  5
2B2
100
AcDbEntity
  8
0
100
AcDbSpline
 62
7
  6
CONTINUOUS
 70
0
 71
3
 72
23
 73
19
 74
0
 42
0.0000001
 43
0.0000001
 44
0.0000000001
 40
0.0
 40
0.0
 40
0.0
 40
0.0
 40
0.0563683241
 40
0.1144484872
 40
0.1743680401
 40
0.2362392592
 40
0.300038505
 40
0.3655693277
 40
0.4324247227
 40
0.4999999914
 40
0.5675752618
 40
0.6344306622
 40
0.6999614909
 40
0.7637607374
 40
0.8256319548
 40
0.8855515102
 40
0.9436316752
 40
1.0
 40
1.0
 40
1.0
 40
1.0
 10
10.6547621296
 20
8.6471786256
 30
0.0
 10
10.6560027143
 20
8.6457306033
 30
0.0
 10
10.6586653185
 20
8.6429102897
 30
0.0
 10
10.6631256601
 20
8.6390361421
 30
0.0
 10
10.6681127858
 20
8.6355309787
 30
0.0
 10
10.6736128822
 20
8.6324791185
 30
0.0
 10
10.6795879368
 20
8.6299688725
 30
0.0
 10
10.6859680535
 20
8.6280918173
 30
0.0
 10
10.6926463948
 20
8.6269283225
 30
0.0
 10
10.6994834883
 20
8.6265337901
 30
0.0
 10
10.706320582
 20
8.6269283224
 30
0.0
 10
10.7129989238
 20
8.628091817
 30
0.0
 10
10.7193790409
 20
8.6299688723
 30
0.0
 10
10.7253540957
 20
8.6324791182
 30
0.0
 10
10.7308541921
 20
8.6355309785
 30
0.0
 10
10.7358413179
 20
8.6390361419
 30
0.0
 10
10.7403016597
 20
8.6429102896
 30
0.0
 10
10.742964264
 20
8.6457306033
 30
0.0
 10
10.7442048487
 20
8.6471786256
 30
0.0
  0
SPLINE
  5
2B3
100
AcDbEntity
  8
0
100
AcDbSpline
 62
7
  6
CONTINUOUS
 70
0
 71
3
 72
21
 73
17
 74
0
 42
0.0000001
 43
0.0000001
 44
0.0000000001
 40
0.0
 40
0.0
 40
0.0
 40
0.0
 40
0.0556393137
 40
0.1132116582
 40
0.1728590188
 40
0.2346970986
 40
0.2986908492
 40
0.3646142977
 40
0.4999999913
 40
0.6353856921
 40
0.7013091467
 40
0.765302898
 40
0.8271409761
 40
0.8867883392
 40
0.9443606856
 40
1.0
 40
1.0
 40
1.0
 40
1.0
 10
10.6547621296
 20
9.176641804
 30
0.0
 10
10.6560052972
 20
9.1752519004
 30
0.0
 10
10.6586742303
 20
9.1725450904
 30
0.0
 10
10.6631356697
 20
9.1688348646
 30
0.0
 10
10.6681233962
 20
9.1654785509
 30
0.0
 10
10.6736230998
 20
9.1625568419
 30
0.0
 10
10.6795974948
 20
9.1601540321
 30
0.0
 10
10.6881701205
 20
9.157738865
 30
0.0
 10
10.6994834885
 20
9.1564916753
 30
0.0
 10
10.7107968567
 20
9.1577388648
 30
0.0
 10
10.7193694829
 20
9.1601540319
 30
0.0
 10
10.7253438781
 20
9.1625568417
 30
0.0
 10
10.7308435817
 20
9.1654785507
 30
0.0
 10
10.7358313083
 20
9.1688348644
 30
0.0
 10
10.7402927479
 20
9.1725450903
 30
0.0
 10
10.742961681
 20
9.1752519003
 30
0.0
 10
10.7442048487
 20
9.176641804
 30
0.0
  0
SPLINE
  5
2B4
100
AcDbEntity
  8
0
100
AcDbSpline
 62
7
  6
CONTINUOUS
 70
0
 71
3
 72
47
 73
43
 74
0
 42
0.0000001
 43
0.0000001
 44
0.0000000001
 40
0.0
 40
0.0
 40
0.0
 40
0.0
 40
0.0308778047
 40
0.0619738489
 40
0.0934077689
 40
0.1253823163
 40
0.141690058
 40
0.1582772042
 40
0.1751932125
 40
0.1837873888
 40
0.1924657051
 40
0.2012075893
 40
0.2099935549
 40
0.2187898561
 40
0.2275659871
 40
0.2362915155
 40
0.2449456189
 40
0.2535164803
 40
0.261997221
 40
0.2786949945
 40
0.2950959348
 40
0.3112547566
 40
0.3272243485
 40
0.3430464967
 40
0.3587513148
 40
0.37436512
 40
0.3899049272
 40
0.4053866338
 40
0.4208202336
 40
0.4515760472
 40
0.4822281319
 40
0.5128094285
 40
0.5433424476
 40
0.5738422938
 40
0.6347768173
 40
0.6956685493
 40
0.7565409559
 40
0.817405229
 40
0.8782668205
 40
0.9086984171
 40
0.9391312406
 40
1.0
 40
1.0
 40
1.0
 40
1.0
 10
11.7616987982
 20
9.3355405335
 30
0.0
 10
11.7603362666
 20
9.331318474
 30
0.0
 10
11.7573396493
 20
9.3229252827
 30
0.0
 10
11.7518572982
 20
9.3106566013
 30
0.0
 10
11.7450943419
 20
9.2988520314
 30
0.0
 10
11.738084882
 20
9.289722682
 30
0.0
 10
11.7314048925
 20
9.2831994946
 30
0.0
 10
11.7257246976
 20
9.2788149766
 30
0.0
 10
11.7204370341
 20
9.2758217523
 30
0.0
 10
11.7158836997
 20
9.2739632248
 30
0.0
 10
11.7123010359
 20
9.2728774053
 30
0.0
 10
11.708601088
 20
9.272144712
 30
0.0
 10
11.7048273405
 20
9.2718019174
 30
0.0
 10
11.7010334395
 20
9.2718596963
 30
0.0
 10
11.6972762087
 20
9.2723207248
 30
0.0
 10
11.693606247
 20
9.27315844
 30
0.0
 10
11.6900648939
 20
9.2743424823
 30
0.0
 10
11.6866776565
 20
9.2758266297
 30
0.0
 10
11.6824107749
 20
9.2781400575
 30
0.0
 10
11.6774964819
 20
9.2815742738
 30
0.0
 10
11.6722361246
 20
9.2863300337
 30
0.0
 10
11.6675626053
 20
9.2915182616
 30
0.0
 10
11.6633997381
 20
9.2970165181
 30
0.0
 10
11.6596804089
 20
9.3027440212
 30
0.0
 10
11.6563425636
 20
9.3086417144
 30
0.0
 10
11.6533416038
 20
9.3146714772
 30
0.0
 10
11.6506330212
 20
9.3208023534
 30
0.0
 10
11.6481866471
 20
9.3270142395
 30
0.0
 10
11.6452357446
 20
9.3353708503
 30
0.0
 10
11.6420621393
 20
9.345952556
 30
0.0
 10
11.6389219078
 20
9.3587955138
 30
0.0
 10
11.6363348276
 20
9.3717274248
 30
0.0
 10
11.6342073702
 20
9.3847196117
 30
0.0
 10
11.6318850989
 20
9.4020911257
 30
0.0
 10
11.6297823766
 20
9.4238830779
 30
0.0
 10
11.6281678046
 20
9.450086476
 30
0.0
 10
11.6272077896
 20
9.4763107241
 30
0.0
 10
11.6267372573
 20
9.5025430375
 30
0.0
 10
11.6266782246
 20
9.524405559
 30
0.0
 10
11.6268286858
 20
9.5418944667
 30
0.0
 10
11.6271136171
 20
9.5593826503
 30
0.0
 10
11.6275002936
 20
9.5724961337
 30
0.0
 10
11.6278540228
 20
9.581234499
 30
0.0
  0
SPLINE
  5
2B5
100
AcDbEntity
  8
0
100
AcDbSpline
 62
7
  6
CONTINUOUS
 70
0
 71
3
 72
56
 73
52
 74
0
 42
0.0000001
 43
0.0000001
 44
0.0000000001
 40
0.0
 40
0.0
 40
0.0
 40
0.0
 40
0.0306173729
 40
0.0612432867
 40
0.0918828906
 40
0.1225458449
 40
0.1532470908
 40
0.1840111166
 40
0.1994303565
 40
0.214883282
 40
0.2303796797
 40
0.2459330689
 40
0.2615622751
 40
0.2772921372
 40
0.2931590697
 40
0.309214792
 40
0.3173386633
 40
0.3255398522
 40
0.3338302283
 40
0.3422243589
 40
0.3593296465
 40
0.3680628585
 40
0.3724639315
 40
0.376879815
 40
0.3857251618
 40
0.3945447851
 40
0.4032904566
 40
0.4119312614
 40
0.4204531612
 40
0.4288627355
 40
0.4371657332
 40
0.4453789229
 40
0.4615716798
 40
0.4775380944
 40
0.4933408899
 40
0.5090237527
 40
0.5401347406
 40
0.5710429587
 40
0.6018313053
 40
0.6325473229
 40
0.6632192765
 40
0.6938643741
 40
0.7244933858
 40
0.7551128076
 40
0.7857265103
 40
0.8163371402
 40
0.8469460696
 40
0.8775545006
 40
0.9081630755
 40
0.938772758
 40
1.0
 40
1.0
 40
1.0
 40
1.0
 10
11.6278540228
 20
9.581234499
 30
0.0
 10
11.6280890598
 20
9.5870407445
 30
0.0
 10
11.6286454713
 20
9.5986516466
 30
0.0
 10
11.6298010583
 20
9.6160533472
 30
0.0
 10
11.6313560949
 20
9.6334332809
 30
0.0
 10
11.6334113968
 20
9.6507767904
 30
0.0
 10
11.6360972989
 20
9.6680591378
 30
0.0
 10
11.6389986062
 20
9.6823677244
 30
0.0
 10
11.6418293173
 20
9.6937200962
 30
0.0
 10
11.6442457902
 20
9.7021843378
 30
0.0
 10
11.6469975512
 20
9.7105730225
 30
0.0
 10
11.6501357215
 20
9.7188617021
 30
0.0
 10
11.653723067
 20
9.7270159645
 30
0.0
 10
11.6578409609
 20
9.7349852429
 30
0.0
 10
11.662588624
 20
9.742694313
 30
0.0
 10
11.6671617498
 20
9.7487843836
 30
0.0
 10
11.6712667457
 20
9.7533628548
 30
0.0
 10
11.674608638
 20
9.7566327998
 30
0.0
 10
11.6782272679
 20
9.7596771316
 30
0.0
 10
11.6834691469
 20
9.7633799087
 30
0.0
 10
11.6893233559
 20
9.7663396975
 30
0.0
 10
11.6948469534
 20
9.7679532273
 30
0.0
 10
11.6981236616
 20
9.7685656619
 30
0.0
 10
11.7014558698
 20
9.7689514266
 30
0.0
 10
11.7056618263
 20
9.7689934593
 30
0.0
 10
11.7106465814
 20
9.7683316452
 30
0.0
 10
11.7154581359
 20
9.7670167783
 30
0.0
 10
11.7200132327
 20
9.7651343166
 30
0.0
 10
11.7242726524
 20
9.7627890494
 30
0.0
 10
11.7282246498
 20
9.7600715853
 30
0.0
 10
11.7318817617
 20
9.7570623761
 30
0.0
 10
11.7363638728
 20
9.7527601517
 30
0.0
 10
11.7413521697
 20
9.7469173423
 30
0.0
 10
11.7465134426
 20
9.7394042061
 30
0.0
 10
11.7509753177
 20
9.7315707479
 30
0.0
 10
11.7561297306
 20
9.720858613
 30
0.0
 10
11.7613686456
 20
9.7070440256
 30
0.0
 10
11.7662198676
 20
9.6900966728
 30
0.0
 10
11.7699695216
 20
9.672953255
 30
0.0
 10
11.7728630801
 20
9.6556942487
 30
0.0
 10
11.775082912
 20
9.6383650735
 30
0.0
 10
11.7767687547
 20
9.6209937144
 30
0.0
 10
11.7780288957
 20
9.6035970563
 30
0.0
 10
11.7789475408
 20
9.5861854891
 30
0.0
 10
11.7795919622
 20
9.5687654039
 30
0.0
 10
11.7800085856
 20
9.5513405477
 30
0.0
 10
11.7802316328
 20
9.5339132306
 30
0.0
 10
11.7802789399
 20
9.5164850011
 30
0.0
 10
11.7801544094
 20
9.4990569018
 30
0.0
 10
11.7797449122
 20
9.4758209692
 30
0.0
 10
11.7791299694
 20
9.4583985476
 30
0.0
 10
11.7785228292
 20
9.4467938417
 30
0.0
  0
SPLINE
  5
2B6
100
AcDbEntity
  8
0
100
AcDbSpline
 62
7
  6
CONTINUOUS
 70
0
 71
3
 72
23
 73
19
 74
0
 42
0.0000001
 43
0.0000001
 44
0.0000000001
 40
0.0
 40
0.0
 40
0.0
 40
0.0
 40
0.0563654803
 40
0.1144436271
 40
0.1743620491
 40
0.2362330391
 40
0.3000329182
 40
0.365565127
 40
0.4324224704
 40
0.4999999907
 40
0.5675775133
 40
0.6344348633
 40
0.6999670779
 40
0.7637669575
 40
0.8256379458
 40
0.8855563702
 40
0.943634519
 40
1.0
 40
1.0
 40
1.0
 40
1.0
 10
10.7442048487
 20
9.7061091367
 30
0.0
 10
10.7429642545
 20
9.7075569392
 30
0.0
 10
10.7403016266
 20
9.7103768237
 30
0.0
 10
10.7358412806
 20
9.7142503509
 30
0.0
 10
10.7308541525
 20
9.7177549508
 30
0.0
 10
10.7253540568
 20
9.7208063182
 30
0.0
 10
10.7193790065
 20
9.7233161571
 30
0.0
 10
10.7129988984
 20
9.7251929065
 30
0.0
 10
10.7063205692
 20
9.7263562112
 30
0.0
 10
10.69948349
 20
9.7267506789
 30
0.0
 10
10.6926464105
 20
9.7263562113
 30
0.0
 10
10.6859680809
 20
9.7251929068
 30
0.0
 10
10.6795879724
 20
9.7233161572
 30
0.0
 10
10.6736129219
 20
9.7208063184
 30
0.0
 10
10.6681128261
 20
9.717754951
 30
0.0
 10
10.6631256979
 20
9.714250351
 30
0.0
 10
10.6586653517
 20
9.7103768238
 30
0.0
 10
10.6560027238
 20
9.7075569392
 30
0.0
 10
10.6547621296
 20
9.7061091367
 30
0.0
  0
SPLINE
  5
2B7
100
AcDbEntity
  8
0
100
AcDbSpline
 62
7
  6
CONTINUOUS
 70
0
 71
3
 72
23
 73
19
 74
0
 42
0.0000001
 43
0.0000001
 44
0.0000000001
 40
0.0
 40
0.0
 40
0.0
 40
0.0
 40
0.0577493273
 40
0.1168140789
 40
0.1772906152
 40
0.2392798194
 40
0.3027744817
 40
0.367629612
 40
0.4335301326
 40
0.4999999909
 40
0.5664698514
 40
0.6323703784
 40
0.6972255144
 40
0.7607201771
 40
0.8227093796
 40
0.8831859185
 40
0.942250672
 40
1.0
 40
1.0
 40
1.0
 40
1.0
 10
10.7442048487
 20
9.7018480155
 30
0.0
 10
10.7429686835
 20
9.7034030553
 30
0.0
 10
10.7403172003
 20
9.7064320628
 30
0.0
 10
10.7358592104
 20
9.7106084255
 30
0.0
 10
10.730873549
 20
9.7143881593
 30
0.0
 10
10.7253734167
 20
9.7176802894
 30
0.0
 10
10.7193964304
 20
9.7203891873
 30
0.0
 10
10.7130121958
 20
9.7224155552
 30
0.0
 10
10.7063277922
 20
9.7236719801
 30
0.0
 10
10.69948349
 20
9.7240980955
 30
0.0
 10
10.6926391876
 20
9.7236719802
 30
0.0
 10
10.6859547834
 20
9.7224155555
 30
0.0
 10
10.6795705484
 20
9.7203891875
 30
0.0
 10
10.673593562
 20
9.7176802897
 30
0.0
 10
10.6680934297
 20
9.7143881595
 30
0.0
 10
10.6631077681
 20
9.7106084256
 30
0.0
 10
10.658649778
 20
9.7064320629
 30
0.0
 10
10.6559982948
 20
9.7034030553
 30
0.0
 10
10.6547621296
 20
9.7018480155
 30
0.0
  0
SPLINE
  5
2B8
100
AcDbEntity
  8
0
100
AcDbSpline
 62
7
  6
CONTINUOUS
 70
0
 71
3
 72
23
 73
19
 74
0
 42
0.0000001
 43
0.0000001
 44
0.0000000001
 40
0.0
 40
0.0
 40
0.0
 40
0.0
 40
0.0589659077
 40
0.118906731
 40
0.1798866581
 40
0.241991135
 40
0.3052224691
 40
0.3694779323
 40
0.4345235051
 40
0.499999991
 40
0.5654764791
 40
0.6305220582
 40
0.694777527
 40
0.7580088615
 40
0.8201133367
 40
0.8810932663
 40
0.9410340916
 40
1.0
 40
1.0
 40
1.0
 40
1.0
 10
10.7442048487
 20
9.6933580079
 30
0.0
 10
10.74297226
 20
9.6950081448
 30
0.0
 10
10.7403300543
 20
9.6982222753
 30
0.0
 10
10.7358744285
 20
9.7026674165
 30
0.0
 10
10.730890489
 20
9.7066914583
 30
0.0
 10
10.7253907937
 20
9.7101975929
 30
0.0
 10
10.7194124546
 20
9.7130836869
 30
0.0
 10
10.7130246638
 20
9.7152434774
 30
0.0
 10
10.7063346496
 20
9.7165830782
 30
0.0
 10
10.69948349
 20
9.7170374891
 30
0.0
 10
10.6926323302
 20
9.7165830783
 30
0.0
 10
10.6859423154
 20
9.7152434777
 30
0.0
 10
10.6795545242
 20
9.7130836871
 30
0.0
 10
10.673576185
 20
9.7101975932
 30
0.0
 10
10.6680764896
 20
9.7066914585
 30
0.0
 10
10.66309255
 20
9.7026674167
 30
0.0
 10
10.658636924
 20
9.6982222754
 30
0.0
 10
10.6559947183
 20
9.6950081448
 30
0.0
 10
10.6547621296
 20
9.6933580079
 30
0.0
  0
SPLINE
  5
2B9
100
AcDbEntity
  8
0
100
AcDbSpline
 62
7
  6
CONTINUOUS
 70
0
 71
3
 72
23
 73
19
 74
0
 42
0.0000001
 43
0.0000001
 44
0.0000000001
 40
0.0
 40
0.0
 40
0.0
 40
0.0
 40
0.0600060245
 40
0.1207020916
 40
0.1821217288
 40
0.2443333115
 40
0.3073435157
 40
0.3710832322
 40
0.4353876128
 40
0.5000000019
 40
0.564612391
 40
0.6289167706
 40
0.692656485
 40
0.7556666884
 40
0.8178782712
 40
0.8792979084
 40
0.9399939755
 40
1.0
 40
1.0
 40
1.0
 40
1.0
 10
10.7442048487
 20
9.6807074743
 30
0.0
 10
10.7429751048
 20
9.6824399128
 30
0.0
 10
10.7403404596
 20
9.6858140257
 30
0.0
 10
10.7358870361
 20
9.690491832
 30
0.0
 10
10.7309048685
 20
9.6947274153
 30
0.0
 10
10.7254059015
 20
9.698418999
 30
0.0
 10
10.7194266937
 20
9.701458846
 30
0.0
 10
10.713035941
 20
9.7037346078
 30
0.0
 10
10.706340924
 20
9.705146626
 30
0.0
 10
10.6994834889
 20
9.7056256988
 30
0.0
 10
10.6926260539
 20
9.705146626
 30
0.0
 10
10.685931037
 20
9.7037346077
 30
0.0
 10
10.6795402845
 20
9.701458846
 30
0.0
 10
10.6735610767
 20
9.698418999
 30
0.0
 10
10.6680621097
 20
9.6947274153
 30
0.0
 10
10.6630799422
 20
9.690491832
 30
0.0
 10
10.6586265186
 20
9.6858140257
 30
0.0
 10
10.6559918734
 20
9.6824399128
 30
0.0
 10
10.6547621296
 20
9.6807074743
 30
0.0
  0
SPLINE
  5
2BA
100
AcDbEntity
  8
0
100
AcDbSpline
 62
7
  6
CONTINUOUS
 70
0
 71
3
 72
23
 73
19
 74
0
 42
0.0000001
 43
0.0000001
 44
0.0000000001
 40
0.0
 40
0.0
 40
0.0
 40
0.0
 40
0.0608654164
 40
0.12218972
 40
0.1839790982
 40
0.2462852239
 40
0.3091156992
 40
0.3724272852
 40
0.436112063
 40
0.4999999913
 40
0.5638879216
 40
0.6275727055
 40
0.6908842969
 40
0.7537147726
 40
0.8160208966
 40
0.8778102773
 40
0.9391345829
 40
1.0
 40
1.0
 40
1.0
 40
1.0
 10
10.7442048487
 20
9.663998275
 30
0.0
 10
10.7429773192
 20
9.6657996249
 30
0.0
 10
10.7403486711
 20
9.6693075375
 30
0.0
 10
10.7358971731
 20
9.6741801349
 30
0.0
 10
10.7309166642
 20
9.6785928495
 30
0.0
 10
10.7254185466
 20
9.682439807
 30
0.0
 10
10.719438838
 20
9.685608615
 30
0.0
 10
10.7130457109
 20
9.6879817996
 30
0.0
 10
10.7063464177
 20
9.6894547524
 30
0.0
 10
10.69948349
 20
9.6899545975
 30
0.0
 10
10.6926205621
 20
9.6894547525
 30
0.0
 10
10.6859212684
 20
9.6879817999
 30
0.0
 10
10.6795281408
 20
9.6856086152
 30
0.0
 10
10.673548432
 20
9.6824398073
 30
0.0
 10
10.6680503144
 20
9.6785928497
 30
0.0
 10
10.6630698054
 20
9.6741801351
 30
0.0
 10
10.6586183073
 20
9.6693075376
 30
0.0
 10
10.6559896591
 20
9.665799625
 30
0.0
 10
10.6547621296
 20
9.663998275
 30
0.0
  0
SPLINE
  5
2BB
100
AcDbEntity
  8
0
100
AcDbSpline
 62
7
  6
CONTINUOUS
 70
0
 71
3
 72
21
 73
17
 74
0
 42
0.0000001
 43
0.0000001
 44
0.0000000001
 40
0.0
 40
0.0
 40
0.0
 40
0.0
 40
0.1232563435
 40
0.18535911
 40
0.2477616218
 40
0.3104704919
 40
0.3734615826
 40
0.436671623
 40
0.4999999914
 40
0.5633283618
 40
0.6265384082
 40
0.6895295042
 40
0.7522383747
 40
0.8146408848
 40
0.8767436538
 40
1.0
 40
1.0
 40
1.0
 40
1.0
 10
10.7442048487
 20
9.6433649501
 30
0.0
 10
10.7417504243
 20
9.6470817424
 30
0.0
 10
10.73754401
 20
9.6523658102
 30
0.0
 10
10.730926283
 20
9.6584175215
 30
0.0
 10
10.7254285111
 20
9.6623892036
 30
0.0
 10
10.7194486865
 20
9.6656608837
 30
0.0
 10
10.7130537085
 20
9.6681120747
 30
0.0
 10
10.7063509605
 20
9.6696338445
 30
0.0
 10
10.69948349
 20
9.6701503564
 30
0.0
 10
10.6926160193
 20
9.6696338446
 30
0.0
 10
10.6859132707
 20
9.6681120751
 30
0.0
 10
10.6795182923
 20
9.6656608839
 30
0.0
 10
10.6735384675
 20
9.6623892039
 30
0.0
 10
10.6680406956
 20
9.6584175217
 30
0.0
 10
10.6614229685
 20
9.6523658105
 30
0.0
 10
10.657216554
 20
9.6470817425
 30
0.0
 10
10.6547621296
 20
9.6433649501
 30
0.0
  0
SPLINE
  5
2BC
100
AcDbEntity
  8
0
100
AcDbSpline
 62
7
  6
CONTINUOUS
 70
0
 71
3
 72
21
 73
17
 74
0
 42
0.0000001
 43
0.0000001
 44
0.0000000001
 40
0.0
 40
0.0
 40
0.0
 40
0.0
 40
0.1241182655
 40
0.1864395077
 40
0.2489015411
 40
0.3115092805
 40
0.3742518201
 40
0.4370984313
 40
0.4999999914
 40
0.5629015536
 40
0.6257481707
 40
0.6884907157
 40
0.7510984554
 40
0.8135604871
 40
0.8758817317
 40
1.0
 40
1.0
 40
1.0
 40
1.0
 10
10.7442048487
 20
9.6189736362
 30
0.0
 10
10.7417553543
 20
9.6227678887
 30
0.0
 10
10.7375568423
 20
9.6281674108
 30
0.0
 10
10.7309330012
 20
9.6343652324
 30
0.0
 10
10.7254359323
 20
9.6384286473
 30
0.0
 10
10.7194560117
 20
9.6417766017
 30
0.0
 10
10.7130597422
 20
9.6442855489
 30
0.0
 10
10.7063544073
 20
9.6458435406
 30
0.0
 10
10.69948349
 20
9.6463724223
 30
0.0
 10
10.6926125725
 20
9.6458435407
 30
0.0
 10
10.685907237
 20
9.6442855492
 30
0.0
 10
10.6795109671
 20
9.6417766019
 30
0.0
 10
10.6735310463
 20
9.6384286476
 30
0.0
 10
10.6680339774
 20
9.6343652326
 30
0.0
 10
10.6614101361
 20
9.6281674111
 30
0.0
 10
10.6572116241
 20
9.6227678888
 30
0.0
 10
10.6547621296
 20
9.6189736362
 30
0.0
  0
SPLINE
  5
2BD
100
AcDbEntity
  8
0
100
AcDbSpline
 62
7
  6
CONTINUOUS
 70
0
 71
3
 72
21
 73
17
 74
0
 42
0.0000001
 43
0.0000001
 44
0.0000000001
 40
0.0
 40
0.0
 40
0.0
 40
0.0
 40
0.1246663435
 40
0.1871273164
 40
0.2496281121
 40
0.3121721376
 40
0.3747565485
 40
0.4373712071
 40
0.4999999915
 40
0.5626287779
 40
0.6252434424
 40
0.6878278586
 40
0.7503718844
 40
0.8128726783
 40
0.8753336538
 40
1.0
 40
1.0
 40
1.0
 40
1.0
 10
10.7442048487
 20
9.5910207288
 30
0.0
 10
10.7417584117
 20
9.5948645524
 30
0.0
 10
10.7375648885
 20
9.600337879
 30
0.0
 10
10.7309372517
 20
9.6066292995
 30
0.0
 10
10.7254406678
 20
9.6107514336
 30
0.0
 10
10.7194607258
 20
9.6141482342
 30
0.0
 10
10.7130636537
 20
9.6166941969
 30
0.0
 10
10.706356653
 20
9.6182754235
 30
0.0
 10
10.69948349
 20
9.6188122448
 30
0.0
 10
10.6926103268
 20
9.6182754236
 30
0.0
 10
10.6859033256
 20
9.6166941972
 30
0.0
 10
10.679506253
 20
9.6141482345
 30
0.0
 10
10.6735263108
 20
9.6107514339
 30
0.0
 10
10.6680297269
 20
9.6066292997
 30
0.0
 10
10.6614020899
 20
9.6003378792
 30
0.0
 10
10.6572085666
 20
9.5948645525
 30
0.0
 10
10.6547621296
 20
9.5910207288
 30
0.0
  0
SPLINE
  5
2BE
100
AcDbEntity
  8
0
100
AcDbSpline
 62
7
  6
CONTINUOUS
 70
0
 71
3
 72
21
 73
17
 74
0
 42
0.0000001
 43
0.0000001
 44
0.0000000001
 40
0.0
 40
0.0
 40
0.0
 40
0.0
 40
0.1249011305
 40
0.1874221528
 40
0.2499397714
 40
0.3124566455
 40
0.3749732992
 40
0.4374883894
 40
0.4999999915
 40
0.5625115956
 40
0.6250266917
 40
0.6875433507
 40
0.7500602251
 40
0.812577842
 40
0.8750988668
 40
1.0
 40
1.0
 40
1.0
 40
1.0
 10
10.7442048487
 20
9.5597313007
 30
0.0
 10
10.7417597034
 20
9.5635964395
 30
0.0
 10
10.7375683086
 20
9.5691014818
 30
0.0
 10
10.7309390673
 20
9.5754331696
 30
0.0
 10
10.7254427002
 20
9.5795805549
 30
0.0
 10
10.7194627587
 20
9.5829983662
 30
0.0
 10
10.7130653473
 20
9.5855602575
 30
0.0
 10
10.7063576282
 20
9.5871514877
 30
0.0
 10
10.69948349
 20
9.5876917285
 30
0.0
 10
10.6926093516
 20
9.5871514878
 30
0.0
 10
10.6859016319
 20
9.5855602578
 30
0.0
 10
10.6795042201
 20
9.5829983664
 30
0.0
 10
10.6735242784
 20
9.5795805552
 30
0.0
 10
10.6680279113
 20
9.5754331698
 30
0.0
 10
10.6613986699
 20
9.569101482
 30
0.0
 10
10.6572072749
 20
9.5635964396
 30
0.0
 10
10.6547621296
 20
9.5597313007
 30
0.0
  0
SPLINE
  5
2BF
100
AcDbEntity
  8
0
100
AcDbSpline
 62
7
  6
CONTINUOUS
 70
0
 71
3
 72
21
 73
17
 74
0
 42
0.0000001
 43
0.0000001
 44
0.0000000001
 40
0.0
 40
0.0
 40
0.0
 40
0.0
 40
0.1248229805
 40
0.1873240024
 40
0.2498360069
 40
0.3123619089
 40
0.374901117
 40
0.4374493627
 40
0.4999999915
 40
0.5625506223
 40
0.6250988738
 40
0.6876380873
 40
0.7501639896
 40
0.8126759924
 40
0.8751770167
 40
1.0
 40
1.0
 40
1.0
 40
1.0
 10
10.7442048487
 20
9.52535729
 30
0.0
 10
10.7417592747
 20
9.5292153285
 30
0.0
 10
10.737567172
 20
9.5347098072
 30
0.0
 10
10.7309384633
 20
9.5410280803
 30
0.0
 10
10.7254420235
 20
9.545167054
 30
0.0
 10
10.7194620811
 20
9.548577866
 30
0.0
 10
10.7130647824
 20
9.5511344505
 30
0.0
 10
10.7063573027
 20
9.5527223475
 30
0.0
 10
10.69948349
 20
9.5532614489
 30
0.0
 10
10.6926096771
 20
9.5527223476
 30
0.0
 10
10.6859021968
 20
9.5511344508
 30
0.0
 10
10.6795048977
 20
9.5485778662
 30
0.0
 10
10.6735249551
 20
9.5451670543
 30
0.0
 10
10.6680285153
 20
9.5410280805
 30
0.0
 10
10.6613998065
 20
9.5347098075
 30
0.0
 10
10.6572077037
 20
9.5292153285
 30
0.0
 10
10.6547621296
 20
9.52535729
 30
0.0
  0
SPLINE
  5
2C0
100
AcDbEntity
  8
0
100
AcDbSpline
 62
7
  6
CONTINUOUS
 70
0
 71
3
 72
17
 73
13
 74
0
 42
0.0000001
 43
0.0000001
 44
0.0000000001
 40
0.0
 40
0.0
 40
0.0
 40
0.0
 40
0.0440607503
 40
0.0939080338
 40
0.2109521097
 40
0.3489112688
 40
0.4999999902
 40
0.65108872
 40
0.7890478869
 40
0.9060919638
 40
0.9559392492
 40
1.0
 40
1.0
 40
1.0
 40
1.0
 10
10.6547621296
 20
9.52535729
 30
0.0
 10
10.6560700483
 20
9.5252182188
 30
0.0
 10
10.6588608508
 20
9.5249515162
 30
0.0
 10
10.6651391103
 20
9.5244593297
 30
0.0
 10
10.6742268649
 20
9.5239579888
 30
0.0
 10
10.6863443431
 20
9.5235766512
 30
0.0
 10
10.6994834885
 20
9.5234425972
 30
0.0
 10
10.7126226341
 20
9.5235766512
 30
0.0
 10
10.7247401129
 20
9.5239579887
 30
0.0
 10
10.7338278678
 20
9.5244593297
 30
0.0
 10
10.7401061274
 20
9.5249515162
 30
0.0
 10
10.7428969299
 20
9.5252182188
 30
0.0
 10
10.7442048487
 20
9.52535729
 30
0.0
  0
SPLINE
  5
2C1
100
AcDbEntity
  8
0
100
AcDbSpline
 62
7
  6
CONTINUOUS
 70
0
 71
3
 72
21
 73
17
 74
0
 42
0.0000001
 43
0.0000001
 44
0.0000000001
 40
0.0
 40
0.0
 40
0.0
 40
0.0
 40
0.1244317652
 40
0.1868328544
 40
0.2493169664
 40
0.3118881998
 40
0.3745403
 40
0.4372543295
 40
0.5000000019
 40
0.5627456741
 40
0.6254597027
 40
0.6881118008
 40
0.7506830335
 40
0.8131671456
 40
0.8755682349
 40
1.0
 40
1.0
 40
1.0
 40
1.0
 10
10.7442048487
 20
9.4881754713
 30
0.0
 10
10.7417571104
 20
9.4919980472
 30
0.0
 10
10.7375614558
 20
9.4974397466
 30
0.0
 10
10.7309354351
 20
9.503691039
 30
0.0
 10
10.7254386407
 20
9.5077880034
 30
0.0
 10
10.7194587041
 20
9.5111638638
 30
0.0
 10
10.7130619735
 20
9.5136939563
 30
0.0
 10
10.7063556866
 20
9.5152652185
 30
0.0
 10
10.6994834889
 20
9.5157986347
 30
0.0
 10
10.6926112912
 20
9.5152652184
 30
0.0
 10
10.6859050045
 20
9.5136939562
 30
0.0
 10
10.679508274
 20
9.5111638637
 30
0.0
 10
10.6735283376
 20
9.5077880034
 30
0.0
 10
10.6680315432
 20
9.5036910391
 30
0.0
 10
10.6614055225
 20
9.4974397466
 30
0.0
 10
10.6572098679
 20
9.4919980472
 30
0.0
 10
10.6547621296
 20
9.4881754713
 30
0.0
  0
SPLINE
  5
2C2
100
AcDbEntity
  8
0
100
AcDbSpline
 62
7
  6
CONTINUOUS
 70
0
 71
3
 72
21
 73
17
 74
0
 42
0.0000001
 43
0.0000001
 44
0.0000000001
 40
0.0
 40
0.0
 40
0.0
 40
0.0
 40
0.044699123
 40
0.0949462566
 40
0.1508008284
 40
0.2121845342
 40
0.2787289044
 40
0.3497095071
 40
0.5000000052
 40
0.6502904985
 40
0.7212710962
 40
0.7878154637
 40
0.849199169
 40
0.9050537422
 40
0.9553008767
 40
1.0
 40
1.0
 40
1.0
 40
1.0
 10
10.6547621296
 20
9.4881754713
 30
0.0
 10
10.6560646477
 20
9.487853336
 30
0.0
 10
10.65884769
 20
9.4872343682
 30
0.0
 10
10.6633016547
 20
9.4864213078
 30
0.0
 10
10.6682760171
 20
9.4856860935
 30
0.0
 10
10.6737562894
 20
9.4850463355
 30
0.0
 10
10.6797046005
 20
9.4845203379
 30
0.0
 10
10.6883284756
 20
9.4839865574
 30
0.0
 10
10.6994834895
 20
9.4837220677
 30
0.0
 10
10.7106385031
 20
9.4839865575
 30
0.0
 10
10.7192623779
 20
9.4845203379
 30
0.0
 10
10.7252106887
 20
9.4850463355
 30
0.0
 10
10.730690961
 20
9.4856860934
 30
0.0
 10
10.7356653235
 20
9.4864213078
 30
0.0
 10
10.7401192882
 20
9.4872343682
 30
0.0
 10
10.7429023306
 20
9.487853336
 30
0.0
 10
10.7442048487
 20
9.4881754713
 30
0.0
  0
SPLINE
  5
2C3
100
AcDbEntity
  8
0
100
AcDbSpline
 62
7
  6
CONTINUOUS
 70
0
 71
3
 72
21
 73
17
 74
0
 42
0.0000001
 43
0.0000001
 44
0.0000000001
 40
0.0
 40
0.0
 40
0.0
 40
0.0
 40
0.1237269807
 40
0.1859488492
 40
0.2483836443
 40
0.3110371534
 40
0.3738925471
 40
0.4369043471
 40
0.4999999914
 40
0.5630956378
 40
0.6261074437
 40
0.6889628428
 40
0.7516163523
 40
0.8140511456
 40
0.8762730166
 40
1.0
 40
1.0
 40
1.0
 40
1.0
 10
10.7442048487
 20
9.4484852275
 30
0.0
 10
10.7417531349
 20
9.4522442429
 30
0.0
 10
10.737551044
 20
9.4575912635
 30
0.0
 10
10.7309299564
 20
9.463722595
 30
0.0
 10
10.7254325593
 20
9.4677442763
 30
0.0
 10
10.7194526729
 20
9.4710575245
 30
0.0
 10
10.7130569855
 20
9.473540185
 30
0.0
 10
10.7063528299
 20
9.4750816861
 30
0.0
 10
10.69948349
 20
9.4756049352
 30
0.0
 10
10.6926141499
 20
9.4750816862
 30
0.0
 10
10.6859099937
 20
9.4735401853
 30
0.0
 10
10.6795143059
 20
9.4710575247
 30
0.0
 10
10.6735344193
 20
9.4677442766
 30
0.0
 10
10.6680370222
 20
9.4637225953
 30
0.0
 10
10.6614159344
 20
9.4575912637
 30
0.0
 10
10.6572138434
 20
9.452244243
 30
0.0
 10
10.6547621296
 20
9.4484852275
 30
0.0
  0
SPLINE
  5
2C4
100
AcDbEntity
  8
0
100
AcDbSpline
 62
7
  6
CONTINUOUS
 70
0
 71
3
 72
21
 73
17
 74
0
 42
0.0000001
 43
0.0000001
 44
0.0000000001
 40
0.0
 40
0.0
 40
0.0
 40
0.0
 40
0.0457770188
 40
0.0967072461
 40
0.152889107
 40
0.2142843848
 40
0.2805693244
 40
0.3510720254
 40
0.4999999904
 40
0.6489279636
 40
0.7194306713
 40
0.7857156119
 40
0.847110888
 40
0.9032927515
 40
0.9542229807
 40
1.0
 40
1.0
 40
1.0
 40
1.0
 10
10.6547621296
 20
9.4484852275
 30
0.0
 10
10.6560562082
 20
9.4479853079
 30
0.0
 10
10.6588263298
 20
9.4470218414
 30
0.0
 10
10.6632837497
 20
9.445749745
 30
0.0
 10
10.66826136
 20
9.4445997535
 30
0.0
 10
10.6737446557
 20
9.4435992929
 30
0.0
 10
10.6796958973
 20
9.4427768526
 30
0.0
 10
10.6883163756
 20
9.4419429678
 30
0.0
 10
10.6994834885
 20
9.4415284758
 30
0.0
 10
10.7106506016
 20
9.4419429677
 30
0.0
 10
10.7192710804
 20
9.4427768525
 30
0.0
 10
10.7252223222
 20
9.4435992928
 30
0.0
 10
10.730705618
 20
9.4445997534
 30
0.0
 10
10.7356832283
 20
9.4457497449
 30
0.0
 10
10.7401406484
 20
9.4470218413
 30
0.0
 10
10.74291077
 20
9.4479853079
 30
0.0
 10
10.7442048487
 20
9.4484852275
 30
0.0
  0
SPLINE
  5
2C5
100
AcDbEntity
  8
0
100
AcDbSpline
 62
7
  6
CONTINUOUS
 70
0
 71
3
 72
23
 73
19
 74
0
 42
0.0000001
 43
0.0000001
 44
0.0000000001
 40
0.0
 40
0.0
 40
0.0
 40
0.0
 40
0.0612271914
 40
0.1228170786
 40
0.1847638311
 40
0.2471114028
 40
0.3098670567
 40
0.3729979045
 40
0.4364199098
 40
0.4999999913
 40
0.5635800749
 40
0.6270020862
 40
0.6901329395
 40
0.7528885937
 40
0.8152361637
 40
0.8771829187
 40
0.9387728078
 40
1.0
 40
1.0
 40
1.0
 40
1.0
 10
10.7442048487
 20
9.4066061387
 30
0.0
 10
10.7429782167
 20
9.4084367854
 30
0.0
 10
10.7403520274
 20
9.412001541
 30
0.0
 10
10.7359013652
 20
9.4169569365
 30
0.0
 10
10.7309216048
 20
9.4214449462
 30
0.0
 10
10.7254239128
 20
9.4253579723
 30
0.0
 10
10.7194440558
 20
9.4285816561
 30
0.0
 10
10.7130499522
 20
9.4309963409
 30
0.0
 10
10.7063488191
 20
9.4324952801
 30
0.0
 10
10.69948349
 20
9.4330039906
 30
0.0
 10
10.6926181607
 20
9.4324952802
 30
0.0
 10
10.685917027
 20
9.4309963412
 30
0.0
 10
10.679522923
 20
9.4285816564
 30
0.0
 10
10.6735430658
 20
9.4253579726
 30
0.0
 10
10.6680453738
 20
9.4214449464
 30
0.0
 10
10.6630656133
 20
9.4169569367
 30
0.0
 10
10.6586149509
 20
9.4120015412
 30
0.0
 10
10.6559887616
 20
9.4084367854
 30
0.0
 10
10.6547621296
 20
9.4066061387
 30
0.0
  0
SPLINE
  5
2C6
100
AcDbEntity
  8
0
100
AcDbSpline
 62
7
  6
CONTINUOUS
 70
0
 71
3
 72
23
 73
19
 74
0
 42
0.0000001
 43
0.0000001
 44
0.0000000001
 40
0.0
 40
0.0
 40
0.0
 40
0.0
 40
0.0471856308
 40
0.0990202999
 40
0.1556413602
 40
0.2170561193
 40
0.2829961592
 40
0.3528579957
 40
0.4256449712
 40
0.4999999905
 40
0.5743550117
 40
0.6471419935
 40
0.7170038365
 40
0.7829438773
 40
0.8443586348
 40
0.9009796976
 40
0.9528143687
 40
1.0
 40
1.0
 40
1.0
 40
1.0
 10
10.6547621296
 20
9.4066061387
 30
0.0
 10
10.6560462743
 20
9.4059355604
 30
0.0
 10
10.6587998916
 20
9.4046391454
 30
0.0
 10
10.6632607297
 20
9.4029163687
 30
0.0
 10
10.6682419304
 20
9.4013592902
 30
0.0
 10
10.6737289101
 20
9.4000048997
 30
0.0
 10
10.6796838526
 20
9.3988917821
 30
0.0
 10
10.6860368044
 20
9.3980601125
 30
0.0
 10
10.6926823324
 20
9.3975449032
 30
0.0
 10
10.6994834883
 20
9.3973702536
 30
0.0
 10
10.7062846444
 20
9.3975449031
 30
0.0
 10
10.7129301729
 20
9.3980601124
 30
0.0
 10
10.7192831251
 20
9.398891782
 30
0.0
 10
10.7252380678
 20
9.4000048996
 30
0.0
 10
10.7307250476
 20
9.4013592901
 30
0.0
 10
10.7357062484
 20
9.4029163687
 30
0.0
 10
10.7401670866
 20
9.4046391454
 30
0.0
 10
10.742920704
 20
9.4059355604
 30
0.0
 10
10.7442048487
 20
9.4066061387
 30
0.0
  0
SPLINE
  5
2C7
100
AcDbEntity
  8
0
100
AcDbSpline
 62
7
  6
CONTINUOUS
 70
0
 71
3
 72
23
 73
19
 74
0
 42
0.0000001
 43
0.0000001
 44
0.0000000001
 40
0.0
 40
0.0
 40
0.0
 40
0.0
 40
0.060458861
 40
0.121485494
 40
0.1830992373
 40
0.2453599553
 40
0.3082751128
 40
0.3717894515
 40
0.4357681505
 40
0.4999999912
 40
0.564231834
 40
0.6282105391
 40
0.6917248833
 40
0.7546400412
 40
0.8169007574
 40
0.8785145033
 40
0.9395411383
 40
1.0
 40
1.0
 40
1.0
 40
1.0
 10
10.7442048487
 20
9.3628754096
 30
0.0
 10
10.7429762864
 20
9.3646440454
 30
0.0
 10
10.7403448288
 20
9.3680884563
 30
0.0
 10
10.7358924089
 20
9.3728685858
 30
0.0
 10
10.7309110939
 20
9.3771972139
 30
0.0
 10
10.725412546
 20
9.3809704037
 30
0.0
 10
10.7194330488
 20
9.3840779683
 30
0.0
 10
10.7130410359
 20
9.3864048686
 30
0.0
 10
10.7063437825
 20
9.3878488606
 30
0.0
 10
10.69948349
 20
9.3883388303
 30
0.0
 10
10.6926231973
 20
9.3878488607
 30
0.0
 10
10.6859259434
 20
9.3864048689
 30
0.0
 10
10.6795339301
 20
9.3840779685
 30
0.0
 10
10.6735544326
 20
9.380970404
 30
0.0
 10
10.6680558847
 20
9.3771972141
 30
0.0
 10
10.6630745696
 20
9.3728685861
 30
0.0
 10
10.6586221495
 20
9.3680884564
 30
0.0
 10
10.6559906919
 20
9.3646440454
 30
0.0
 10
10.6547621296
 20
9.3628754096
 30
0.0
  0
SPLINE
  5
2C8
100
AcDbEntity
  8
0
100
AcDbSpline
 62
7
  6
CONTINUOUS
 70
0
 71
3
 72
21
 73
17
 74
0
 42
0.0000001
 43
0.0000001
 44
0.0000000001
 40
0.0
 40
0.0
 40
0.0
 40
0.0
 40
0.1016480096
 40
0.1588117078
 40
0.2202784962
 40
0.2858386865
 40
0.3549665599
 40
0.4267657514
 40
0.4999999906
 40
0.5732342317
 40
0.6450334294
 40
0.7141613093
 40
0.7797215004
 40
0.8411882872
 40
0.8983519879
 40
1.0
 40
1.0
 40
1.0
 40
1.0
 10
10.6547621296
 20
9.3628754096
 30
0.0
 10
10.6574145726
 20
9.3611410326
 30
0.0
 10
10.6618215152
 20
9.3588202536
 30
0.0
 10
10.6682186281
 20
9.3563135304
 30
0.0
 10
10.6737101851
 20
9.3546145267
 30
0.0
 10
10.679669085
 20
9.3532186136
 30
0.0
 10
10.6860267314
 20
9.3521755971
 30
0.0
 10
10.6926771964
 20
9.3515294975
 30
0.0
 10
10.6994834883
 20
9.3513104751
 30
0.0
 10
10.7062897804
 20
9.3515294975
 30
0.0
 10
10.7129402459
 20
9.352175597
 30
0.0
 10
10.7192978927
 20
9.3532186135
 30
0.0
 10
10.7252567928
 20
9.3546145266
 30
0.0
 10
10.7307483499
 20
9.3563135303
 30
0.0
 10
10.7371454629
 20
9.3588202535
 30
0.0
 10
10.7415524056
 20
9.3611410326
 30
0.0
 10
10.7442048487
 20
9.3628754096
 30
0.0
  0
SPLINE
  5
2C9
100
AcDbEntity
  8
0
100
AcDbSpline
 62
7
  6
CONTINUOUS
 70
0
 71
3
 72
23
 73
19
 74
0
 42
0.0000001
 43
0.0000001
 44
0.0000000001
 40
0.0
 40
0.0
 40
0.0
 40
0.0
 40
0.0595088864
 40
0.1198432685
 40
0.1810516737
 40
0.243211075
 40
0.3063264959
 40
0.3703130587
 40
0.4349728785
 40
0.4999999911
 40
0.5650271059
 40
0.6296869318
 40
0.6936735002
 40
0.7567889215
 40
0.8189483211
 40
0.8801567289
 40
0.9404911129
 40
1.0
 40
1.0
 40
1.0
 40
1.0
 10
10.7442048487
 20
9.3176451537
 30
0.0
 10
10.7429737684
 20
9.3193381197
 30
0.0
 10
10.7403355514
 20
9.3226355297
 30
0.0
 10
10.7358810563
 20
9.3272017477
 30
0.0
 10
10.7308980085
 20
9.3313358686
 30
0.0
 10
10.725398652
 20
9.3349384888
 30
0.0
 10
10.7194198246
 20
9.3379045544
 30
0.0
 10
10.7130304772
 20
9.3401246405
 30
0.0
 10
10.7063378756
 20
9.3415018776
 30
0.0
 10
10.69948349
 20
9.3419691022
 30
0.0
 10
10.6926291042
 20
9.3415018777
 30
0.0
 10
10.6859365021
 20
9.3401246408
 30
0.0
 10
10.6795471542
 20
9.3379045546
 30
0.0
 10
10.6735683266
 20
9.334938489
 30
0.0
 10
10.6680689701
 20
9.3313358688
 30
0.0
 10
10.6630859222
 20
9.3272017479
 30
0.0
 10
10.6586314269
 20
9.3226355298
 30
0.0
 10
10.6559932099
 20
9.3193381197
 30
0.0
 10
10.6547621296
 20
9.3176451537
 30
0.0
  0
SPLINE
  5
2CA
100
AcDbEntity
  8
0
100
AcDbSpline
 62
7
  6
CONTINUOUS
 70
0
 71
3
 72
17
 73
13
 74
0
 42
0.0000001
 43
0.0000001
 44
0.0000000001
 40
0.0
 40
0.0
 40
0.0
 40
0.0
 40
0.1045767051
 40
0.2238139207
 40
0.28899096
 40
0.357342674
 40
0.4999999908
 40
0.6426573154
 40
0.7110090357
 40
0.7761860759
 40
0.8954232924
 40
1.0
 40
1.0
 40
1.0
 40
1.0
 10
10.6547621296
 20
9.3176451537
 30
0.0
 10
10.6573763783
 20
9.3156052693
 30
0.0
 10
10.6634142299
 20
9.3117913145
 30
0.0
 10
10.6719273445
 20
9.3082871427
 30
0.0
 10
10.6796522372
 20
9.3061251959
 30
0.0
 10
10.6882543954
 20
9.3044399299
 30
0.0
 10
10.6994834885
 20
9.3035886759
 30
0.0
 10
10.7107125818
 20
9.3044399297
 30
0.0
 10
10.7193147405
 20
9.3061251958
 30
0.0
 10
10.7270396335
 20
9.3082871425
 30
0.0
 10
10.7355527482
 20
9.3117913144
 30
0.0
 10
10.7415906
 20
9.3156052692
 30
0.0
 10
10.7442048487
 20
9.3176451537
 30
0.0
  0
SPLINE
  5
2CB
100
AcDbEntity
  8
0
100
AcDbSpline
 62
7
  6
CONTINUOUS
 70
0
 71
3
 72
23
 73
19
 74
0
 42
0.0000001
 43
0.0000001
 44
0.0000000001
 40
0.0
 40
0.0
 40
0.0
 40
0.0
 40
0.0583798348
 40
0.1178976226
 40
0.1786335693
 40
0.2406811772
 40
0.3040387569
 40
0.3685836007
 40
0.4340426473
 40
0.499999991
 40
0.5659573368
 40
0.6314163898
 40
0.6959612392
 40
0.7593188193
 40
0.8213664255
 40
0.8821023748
 40
0.9416201645
 40
1.0
 40
1.0
 40
1.0
 40
1.0
 10
10.7442048487
 20
9.2712795587
 30
0.0
 10
10.742970572
 20
9.2728837529
 30
0.0
 10
10.7403239566
 20
9.2760084851
 30
0.0
 10
10.735867161
 20
9.2803237603
 30
0.0
 10
10.7308823433
 20
9.2842297485
 30
0.0
 10
10.725382382
 20
9.2876324486
 30
0.0
 10
10.7194046514
 20
9.2904328676
 30
0.0
 10
10.7130185633
 20
9.2925281182
 30
0.0
 10
10.7063312839
 20
9.2938274673
 30
0.0
 10
10.69948349
 20
9.2942681814
 30
0.0
 10
10.6926356959
 20
9.2938274674
 30
0.0
 10
10.6859484159
 20
9.2925281185
 30
0.0
 10
10.6795623274
 20
9.2904328678
 30
0.0
 10
10.6735845966
 20
9.2876324488
 30
0.0
 10
10.6680846353
 20
9.2842297487
 30
0.0
 10
10.6630998175
 20
9.2803237605
 30
0.0
 10
10.6586430218
 20
9.2760084852
 30
0.0
 10
10.6559964062
 20
9.2728837529
 30
0.0
 10
10.6547621296
 20
9.2712795587
 30
0.0
  0
SPLINE
  5
2CC
100
AcDbEntity
  8
0
100
AcDbSpline
 62
7
  6
CONTINUOUS
 70
0
 71
3
 72
15
 73
11
 74
0
 42
0.0000001
 43
0.0000001
 44
0.0000000001
 40
0.0
 40
0.0
 40
0.0
 40
0.0
 40
0.1075574046
 40
0.227530658
 40
0.3597388726
 40
0.499999991
 40
0.640261117
 40
0.7724693386
 40
0.8924425929
 40
1.0
 40
1.0
 40
1.0
 40
1.0
 10
10.6547621296
 20
9.2712795587
 30
0.0
 10
10.6573423782
 20
9.2689562318
 30
0.0
 10
10.6633097735
 20
9.2645851945
 30
0.0
 10
10.673846998
 20
9.2595577764
 30
0.0
 10
10.6861417954
 20
9.2562283817
 30
0.0
 10
10.6994834885
 20
9.2550571858
 30
0.0
 10
10.7128251818
 20
9.2562283816
 30
0.0
 10
10.7251199798
 20
9.2595577762
 30
0.0
 10
10.7356572046
 20
9.2645851944
 30
0.0
 10
10.7416246
 20
9.2689562317
 30
0.0
 10
10.7442048487
 20
9.2712795587
 30
0.0
  0
SPLINE
  5
2CD
100
AcDbEntity
  8
0
100
AcDbSpline
 62
7
  6
CONTINUOUS
 70
0
 71
3
 72
23
 73
19
 74
0
 42
0.0000001
 43
0.0000001
 44
0.0000000001
 40
0.0
 40
0.0
 40
0.0
 40
0.0
 40
0.0570781513
 40
0.1156630498
 40
0.1758669592
 40
0.237797128
 40
0.3014390985
 40
0.3666233089
 40
0.432989974
 40
0.4999999908
 40
0.5670100098
 40
0.6333766814
 40
0.6985608976
 40
0.7622028685
 40
0.8241330356
 40
0.8843369475
 40
0.942921848
 40
1.0
 40
1.0
 40
1.0
 40
1.0
 10
10.7442048487
 20
9.2241519539
 30
0.0
 10
10.7429665859
 20
9.2256549021
 30
0.0
 10
10.7403097775
 20
9.2285823756
 30
0.0
 10
10.7358505966
 20
9.2326115847
 30
0.0
 10
10.7308641562
 20
9.2362576054
 30
0.0
 10
10.7253639715
 20
9.2394326929
 30
0.0
 10
10.7193878744
 20
9.2420447834
 30
0.0
 10
10.7130056328
 20
9.243998355
 30
0.0
 10
10.7063242157
 20
9.2452094542
 30
0.0
 10
10.69948349
 20
9.2456201616
 30
0.0
 10
10.692642764
 20
9.2452094543
 30
0.0
 10
10.6859613464
 20
9.2439983553
 30
0.0
 10
10.6795791045
 20
9.2420447836
 30
0.0
 10
10.6736030071
 20
9.2394326931
 30
0.0
 10
10.6681028224
 20
9.2362576056
 30
0.0
 10
10.6631163819
 20
9.2326115849
 30
0.0
 10
10.6586572008
 20
9.2285823757
 30
0.0
 10
10.6560003924
 20
9.2256549021
 30
0.0
 10
10.6547621296
 20
9.2241519539
 30
0.0
  0
SPLINE
  5
2CE
100
AcDbEntity
  8
0
100
AcDbSpline
 62
7
  6
CONTINUOUS
 70
0
 71
3
 72
15
 73
11
 74
0
 42
0.0000001
 43
0.0000001
 44
0.0000000001
 40
0.0
 40
0.0
 40
0.0
 40
0.0
 40
0.1104497836
 40
0.2311584306
 40
0.3621551881
 40
0.4999999911
 40
0.6378448016
 40
0.768841566
 40
0.8895502138
 40
1.0
 40
1.0
 40
1.0
 40
1.0
 10
10.6547621296
 20
9.2241519539
 30
0.0
 10
10.6573131462
 20
9.2215669825
 30
0.0
 10
10.6632114516
 20
9.2166835172
 30
0.0
 10
10.6737580557
 20
9.2109958633
 30
0.0
 10
10.6860881169
 20
9.2072222947
 30
0.0
 10
10.6994834885
 20
9.2058933114
 30
0.0
 10
10.7128788603
 20
9.2072222945
 30
0.0
 10
10.7252089221
 20
9.2109958631
 30
0.0
 10
10.7357555265
 20
9.2166835171
 30
0.0
 10
10.741653832
 20
9.2215669824
 30
0.0
 10
10.7442048487
 20
9.2241519539
 30
0.0
  0
SPLINE
  5
2CF
100
AcDbEntity
  8
0
100
AcDbSpline
 62
7
  6
CONTINUOUS
 70
0
 71
3
 72
21
 73
17
 74
0
 42
0.0000001
 43
0.0000001
 44
0.0000000001
 40
0.0
 40
0.0
 40
0.0
 40
0.0
 40
0.0556393137
 40
0.1132116582
 40
0.1728590188
 40
0.2346970986
 40
0.2986908494
 40
0.3646142984
 40
0.4999999908
 40
0.6353856919
 40
0.7013091467
 40
0.765302898
 40
0.8271409761
 40
0.8867883392
 40
0.9443606856
 40
1.0
 40
1.0
 40
1.0
 40
1.0
 10
10.7442048487
 20
9.176641804
 30
0.0
 10
10.742961681
 20
9.1780317077
 30
0.0
 10
10.740292748
 20
9.1807385177
 30
0.0
 10
10.7358313085
 20
9.1844487435
 30
0.0
 10
10.730843582
 20
9.1878050572
 30
0.0
 10
10.7253438785
 20
9.1907267662
 30
0.0
 10
10.7193694834
 20
9.193129576
 30
0.0
 10
10.7107968578
 20
9.1955447431
 30
0.0
 10
10.6994834898
 20
9.1967919328
 30
0.0
 10
10.6881701216
 20
9.1955447433
 30
0.0
 10
10.6795974954
 20
9.1931295762
 30
0.0
 10
10.6736231002
 20
9.1907267664
 30
0.0
 10
10.6681233966
 20
9.1878050574
 30
0.0
 10
10.66313567
 20
9.1844487437
 30
0.0
 10
10.6586742304
 20
9.1807385177
 30
0.0
 10
10.6560052972
 20
9.1780317077
 30
0.0
 10
10.6547621296
 20
9.176641804
 30
0.0
  0
SPLINE
  5
2D0
100
AcDbEntity
  8
0
100
AcDbSpline
 62
7
  6
CONTINUOUS
 70
0
 71
3
 72
21
 73
17
 74
0
 42
0.0000001
 43
0.0000001
 44
0.0000000001
 40
0.0
 40
0.0
 40
0.0
 40
0.0
 40
0.1247718284
 40
0.2495405141
 40
0.3119267392
 40
0.3743157764
 40
0.4991107025
 40
0.5615287302
 40
0.6239629013
 40
0.6864228715
 40
0.7489259443
 40
0.8114931866
 40
0.8428161607
 40
0.8741755664
 40
0.937000351
 40
1.0
 40
1.0
 40
1.0
 40
1.0
 10
11.77978459
 20
8.8728247649
 30
0.0
 10
11.780013834
 20
8.863412408
 30
0.0
 10
11.7802904707
 20
8.8445832682
 30
0.0
 10
11.7802608154
 20
8.8210446348
 30
0.0
 10
11.7800018029
 20
8.8022158566
 30
0.0
 10
11.7795772212
 20
8.7833882145
 30
0.0
 10
11.7788599046
 20
8.7645650295
 30
0.0
 10
11.7777586911
 20
8.7457585
 30
0.0
 10
11.7766931746
 20
8.7316635128
 30
0.0
 10
11.7753428935
 20
8.7175862272
 30
0.0
 10
11.773660688
 20
8.7035341937
 30
0.0
 10
11.771913454
 20
8.6918606511
 30
0.0
 10
11.7702677888
 20
8.6825533153
 30
0.0
 10
11.7684424688
 20
8.6732597494
 30
0.0
 10
11.7657835339
 20
8.6616962131
 30
0.0
 10
11.7631588143
 20
8.652564667
 30
0.0
 10
11.7616987982
 20
8.6480405335
 30
0.0
  0
SPLINE
  5
2D1
100
AcDbEntity
  8
0
100
AcDbSpline
 62
7
  6
CONTINUOUS
 70
0
 71
3
 72
16
 73
12
 74
0
 42
0.0000001
 43
0.0000001
 44
0.0000000001
 40
0.0
 40
0.0
 40
0.0
 40
0.0
 40
0.1246138674
 40
0.2492608512
 40
0.3739593705
 40
0.4987443638
 40
0.6236572858
 40
0.6861916333
 40
0.7487983064
 40
0.8742245338
 40
1.0
 40
1.0
 40
1.0
 40
1.0
 10
11.7785228292
 20
9.4467938417
 30
0.0
 10
11.7782779942
 20
9.4421141331
 30
0.0
 10
11.7777243692
 20
9.4327566167
 30
0.0
 10
11.7766561284
 20
9.4187337051
 30
0.0
 10
11.7753038822
 20
9.4047285319
 30
0.0
 10
11.7736215067
 20
9.3907486924
 30
0.0
 10
11.7718766838
 20
9.3791352401
 30
0.0
 10
11.7702345071
 20
9.3698759499
 30
0.0
 10
11.7684138312
 20
9.3606304415
 30
0.0
 10
11.7657641307
 20
9.3491265605
 30
0.0
 10
11.7631514142
 20
9.3400417365
 30
0.0
 10
11.7616987982
 20
9.3355405335
 30
0.0
  0
ENDSEC
  0
SECTION
  2
OBJECTS
  0
DICTIONARY
  5
C
100
AcDbDictionary
280
0
281
1
  3
ACAD_GROUP
350
D
  3
ACAD_MLINESTYLE
350
17
  3
ACAD_LAYOUT
350
1A
  3
ACAD_PLOTSETTINGS
350
19
  3
ACAD_PLOTSTYLENAME
350
E
  0
DICTIONARY
  5
D
102
{ACAD_REACTORS
330
C
102
}
100
AcDbDictionary
280
0
281
1
  0
ACDBDICTIONARYWDFLT
  5
E
102
{ACAD_REACTORS
330
C
102
}
100
AcDbDictionary
281
1
  3
Normal
350
F
100
AcDbDictionaryWithDefault
340
F
  0
DICTIONARY
  5
17
102
{ACAD_REACTORS
330
C
102
}
100
AcDbDictionary
280
0
281
1
  3
Standard
350
18
  0
DICTIONARY
  5
19
102
{ACAD_REACTORS
330
C
102
}
100
AcDbDictionary
281
1
  0
DICTIONARY
  5
1A
102
{ACAD_REACTORS
330
C
102
}
100
AcDbDictionary
281
1
  3
Model
350
2D2
  3
Layout1
350
2D3
  0
ACDBPLACEHOLDER
  5
F
102
{ACAD_REACTORS
330
E
102
}
  0
MLINESTYLE
  5
18
102
{ACAD_REACTORS
330
17
102
}
100
AcDbMlineStyle
  2
STANDARD
 70
0
  3

 62
256
 51
90.0
 52
90.0
 71
2
 49
0.5
 62
256
  6
BYLAYER
 49
-0.5
 62
256
  6
BYLAYER
  0
LAYOUT
  5
2D2
102
{ACAD_REACTORS
330
1A
102
}
100
AcDbPlotSettings
  1

  2
none_device
  4
ANSI_C_(22.00_x_17.00_Inches)
  6

 40
0.0
 41
0.0
 42
0.0
 43
0.0
 44
558.8
 45
431.8
 46
0.0
 47
0.0
 48
0.0
 49
0.0
140
0.0
141
0.0
142
1.0
143
1.0
 70
1024
 72
0
 73
0
 74
0
  7

 75
0
147
1.0
148
0.0
149
0.0
100
AcDbLayout
  1
Model
 70
0
 71
0
 10
0.0
 20
0.0
 11
22.0
 21
17.0
 12
0.0
 22
0.0
 32
0.0
 14
0.0
 24
0.0
 34
0.0
 15
0.0
 25
0.0
 35
0.0
146
0.0
 13
0.0
 23
0.0
 33
0.0
 16
1.0
 26
0.0
 36
0.0
 17
0.0
 27
1.0
 37
0.0
 76
0
330
205
345
0
346
0
  0
LAYOUT
  5
2D3
102
{ACAD_REACTORS
330
1A
102
}
100
AcDbPlotSettings
  1

  2
none_device
  4
ANSI_C_(22.00_x_17.00_Inches)
  6

 40
0.0
 41
0.0
 42
0.0
 43
0.0
 44
558.8
 45
431.8
 46
0.0
 47
0.0
 48
0.0
 49
0.0
140
0.0
141
0.0
142
1.0
143
1.0
 70
0
 72
0
 73
0
 74
0
  7

 75
0
147
1.0
148
0.0
149
0.0
100
AcDbLayout
  1
Layout1
 70
0
 71
1
 10
0.0
 20
0.0
 11
22.0
 21
17.0
 12
0.0
 22
0.0
 32
0.0
 14
0.0
 24
0.0
 34
0.0
 15
0.0
 25
0.0
 35
0.0
146
0.0
 13
0.0
 23
0.0
 33
0.0
 16
1.0
 26
0.0
 36
0.0
 17
0.0
 27
1.0
 37
0.0
 76
0
330
206
345
0
346
0
  0
ENDSEC
  0
EOF
