999
DXF file: E:\BT Custom\CADOUTPUT\_TOP.dxf
999
Pro/ENGINEER 2018400 by Parametric Technology Corporation
  0
SECTION
  2
HEADER
  9
$ACADVER
  1
AC1018
  9
$DWGCODEPAGE
  3
ANSI_1252
  9
$EXTMAX
 10
22.0
 20
17.0
 30
0.0
  9
$EXTMIN
 10
0.0
 20
0.0
 30
0.0
  9
$LIMMIN
 10
0.0
 20
0.0
  9
$LIMMAX
 10
22.0
 20
17.0
  9
$VIEWCTR
 10
11.0
 20
8.5
  9
$VIEWSIZE
 40
17.0
  9
$CLAYER
  8
0
  9
$LTSCALE
 40
1.21
  9
$CELTYPE
  6
BYLAYER
  9
$DIMSCALE
 40
1.0
  9
$DIMASZ
 40
0.1
  9
$DIMEXO
 40
0.0625
  9
$DIMDLI
 40
0.836
  9
$DIMEXE
 40
0.125
  9
$DIMCEN
 40
0.198
  9
$DIMLFAC
 40
1.0
  9
$DIMBLK
  1
_FILLED
  9
$DIMALT
 70
1
  9
$DIMALTD
 70
2
  9
$DIMALTTD
 70
2
  9
$DIMALTF
 40
25.4
  9
$DIMTXT
 40
0.08
  9
$DIMTOL
 70
1
  9
$DIMLIM
 70
0
  9
$DIMTFAC
 40
1.0
  9
$DIMTP
 40
0.001
  9
$DIMTM
 40
0.001
  9
$DIMGAP
 40
0.09
  9
$DIMDSEP
 70
46
  9
$AUNITS
 70
0
  9
$PDMODE
 70
3
  9
$PDSIZE
 40
0.06
  9
$HANDSEED
  5
2B3
  9
$TILEMODE
 70
1
  9
$MEASUREMENT
 70
0
  9
$INSUNITS
 70
1
  0
ENDSEC
  0
SECTION
  2
CLASSES
  0
CLASS
  1
ACDBDICTIONARYWDFLT
  2
AcDbDictionaryWithDefault
  3
AutoCAD 2000
 90
0
 91
1
280
0
281
0
  0
CLASS
  1
ACDBPLACEHOLDER
  2
AcDbPlaceHolder
  3
AutoCAD 2000
 90
0
 91
1
280
0
281
0
  0
CLASS
  1
LAYOUT
  2
AcDbLayout
  3
AutoCAD 2000
 90
0
 91
0
280
0
281
0
  0
ENDSEC
  0
SECTION
  2
TABLES
  0
TABLE
  2
VPORT
  5
8
100
AcDbSymbolTable
 70
2
  0
VPORT
  5
1F4
100
AcDbSymbolTableRecord
100
AcDbViewportTableRecord
  2
*ACTIVE
 70
0
 10
0.0
 20
0.0
 11
1.0
 21
1.0
 12
11.0
 22
8.5
 13
0.0
 23
0.0
 14
1.0
 24
1.0
 15
0.0
 25
0.0
 16
0.0
 26
0.0
 36
1.0
 17
0.0
 27
0.0
 37
0.0
 40
17.0
 41
1.2941176471
 42
50.0
 43
0.0
 44
0.0
 50
0.0
 51
0.0
 71
0
 72
100
 73
1
 74
1
 75
0
 76
0
 77
0
 78
0
  0
ENDTAB
  0
TABLE
  2
LTYPE
  5
5
100
AcDbSymbolTable
 70
6
  0
LTYPE
  5
14
100
AcDbSymbolTableRecord
100
AcDbLinetypeTableRecord
  2
BYBLOCK
 70
0
  3

 72
65
 73
0
 40
0.0
  0
LTYPE
  5
15
100
AcDbSymbolTableRecord
100
AcDbLinetypeTableRecord
  2
BYLAYER
 70
0
  3

 72
65
 73
0
 40
0.0
  0
LTYPE
  5
16
100
AcDbSymbolTableRecord
100
AcDbLinetypeTableRecord
  2
CONTINUOUS
 70
64
  3
Solid line
 72
65
 73
0
 40
0.0
  0
LTYPE
  5
1F5
100
AcDbSymbolTableRecord
100
AcDbLinetypeTableRecord
  2
CENTER
 70
64
  3
____ _ ____ _ ____ _ ____ _ ____ _ ____ _ ____
 72
65
 73
4
 40
0.6
 49
0.375
 74
0
 49
-0.075
 74
0
 49
0.075
 74
0
 49
-0.075
 74
0
  0
LTYPE
  5
1F6
100
AcDbSymbolTableRecord
100
AcDbLinetypeTableRecord
  2
HIDDEN
 70
64
  3
- - - - - - - - - - - - - - - - - - - -
 72
65
 73
2
 40
0.2
 49
0.1
 74
0
 49
-0.1
 74
0
  0
LTYPE
  5
1F7
100
AcDbSymbolTableRecord
100
AcDbLinetypeTableRecord
  2
PHANTOM
 70
64
  3
_____ _ _ _____ _ _ _____ _ _ _____
 72
65
 73
6
 40
0.8
 49
0.45
 74
0
 49
-0.05
 74
0
 49
0.1
 74
0
 49
-0.05
 74
0
 49
0.1
 74
0
 49
-0.05
 74
0
  0
LTYPE
  5
1F8
100
AcDbSymbolTableRecord
100
AcDbLinetypeTableRecord
  2
DOT
 70
64
  3
. . . . . . . . . . . . . . . . . . . .
 72
65
 73
2
 40
0.2
 49
0.1
 74
0
 49
-0.1
 74
0
  0
LTYPE
  5
1F9
100
AcDbSymbolTableRecord
100
AcDbLinetypeTableRecord
  2
DASHED
 70
64
  3
- - - - - - - - - - - - - - - - - - - -
 72
65
 73
2
 40
0.2
 49
0.1
 74
0
 49
-0.1
 74
0
  0
ENDTAB
  0
TABLE
  2
LAYER
  5
2
100
AcDbSymbolTable
 70
36
  0
LAYER
  5
10
100
AcDbSymbolTableRecord
100
AcDbLayerTableRecord
  2
0
 70
0
 62
7
  6
CONTINUOUS
370
-3
390
F
  0
LAYER
  5
1FA
100
AcDbSymbolTableRecord
100
AcDbLayerTableRecord
  2
DEFAULT_1
 70
0
 62
7
  6
CENTER
370
-3
390
F
  0
LAYER
  5
1FB
100
AcDbSymbolTableRecord
100
AcDbLayerTableRecord
  2
DEFAULT_2
 70
0
 62
8
  6
HIDDEN
370
-3
390
F
  0
LAYER
  5
1FC
100
AcDbSymbolTableRecord
100
AcDbLayerTableRecord
  2
DEFAULT_3
 70
0
 62
7
  6
PHANTOM
370
-3
390
F
  0
LAYER
  5
1FD
100
AcDbSymbolTableRecord
100
AcDbLayerTableRecord
  2
ALL_FEATURES
 70
0
 62
7
  6
CONTINUOUS
370
-3
390
F
  0
LAYER
  5
1FE
100
AcDbSymbolTableRecord
100
AcDbLayerTableRecord
  2
AXES_FEATURES
 70
0
 62
7
  6
CONTINUOUS
370
-3
390
F
  0
LAYER
  5
1FF
100
AcDbSymbolTableRecord
100
AcDbLayerTableRecord
  2
DEFAULT_COORDINATE_SYSTEM
 70
0
 62
7
  6
CONTINUOUS
370
-3
390
F
  0
LAYER
  5
200
100
AcDbSymbolTableRecord
100
AcDbLayerTableRecord
  2
DEFAULT_DATUM_AXES
 70
0
 62
7
  6
CONTINUOUS
370
-3
390
F
  0
LAYER
  5
201
100
AcDbSymbolTableRecord
100
AcDbLayerTableRecord
  2
DEFAULT_DATUM_PLANES
 70
0
 62
7
  6
CONTINUOUS
370
-3
390
F
  0
LAYER
  5
202
100
AcDbSymbolTableRecord
100
AcDbLayerTableRecord
  2
DIMENSIONS
 70
0
 62
7
  6
CONTINUOUS
370
-3
390
F
  0
ENDTAB
  0
TABLE
  2
STYLE
  5
3
100
AcDbSymbolTable
 70
1
  0
STYLE
  5
11
100
AcDbSymbolTableRecord
100
AcDbTextStyleTableRecord
  2
STANDARD
 70
0
 40
0.0
 41
0.8
 50
0.0
 71
0
 42
0.2
  3
txt
  4

  0
STYLE
  5
203
100
AcDbSymbolTableRecord
100
AcDbTextStyleTableRecord
  2
TEXTSTYLE_1
 70
0
 40
0.0
 41
0.8
 50
0.0
 71
0
 42
0.2
  3
gdt
  4

  0
ENDTAB
  0
TABLE
  2
VIEW
  5
6
100
AcDbSymbolTable
 70
0
  0
ENDTAB
  0
TABLE
  2
UCS
  5
7
100
AcDbSymbolTable
 70
0
  0
ENDTAB
  0
TABLE
  2
APPID
  5
9
100
AcDbSymbolTable
 70
1
  0
APPID
  5
204
100
AcDbSymbolTableRecord
100
AcDbRegAppTableRecord
  2
ACAD
 70
0
  0
ENDTAB
  0
TABLE
  2
BLOCK_RECORD
  5
1
100
AcDbSymbolTable
 70
0
  0
BLOCK_RECORD
  5
205
100
AcDbSymbolTableRecord
100
AcDbBlockTableRecord
  2
*Model_Space
  0
BLOCK_RECORD
  5
206
100
AcDbSymbolTableRecord
100
AcDbBlockTableRecord
  2
*Paper_Space
  0
BLOCK_RECORD
  5
207
100
AcDbSymbolTableRecord
100
AcDbBlockTableRecord
  2
_FILLED
  0
ENDTAB
  0
TABLE
  2
DIMSTYLE
  5
A
100
AcDbSymbolTable
 70
1
100
AcDbDimStyleTable
 71
0
  0
DIMSTYLE
105
208
100
AcDbSymbolTableRecord
100
AcDbDimStyleTableRecord
  2
STANDARD
 70
0
  3

  4

 40
1.0
 41
0.1
 42
0.0625
 43
0.38
 44
0.125
 45
0.0
 46
0.0
 47
0.001
 48
0.001
140
0.08
141
0.09
142
0.0
143
25.4
144
1.0
145
0.0
146
1.0
147
0.09
 71
1.0
 72
0.0
 73
1
 74
1
 75
0
 76
0
 77
0
 78
4
 79
1
170
1
171
2
172
0
173
0
174
0
175
0
176
0
177
0
178
0
270
2
179
3
271
3
272
3
273
2
274
2
275
0
280
0
281
0
282
0
283
1
284
4
285
0
286
0
287
3
288
0
340
11
278
46
341
207
342
207
343
207
344
207
  0
ENDTAB
  0
ENDSEC
  0
SECTION
  2
BLOCKS
  0
BLOCK
  5
20
100
AcDbEntity
  8
0
100
AcDbBlockBegin
  2
*Model_Space
 70
0
 10
0.0
 20
0.0
 30
0.0
  3
*Model_Space
  1

  0
ENDBLK
  5
21
100
AcDbEntity
  8
0
100
AcDbBlockEnd
  0
BLOCK
  5
1C
100
AcDbEntity
  8
0
100
AcDbBlockBegin
  2
*Paper_Space
 70
0
 10
0.0
 20
0.0
 30
0.0
  3
*Paper_Space
  1

  0
ENDBLK
  5
1D
100
AcDbEntity
  8
0
100
AcDbBlockEnd
  0
BLOCK
  5
209
100
AcDbEntity
  8
0
100
AcDbBlockBegin
  2
_FILLED
 70
64
 10
0.0
 20
0.0
  3
_FILLED
  1

  0
SOLID
  5
20A
100
AcDbEntity
  8
0
  6
BYBLOCK
 62
0
100
AcDbTrace
 10
0.0
 20
0.0
 11
-1.0
 21
0.2
 12
-1.0
 22
-0.2
 13
-1.0
 23
-0.2
  0
ENDBLK
  5
20B
100
AcDbEntity
  8
0
  6
BYBLOCK
 62
0
100
AcDbBlockEnd
  0
ENDSEC
  0
SECTION
  2
ENTITIES
  0
LINE
  5
20C
100
AcDbEntity
  8
0
100
AcDbLine
 62
9
  6
CONTINUOUS
 10
10.6608004812
 20
5.6865203346
 11
11.4338361955
 21
5.6865203346
  0
LINE
  5
20D
100
AcDbEntity
  8
0
100
AcDbLine
 62
7
  6
CONTINUOUS
 10
11.5020539153
 20
5.7308318604
 11
10.5925827615
 21
5.7308318604
  0
LINE
  5
20E
100
AcDbEntity
  8
0
100
AcDbLine
 62
9
  6
CONTINUOUS
 10
11.5179476108
 20
5.7449905446
 11
10.576689066
 21
5.7449905446
  0
LINE
  5
20F
100
AcDbEntity
  8
0
100
AcDbLine
 62
9
  6
CONTINUOUS
 10
11.5698183384
 20
5.821499854
 11
10.5248183384
 21
5.821499854
  0
LINE
  5
210
100
AcDbEntity
  8
0
100
AcDbLine
 62
9
  6
CONTINUOUS
 10
11.5854734069
 20
5.8767068674
 11
10.5091632699
 21
5.8767068674
  0
LINE
  5
211
100
AcDbEntity
  8
0
100
AcDbLine
 62
7
  6
CONTINUOUS
 10
11.5773183384
 20
5.8908318604
 11
10.5173183384
 21
5.8908318604
  0
LINE
  5
212
100
AcDbEntity
  8
0
100
AcDbLine
 62
9
  6
CONTINUOUS
 10
11.6250770355
 20
5.939301984
 11
10.4695596412
 21
5.939301984
  0
LINE
  5
213
100
AcDbEntity
  8
0
100
AcDbLine
 62
9
  6
CONTINUOUS
 10
11.6268749976
 20
6.4370981412
 11
10.4677616792
 21
6.4370981412
  0
LINE
  5
214
100
AcDbEntity
  8
0
100
AcDbLine
 62
7
  6
CONTINUOUS
 10
11.5520243793
 20
6.4908318604
 11
10.5426122975
 21
6.4908318604
  0
LINE
  5
215
100
AcDbEntity
  8
0
100
AcDbLine
 62
9
  6
CONTINUOUS
 10
10.7973183384
 20
6.6088318604
 11
11.2973183384
 21
6.6088318604
  0
LINE
  5
216
100
AcDbEntity
  8
0
100
AcDbLine
 62
7
  6
CONTINUOUS
 10
9.8648183384
 20
9.0308318604
 11
9.8959823511
 21
8.8967082614
  0
LINE
  5
217
100
AcDbEntity
  8
0
100
AcDbLine
 62
7
  6
CONTINUOUS
 10
10.6810303013
 20
7.4271105009
 11
10.6810303013
 21
7.51655322
  0
LINE
  5
218
100
AcDbEntity
  8
0
100
AcDbLine
 62
7
  6
CONTINUOUS
 10
10.716842915
 20
7.4271105009
 11
10.716842915
 21
7.51655322
  0
LINE
  5
219
100
AcDbEntity
  8
0
100
AcDbLine
 62
7
  6
CONTINUOUS
 10
10.7553164701
 20
7.4271105009
 11
10.7553164701
 21
7.51655322
  0
LINE
  5
21A
100
AcDbEntity
  8
0
100
AcDbLine
 62
7
  6
CONTINUOUS
 10
10.7961411831
 20
7.4271105009
 11
10.7961411831
 21
7.51655322
  0
LINE
  5
21B
100
AcDbEntity
  8
0
100
AcDbLine
 62
7
  6
CONTINUOUS
 10
10.7973183384
 20
6.6088318604
 11
10.7973183384
 21
7.2158318604
  0
LINE
  5
21C
100
AcDbEntity
  8
0
100
AcDbLine
 62
7
  6
CONTINUOUS
 10
10.7572783344
 20
7.2158318604
 11
11.3373583424
 21
7.2158318604
  0
LINE
  5
21D
100
AcDbEntity
  8
0
100
AcDbLine
 62
7
  6
CONTINUOUS
 10
11.5773183384
 20
5.8908318604
 11
11.5854734069
 21
5.8767068674
  0
LINE
  5
21E
100
AcDbEntity
  8
0
100
AcDbLine
 62
7
  6
CONTINUOUS
 10
10.8389883392
 20
7.4271105009
 11
10.8389883392
 21
7.51655322
  0
LINE
  5
21F
100
AcDbEntity
  8
0
100
AcDbLine
 62
7
  6
CONTINUOUS
 10
10.8835129391
 20
7.4271105009
 11
10.8835129391
 21
7.51655322
  0
LINE
  5
220
100
AcDbEntity
  8
0
100
AcDbLine
 62
7
  6
CONTINUOUS
 10
10.9293564769
 20
7.4271105009
 11
10.9293564769
 21
7.51655322
  0
LINE
  5
221
100
AcDbEntity
  8
0
100
AcDbLine
 62
7
  6
CONTINUOUS
 10
10.976149827
 20
7.4271105009
 11
10.976149827
 21
7.51655322
  0
LINE
  5
222
100
AcDbEntity
  8
0
100
AcDbLine
 62
7
  6
CONTINUOUS
 10
11.0235162159
 20
7.4271105009
 11
11.0235162159
 21
7.51655322
  0
LINE
  5
223
100
AcDbEntity
  8
0
100
AcDbLine
 62
7
  6
CONTINUOUS
 10
11.0710742562
 20
7.4271105009
 11
11.0710742562
 21
7.51655322
  0
LINE
  5
224
100
AcDbEntity
  8
0
100
AcDbLine
 62
7
  6
CONTINUOUS
 10
10.5573183384
 20
7.4118318604
 11
11.5373183384
 21
7.4118318604
  0
LINE
  5
225
100
AcDbEntity
  8
0
100
AcDbLine
 62
7
  6
CONTINUOUS
 10
11.1184410171
 20
7.4271105009
 11
11.1184410171
 21
7.51655322
  0
LINE
  5
226
100
AcDbEntity
  8
0
100
AcDbLine
 62
7
  6
CONTINUOUS
 10
11.1652351083
 20
7.4271105009
 11
11.1652351083
 21
7.51655322
  0
LINE
  5
227
100
AcDbEntity
  8
0
100
AcDbLine
 62
7
  6
CONTINUOUS
 10
11.2110797503
 20
7.4271105009
 11
11.2110797503
 21
7.51655322
  0
LINE
  5
228
100
AcDbEntity
  8
0
100
AcDbLine
 62
7
  6
CONTINUOUS
 10
11.2556058084
 20
7.4271105009
 11
11.2556058084
 21
7.51655322
  0
LINE
  5
229
100
AcDbEntity
  8
0
100
AcDbLine
 62
7
  6
CONTINUOUS
 10
11.2973183384
 20
6.6088318604
 11
11.2973183384
 21
7.2158318604
  0
LINE
  5
22A
100
AcDbEntity
  8
0
100
AcDbLine
 62
7
  6
CONTINUOUS
 10
11.2984547653
 20
7.4271105009
 11
11.2984547653
 21
7.51655322
  0
LINE
  5
22B
100
AcDbEntity
  8
0
100
AcDbLine
 62
7
  6
CONTINUOUS
 10
10.5573183384
 20
7.5318318604
 11
11.5373183384
 21
7.5318318604
  0
LINE
  5
22C
100
AcDbEntity
  8
0
100
AcDbLine
 62
7
  6
CONTINUOUS
 10
11.339281607
 20
7.4271105009
 11
11.339281607
 21
7.51655322
  0
LINE
  5
22D
100
AcDbEntity
  8
0
100
AcDbLine
 62
7
  6
CONTINUOUS
 10
11.3777576016
 20
7.4271105009
 11
11.3777576016
 21
7.51655322
  0
LINE
  5
22E
100
AcDbEntity
  8
0
100
AcDbLine
 62
7
  6
CONTINUOUS
 10
11.4135729459
 20
7.4271105009
 11
11.4135729459
 21
7.51655322
  0
LINE
  5
22F
100
AcDbEntity
  8
0
100
AcDbLine
 62
7
  6
CONTINUOUS
 10
10.5173183384
 20
5.8908318604
 11
10.5091632699
 21
5.8767068674
  0
LINE
  5
230
100
AcDbEntity
  8
0
100
AcDbLine
 62
7
  6
CONTINUOUS
 10
12.2298183384
 20
9.0308318604
 11
12.1986543256
 21
8.8967082614
  0
LINE
  5
231
100
AcDbEntity
  8
0
100
AcDbLine
 62
7
  6
CONTINUOUS
 10
10.3808183384
 20
8.3958459241
 11
11.7138183384
 21
8.3958459241
  0
LINE
  5
232
100
AcDbEntity
  8
0
100
AcDbLine
 62
7
  6
CONTINUOUS
 10
10.3823183384
 20
8.5558318604
 11
11.7123183384
 21
8.5558318604
  0
LINE
  5
233
100
AcDbEntity
  8
0
100
AcDbLine
 62
9
  6
CONTINUOUS
 10
11.8761955267
 20
8.6480537978
 11
10.2184411501
 21
8.6480537978
  0
LINE
  5
234
100
AcDbEntity
  8
0
100
AcDbLine
 62
9
  6
CONTINUOUS
 10
12.1564388562
 20
8.8530672688
 11
9.9381978206
 21
8.8530672688
  0
LINE
  5
235
100
AcDbEntity
  8
0
100
AcDbLine
 62
9
  6
CONTINUOUS
 10
12.1986543256
 20
8.8967082614
 11
9.8959823511
 21
8.8967082614
  0
LINE
  5
236
100
AcDbEntity
  8
0
100
AcDbLine
 62
7
  6
CONTINUOUS
 10
14.1714838146
 20
9.0308318604
 11
7.9231528622
 21
9.0308318604
  0
LINE
  5
237
100
AcDbEntity
  8
0
100
AcDbLine
 62
9
  6
CONTINUOUS
 10
7.8854607949
 20
9.0433510912
 11
14.2091758819
 21
9.0433510912
  0
LINE
  5
238
100
AcDbEntity
  8
0
100
AcDbLine
 62
7
  6
CONTINUOUS
 10
7.7348219076
 20
9.3438318604
 11
14.3598147691
 21
9.3438318604
  0
ARC
  5
239
100
AcDbEntity
  8
0
100
AcDbCircle
 62
7
  6
CONTINUOUS
 10
10.8973183384
 20
6.1908318604
 40
0.77
100
AcDbArc
 50
340.9336920587
 51
18.6524229102
  0
ARC
  5
23A
100
AcDbEntity
  8
0
100
AcDbCircle
 62
7
  6
CONTINUOUS
 10
10.7572783344
 20
7.4158318604
 40
0.2
100
AcDbArc
 50
181.1459919984
 51
270.0
  0
ARC
  5
23B
100
AcDbEntity
  8
0
100
AcDbCircle
 62
7
  6
CONTINUOUS
 10
10.6793183384
 20
6.6088318604
 40
0.118
100
AcDbArc
 50
270.0000000003
 51
360.0
  0
ARC
  5
23C
100
AcDbEntity
  8
0
100
AcDbCircle
 62
7
  6
CONTINUOUS
 10
10.4773534692
 20
5.7334823206
 40
0.1
100
AcDbArc
 50
6.6083685447
 51
61.6635211773
  0
ARC
  5
23D
100
AcDbEntity
  8
0
100
AcDbCircle
 62
7
  6
CONTINUOUS
 10
10.5442257942
 20
5.9651082934
 40
0.079
100
AcDbArc
 50
199.066305982
 51
250.0865229144
  0
ARC
  5
23E
100
AcDbEntity
  8
0
100
AcDbCircle
 62
7
  6
CONTINUOUS
 10
10.5426122975
 20
6.4118318604
 40
0.079
100
AcDbArc
 50
90.0
 51
161.3475770897
  0
ARC
  5
23F
100
AcDbEntity
  8
0
100
AcDbCircle
 62
7
  6
CONTINUOUS
 10
10.5573183384
 20
7.4718318604
 40
0.06
100
AcDbArc
 50
90.0
 51
131.7510942136
  0
ARC
  5
240
100
AcDbEntity
  8
0
100
AcDbCircle
 62
7
  6
CONTINUOUS
 10
10.5573183384
 20
7.4718318604
 40
0.06
100
AcDbArc
 50
228.2489057864
 51
270.0
  0
ARC
  5
241
100
AcDbEntity
  8
0
100
AcDbCircle
 62
7
  6
CONTINUOUS
 10
10.6773183384
 20
5.7337131348
 40
0.05
100
AcDbArc
 50
183.3188636135
 51
250.7095459639
  0
ARC
  5
242
100
AcDbEntity
  8
0
100
AcDbCircle
 62
7
  6
CONTINUOUS
 10
10.543804286
 20
5.8567068674
 40
0.04
100
AcDbArc
 50
150.0
 51
241.6635211773
  0
ARC
  5
243
100
AcDbEntity
  8
0
100
AcDbCircle
 62
7
  6
CONTINUOUS
 10
10.5925827615
 20
5.7468318604
 40
0.016
100
AcDbArc
 50
186.6083685447
 51
270.0
  0
ARC
  5
244
100
AcDbEntity
  8
0
100
AcDbCircle
 62
7
  6
CONTINUOUS
 10
9.5603064
 20
7.7781978375
 40
1.027
100
AcDbArc
 50
346.1200123407
 51
36.9709495039
  0
ARC
  5
245
100
AcDbEntity
  8
0
100
AcDbCircle
 62
7
  6
CONTINUOUS
 10
9.814100697
 20
8.3893864477
 40
0.48
100
AcDbArc
 50
32.6081295413
 51
75.0168080473
  0
ARC
  5
246
100
AcDbEntity
  8
0
100
AcDbCircle
 62
7
  6
CONTINUOUS
 10
8.1098183384
 20
9.3438318604
 40
0.375
100
AcDbArc
 50
180.0
 51
233.2527042231
  0
ARC
  5
247
100
AcDbEntity
  8
0
100
AcDbCircle
 62
7
  6
CONTINUOUS
 10
10.3869163388
 20
8.7558318604
 40
0.2
100
AcDbArc
 50
212.6081295413
 51
270.0
  0
ARC
  5
248
100
AcDbEntity
  8
0
100
AcDbCircle
 62
7
  6
CONTINUOUS
 10
10.3823183384
 20
8.4758318604
 40
0.08
100
AcDbArc
 50
90.0
 51
268.9256411771
  0
ARC
  5
249
100
AcDbEntity
  8
0
100
AcDbCircle
 62
7
  6
CONTINUOUS
 10
7.9231528622
 20
9.0938318604
 40
0.063
100
AcDbArc
 50
233.2527042231
 51
270.0
  0
ARC
  5
24A
100
AcDbEntity
  8
0
100
AcDbCircle
 62
7
  6
CONTINUOUS
 10
9.9534514253
 20
8.9100613698
 40
0.059
100
AcDbArc
 50
193.0807387921
 51
255.0168080473
  0
ARC
  5
24B
100
AcDbEntity
  8
0
100
AcDbCircle
 62
7
  6
CONTINUOUS
 10
11.0473183384
 20
6.7908318604
 40
1.17
100
AcDbArc
 50
250.7095459639
 51
289.2904540361
  0
ARC
  5
24C
100
AcDbEntity
  8
0
100
AcDbCircle
 62
7
  6
CONTINUOUS
 10
11.1973183384
 20
6.1908318604
 40
0.77
100
AcDbArc
 50
161.3475770898
 51
199.0663079413
  0
ARC
  5
24D
100
AcDbEntity
  8
0
100
AcDbCircle
 62
7
  6
CONTINUOUS
 10
11.0473183384
 20
6.1908318604
 40
0.4535102805
100
AcDbArc
 50
42.3455827043
 51
54.8996741406
  0
ARC
  5
24E
100
AcDbEntity
  8
0
100
AcDbCircle
 62
7
  6
CONTINUOUS
 10
11.0473183384
 20
6.1908318604
 40
0.4535102805
100
AcDbArc
 50
125.1003258594
 51
137.6544172957
  0
CIRCLE
  5
24F
100
AcDbEntity
  8
0
100
AcDbCircle
 62
7
  6
CONTINUOUS
 10
11.0473183384
 20
6.1908318604
 40
0.235
  0
ARC
  5
250
100
AcDbEntity
  8
0
100
AcDbCircle
 62
7
  6
CONTINUOUS
 10
11.3373583424
 20
7.4158318604
 40
0.2
100
AcDbArc
 50
270.0
 51
358.8540080016
  0
CIRCLE
  5
251
100
AcDbEntity
  8
0
100
AcDbCircle
 62
7
  6
CONTINUOUS
 10
11.0473183384
 20
6.1908318604
 40
0.195
  0
ARC
  5
252
100
AcDbEntity
  8
0
100
AcDbCircle
 62
7
  6
CONTINUOUS
 10
11.4153183384
 20
6.6088318604
 40
0.118
100
AcDbArc
 50
180.0
 51
269.9999999997
  0
ARC
  5
253
100
AcDbEntity
  8
0
100
AcDbCircle
 62
7
  6
CONTINUOUS
 10
11.6172832075
 20
5.7334823206
 40
0.1
100
AcDbArc
 50
118.3364788227
 51
173.3916314553
  0
ARC
  5
254
100
AcDbEntity
  8
0
100
AcDbCircle
 62
7
  6
CONTINUOUS
 10
11.5504108826
 20
5.9651082934
 40
0.079
100
AcDbArc
 50
289.9134771009
 51
340.9336940423
  0
ARC
  5
255
100
AcDbEntity
  8
0
100
AcDbCircle
 62
7
  6
CONTINUOUS
 10
11.5520243793
 20
6.4118318604
 40
0.079
100
AcDbArc
 50
18.6524229103
 51
90.0
  0
ARC
  5
256
100
AcDbEntity
  8
0
100
AcDbCircle
 62
7
  6
CONTINUOUS
 10
11.5373183384
 20
7.4718318604
 40
0.06
100
AcDbArc
 50
48.1896851042
 51
90.0
  0
ARC
  5
257
100
AcDbEntity
  8
0
100
AcDbCircle
 62
7
  6
CONTINUOUS
 10
11.5373183384
 20
7.4718318604
 40
0.06
100
AcDbArc
 50
270.0
 51
311.8103148958
  0
ARC
  5
258
100
AcDbEntity
  8
0
100
AcDbCircle
 62
7
  6
CONTINUOUS
 10
11.4173183384
 20
5.7337131348
 40
0.05
100
AcDbArc
 50
289.2904540361
 51
356.6811363865
  0
ARC
  5
259
100
AcDbEntity
  8
0
100
AcDbCircle
 62
7
  6
CONTINUOUS
 10
11.5508323907
 20
5.8567068674
 40
0.04
100
AcDbArc
 50
298.3364788227
 51
30.0
  0
ARC
  5
25A
100
AcDbEntity
  8
0
100
AcDbCircle
 62
7
  6
CONTINUOUS
 10
11.5020539153
 20
5.7468318604
 40
0.016
100
AcDbArc
 50
270.0
 51
353.3916314553
  0
ARC
  5
25B
100
AcDbEntity
  8
0
100
AcDbCircle
 62
7
  6
CONTINUOUS
 10
12.5343302768
 20
7.7781978375
 40
1.027
100
AcDbArc
 50
143.0290504961
 51
193.8799876593
  0
ARC
  5
25C
100
AcDbEntity
  8
0
100
AcDbCircle
 62
7
  6
CONTINUOUS
 10
12.2805359797
 20
8.3893864477
 40
0.48
100
AcDbArc
 50
104.9831919527
 51
147.3918704587
  0
ARC
  5
25D
100
AcDbEntity
  8
0
100
AcDbCircle
 62
7
  6
CONTINUOUS
 10
13.9848183384
 20
9.3438318604
 40
0.375
100
AcDbArc
 50
306.7472957769
 51
360.0
  0
ARC
  5
25E
100
AcDbEntity
  8
0
100
AcDbCircle
 62
7
  6
CONTINUOUS
 10
11.7077203379
 20
8.7558318604
 40
0.2
100
AcDbArc
 50
270.0
 51
327.3918704587
  0
ARC
  5
25F
100
AcDbEntity
  8
0
100
AcDbCircle
 62
7
  6
CONTINUOUS
 10
11.7123183384
 20
8.4758318604
 40
0.08
100
AcDbArc
 50
271.0743588229
 51
90.0
  0
ARC
  5
260
100
AcDbEntity
  8
0
100
AcDbCircle
 62
7
  6
CONTINUOUS
 10
14.1714838146
 20
9.0938318604
 40
0.063
100
AcDbArc
 50
270.0
 51
306.7472957769
  0
ARC
  5
261
100
AcDbEntity
  8
0
100
AcDbCircle
 62
7
  6
CONTINUOUS
 10
12.1411852514
 20
8.9100613698
 40
0.059
100
AcDbArc
 50
284.9831919527
 51
346.9192612079
  0
SPLINE
  5
262
100
AcDbEntity
  8
0
100
AcDbSpline
 62
7
  6
CONTINUOUS
 70
0
 71
3
 72
15
 73
11
 74
0
 42
0.0000001
 43
0.0000001
 44
0.0000000001
 40
0.0
 40
0.0
 40
0.0
 40
0.0
 40
0.1104525315
 40
0.2311618962
 40
0.3621575048
 40
0.4999999911
 40
0.6378424849
 40
0.7688381004
 40
0.8895474659
 40
1.0
 40
1.0
 40
1.0
 40
1.0
 10
10.519447937
 20
7.4271105009
 30
0.0
 10
10.5168627218
 20
7.4296614914
 30
0.0
 10
10.5119787805
 20
7.4355597316
 30
0.0
 10
10.5062905054
 20
7.4461063412
 30
0.0
 10
10.5025165166
 20
7.4584364351
 30
0.0
 10
10.5011873834
 20
7.4718318598
 30
0.0
 10
10.5025165164
 20
7.4852272847
 30
0.0
 10
10.5062905052
 20
7.4975573792
 30
0.0
 10
10.5119787804
 20
7.5081039891
 30
0.0
 10
10.5168627218
 20
7.5140022294
 30
0.0
 10
10.519447937
 20
7.51655322
 30
0.0
  0
SPLINE
  5
263
100
AcDbEntity
  8
0
100
AcDbSpline
 62
7
  6
CONTINUOUS
 70
0
 71
3
 72
15
 73
11
 74
0
 42
0.0000001
 43
0.0000001
 44
0.0000000001
 40
0.0
 40
0.0
 40
0.0
 40
0.0
 40
0.1075602658
 40
0.227534227
 40
0.3597412411
 40
0.499999991
 40
0.6402587485
 40
0.7724657697
 40
0.8924397316
 40
1.0
 40
1.0
 40
1.0
 40
1.0
 10
10.5258278716
 20
7.4271105009
 30
0.0
 10
10.5235042797
 20
7.4296907187
 30
0.0
 10
10.5191327223
 20
7.4356580453
 30
0.0
 10
10.5141046431
 20
7.4461952827
 30
0.0
 10
10.5107748058
 20
7.4584901157
 30
0.0
 10
10.5096034532
 20
7.4718318598
 30
0.0
 10
10.5107748056
 20
7.4851736041
 30
0.0
 10
10.5141046428
 20
7.4974684377
 30
0.0
 10
10.5191327222
 20
7.5080056753
 30
0.0
 10
10.5235042796
 20
7.513973002
 30
0.0
 10
10.5258278716
 20
7.51655322
 30
0.0
  0
SPLINE
  5
264
100
AcDbEntity
  8
0
100
AcDbSpline
 62
7
  6
CONTINUOUS
 70
0
 71
3
 72
17
 73
13
 74
0
 42
0.0000001
 43
0.0000001
 44
0.0000000001
 40
0.0
 40
0.0
 40
0.0
 40
0.0
 40
0.1045795703
 40
0.2238174487
 40
0.2889940926
 40
0.3573450147
 40
0.4999999908
 40
0.6426549747
 40
0.7110059032
 40
0.7761825479
 40
0.8954204272
 40
1.0
 40
1.0
 40
1.0
 40
1.0
 10
10.536406774
 20
7.4271105009
 30
0.0
 10
10.5343666033
 20
7.4297247143
 30
0.0
 10
10.5305520865
 20
7.4357624968
 30
0.0
 10
10.5270473387
 20
7.4442756658
 30
0.0
 10
10.5248850485
 20
7.4520005914
 30
0.0
 10
10.5231995229
 20
7.4606027417
 30
0.0
 10
10.5223481324
 20
7.4718318598
 30
0.0
 10
10.5231995227
 20
7.483060978
 30
0.0
 10
10.5248850483
 20
7.4916631288
 30
0.0
 10
10.5270473385
 20
7.4993880547
 30
0.0
 10
10.5305520864
 20
7.5079012238
 30
0.0
 10
10.5343666033
 20
7.5139390065
 30
0.0
 10
10.536406774
 20
7.51655322
 30
0.0
  0
SPLINE
  5
265
100
AcDbEntity
  8
0
100
AcDbSpline
 62
7
  6
CONTINUOUS
 70
0
 71
3
 72
21
 73
17
 74
0
 42
0.0000001
 43
0.0000001
 44
0.0000000001
 40
0.0
 40
0.0
 40
0.0
 40
0.0
 40
0.1016507407
 40
0.1588149939
 40
0.2202818352
 40
0.2858416328
 40
0.3549687465
 40
0.426766914
 40
0.4999999906
 40
0.5732330691
 40
0.6450312428
 40
0.7141583629
 40
0.7797181614
 40
0.8411850011
 40
0.8983492568
 40
1.0
 40
1.0
 40
1.0
 40
1.0
 10
10.5510994642
 20
7.4271105009
 30
0.0
 10
10.5493647794
 20
7.4297629052
 30
0.0
 10
10.5470435538
 20
7.4341698265
 30
0.0
 10
10.5445363324
 20
7.4405669762
 30
0.0
 10
10.5428369994
 20
7.4460585368
 30
0.0
 10
10.5414408159
 20
7.4520174408
 30
0.0
 10
10.5403975973
 20
7.458375092
 30
0.0
 10
10.5397513726
 20
7.4650255622
 30
0.0
 10
10.5395323077
 20
7.4718318596
 30
0.0
 10
10.5397513726
 20
7.4786381571
 30
0.0
 10
10.5403975972
 20
7.4852886278
 30
0.0
 10
10.5414408158
 20
7.4916462794
 30
0.0
 10
10.5428369993
 20
7.4976051837
 30
0.0
 10
10.5445363323
 20
7.5030967443
 30
0.0
 10
10.5470435537
 20
7.5094938941
 30
0.0
 10
10.5493647793
 20
7.5139008156
 30
0.0
 10
10.5510994642
 20
7.51655322
 30
0.0
  0
SPLINE
  5
266
100
AcDbEntity
  8
0
100
AcDbSpline
 62
7
  6
CONTINUOUS
 70
0
 71
3
 72
23
 73
19
 74
0
 42
0.0000001
 43
0.0000001
 44
0.0000000001
 40
0.0
 40
0.0
 40
0.0
 40
0.0
 40
0.0471871279
 40
0.0990227677
 40
0.1556443066
 40
0.2170590963
 40
0.2829987753
 40
0.3528599316
 40
0.4256459988
 40
0.4999999905
 40
0.5743539841
 40
0.6471400575
 40
0.7170012203
 40
0.7829409003
 40
0.8443556883
 40
0.9009772298
 40
0.9528128716
 40
1.0
 40
1.0
 40
1.0
 40
1.0
 10
10.5697876389
 20
7.4271105009
 30
0.0
 10
10.5691168984
 20
7.4283946356
 30
0.0
 10
10.5678201664
 20
7.4311482357
 30
0.0
 10
10.5660969569
 20
7.4356090768
 30
0.0
 10
10.5645394874
 20
7.4405902809
 30
0.0
 10
10.5631847571
 20
7.4460772643
 30
0.0
 10
10.5620713603
 20
7.4520322108
 30
0.0
 10
10.5612394821
 20
7.4583851667
 30
0.0
 10
10.5607241436
 20
7.4650306992
 30
0.0
 10
10.5605494503
 20
7.4718318596
 30
0.0
 10
10.5607241436
 20
7.4786330202
 30
0.0
 10
10.561239482
 20
7.4852785531
 30
0.0
 10
10.5620713602
 20
7.4916315095
 30
0.0
 10
10.563184757
 20
7.4975864561
 30
0.0
 10
10.5645394873
 20
7.5030734396
 30
0.0
 10
10.5660969569
 20
7.5080546438
 30
0.0
 10
10.5678201664
 20
7.512515485
 30
0.0
 10
10.5691168984
 20
7.5152690852
 30
0.0
 10
10.5697876389
 20
7.51655322
 30
0.0
  0
SPLINE
  5
267
100
AcDbEntity
  8
0
100
AcDbSpline
 62
7
  6
CONTINUOUS
 70
0
 71
3
 72
21
 73
17
 74
0
 42
0.0000001
 43
0.0000001
 44
0.0000000001
 40
0.0
 40
0.0
 40
0.0
 40
0.0
 40
0.0457782484
 40
0.0967092603
 40
0.1528915006
 40
0.2142867954
 40
0.2805714397
 40
0.3510735927
 40
0.4999999904
 40
0.6489263963
 40
0.719428556
 40
0.7857132013
 40
0.8471084944
 40
0.9032907373
 40
0.954221751
 40
1.0
 40
1.0
 40
1.0
 40
1.0
 10
10.5923208234
 20
7.4271105009
 30
0.0
 10
10.5918207342
 20
7.4284045703
 30
0.0
 10
10.5908569378
 20
7.4311746773
 30
0.0
 10
10.5895843986
 20
7.4356321007
 30
0.0
 10
10.5884340071
 20
7.4406097144
 30
0.0
 10
10.5874331987
 20
7.4460930135
 30
0.0
 10
10.5866104726
 20
7.4520442584
 30
0.0
 10
10.5857762989
 20
7.4606647327
 30
0.0
 10
10.5853616618
 20
7.4718318598
 30
0.0
 10
10.5857762988
 20
7.482998987
 30
0.0
 10
10.5866104725
 20
7.4916194618
 30
0.0
 10
10.5874331986
 20
7.497570707
 30
0.0
 10
10.588434007
 20
7.5030540061
 30
0.0
 10
10.5895843986
 20
7.5080316198
 30
0.0
 10
10.5908569378
 20
7.5124890434
 30
0.0
 10
10.5918207342
 20
7.5152591505
 30
0.0
 10
10.5923208234
 20
7.51655322
 30
0.0
  0
SPLINE
  5
268
100
AcDbEntity
  8
0
100
AcDbSpline
 62
7
  6
CONTINUOUS
 70
0
 71
3
 72
21
 73
17
 74
0
 42
0.0000001
 43
0.0000001
 44
0.0000000001
 40
0.0
 40
0.0
 40
0.0
 40
0.0
 40
0.0446999724
 40
0.0949476405
 40
0.1508024661
 40
0.2121861784
 40
0.2787303436
 40
0.3497105716
 40
0.5000000052
 40
0.6502894337
 40
0.7212696568
 40
0.7878138196
 40
0.8491975313
 40
0.9050523583
 40
0.9553000274
 40
1.0
 40
1.0
 40
1.0
 40
1.0
 10
10.6185175838
 20
7.4271105009
 30
0.0
 10
10.6181952727
 20
7.428413012
 30
0.0
 10
10.6175759655
 20
7.431196044
 30
0.0
 10
10.616762456
 20
7.4356500117
 30
0.0
 10
10.6160268357
 20
7.4406243769
 30
0.0
 10
10.6153867246
 20
7.4461046517
 30
0.0
 10
10.6148604367
 20
7.452052965
 30
0.0
 10
10.6143263621
 20
7.4606768376
 30
0.0
 10
10.6140617259
 20
7.4718318607
 30
0.0
 10
10.6143263621
 20
7.4829868837
 30
0.0
 10
10.6148604368
 20
7.4916107559
 30
0.0
 10
10.6153867246
 20
7.497559069
 30
0.0
 10
10.6160268356
 20
7.5030393438
 30
0.0
 10
10.6167624559
 20
7.508013709
 30
0.0
 10
10.6175759655
 20
7.5124676767
 30
0.0
 10
10.6181952727
 20
7.5152507088
 30
0.0
 10
10.6185175838
 20
7.51655322
 30
0.0
  0
SPLINE
  5
269
100
AcDbEntity
  8
0
100
AcDbSpline
 62
7
  6
CONTINUOUS
 70
0
 71
3
 72
17
 73
13
 74
0
 42
0.0000001
 43
0.0000001
 44
0.0000000001
 40
0.0
 40
0.0
 40
0.0
 40
0.0
 40
0.0440611332
 40
0.0939086562
 40
0.2109528416
 40
0.3489117388
 40
0.4999999902
 40
0.6510882501
 40
0.789047155
 40
0.9060913414
 40
0.9559388663
 40
1.0
 40
1.0
 40
1.0
 40
1.0
 10
10.6481669874
 20
7.4271105009
 30
0.0
 10
10.6480277364
 20
7.4284184163
 30
0.0
 10
10.6477606889
 20
7.4312092141
 30
0.0
 10
10.6472678655
 20
7.4374874667
 30
0.0
 10
10.646765875
 20
7.4465752209
 30
0.0
 10
10.6463840433
 20
7.4586927068
 30
0.0
 10
10.6462498156
 20
7.4718318598
 30
0.0
 10
10.6463840433
 20
7.484971013
 30
0.0
 10
10.646765875
 20
7.4970884994
 30
0.0
 10
10.6472678655
 20
7.5061762539
 30
0.0
 10
10.6477606889
 20
7.5124545067
 30
0.0
 10
10.6480277364
 20
7.5152453045
 30
0.0
 10
10.6481669874
 20
7.51655322
 30
0.0
  0
SPLINE
  5
26A
100
AcDbEntity
  8
0
100
AcDbSpline
 62
7
  6
CONTINUOUS
 70
0
 71
3
 72
17
 73
13
 74
0
 42
0.0000001
 43
0.0000001
 44
0.0000000001
 40
0.0
 40
0.0
 40
0.0
 40
0.0
 40
0.0440607503
 40
0.0939080339
 40
0.2109521096
 40
0.3489112695
 40
0.4999999894
 40
0.6510887197
 40
0.789047887
 40
0.9060919637
 40
0.9559392492
 40
1.0
 40
1.0
 40
1.0
 40
1.0
 10
11.4464392597
 20
7.51655322
 30
0.0
 10
11.446578331
 20
7.5152453012
 30
0.0
 10
11.4468450335
 20
7.5124544988
 30
0.0
 10
11.44733722
 20
7.5061762392
 30
0.0
 10
11.447838561
 20
7.4970884846
 30
0.0
 10
11.4482198985
 20
7.4849710064
 30
0.0
 10
11.4483539525
 20
7.471831861
 30
0.0
 10
11.4482198985
 20
7.4586927154
 30
0.0
 10
11.447838561
 20
7.4465752367
 30
0.0
 10
11.44733722
 20
7.4374874818
 30
0.0
 10
11.4468450335
 20
7.4312092221
 30
0.0
 10
11.446578331
 20
7.4284184196
 30
0.0
 10
11.4464392597
 20
7.4271105009
 30
0.0
  0
SPLINE
  5
26B
100
AcDbEntity
  8
0
100
AcDbSpline
 62
7
  6
CONTINUOUS
 70
0
 71
3
 72
21
 73
17
 74
0
 42
0.0000001
 43
0.0000001
 44
0.0000000001
 40
0.0
 40
0.0
 40
0.0
 40
0.0
 40
0.0446991222
 40
0.0949462544
 40
0.1508008236
 40
0.2121845234
 40
0.2787288889
 40
0.3497094903
 40
0.5000000023
 40
0.6502905129
 40
0.7212711119
 40
0.7878154764
 40
0.8491991764
 40
0.9050537456
 40
0.9553008778
 40
1.0
 40
1.0
 40
1.0
 40
1.0
 10
11.4760919082
 20
7.51655322
 30
0.0
 10
11.4764140435
 20
7.5152507019
 30
0.0
 10
11.4770330112
 20
7.5124676596
 30
0.0
 10
11.4778460716
 20
7.5080136951
 30
0.0
 10
11.4785812859
 20
7.503039333
 30
0.0
 10
11.4792210439
 20
7.497559061
 30
0.0
 10
11.4797470414
 20
7.4916107504
 30
0.0
 10
11.480280822
 20
7.4829868749
 30
0.0
 10
11.4805453118
 20
7.4718318602
 30
0.0
 10
11.480280822
 20
7.4606768456
 30
0.0
 10
11.4797470414
 20
7.4520529703
 30
0.0
 10
11.4792210439
 20
7.4461046598
 30
0.0
 10
11.4785812859
 20
7.4406243878
 30
0.0
 10
11.4778460716
 20
7.4356500257
 30
0.0
 10
11.4770330112
 20
7.4311960612
 30
0.0
 10
11.4764140435
 20
7.4284130189
 30
0.0
 10
11.4760919082
 20
7.4271105009
 30
0.0
  0
SPLINE
  5
26C
100
AcDbEntity
  8
0
100
AcDbSpline
 62
7
  6
CONTINUOUS
 70
0
 71
3
 72
21
 73
17
 74
0
 42
0.0000001
 43
0.0000001
 44
0.0000000001
 40
0.0
 40
0.0
 40
0.0
 40
0.0
 40
0.0457770188
 40
0.0967072461
 40
0.152889107
 40
0.2142843847
 40
0.2805693246
 40
0.351072026
 40
0.4999999896
 40
0.6489279633
 40
0.7194306712
 40
0.7857156119
 40
0.8471108879
 40
0.9032927515
 40
0.9542229807
 40
1.0
 40
1.0
 40
1.0
 40
1.0
 10
11.5022921323
 20
7.51655322
 30
0.0
 10
11.5027920519
 20
7.5152591413
 30
0.0
 10
11.5037555184
 20
7.5124890198
 30
0.0
 10
11.5050276148
 20
7.5080315998
 30
0.0
 10
11.5061776063
 20
7.5030539896
 30
0.0
 10
11.5071780669
 20
7.4975706939
 30
0.0
 10
11.5080005072
 20
7.4916194522
 30
0.0
 10
11.5088343919
 20
7.4829989739
 30
0.0
 10
11.5092488839
 20
7.471831861
 30
0.0
 10
11.508834392
 20
7.460664748
 30
0.0
 10
11.5080005072
 20
7.4520442691
 30
0.0
 10
11.5071780669
 20
7.4460930273
 30
0.0
 10
11.5061776063
 20
7.4406097316
 30
0.0
 10
11.5050276148
 20
7.4356321212
 30
0.0
 10
11.5037555184
 20
7.4311747011
 30
0.0
 10
11.5027920519
 20
7.4284045795
 30
0.0
 10
11.5022921323
 20
7.4271105009
 30
0.0
  0
SPLINE
  5
26D
100
AcDbEntity
  8
0
100
AcDbSpline
 62
7
  6
CONTINUOUS
 70
0
 71
3
 72
23
 73
19
 74
0
 42
0.0000001
 43
0.0000001
 44
0.0000000001
 40
0.0
 40
0.0
 40
0.0
 40
0.0
 40
0.0471856308
 40
0.0990202999
 40
0.1556413602
 40
0.2170561193
 40
0.2829961594
 40
0.3528579963
 40
0.4256449711
 40
0.4999999897
 40
0.5743550109
 40
0.6471419931
 40
0.7170038364
 40
0.7829438773
 40
0.8443586347
 40
0.9009796976
 40
0.9528143687
 40
1.0
 40
1.0
 40
1.0
 40
1.0
 10
11.5248289715
 20
7.51655322
 30
0.0
 10
11.5254995499
 20
7.5152690753
 30
0.0
 10
11.5267959648
 20
7.512515458
 30
0.0
 10
11.5285187415
 20
7.5080546199
 30
0.0
 10
11.5300758201
 20
7.5030734192
 30
0.0
 10
11.5314302105
 20
7.4975864395
 30
0.0
 10
11.5325433281
 20
7.4916314969
 30
0.0
 10
11.5333749977
 20
7.4852785452
 30
0.0
 10
11.5338902071
 20
7.4786330171
 30
0.0
 10
11.5340648566
 20
7.4718318613
 30
0.0
 10
11.5338902071
 20
7.4650307052
 30
0.0
 10
11.5333749979
 20
7.4583851767
 30
0.0
 10
11.5325433282
 20
7.4520322245
 30
0.0
 10
11.5314302106
 20
7.4460772817
 30
0.0
 10
11.5300758202
 20
7.440590302
 30
0.0
 10
11.5285187416
 20
7.4356091012
 30
0.0
 10
11.5267959649
 20
7.4311482629
 30
0.0
 10
11.5254995499
 20
7.4283946456
 30
0.0
 10
11.5248289715
 20
7.4271105009
 30
0.0
  0
SPLINE
  5
26E
100
AcDbEntity
  8
0
100
AcDbSpline
 62
7
  6
CONTINUOUS
 70
0
 71
3
 72
21
 73
17
 74
0
 42
0.0000001
 43
0.0000001
 44
0.0000000001
 40
0.0
 40
0.0
 40
0.0
 40
0.0
 40
0.1016480096
 40
0.1588117078
 40
0.2202784962
 40
0.2858386867
 40
0.3549665606
 40
0.4267657513
 40
0.4999999899
 40
0.573234231
 40
0.645033429
 40
0.7141613092
 40
0.7797215004
 40
0.8411882872
 40
0.8983519879
 40
1.0
 40
1.0
 40
1.0
 40
1.0
 10
11.5435209625
 20
7.51655322
 30
0.0
 10
11.5452553394
 20
7.5139007769
 30
0.0
 10
11.5475761185
 20
7.5094938344
 30
0.0
 10
11.5500828417
 20
7.5030967215
 30
0.0
 10
11.5517818453
 20
7.4976051645
 30
0.0
 10
11.5531777584
 20
7.4916462646
 30
0.0
 10
11.5542207749
 20
7.4852886181
 30
0.0
 10
11.5548668745
 20
7.4786381531
 30
0.0
 10
11.555085897
 20
7.4718318613
 30
0.0
 10
11.5548668746
 20
7.4650255692
 30
0.0
 10
11.5542207751
 20
7.4583751037
 30
0.0
 10
11.5531777585
 20
7.4520174568
 30
0.0
 10
11.5517818455
 20
7.4460585567
 30
0.0
 10
11.5500828418
 20
7.4405669997
 30
0.0
 10
11.5475761186
 20
7.4341698867
 30
0.0
 10
11.5452553395
 20
7.429762944
 30
0.0
 10
11.5435209625
 20
7.4271105009
 30
0.0
  0
SPLINE
  5
26F
100
AcDbEntity
  8
0
100
AcDbSpline
 62
7
  6
CONTINUOUS
 70
0
 71
3
 72
17
 73
13
 74
0
 42
0.0000001
 43
0.0000001
 44
0.0000000001
 40
0.0
 40
0.0
 40
0.0
 40
0.0
 40
0.1045767051
 40
0.2238139207
 40
0.2889909602
 40
0.3573426747
 40
0.4999999901
 40
0.642657315
 40
0.7110090356
 40
0.7761860759
 40
0.8954232924
 40
1.0
 40
1.0
 40
1.0
 40
1.0
 10
11.5582175998
 20
7.51655322
 30
0.0
 10
11.5602574843
 20
7.5139389713
 30
0.0
 10
11.5640714391
 20
7.5079011196
 30
0.0
 10
11.5675756109
 20
7.4993880051
 30
0.0
 10
11.5697375577
 20
7.4916631123
 30
0.0
 10
11.5714228237
 20
7.4830609541
 30
0.0
 10
11.5722740776
 20
7.4718318611
 30
0.0
 10
11.5714228239
 20
7.4606027678
 30
0.0
 10
11.5697375578
 20
7.452000609
 30
0.0
 10
11.567575611
 20
7.444275716
 30
0.0
 10
11.5640714392
 20
7.4357626013
 30
0.0
 10
11.5602574843
 20
7.4297247496
 30
0.0
 10
11.5582175998
 20
7.4271105009
 30
0.0
  0
SPLINE
  5
270
100
AcDbEntity
  8
0
100
AcDbSpline
 62
7
  6
CONTINUOUS
 70
0
 71
3
 72
15
 73
11
 74
0
 42
0.0000001
 43
0.0000001
 44
0.0000000001
 40
0.0
 40
0.0
 40
0.0
 40
0.0
 40
0.1075574046
 40
0.2275306579
 40
0.3597388732
 40
0.4999999903
 40
0.6402611167
 40
0.7724693386
 40
0.8924425929
 40
1.0
 40
1.0
 40
1.0
 40
1.0
 10
11.5688005484
 20
7.51655322
 30
0.0
 10
11.5711238754
 20
7.5139729713
 30
0.0
 10
11.5754949127
 20
7.508005576
 30
0.0
 10
11.5805223308
 20
7.4974683515
 30
0.0
 10
11.5838517254
 20
7.4851735541
 30
0.0
 10
11.5850229214
 20
7.4718318611
 30
0.0
 10
11.5838517256
 20
7.4584901678
 30
0.0
 10
11.580522331
 20
7.4461953698
 30
0.0
 10
11.5754949128
 20
7.435658145
 30
0.0
 10
11.5711238754
 20
7.4296907495
 30
0.0
 10
11.5688005484
 20
7.4271105009
 30
0.0
  0
SPLINE
  5
271
100
AcDbEntity
  8
0
100
AcDbSpline
 62
7
  6
CONTINUOUS
 70
0
 71
3
 72
15
 73
11
 74
0
 42
0.0000001
 43
0.0000001
 44
0.0000000001
 40
0.0
 40
0.0
 40
0.0
 40
0.0
 40
0.1104497837
 40
0.2311584306
 40
0.3621551887
 40
0.4999999904
 40
0.6378448013
 40
0.768841566
 40
0.8895502138
 40
1.0
 40
1.0
 40
1.0
 40
1.0
 10
11.5751845957
 20
7.51655322
 30
0.0
 10
11.5777695671
 20
7.5140022033
 30
0.0
 10
11.5826530324
 20
7.508103898
 30
0.0
 10
11.5883406863
 20
7.4975572938
 30
0.0
 10
11.5921142549
 20
7.4852272326
 30
0.0
 10
11.5934432383
 20
7.4718318611
 30
0.0
 10
11.5921142551
 20
7.4584364893
 30
0.0
 10
11.5883406866
 20
7.4461064274
 30
0.0
 10
11.5826530325
 20
7.435559823
 30
0.0
 10
11.5777695672
 20
7.4296615175
 30
0.0
 10
11.5751845957
 20
7.4271105009
 30
0.0
  0
SPLINE
  5
272
100
AcDbEntity
  8
0
100
AcDbSpline
 62
7
  6
CONTINUOUS
 70
0
 71
3
 72
21
 73
17
 74
0
 42
0.0000001
 43
0.0000001
 44
0.0000000001
 40
0.0
 40
0.0
 40
0.0
 40
0.0
 40
0.0556393137
 40
0.1132116582
 40
0.1728590188
 40
0.2346970986
 40
0.2986908494
 40
0.3646142984
 40
0.4999999908
 40
0.6353856919
 40
0.7013091467
 40
0.765302898
 40
0.8271409761
 40
0.8867883392
 40
0.9443606856
 40
1.0
 40
1.0
 40
1.0
 40
1.0
 10
11.5773183384
 20
7.51655322
 30
0.0
 10
11.578708242
 20
7.5153100523
 30
0.0
 10
11.581415052
 20
7.5126411192
 30
0.0
 10
11.5851252778
 20
7.5081796798
 30
0.0
 10
11.5884815915
 20
7.5031919533
 30
0.0
 10
11.5914033005
 20
7.4976922497
 30
0.0
 10
11.5938061103
 20
7.4917178547
 30
0.0
 10
11.5962212774
 20
7.483145229
 30
0.0
 10
11.5974684671
 20
7.4718318611
 30
0.0
 10
11.5962212777
 20
7.4605184928
 30
0.0
 10
11.5938061105
 20
7.4519458666
 30
0.0
 10
11.5914033007
 20
7.4459714714
 30
0.0
 10
11.5884815917
 20
7.4404717678
 30
0.0
 10
11.585125278
 20
7.4354840412
 30
0.0
 10
11.5814150521
 20
7.4310226016
 30
0.0
 10
11.5787082421
 20
7.4283536685
 30
0.0
 10
11.5773183384
 20
7.4271105009
 30
0.0
  0
SPLINE
  5
273
100
AcDbEntity
  8
0
100
AcDbSpline
 62
7
  6
CONTINUOUS
 70
0
 71
3
 72
21
 73
17
 74
0
 42
0.0000001
 43
0.0000001
 44
0.0000000001
 40
0.0
 40
0.0
 40
0.0
 40
0.0
 40
0.0556447189
 40
0.1132082798
 40
0.1728560086
 40
0.2346973037
 40
0.2986909144
 40
0.3646144343
 40
0.4999999359
 40
0.6353854441
 40
0.7013089788
 40
0.7653025891
 40
0.8271438765
 40
0.886791641
 40
0.9443552469
 40
1.0
 40
1.0
 40
1.0
 40
1.0
 10
10.5173183404
 20
7.4271105009
 30
0.0
 10
10.5159295679
 20
7.428355246
 30
0.0
 10
10.51322266
 20
7.4310237107
 30
0.0
 10
10.5095101906
 20
7.4354833844
 30
0.0
 10
10.5061543065
 20
7.4404713723
 30
0.0
 10
10.5032324255
 20
7.4459711761
 30
0.0
 10
10.5008291682
 20
7.4519456202
 30
0.0
 10
10.4984137935
 20
7.4605183256
 30
0.0
 10
10.4971664332
 20
7.4718318541
 30
0.0
 10
10.4984137917
 20
7.4831453831
 30
0.0
 10
10.500829164
 20
7.49171809
 30
0.0
 10
10.5032324211
 20
7.4976925344
 30
0.0
 10
10.5061543007
 20
7.50319234
 30
0.0
 10
10.5095101862
 20
7.50818033
 30
0.0
 10
10.5132226584
 20
7.5126400063
 30
0.0
 10
10.515929567
 20
7.515308474
 30
0.0
 10
10.5173183404
 20
7.51655322
 30
0.0
  0
SPLINE
  5
274
100
AcDbEntity
  8
0
100
AcDbSpline
 62
7
  6
CONTINUOUS
 70
0
 71
3
 72
31
 73
27
 74
0
 42
0.0000001
 43
0.0000001
 44
0.0000000001
 40
0.0
 40
0.0
 40
0.0
 40
0.0
 40
0.0558303163
 40
0.0853756112
 40
0.1164700331
 40
0.1496316627
 40
0.1855529453
 40
0.2250875966
 40
0.2689668224
 40
0.3167825578
 40
0.3656885534
 40
0.4118908067
 40
0.4537209531
 40
0.4914855165
 40
0.5260418477
 40
0.558180107
 40
0.5885092707
 40
0.6453763212
 40
0.6990617667
 40
0.7251548561
 40
0.7508919048
 40
0.8015948815
 40
0.8516361738
 40
0.9012862822
 40
0.950708618
 40
1.0
 40
1.0
 40
1.0
 40
1.0
 10
10.558649804
 20
8.5340471695
 30
0.0
 10
10.5622066417
 20
8.5320590297
 30
0.0
 10
10.5674576395
 20
8.5286519221
 30
0.0
 10
10.5739966169
 20
8.523207661
 30
0.0
 10
10.5788506368
 20
8.5183645954
 30
0.0
 10
10.5834853738
 20
8.5126918451
 30
0.0
 10
10.5877779827
 20
8.5060040518
 30
0.0
 10
10.591508906
 20
8.4981036683
 30
0.0
 10
10.594303961
 20
8.4889026422
 30
0.0
 10
10.5956646756
 20
8.4786812494
 30
0.0
 10
10.5952483513
 20
8.468205051
 30
0.0
 10
10.5931684597
 20
8.4583834608
 30
0.0
 10
10.5898861903
 20
8.4497735765
 30
0.0
 10
10.5858617008
 20
8.4424521059
 30
0.0
 10
10.5813920358
 20
8.4362553224
 30
0.0
 10
10.5766452653
 20
8.4309838282
 30
0.0
 10
10.5702161258
 20
8.4250923516
 30
0.0
 10
10.561786006
 20
8.4191279501
 30
0.0
 10
10.5529134284
 20
8.4145210507
 30
0.0
 10
10.5458086387
 20
8.4115431268
 30
0.0
 10
10.5387721687
 20
8.4089882284
 30
0.0
 10
10.5299006722
 20
8.4063995262
 30
0.0
 10
10.5191710839
 20
8.4040543248
 30
0.0
 10
10.5084240466
 20
8.4023118158
 30
0.0
 10
10.4976679643
 20
8.4010412279
 30
0.0
 10
10.4904870363
 20
8.4004417292
 30
0.0
 10
10.486898215
 20
8.4001915433
 30
0.0
  0
SPLINE
  5
275
100
AcDbEntity
  8
0
100
AcDbSpline
 62
7
  6
CONTINUOUS
 70
0
 71
3
 72
43
 73
39
 74
0
 42
0.0000001
 43
0.0000001
 44
0.0000000001
 40
0.0
 40
0.0
 40
0.0
 40
0.0
 40
0.0544225574
 40
0.1088024102
 40
0.1631975055
 40
0.190424799
 40
0.2176933058
 40
0.2450334628
 40
0.2724952569
 40
0.3001597499
 40
0.3281580245
 40
0.3567023661
 40
0.3861401091
 40
0.4170513953
 40
0.4333604939
 40
0.450465316
 40
0.4686157395
 40
0.4881427375
 40
0.5094597594
 40
0.5329796882
 40
0.5587632842
 40
0.5858509506
 40
0.6123086893
 40
0.6367103405
 40
0.6588113928
 40
0.6789571325
 40
0.6975801931
 40
0.7150439971
 40
0.7475104424
 40
0.7778785808
 40
0.8069883087
 40
0.8353324062
 40
0.863208159
 40
0.8907980437
 40
0.9182148776
 40
0.9455283659
 40
0.9727814185
 40
1.0
 40
1.0
 40
1.0
 40
1.0
 10
10.486898215
 20
8.4001915433
 30
0.0
 10
10.4801064837
 20
8.3997180742
 30
0.0
 10
10.4665032756
 20
8.3991190111
 30
0.0
 10
10.4460848857
 20
8.3989734892
 30
0.0
 10
10.4290726116
 20
8.3994351599
 30
0.0
 10
10.4154737049
 20
8.4002511433
 30
0.0
 10
10.4052732201
 20
8.4011398962
 30
0.0
 10
10.3950777713
 20
8.402368689
 30
0.0
 10
10.3848914251
 20
8.4040247183
 30
0.0
 10
10.3747212422
 20
8.4062202652
 30
0.0
 10
10.3645792255
 20
8.4091003138
 30
0.0
 10
10.3544856456
 20
8.412857826
 30
0.0
 10
10.3444789921
 20
8.4177568647
 30
0.0
 10
10.3364204139
 20
8.4230168616
 30
0.0
 10
10.3302114111
 20
8.4281478083
 30
0.0
 10
10.3255981413
 20
8.4326690721
 30
0.0
 10
10.3211717469
 20
8.4379158984
 30
0.0
 10
10.3170288155
 20
8.4440421906
 30
0.0
 10
10.3133340493
 20
8.4512203241
 30
0.0
 10
10.3103675548
 20
8.4595733899
 30
0.0
 10
10.3085375416
 20
8.4689931249
 30
0.0
 10
10.308231234
 20
8.4789579712
 30
0.0
 10
10.3095244095
 20
8.4886658032
 30
0.0
 10
10.3121173245
 20
8.4974517485
 30
0.0
 10
10.3155797613
 20
8.5050630582
 30
0.0
 10
10.3195788452
 20
8.5115635062
 30
0.0
 10
10.3239130047
 20
8.5171209576
 30
0.0
 10
10.3298359827
 20
8.5233382198
 30
0.0
 10
10.3376843202
 20
8.5296832056
 30
0.0
 10
10.347593897
 20
8.5355804691
 30
0.0
 10
10.3576340051
 20
8.540089062
 30
0.0
 10
10.3677455275
 20
8.5435476503
 30
0.0
 10
10.3778980964
 20
8.5461957151
 30
0.0
 10
10.3880743067
 20
8.5482088578
 30
0.0
 10
10.3982641049
 20
8.54972052
 30
0.0
 10
10.4084614767
 20
8.5508346776
 30
0.0
 10
10.4186629541
 20
8.5516311697
 30
0.0
 10
10.4254685724
 20
8.5519894473
 30
0.0
 10
10.4288705676
 20
8.5521329612
 30
0.0
  0
SPLINE
  5
276
100
AcDbEntity
  8
0
100
AcDbSpline
 62
7
  6
CONTINUOUS
 70
0
 71
3
 72
37
 73
33
 74
0
 42
0.0000001
 43
0.0000001
 44
0.0000000001
 40
0.0
 40
0.0
 40
0.0
 40
0.0
 40
0.0624710962
 40
0.1249469876
 40
0.1874190724
 40
0.2498902421
 40
0.312355442
 40
0.3436092237
 40
0.3748685716
 40
0.4061250682
 40
0.4373891663
 40
0.4530285587
 40
0.4686745266
 40
0.4843172981
 40
0.4999602458
 40
0.515605808
 40
0.5312484293
 40
0.546891911
 40
0.5625375966
 40
0.5937934025
 40
0.6250516476
 40
0.6563140224
 40
0.6875662084
 40
0.7188206454
 40
0.750068486
 40
0.7813168171
 40
0.8125605554
 40
0.8438050742
 40
0.875045179
 40
0.9062872841
 40
0.9375288536
 40
1.0
 40
1.0
 40
1.0
 40
1.0
 10
11.2607661999
 20
8.5340471695
 30
0.0
 10
11.2646882181
 20
8.5329510384
 30
0.0
 10
11.2724860324
 20
8.5305859394
 30
0.0
 10
11.2839782114
 20
8.5264198483
 30
0.0
 10
11.2951751322
 20
8.5215031923
 30
0.0
 10
11.3059250141
 20
8.515664796
 30
0.0
 10
11.3143097755
 20
8.5098309889
 30
0.0
 10
11.3204288597
 20
8.5044389112
 30
0.0
 10
11.3246310102
 20
8.4999852515
 30
0.0
 10
11.3283178841
 20
8.4950909997
 30
0.0
 10
11.3308210449
 20
8.4906296174
 30
0.0
 10
11.3323778178
 20
8.4868564608
 30
0.0
 10
11.3332957908
 20
8.4839339963
 30
0.0
 10
11.3339442555
 20
8.4809395367
 30
0.0
 10
11.3342985301
 20
8.4778958005
 30
0.0
 10
11.3343517092
 20
8.4748319796
 30
0.0
 10
11.3341015103
 20
8.4717778469
 30
0.0
 10
11.3335524476
 20
8.4687632974
 30
0.0
 10
11.3324525296
 20
8.4648321349
 30
0.0
 10
11.3304275536
 20
8.4601286173
 30
0.0
 10
11.3271820832
 20
8.454926423
 30
0.0
 10
11.3233097302
 20
8.4501791313
 30
0.0
 10
11.3189692979
 20
8.4458624364
 30
0.0
 10
11.3142736271
 20
8.4419406883
 30
0.0
 10
11.309308054
 20
8.4383704465
 30
0.0
 10
11.3041326877
 20
8.4351153148
 30
0.0
 10
11.2987935895
 20
8.4321384885
 30
0.0
 10
11.293323177
 20
8.4294129887
 30
0.0
 10
11.2877483931
 20
8.4269092194
 30
0.0
 10
11.282087163
 20
8.4246086949
 30
0.0
 10
11.2744465949
 20
8.4217827549
 30
0.0
 10
11.2686276415
 20
8.4199111024
 30
0.0
 10
11.2647229175
 20
8.4187548643
 30
0.0
  0
SPLINE
  5
277
100
AcDbEntity
  8
0
100
AcDbSpline
 62
7
  6
CONTINUOUS
 70
0
 71
3
 72
59
 73
55
 74
0
 42
0.0000001
 43
0.0000001
 44
0.0000000001
 40
0.0
 40
0.0
 40
0.0
 40
0.0
 40
0.0312468286
 40
0.046880229
 40
0.0625119317
 40
0.078138426
 40
0.0937628658
 40
0.1250097151
 40
0.1562555628
 40
0.1875029542
 40
0.2499916893
 40
0.2812362304
 40
0.3124804677
 40
0.3437247148
 40
0.3749688404
 40
0.4062129919
 40
0.4374571464
 40
0.4687014413
 40
0.4999456988
 40
0.531190122
 40
0.5624346773
 40
0.5936791909
 40
0.6249235326
 40
0.6405467273
 40
0.6561702882
 40
0.6717938251
 40
0.6874179678
 40
0.7030418945
 40
0.7186665534
 40
0.7342915833
 40
0.7499163818
 40
0.7655408652
 40
0.7811641745
 40
0.7889833074
 40
0.7968010804
 40
0.8046214745
 40
0.8124406651
 40
0.8202597363
 40
0.8280790539
 40
0.8319914597
 40
0.8359037292
 40
0.8437234877
 40
0.8515428965
 40
0.8593621688
 40
0.8671818489
 40
0.8749993871
 40
0.8828170545
 40
0.8906331446
 40
0.9062585551
 40
0.9218836467
 40
0.9375082102
 40
0.9531329883
 40
0.9687573043
 40
1.0
 40
1.0
 40
1.0
 40
1.0
 10
11.2647229175
 20
8.4187548643
 30
0.0
 10
11.2582838133
 20
8.4168481641
 30
0.0
 10
11.2485123282
 20
8.4143518242
 30
0.0
 10
11.2353611092
 20
8.4116027962
 30
0.0
 10
11.2254468492
 20
8.4097884761
 30
0.0
 10
11.2154977924
 20
8.4081906542
 30
0.0
 10
11.2021955946
 20
8.406323673
 30
0.0
 10
11.1855114897
 20
8.4044262284
 30
0.0
 10
11.1654384955
 20
8.4026872577
 30
0.0
 10
11.1386315958
 20
8.4009620303
 30
0.0
 10
11.111787114
 20
8.3999189601
 30
0.0
 10
11.0849335023
 20
8.3993371186
 30
0.0
 10
11.0647897777
 20
8.3990959293
 30
0.0
 10
11.0446449215
 20
8.3990342369
 30
0.0
 10
11.0245002514
 20
8.3991422254
 30
0.0
 10
11.0043573605
 20
8.3994327942
 30
0.0
 10
10.9842183028
 20
8.3999270563
 30
0.0
 10
10.9640864592
 20
8.4006642157
 30
0.0
 10
10.9439673729
 20
8.4016995103
 30
0.0
 10
10.9238701406
 20
8.4031038409
 30
0.0
 10
10.9038096446
 20
8.4049709628
 30
0.0
 10
10.8838108734
 20
8.4074199458
 30
0.0
 10
10.8672285323
 20
8.4100725674
 30
0.0
 10
10.8540491276
 20
8.4126636869
 30
0.0
 10
10.8442198685
 20
8.4148737224
 30
0.0
 10
10.8344636026
 20
8.4173889436
 30
0.0
 10
10.8248030467
 20
8.4202524996
 30
0.0
 10
10.8152707998
 20
8.4235215286
 30
0.0
 10
10.8059112378
 20
8.4272608827
 30
0.0
 10
10.7967908992
 20
8.4315565768
 30
0.0
 10
10.7880090651
 20
8.4365167311
 30
0.0
 10
10.7797232243
 20
8.4422756865
 30
0.0
 10
10.7734367716
 20
8.4478893499
 30
0.0
 10
10.7690054069
 20
8.4529500192
 30
0.0
 10
10.7660603046
 20
8.4570529797
 30
0.0
 10
10.7635912756
 20
8.4614624838
 30
0.0
 10
10.7617164214
 20
8.4661601461
 30
0.0
 10
10.7605474793
 20
8.471084512
 30
0.0
 10
10.7602440978
 20
8.4752957599
 30
0.0
 10
10.7604136824
 20
8.4786568789
 30
0.0
 10
10.7608581615
 20
8.4819929233
 30
0.0
 10
10.7619042229
 20
8.4860811037
 30
0.0
 10
10.7638593277
 20
8.4907448719
 30
0.0
 10
10.7663894451
 20
8.4951194543
 30
0.0
 10
10.7693864354
 20
8.4991839156
 30
0.0
 10
10.7727495686
 20
8.5029473465
 30
0.0
 10
10.7764054894
 20
8.5064236741
 30
0.0
 10
10.7815853426
 20
8.5107084722
 30
0.0
 10
10.7885248572
 20
8.5154660043
 30
0.0
 10
10.7973299193
 20
8.5203817915
 30
0.0
 10
10.8064668946
 20
8.5246422333
 30
0.0
 10
10.8158384643
 20
8.5283513484
 30
0.0
 10
10.8285586879
 20
8.532673239
 30
0.0
 10
10.8382899386
 20
8.5353176991
 30
0.0
 10
10.8448201862
 20
8.5368802311
 30
0.0
  0
SPLINE
  5
278
100
AcDbEntity
  8
0
100
AcDbSpline
 62
7
  6
CONTINUOUS
 70
0
 71
3
 72
39
 73
35
 74
0
 42
0.0000001
 43
0.0000001
 44
0.0000000001
 40
0.0
 40
0.0
 40
0.0
 40
0.0
 40
0.0294673465
 40
0.0604299008
 40
0.0766918198
 40
0.093625737
 40
0.1113834969
 40
0.1301519204
 40
0.1501500662
 40
0.1716168319
 40
0.1947377919
 40
0.2194887461
 40
0.2454073214
 40
0.2715260459
 40
0.2967715788
 40
0.3204877738
 40
0.3425244651
 40
0.3630168088
 40
0.4002547429
 40
0.4339256996
 40
0.4652189599
 40
0.4949112228
 40
0.5235114128
 40
0.5513593374
 40
0.5786860487
 40
0.6323479578
 40
0.6852990478
 40
0.7379161925
 40
0.7903824983
 40
0.8427856
 40
0.8951688495
 40
0.9213629186
 40
0.9475632019
 40
1.0
 40
1.0
 40
1.0
 40
1.0
 10
11.7494347343
 20
8.5340471695
 30
0.0
 10
11.7519137892
 20
8.5326614701
 30
0.0
 10
11.7568708251
 20
8.5295845202
 30
0.0
 10
11.7627168157
 20
8.5250329325
 30
0.0
 10
11.7672313295
 20
8.5208017608
 30
0.0
 10
11.7705823778
 20
8.517206261
 30
0.0
 10
11.7738150958
 20
8.5131877781
 30
0.0
 10
11.7768841084
 20
8.5086791209
 30
0.0
 10
11.7797270232
 20
8.503608579
 30
0.0
 10
11.7822490889
 20
8.4979065639
 30
0.0
 10
11.784311463
 20
8.4915363498
 30
0.0
 10
11.7857371249
 20
8.4845525516
 30
0.0
 10
11.786349402
 20
8.4771587136
 30
0.0
 10
11.7860544296
 20
8.4696973098
 30
0.0
 10
11.784898791
 20
8.4625367786
 30
0.0
 10
11.7830402247
 20
8.4559368182
 30
0.0
 10
11.7806631316
 20
8.4499988513
 30
0.0
 10
11.777119231
 20
8.4431657089
 30
0.0
 10
11.7720571234
 20
8.435902651
 30
0.0
 10
11.7652461185
 20
8.428744803
 30
0.0
 10
11.7581476851
 20
8.4229803834
 30
0.0
 10
11.7508808868
 20
8.4182908689
 30
0.0
 10
11.7435092743
 20
8.4144499925
 30
0.0
 10
11.7360698715
 20
8.411293447
 30
0.0
 10
11.7261539107
 20
8.4078528939
 30
0.0
 10
11.7136186946
 20
8.4046717784
 30
0.0
 10
11.6984719362
 20
8.4021358157
 30
0.0
 10
11.6833202119
 20
8.4005175971
 30
0.0
 10
11.6681688795
 20
8.3995564658
 30
0.0
 10
11.6530182489
 20
8.3990856484
 30
0.0
 10
11.6403930656
 20
8.3990265932
 30
0.0
 10
11.6302954852
 20
8.399177074
 30
0.0
 10
11.6201957833
 20
8.3994620928
 30
0.0
 10
11.6126247141
 20
8.3998489201
 30
0.0
 10
11.6075832572
 20
8.4002023941
 30
0.0
  0
SPLINE
  5
279
100
AcDbEntity
  8
0
100
AcDbSpline
 62
7
  6
CONTINUOUS
 70
0
 71
3
 72
49
 73
45
 74
0
 42
0.0000001
 43
0.0000001
 44
0.0000000001
 40
0.0
 40
0.0
 40
0.0
 40
0.0
 40
0.0272093904
 40
0.0544843261
 40
0.0818692783
 40
0.1094371835
 40
0.1373047781
 40
0.1514085374
 40
0.1656658552
 40
0.1948119595
 40
0.225250733
 40
0.2412115467
 40
0.2578582534
 40
0.2753996327
 40
0.2941143374
 40
0.3143636104
 40
0.3365691235
 40
0.3610475367
 40
0.3875156703
 40
0.4145429887
 40
0.4402568802
 40
0.4637370297
 40
0.4850450724
 40
0.5045816963
 40
0.5227505863
 40
0.5398760683
 40
0.5562041576
 40
0.5719199853
 40
0.5871623922
 40
0.616613207
 40
0.6309758751
 40
0.6451623369
 40
0.6731452681
 40
0.700783963
 40
0.7282119771
 40
0.7555125362
 40
0.782737167
 40
0.8099175901
 40
0.8370732558
 40
0.8642160485
 40
0.8913540412
 40
0.9184933816
 40
0.9456409115
 40
1.0
 40
1.0
 40
1.0
 40
1.0
 10
11.6075832572
 20
8.4002023941
 30
0.0
 10
11.60422864
 20
8.4004375979
 30
0.0
 10
11.597516878
 20
8.4009948382
 30
0.0
 10
11.5874628641
 20
8.4021517208
 30
0.0
 10
11.5774169678
 20
8.4037095167
 30
0.0
 10
11.5673859031
 20
8.405770583
 30
0.0
 10
11.5590805431
 20
8.4080093903
 30
0.0
 10
11.5524813281
 20
8.4101932288
 30
0.0
 10
11.5458312845
 20
8.4127066548
 30
0.0
 10
11.5375277122
 20
8.416532329
 30
0.0
 10
11.5295302908
 20
8.4214054043
 30
0.0
 10
11.5233331347
 20
8.426139582
 30
0.0
 10
11.5187159607
 20
8.4302854095
 30
0.0
 10
11.514248342
 20
8.4350721305
 30
0.0
 10
11.510000939
 20
8.4406314521
 30
0.0
 10
11.506092404
 20
8.4471227405
 30
0.0
 10
11.5027247268
 20
8.4547045259
 30
0.0
 10
11.5002249531
 20
8.4634267631
 30
0.0
 10
11.4990075164
 20
8.473027865
 30
0.0
 10
11.4993517011
 20
8.4828550696
 30
0.0
 10
11.5011717812
 20
8.4921362572
 30
0.0
 10
11.5040951475
 20
8.5003748861
 30
0.0
 10
11.5077285119
 20
8.5074691508
 30
0.0
 10
11.5118019023
 20
8.5135372637
 30
0.0
 10
11.5161551241
 20
8.5187451981
 30
0.0
 10
11.5206942742
 20
8.5232406483
 30
0.0
 10
11.5253616501
 20
8.5271421743
 30
0.0
 10
11.5301194057
 20
8.5305448723
 30
0.0
 10
11.5364773988
 20
8.534467117
 30
0.0
 10
11.5430263281
 20
8.5377293907
 30
0.0
 10
11.5496653691
 20
8.5404368021
 30
0.0
 10
11.5562477313
 20
8.5427860248
 30
0.0
 10
11.5645399863
 20
8.5451981533
 30
0.0
 10
11.574565254
 20
8.5474249813
 30
0.0
 10
11.5846077838
 20
8.5491142491
 30
0.0
 10
11.594659964
 20
8.5503760001
 30
0.0
 10
11.6047176815
 20
8.5512953892
 30
0.0
 10
11.6147782741
 20
8.5519401359
 30
0.0
 10
11.6248404683
 20
8.5523568988
 30
0.0
 10
11.6349034148
 20
8.5525799968
 30
0.0
 10
11.644966601
 20
8.5526273172
 30
0.0
 10
11.6550298968
 20
8.5525027464
 30
0.0
 10
11.6684515414
 20
8.5520930646
 30
0.0
 10
11.6785116947
 20
8.5514775189
 30
0.0
 10
11.6852026068
 20
8.5508712005
 30
0.0
  0
SPLINE
  5
27A
100
AcDbEntity
  8
0
100
AcDbSpline
 62
7
  6
CONTINUOUS
 70
0
 71
3
 72
23
 73
19
 74
0
 42
0.0000001
 43
0.0000001
 44
0.0000000001
 40
0.0
 40
0.0
 40
0.0
 40
0.0
 40
0.0570768053
 40
0.115660744
 40
0.1758641103
 40
0.2377941639
 40
0.3014364312
 40
0.3666213003
 40
0.4329888963
 40
0.4999999908
 40
0.5670110875
 40
0.63337869
 40
0.6985635649
 40
0.7622058326
 40
0.8241358846
 40
0.8843392534
 40
0.9429231941
 40
1.0
 40
1.0
 40
1.0
 40
1.0
 10
10.519447937
 20
7.51655322
 30
0.0
 10
10.5179450931
 20
7.5153149529
 30
0.0
 10
10.5150178229
 20
7.5126581337
 30
0.0
 10
10.5109889083
 20
7.5081989504
 30
0.0
 10
10.5073431552
 20
7.5032125086
 30
0.0
 10
10.5041683019
 20
7.4977123239
 30
0.0
 10
10.5015564049
 20
7.4917362287
 30
0.0
 10
10.4996029789
 20
7.4853539912
 30
0.0
 10
10.4983919702
 20
7.47867258
 30
0.0
 10
10.4979812936
 20
7.4718318613
 30
0.0
 10
10.4983919701
 20
7.4649911424
 30
0.0
 10
10.4996029786
 20
7.4583097306
 30
0.0
 10
10.5015564047
 20
7.4519274927
 30
0.0
 10
10.5041683017
 20
7.4459513972
 30
0.0
 10
10.507343155
 20
7.4404512125
 30
0.0
 10
10.5109889082
 20
7.4354647706
 30
0.0
 10
10.5150178228
 20
7.4310055872
 30
0.0
 10
10.5179450931
 20
7.4283487679
 30
0.0
 10
10.519447937
 20
7.4271105009
 30
0.0
  0
SPLINE
  5
27B
100
AcDbEntity
  8
0
100
AcDbSpline
 62
7
  6
CONTINUOUS
 70
0
 71
3
 72
23
 73
19
 74
0
 42
0.0000001
 43
0.0000001
 44
0.0000000001
 40
0.0
 40
0.0
 40
0.0
 40
0.0
 40
0.0583786517
 40
0.1178955873
 40
0.1786310443
 40
0.24067854
 40
0.3040363757
 40
0.3685818027
 40
0.434041681
 40
0.499999991
 40
0.5659583031
 40
0.6314181878
 40
0.6959636204
 40
0.7593214566
 40
0.8213689505
 40
0.88210441
 40
0.9416213476
 40
1.0
 40
1.0
 40
1.0
 40
1.0
 10
10.5258278716
 20
7.51655322
 30
0.0
 10
10.5242237699
 20
7.5153189398
 30
0.0
 10
10.5210992178
 20
7.5126723154
 30
0.0
 10
10.5167842039
 20
7.5082155174
 30
0.0
 10
10.5128784533
 20
7.5032306981
 30
0.0
 10
10.5094759614
 20
7.4977307364
 30
0.0
 10
10.5066757147
 20
7.4917530071
 30
0.0
 10
10.5045805938
 20
7.4853669224
 30
0.0
 10
10.5032813256
 20
7.4786796485
 30
0.0
 10
10.502840639
 20
7.4718318613
 30
0.0
 10
10.5032813255
 20
7.4649840738
 30
0.0
 10
10.5045805935
 20
7.4582967993
 30
0.0
 10
10.5066757145
 20
7.4519107143
 30
0.0
 10
10.5094759611
 20
7.4459329848
 30
0.0
 10
10.5128784531
 20
7.4404330231
 30
0.0
 10
10.5167842037
 20
7.4354482036
 30
0.0
 10
10.5210992177
 20
7.4309914055
 30
0.0
 10
10.5242237699
 20
7.428344781
 30
0.0
 10
10.5258278716
 20
7.4271105009
 30
0.0
  0
SPLINE
  5
27C
100
AcDbEntity
  8
0
100
AcDbSpline
 62
7
  6
CONTINUOUS
 70
0
 71
3
 72
23
 73
19
 74
0
 42
0.0000001
 43
0.0000001
 44
0.0000000001
 40
0.0
 40
0.0
 40
0.0
 40
0.0
 40
0.059507875
 40
0.1198415226
 40
0.1810495001
 40
0.2432087971
 40
0.306324433
 40
0.3703114973
 40
0.434972038
 40
0.4999999911
 40
0.5650279464
 40
0.6296884932
 40
0.6936755631
 40
0.7567911994
 40
0.8189504947
 40
0.8801584747
 40
0.9404921243
 40
1.0
 40
1.0
 40
1.0
 40
1.0
 10
10.536406774
 20
7.51655322
 30
0.0
 10
10.534713888
 20
7.5153221369
 30
0.0
 10
10.5314166336
 20
7.5126839126
 30
0.0
 10
10.5268506419
 20
7.5082294153
 30
0.0
 10
10.5227167267
 20
7.5032463658
 30
0.0
 10
10.5191142869
 20
7.4977470086
 30
0.0
 10
10.5161483708
 20
7.491768182
 30
0.0
 10
10.5139283975
 20
7.4853788375
 30
0.0
 10
10.5125512308
 20
7.4786862408
 30
0.0
 10
10.5120840302
 20
7.4718318613
 30
0.0
 10
10.5125512307
 20
7.4649774816
 30
0.0
 10
10.5139283971
 20
7.4582848843
 30
0.0
 10
10.5161483706
 20
7.4518955393
 30
0.0
 10
10.5191142866
 20
7.4459167126
 30
0.0
 10
10.5227167265
 20
7.4404173554
 30
0.0
 10
10.5268506417
 20
7.4354343057
 30
0.0
 10
10.5314166335
 20
7.4309798083
 30
0.0
 10
10.534713888
 20
7.4283415839
 30
0.0
 10
10.536406774
 20
7.4271105009
 30
0.0
  0
SPLINE
  5
27D
100
AcDbEntity
  8
0
100
AcDbSpline
 62
7
  6
CONTINUOUS
 70
0
 71
3
 72
23
 73
19
 74
0
 42
0.0000001
 43
0.0000001
 44
0.0000000001
 40
0.0
 40
0.0
 40
0.0
 40
0.0
 40
0.0604580254
 40
0.1214840475
 40
0.1830974313
 40
0.2453580572
 40
0.3082733894
 40
0.3717881444
 40
0.435767446
 40
0.4999999912
 40
0.5642325386
 40
0.6282118463
 40
0.6917266067
 40
0.7546419393
 40
0.8169025635
 40
0.8785159497
 40
0.9395419738
 40
1.0
 40
1.0
 40
1.0
 40
1.0
 10
10.5510994642
 20
7.51655322
 30
0.0
 10
10.5493308955
 20
7.5153246555
 30
0.0
 10
10.5458866147
 20
7.5126931921
 30
0.0
 10
10.5411066745
 20
7.5082407703
 30
0.0
 10
10.5367782187
 20
7.5032594537
 30
0.0
 10
10.5330051801
 20
7.497760905
 30
0.0
 10
10.5298977408
 20
7.4917814082
 30
0.0
 10
10.5275709353
 20
7.4853893977
 30
0.0
 10
10.5261270025
 20
7.4786921484
 30
0.0
 10
10.5256370531
 20
7.4718318613
 30
0.0
 10
10.5261270024
 20
7.4649715739
 30
0.0
 10
10.527570935
 20
7.4582743241
 30
0.0
 10
10.5298977406
 20
7.4518823132
 30
0.0
 10
10.5330051798
 20
7.4459028162
 30
0.0
 10
10.5367782185
 20
7.4404042675
 30
0.0
 10
10.5411066743
 20
7.4354229507
 30
0.0
 10
10.5458866146
 20
7.4309705288
 30
0.0
 10
10.5493308954
 20
7.4283390653
 30
0.0
 10
10.5510994642
 20
7.4271105009
 30
0.0
  0
SPLINE
  5
27E
100
AcDbEntity
  8
0
100
AcDbSpline
 62
7
  6
CONTINUOUS
 70
0
 71
3
 72
23
 73
19
 74
0
 42
0.0000001
 43
0.0000001
 44
0.0000000001
 40
0.0
 40
0.0
 40
0.0
 40
0.0
 40
0.0612265329
 40
0.1228159361
 40
0.1847624011
 40
0.2471098965
 40
0.3098656861
 40
0.3729968632
 40
0.4364193478
 40
0.4999999913
 40
0.5635806369
 40
0.6270031275
 40
0.69013431
 40
0.7528901
 40
0.8152375936
 40
0.8771840612
 40
0.9387734664
 40
1.0
 40
1.0
 40
1.0
 40
1.0
 10
10.5697876389
 20
7.51655322
 30
0.0
 10
10.5679570457
 20
7.5153265863
 30
0.0
 10
10.5643923938
 20
7.5127003926
 30
0.0
 10
10.5594371496
 20
7.5082497289
 30
0.0
 10
10.5549492773
 20
7.5032699671
 30
0.0
 10
10.5510363718
 20
7.4977722743
 30
0.0
 10
10.5478127882
 20
7.4917924175
 30
0.0
 10
10.5453981794
 20
7.4853983157
 30
0.0
 10
10.5438992876
 20
7.4786971859
 30
0.0
 10
10.5433905933
 20
7.4718318613
 30
0.0
 10
10.5438992875
 20
7.4649665364
 30
0.0
 10
10.545398179
 20
7.4582654061
 30
0.0
 10
10.547812788
 20
7.4518713039
 30
0.0
 10
10.5510363715
 20
7.4458914469
 30
0.0
 10
10.5549492771
 20
7.440393754
 30
0.0
 10
10.5594371493
 20
7.4354139921
 30
0.0
 10
10.5643923937
 20
7.4309633283
 30
0.0
 10
10.5679570457
 20
7.4283371345
 30
0.0
 10
10.5697876389
 20
7.4271105009
 30
0.0
  0
SPLINE
  5
27F
100
AcDbEntity
  8
0
100
AcDbSpline
 62
7
  6
CONTINUOUS
 70
0
 71
3
 72
21
 73
17
 74
0
 42
0.0000001
 43
0.0000001
 44
0.0000000001
 40
0.0
 40
0.0
 40
0.0
 40
0.0
 40
0.1237261427
 40
0.1859477987
 40
0.2483825359
 40
0.3110361433
 40
0.3738917786
 40
0.436903932
 40
0.4999999914
 40
0.5630960528
 40
0.6261082122
 40
0.6889638529
 40
0.7516174606
 40
0.814052196
 40
0.8762738546
 40
1.0
 40
1.0
 40
1.0
 40
1.0
 10
10.5923208234
 20
7.51655322
 30
0.0
 10
10.5885618833
 20
7.5141015014
 30
0.0
 10
10.583214975
 20
7.5098994028
 30
0.0
 10
10.5770837856
 20
7.5032783212
 30
0.0
 10
10.5730621935
 20
7.4977809234
 30
0.0
 10
10.5697490195
 20
7.4918010371
 30
0.0
 10
10.5672664152
 20
7.4854053509
 30
0.0
 10
10.5657249492
 20
7.4787011978
 30
0.0
 10
10.5652017122
 20
7.4718318613
 30
0.0
 10
10.5657249492
 20
7.4649625245
 30
0.0
 10
10.5672664148
 20
7.4582583709
 30
0.0
 10
10.5697490193
 20
7.4518626843
 30
0.0
 10
10.5730621932
 20
7.4458827978
 30
0.0
 10
10.5770837853
 20
7.4403854
 30
0.0
 10
10.5832149748
 20
7.4337643182
 30
0.0
 10
10.5885618832
 20
7.4295622194
 30
0.0
 10
10.5923208234
 20
7.4271105009
 30
0.0
  0
SPLINE
  5
280
100
AcDbEntity
  8
0
100
AcDbSpline
 62
7
  6
CONTINUOUS
 70
0
 71
3
 72
21
 73
17
 74
0
 42
0.0000001
 43
0.0000001
 44
0.0000000001
 40
0.0
 40
0.0
 40
0.0
 40
0.0
 40
0.1244312324
 40
0.1868321858
 40
0.24931626
 40
0.3118875554
 40
0.3745398094
 40
0.4372540643
 40
0.5000000018
 40
0.5627459393
 40
0.6254601934
 40
0.6881124452
 40
0.7506837398
 40
0.8131678142
 40
0.8755687677
 40
1.0
 40
1.0
 40
1.0
 40
1.0
 10
10.6185175838
 20
7.51655322
 30
0.0
 10
10.6146950561
 20
7.5141054787
 30
0.0
 10
10.6092534284
 20
7.5099098192
 30
0.0
 10
10.603002227
 20
7.5032838022
 30
0.0
 10
10.5989053198
 20
7.4977870073
 30
0.0
 10
10.5955295069
 20
7.4918070708
 30
0.0
 10
10.5929994504
 20
7.4854103409
 30
0.0
 10
10.5914282108
 20
7.4787040557
 30
0.0
 10
10.5908948023
 20
7.4718318602
 30
0.0
 10
10.5914282109
 20
7.4649596647
 30
0.0
 10
10.5929994505
 20
7.4582533796
 30
0.0
 10
10.595529507
 20
7.4518566499
 30
0.0
 10
10.5989053198
 20
7.4458767135
 30
0.0
 10
10.603002227
 20
7.4403799186
 30
0.0
 10
10.6092534284
 20
7.4337539016
 30
0.0
 10
10.6146950561
 20
7.4295582421
 30
0.0
 10
10.6185175838
 20
7.4271105009
 30
0.0
  0
SPLINE
  5
281
100
AcDbEntity
  8
0
100
AcDbSpline
 62
7
  6
CONTINUOUS
 70
0
 71
3
 72
21
 73
17
 74
0
 42
0.0000001
 43
0.0000001
 44
0.0000000001
 40
0.0
 40
0.0
 40
0.0
 40
0.0
 40
0.1248227523
 40
0.1873237158
 40
0.2498357039
 40
0.3123616323
 40
0.3749009063
 40
0.4374492488
 40
0.4999999915
 40
0.5625507362
 40
0.6250990846
 40
0.6876383639
 40
0.7501642926
 40
0.812676279
 40
0.875177245
 40
1.0
 40
1.0
 40
1.0
 40
1.0
 10
10.6481669874
 20
7.51655322
 30
0.0
 10
10.6443089696
 20
7.5141076447
 30
0.0
 10
10.6388145217
 20
7.5099155399
 30
0.0
 10
10.6324962878
 20
7.5032868328
 30
0.0
 10
10.6283573386
 20
7.4977903928
 30
0.0
 10
10.6249465471
 20
7.4918104504
 30
0.0
 10
10.6223899781
 20
7.485413152
 30
0.0
 10
10.6208020908
 20
7.478705673
 30
0.0
 10
10.6202629927
 20
7.4718318613
 30
0.0
 10
10.6208020907
 20
7.4649580493
 30
0.0
 10
10.6223899777
 20
7.4582505698
 30
0.0
 10
10.6249465468
 20
7.4518532709
 30
0.0
 10
10.6283573383
 20
7.4458733284
 30
0.0
 10
10.6324962876
 20
7.4403768883
 30
0.0
 10
10.6388145214
 20
7.433748181
 30
0.0
 10
10.6443089695
 20
7.4295560762
 30
0.0
 10
10.6481669874
 20
7.4271105009
 30
0.0
  0
SPLINE
  5
282
100
AcDbEntity
  8
0
100
AcDbSpline
 62
7
  6
CONTINUOUS
 70
0
 71
3
 72
21
 73
17
 74
0
 42
0.0000001
 43
0.0000001
 44
0.0000000001
 40
0.0
 40
0.0
 40
0.0
 40
0.0
 40
0.1249012065
 40
0.1874222482
 40
0.2499398723
 40
0.3124567376
 40
0.3749733694
 40
0.4374884274
 40
0.4999999915
 40
0.5625115576
 40
0.6250266215
 40
0.6875432586
 40
0.7500601243
 40
0.8125777466
 40
0.8750987908
 40
1.0
 40
1.0
 40
1.0
 40
1.0
 10
10.6810303013
 20
7.51655322
 30
0.0
 10
10.6771651557
 20
7.5141080751
 30
0.0
 10
10.6716601031
 20
7.509916681
 30
0.0
 10
10.6653284023
 20
7.5032874392
 30
0.0
 10
10.6611810088
 20
7.4977910722
 30
0.0
 10
10.6577631907
 20
7.4918111306
 30
0.0
 10
10.6552012942
 20
7.4854137192
 30
0.0
 10
10.6536100608
 20
7.4787059998
 30
0.0
 10
10.6530698188
 20
7.4718318613
 30
0.0
 10
10.6536100607
 20
7.4649577226
 30
0.0
 10
10.6552012939
 20
7.4582500026
 30
0.0
 10
10.6577631904
 20
7.4518525907
 30
0.0
 10
10.6611810085
 20
7.445872649
 30
0.0
 10
10.665328402
 20
7.440376282
 30
0.0
 10
10.6716601029
 20
7.43374704
 30
0.0
 10
10.6771651556
 20
7.4295556457
 30
0.0
 10
10.6810303013
 20
7.4271105009
 30
0.0
  0
SPLINE
  5
283
100
AcDbEntity
  8
0
100
AcDbSpline
 62
7
  6
CONTINUOUS
 70
0
 71
3
 72
15
 73
11
 74
0
 42
0.0000001
 43
0.0000001
 44
0.0000000001
 40
0.0
 40
0.0
 40
0.0
 40
0.0
 40
0.0936934366
 40
0.2106999999
 40
0.3487494542
 40
0.4999999902
 40
0.6512505346
 40
0.7892999968
 40
0.906306561
 40
1.0
 40
1.0
 40
1.0
 40
1.0
 10
10.6810303013
 20
7.4271105009
 30
0.0
 10
10.6811290704
 20
7.4299025406
 30
0.0
 10
10.6813048429
 20
7.4361829813
 30
0.0
 10
10.6814960067
 20
7.4465804721
 30
0.0
 10
10.6816226858
 20
7.458695331
 30
0.0
 10
10.6816673183
 20
7.4718318598
 30
0.0
 10
10.6816226858
 20
7.4849683888
 30
0.0
 10
10.6814960067
 20
7.4970832482
 30
0.0
 10
10.6813048429
 20
7.5074807394
 30
0.0
 10
10.6811290704
 20
7.5137611802
 30
0.0
 10
10.6810303013
 20
7.51655322
 30
0.0
  0
SPLINE
  5
284
100
AcDbEntity
  8
0
100
AcDbSpline
 62
7
  6
CONTINUOUS
 70
0
 71
3
 72
21
 73
17
 74
0
 42
0.0000001
 43
0.0000001
 44
0.0000000001
 40
0.0
 40
0.0
 40
0.0
 40
0.0
 40
0.1246667238
 40
0.1871277939
 40
0.2496286168
 40
0.3121725981
 40
0.3747568993
 40
0.4373713968
 40
0.4999999915
 40
0.5626285882
 40
0.6252430915
 40
0.687827398
 40
0.7503713797
 40
0.8128722009
 40
0.8753332735
 40
1.0
 40
1.0
 40
1.0
 40
1.0
 10
10.716842915
 20
7.51655322
 30
0.0
 10
10.7129990569
 20
7.514106785
 30
0.0
 10
10.707525679
 20
7.5099132654
 30
0.0
 10
10.7012341934
 20
7.5032856259
 30
0.0
 10
10.6971120184
 20
7.4977890424
 30
0.0
 10
10.6937151838
 20
7.4918091004
 30
0.0
 10
10.6911691953
 20
7.4854120277
 30
0.0
 10
10.6895879526
 20
7.4787050258
 30
0.0
 10
10.6890511257
 20
7.4718318613
 30
0.0
 10
10.6895879525
 20
7.4649586965
 30
0.0
 10
10.691169195
 20
7.4582516941
 30
0.0
 10
10.6937151835
 20
7.451854621
 30
0.0
 10
10.6971120181
 20
7.4458746788
 30
0.0
 10
10.7012341931
 20
7.4403780952
 30
0.0
 10
10.7075256788
 20
7.4337504556
 30
0.0
 10
10.7129990568
 20
7.4295569358
 30
0.0
 10
10.716842915
 20
7.4271105009
 30
0.0
  0
SPLINE
  5
285
100
AcDbEntity
  8
0
100
AcDbSpline
 62
7
  6
CONTINUOUS
 70
0
 71
3
 72
19
 73
15
 74
0
 42
0.0000001
 43
0.0000001
 44
0.0000000001
 40
0.0
 40
0.0
 40
0.0
 40
0.0
 40
0.044319711
 40
0.0943289353
 40
0.1500713165
 40
0.211453318
 40
0.3492327499
 40
0.4999999902
 40
0.650767239
 40
0.7885466786
 40
0.8499286785
 40
0.9056710622
 40
0.9556802885
 40
1.0
 40
1.0
 40
1.0
 40
1.0
 10
10.716842915
 20
7.4271105009
 30
0.0
 10
10.7170739356
 20
7.4284161933
 30
0.0
 10
10.717517296
 20
7.4312038449
 30
0.0
 10
10.7180985936
 20
7.4356564047
 30
0.0
 10
10.7186243582
 20
7.4406295208
 30
0.0
 10
10.7192586811
 20
7.4482299043
 30
0.0
 10
10.719805454
 20
7.4586877012
 30
0.0
 10
10.7200291665
 20
7.4718318598
 30
0.0
 10
10.7198054541
 20
7.4849760186
 30
0.0
 10
10.7192586812
 20
7.495433816
 30
0.0
 10
10.7186243582
 20
7.5030341997
 30
0.0
 10
10.7180985936
 20
7.5080073159
 30
0.0
 10
10.717517296
 20
7.5124598758
 30
0.0
 10
10.7170739356
 20
7.5152475275
 30
0.0
 10
10.716842915
 20
7.51655322
 30
0.0
  0
SPLINE
  5
286
100
AcDbEntity
  8
0
100
AcDbSpline
 62
7
  6
CONTINUOUS
 70
0
 71
3
 72
21
 73
17
 74
0
 42
0.0000001
 43
0.0000001
 44
0.0000000001
 40
0.0
 40
0.0
 40
0.0
 40
0.0
 40
0.1241189507
 40
0.1864403671
 40
0.2489024486
 40
0.3115101081
 40
0.37425245
 40
0.4370987716
 40
0.4999999914
 40
0.5629012133
 40
0.6257475409
 40
0.6884898881
 40
0.7510975479
 40
0.8135596276
 40
0.8758810466
 40
1.0
 40
1.0
 40
1.0
 40
1.0
 10
10.7553164701
 20
7.51655322
 30
0.0
 10
10.7515221559
 20
7.5141037294
 30
0.0
 10
10.7461225417
 20
7.5099052237
 30
0.0
 10
10.7399246034
 20
7.5032813778
 30
0.0
 10
10.7358611153
 20
7.4977843095
 30
0.0
 10
10.7325131
 20
7.4918043888
 30
0.0
 10
10.7300041067
 20
7.4854081184
 30
0.0
 10
10.728446086
 20
7.4787027814
 30
0.0
 10
10.7279171944
 20
7.4718318613
 30
0.0
 10
10.7284460859
 20
7.464960941
 30
0.0
 10
10.7300041064
 20
7.4582556034
 30
0.0
 10
10.7325130998
 20
7.4518593325
 30
0.0
 10
10.735861115
 20
7.4458794117
 30
0.0
 10
10.7399246032
 20
7.4403823433
 30
0.0
 10
10.7461225414
 20
7.4337584973
 30
0.0
 10
10.7515221558
 20
7.4295599915
 30
0.0
 10
10.7553164701
 20
7.4271105009
 30
0.0
  0
SPLINE
  5
287
100
AcDbEntity
  8
0
100
AcDbSpline
 62
7
  6
CONTINUOUS
 70
0
 71
3
 72
21
 73
17
 74
0
 42
0.0000001
 43
0.0000001
 44
0.0000000001
 40
0.0
 40
0.0
 40
0.0
 40
0.0
 40
0.0451885834
 40
0.0957447369
 40
0.151746637
 40
0.2131347577
 40
0.2795611909
 40
0.3503253896
 40
0.4999999903
 40
0.6496745993
 40
0.7204388047
 40
0.786865239
 40
0.848253358
 40
0.9042552607
 40
0.9548114161
 40
1.0
 40
1.0
 40
1.0
 40
1.0
 10
10.7553164701
 20
7.4271105009
 30
0.0
 10
10.7557282089
 20
7.4284090866
 30
0.0
 10
10.7565204859
 20
7.4311862309
 30
0.0
 10
10.7575636508
 20
7.4356418597
 30
0.0
 10
10.7585068119
 20
7.4406177513
 30
0.0
 10
10.7593274279
 20
7.4460994197
 30
0.0
 10
10.7600020762
 20
7.4520490652
 30
0.0
 10
10.7606864382
 20
7.4606714309
 30
0.0
 10
10.7610260185
 20
7.4718318598
 30
0.0
 10
10.7606864383
 20
7.4829922889
 30
0.0
 10
10.7600020762
 20
7.491614655
 30
0.0
 10
10.759327428
 20
7.4975643007
 30
0.0
 10
10.758506812
 20
7.5030459692
 30
0.0
 10
10.7575636509
 20
7.5080218609
 30
0.0
 10
10.756520486
 20
7.5124774898
 30
0.0
 10
10.7557282089
 20
7.5152546341
 30
0.0
 10
10.7553164701
 20
7.51655322
 30
0.0
  0
SPLINE
  5
288
100
AcDbEntity
  8
0
100
AcDbSpline
 62
7
  6
CONTINUOUS
 70
0
 71
3
 72
21
 73
17
 74
0
 42
0.0000001
 43
0.0000001
 44
0.0000000001
 40
0.0
 40
0.0
 40
0.0
 40
0.0
 40
0.123257334
 40
0.1853603506
 40
0.2477629299
 40
0.3104716831
 40
0.3734624882
 40
0.4366721119
 40
0.4999999914
 40
0.5633278729
 40
0.6265375025
 40
0.6895283131
 40
0.7522370666
 40
0.8146396442
 40
0.8767426633
 40
1.0
 40
1.0
 40
1.0
 40
1.0
 10
10.7961411831
 20
7.51655322
 30
0.0
 10
10.7924243022
 20
7.5140988013
 30
0.0
 10
10.7871401021
 20
7.5098923961
 30
0.0
 10
10.7810882237
 20
7.503274662
 30
0.0
 10
10.7771164365
 20
7.4977768909
 30
0.0
 10
10.7738446692
 20
7.4917970661
 30
0.0
 10
10.7713934121
 20
7.4854020867
 30
0.0
 10
10.7698716009
 20
7.4786993357
 30
0.0
 10
10.7693550749
 20
7.4718318613
 30
0.0
 10
10.7698716008
 20
7.4649643866
 30
0.0
 10
10.7713934117
 20
7.4582616351
 30
0.0
 10
10.7738446689
 20
7.4518666552
 30
0.0
 10
10.7771164362
 20
7.4458868303
 30
0.0
 10
10.7810882234
 20
7.4403890591
 30
0.0
 10
10.7871401018
 20
7.4337713249
 30
0.0
 10
10.7924243021
 20
7.4295649195
 30
0.0
 10
10.7961411831
 20
7.4271105009
 30
0.0
  0
SPLINE
  5
289
100
AcDbEntity
  8
0
100
AcDbSpline
 62
7
  6
CONTINUOUS
 70
0
 71
3
 72
23
 73
19
 74
0
 42
0.0000001
 43
0.0000001
 44
0.0000000001
 40
0.0
 40
0.0
 40
0.0
 40
0.0
 40
0.0464447435
 40
0.0978011482
 40
0.1541877861
 40
0.2155890602
 40
0.2817079972
 40
0.3519053018
 40
0.425139439
 40
0.4999999904
 40
0.5748605438
 40
0.6480946873
 40
0.7182919984
 40
0.7844109365
 40
0.8458122089
 40
0.9021988494
 40
0.953555256
 40
1.0
 40
1.0
 40
1.0
 40
1.0
 10
10.7961411831
 20
7.4271105009
 30
0.0
 10
10.7967273199
 20
7.428399712
 30
0.0
 10
10.7978587455
 20
7.4311619262
 30
0.0
 10
10.7993572512
 20
7.4356211212
 30
0.0
 10
10.8007117526
 20
7.4406005291
 30
0.0
 10
10.801890036
 20
7.4460856243
 30
0.0
 10
10.8028584772
 20
7.4520386119
 30
0.0
 10
10.8035820761
 20
7.458389507
 30
0.0
 10
10.8040303464
 20
7.4650328929
 30
0.0
 10
10.8041823059
 20
7.4718318596
 30
0.0
 10
10.8040303464
 20
7.4786308265
 30
0.0
 10
10.8035820762
 20
7.4852742128
 30
0.0
 10
10.8028584772
 20
7.4916251084
 30
0.0
 10
10.8018900361
 20
7.4975780961
 30
0.0
 10
10.8007117527
 20
7.5030631914
 30
0.0
 10
10.7993572513
 20
7.5080425994
 30
0.0
 10
10.7978587455
 20
7.5125017945
 30
0.0
 10
10.7967273199
 20
7.5152640088
 30
0.0
 10
10.7961411831
 20
7.51655322
 30
0.0
  0
SPLINE
  5
28A
100
AcDbEntity
  8
0
100
AcDbSpline
 62
7
  6
CONTINUOUS
 70
0
 71
3
 72
23
 73
19
 74
0
 42
0.0000001
 43
0.0000001
 44
0.0000000001
 40
0.0
 40
0.0
 40
0.0
 40
0.0
 40
0.0608661634
 40
0.1221910146
 40
0.1839807168
 40
0.2462869271
 40
0.3091172474
 40
0.3724284604
 40
0.4361126968
 40
0.4999999913
 40
0.5638872878
 40
0.6275715303
 40
0.6908827488
 40
0.7537130694
 40
0.816019278
 40
0.8778089827
 40
0.9391338359
 40
1.0
 40
1.0
 40
1.0
 40
1.0
 10
10.8389883392
 20
7.51655322
 30
0.0
 10
10.837186929
 20
7.5153256923
 30
0.0
 10
10.8336788994
 20
7.5126970493
 30
0.0
 10
10.8288061316
 20
7.5082455531
 30
0.0
 10
10.824393262
 20
7.5032650457
 30
0.0
 10
10.8205461685
 20
7.497766929
 30
0.0
 10
10.8173772475
 20
7.49178722
 30
0.0
 10
10.8150039776
 20
7.4853940908
 30
0.0
 10
10.8135309713
 20
7.4786947939
 30
0.0
 10
10.813031108
 20
7.4718318613
 30
0.0
 10
10.8135309712
 20
7.4649689285
 30
0.0
 10
10.8150039773
 20
7.458269631
 30
0.0
 10
10.8173772473
 20
7.4518765013
 30
0.0
 10
10.8205461682
 20
7.4458967922
 30
0.0
 10
10.8243932617
 20
7.4403986755
 30
0.0
 10
10.8288061313
 20
7.435418168
 30
0.0
 10
10.8336788993
 20
7.4309666715
 30
0.0
 10
10.837186929
 20
7.4283380285
 30
0.0
 10
10.8389883392
 20
7.4271105009
 30
0.0
  0
SPLINE
  5
28B
100
AcDbEntity
  8
0
100
AcDbSpline
 62
7
  6
CONTINUOUS
 70
0
 71
3
 72
23
 73
19
 74
0
 42
0.0000001
 43
0.0000001
 44
0.0000000001
 40
0.0
 40
0.0
 40
0.0
 40
0.0
 40
0.0479796202
 40
0.100331461
 40
0.1572091192
 40
0.2186420049
 40
0.2843910442
 40
0.3538908586
 40
0.4261934341
 40
0.4999999906
 40
0.5738065489
 40
0.6461091306
 40
0.7156089515
 40
0.7813579918
 40
0.8427908757
 40
0.8996685365
 40
0.9520203793
 40
1.0
 40
1.0
 40
1.0
 40
1.0
 10
10.8389883392
 20
7.4271105009
 30
0.0
 10
10.8397411474
 20
7.4283895525
 30
0.0
 10
10.8411986012
 20
7.4311341401
 30
0.0
 10
10.8431421241
 20
7.4355963876
 30
0.0
 10
10.8448986217
 20
7.4405792812
 30
0.0
 10
10.8464263838
 20
7.4460681653
 30
0.0
 10
10.8476819314
 20
7.4520251715
 30
0.0
 10
10.8486199956
 20
7.4583803599
 30
0.0
 10
10.8492011065
 20
7.4650282597
 30
0.0
 10
10.8493980944
 20
7.4718318596
 30
0.0
 10
10.8492011065
 20
7.4786354597
 30
0.0
 10
10.8486199957
 20
7.4852833599
 30
0.0
 10
10.8476819315
 20
7.4916385488
 30
0.0
 10
10.8464263839
 20
7.4975955552
 30
0.0
 10
10.8448986218
 20
7.5030844392
 30
0.0
 10
10.8431421242
 20
7.508067333
 30
0.0
 10
10.8411986013
 20
7.5125295806
 30
0.0
 10
10.8397411474
 20
7.5152741683
 30
0.0
 10
10.8389883392
 20
7.51655322
 30
0.0
  0
SPLINE
  5
28C
100
AcDbEntity
  8
0
100
AcDbSpline
 62
7
  6
CONTINUOUS
 70
0
 71
3
 72
23
 73
19
 74
0
 42
0.0000001
 43
0.0000001
 44
0.0000000001
 40
0.0
 40
0.0
 40
0.0
 40
0.0
 40
0.0600069482
 40
0.1207036885
 40
0.18212372
 40
0.2443354013
 40
0.3073454109
 40
0.3710846682
 40
0.4353883863
 40
0.5000000019
 40
0.5646116174
 40
0.6289153346
 40
0.6926545898
 40
0.7556645986
 40
0.81787628
 40
0.8792963116
 40
0.9399930519
 40
1.0
 40
1.0
 40
1.0
 40
1.0
 10
10.8835129391
 20
7.51655322
 30
0.0
 10
10.881780427
 20
7.5153234785
 30
0.0
 10
10.8784061711
 20
7.5126888399
 30
0.0
 10
10.8737281568
 20
7.5082354184
 30
0.0
 10
10.8694923844
 20
7.5032532525
 30
0.0
 10
10.8658006348
 20
7.4977542863
 30
0.0
 10
10.8627606502
 20
7.4917750778
 30
0.0
 10
10.8604847845
 20
7.4853843226
 30
0.0
 10
10.8590727013
 20
7.478689301
 30
0.0
 10
10.8585936065
 20
7.4718318602
 30
0.0
 10
10.8590727014
 20
7.4649744194
 30
0.0
 10
10.8604847846
 20
7.458279398
 30
0.0
 10
10.8627606502
 20
7.4518886429
 30
0.0
 10
10.8658006348
 20
7.4459094345
 30
0.0
 10
10.8694923844
 20
7.4404104683
 30
0.0
 10
10.8737281568
 20
7.4354283024
 30
0.0
 10
10.8784061711
 20
7.4309748809
 30
0.0
 10
10.881780427
 20
7.4283402423
 30
0.0
 10
10.8835129391
 20
7.4271105009
 30
0.0
  0
SPLINE
  5
28D
100
AcDbEntity
  8
0
100
AcDbSpline
 62
7
  6
CONTINUOUS
 70
0
 71
3
 72
21
 73
17
 74
0
 42
0.0000001
 43
0.0000001
 44
0.0000000001
 40
0.0
 40
0.0
 40
0.0
 40
0.0
 40
0.1030732262
 40
0.1605290519
 40
0.2220255999
 40
0.2873818462
 40
0.3561125619
 40
0.4273753533
 40
0.500000005
 40
0.5726246556
 40
0.6438874433
 40
0.7126181543
 40
0.7779743981
 40
0.8394709455
 40
0.8969267725
 40
1.0
 40
1.0
 40
1.0
 40
1.0
 10
10.8835129391
 20
7.4271105009
 30
0.0
 10
10.8854027096
 20
7.4297434164
 30
0.0
 10
10.8879501795
 20
7.4341389184
 30
0.0
 10
10.8907111277
 20
7.4405549202
 30
0.0
 10
10.8925777275
 20
7.4460482604
 30
0.0
 10
10.8941112505
 20
7.4520093012
 30
0.0
 10
10.8952571205
 20
7.4583694439
 30
0.0
 10
10.8959669305
 20
7.465022669
 30
0.0
 10
10.8962075522
 20
7.4718318608
 30
0.0
 10
10.8959669305
 20
7.4786410526
 30
0.0
 10
10.8952571205
 20
7.4852942774
 30
0.0
 10
10.8941112505
 20
7.4916544197
 30
0.0
 10
10.8925777275
 20
7.4976154602
 30
0.0
 10
10.8907111278
 20
7.5031088004
 30
0.0
 10
10.8879501796
 20
7.5095248023
 30
0.0
 10
10.8854027096
 20
7.5139203044
 30
0.0
 10
10.8835129391
 20
7.51655322
 30
0.0
  0
SPLINE
  5
28E
100
AcDbEntity
  8
0
100
AcDbSpline
 62
7
  6
CONTINUOUS
 70
0
 71
3
 72
23
 73
19
 74
0
 42
0.0000001
 43
0.0000001
 44
0.0000000001
 40
0.0
 40
0.0
 40
0.0
 40
0.0
 40
0.0589670056
 40
0.1189086231
 40
0.1798890098
 40
0.2419935956
 40
0.3052246943
 40
0.3694796146
 40
0.43452441
 40
0.499999991
 40
0.5654755743
 40
0.6305203759
 40
0.6947753018
 40
0.7580064009
 40
0.820110985
 40
0.8810913742
 40
0.9410329937
 40
1.0
 40
1.0
 40
1.0
 40
1.0
 10
10.9293564769
 20
7.51655322
 30
0.0
 10
10.9277062537
 20
7.5153206343
 30
0.0
 10
10.9244919552
 20
7.5126784369
 30
0.0
 10
10.92004657
 20
7.5082228133
 30
0.0
 10
10.9160223064
 20
7.5032388755
 30
0.0
 10
10.9125159773
 20
7.4977391808
 30
0.0
 10
10.9096297222
 20
7.4917608406
 30
0.0
 10
10.9074698103
 20
7.4853730467
 30
0.0
 10
10.9061301338
 20
7.4786830273
 30
0.0
 10
10.9056756971
 20
7.4718318613
 30
0.0
 10
10.9061301337
 20
7.4649806951
 30
0.0
 10
10.90746981
 20
7.4582906751
 30
0.0
 10
10.909629722
 20
7.4519028807
 30
0.0
 10
10.9125159771
 20
7.4459245404
 30
0.0
 10
10.9160223062
 20
7.4404248456
 30
0.0
 10
10.9200465698
 20
7.4354409077
 30
0.0
 10
10.9244919551
 20
7.430985284
 30
0.0
 10
10.9277062537
 20
7.4283430865
 30
0.0
 10
10.9293564769
 20
7.4271105009
 30
0.0
  0
SPLINE
  5
28F
100
AcDbEntity
  8
0
100
AcDbSpline
 62
7
  6
CONTINUOUS
 70
0
 71
3
 72
15
 73
11
 74
0
 42
0.0000001
 43
0.0000001
 44
0.0000000001
 40
0.0
 40
0.0
 40
0.0
 40
0.0
 40
0.1060780848
 40
0.2256906691
 40
0.3585200191
 40
0.4999999909
 40
0.6414799704
 40
0.7743093275
 40
0.8939219127
 40
1.0
 40
1.0
 40
1.0
 40
1.0
 10
10.9293564769
 20
7.4271105009
 30
0.0
 10
10.931540677
 20
7.4297071847
 30
0.0
 10
10.9356384471
 20
7.4357101388
 30
0.0
 10
10.9403210244
 20
7.4462397635
 30
0.0
 10
10.9434201159
 20
7.458515988
 30
0.0
 10
10.9445098847
 20
7.4718318598
 30
0.0
 10
10.9434201161
 20
7.4851477318
 30
0.0
 10
10.9403210246
 20
7.4974239568
 30
0.0
 10
10.9356384472
 20
7.5079535819
 30
0.0
 10
10.9315406771
 20
7.513956536
 30
0.0
 10
10.9293564769
 20
7.51655322
 30
0.0
  0
SPLINE
  5
290
100
AcDbEntity
  8
0
100
AcDbSpline
 62
7
  6
CONTINUOUS
 70
0
 71
3
 72
23
 73
19
 74
0
 42
0.0000001
 43
0.0000001
 44
0.0000000001
 40
0.0
 40
0.0
 40
0.0
 40
0.0
 40
0.0577505933
 40
0.1168162523
 40
0.1772933064
 40
0.2392826249
 40
0.3027770107
 40
0.367631519
 40
0.4335311567
 40
0.4999999909
 40
0.5664688273
 40
0.6323684713
 40
0.6972229854
 40
0.7607173716
 40
0.8227066885
 40
0.883183745
 40
0.9422494061
 40
1.0
 40
1.0
 40
1.0
 40
1.0
 10
10.976149827
 20
7.51655322
 30
0.0
 10
10.9745946888
 20
7.5153170586
 30
0.0
 10
10.9715654894
 20
7.5126655853
 30
0.0
 10
10.9673888486
 20
7.5082075978
 30
0.0
 10
10.9636088619
 20
7.5032219379
 30
0.0
 10
10.9603165104
 20
7.4977218059
 30
0.0
 10
10.9576074293
 20
7.491744818
 30
0.0
 10
10.9555809237
 20
7.4853605797
 30
0.0
 10
10.9543244129
 20
7.4786761703
 30
0.0
 10
10.9538982684
 20
7.4718318613
 30
0.0
 10
10.9543244128
 20
7.464987552
 30
0.0
 10
10.9555809234
 20
7.4583031421
 30
0.0
 10
10.9576074291
 20
7.4519189034
 30
0.0
 10
10.9603165101
 20
7.4459419153
 30
0.0
 10
10.9636088617
 20
7.4404417832
 30
0.0
 10
10.9673888484
 20
7.4354561233
 30
0.0
 10
10.9715654894
 20
7.4309981355
 30
0.0
 10
10.9745946888
 20
7.4283466622
 30
0.0
 10
10.976149827
 20
7.4271105009
 30
0.0
  0
SPLINE
  5
291
100
AcDbEntity
  8
0
100
AcDbSpline
 62
7
  6
CONTINUOUS
 70
0
 71
3
 72
15
 73
11
 74
0
 42
0.0000001
 43
0.0000001
 44
0.0000000001
 40
0.0
 40
0.0
 40
0.0
 40
0.0
 40
0.1090168318
 40
0.2293561591
 40
0.3609525577
 40
0.4999999911
 40
0.639047432
 40
0.7706438375
 40
0.8909831657
 40
1.0
 40
1.0
 40
1.0
 40
1.0
 10
10.976149827
 20
7.4271105009
 30
0.0
 10
10.9786065734
 20
7.4296755472
 30
0.0
 10
10.9832392447
 20
7.4356079738
 30
0.0
 10
10.9886016017
 20
7.4461508376
 30
0.0
 10
10.99215574
 20
7.4584636261
 30
0.0
 10
10.9934066341
 20
7.4718318598
 30
0.0
 10
10.9921557402
 20
7.4852000937
 30
0.0
 10
10.9886016019
 20
7.4975128828
 30
0.0
 10
10.9832392447
 20
7.5080557469
 30
0.0
 10
10.9786065734
 20
7.5139881736
 30
0.0
 10
10.976149827
 20
7.51655322
 30
0.0
  0
SPLINE
  5
292
100
AcDbEntity
  8
0
100
AcDbSpline
 62
7
  6
CONTINUOUS
 70
0
 71
3
 72
23
 73
19
 74
0
 42
0.0000001
 43
0.0000001
 44
0.0000000001
 40
0.0
 40
0.0
 40
0.0
 40
0.0
 40
0.0563669023
 40
0.1144460573
 40
0.1743650447
 40
0.2362361492
 40
0.3000357118
 40
0.3655672277
 40
0.4324235965
 40
0.4999999907
 40
0.5675763872
 40
0.6344327625
 40
0.6999642842
 40
0.7637638473
 40
0.8256349501
 40
0.8855539401
 40
0.943633097
 40
1.0
 40
1.0
 40
1.0
 40
1.0
 10
11.0235162159
 20
7.51655322
 30
0.0
 10
11.0220683035
 20
7.5153126305
 30
0.0
 10
11.0192482045
 20
7.5126500145
 30
0.0
 10
11.015374367
 20
7.5081896707
 30
0.0
 10
11.0118694854
 20
7.5032025438
 30
0.0
 10
11.0088178715
 20
7.4977024477
 30
0.0
 10
11.0063078291
 20
7.4917273952
 30
0.0
 10
11.0044309268
 20
7.4853472828
 30
0.0
 10
11.003267527
 20
7.4786689476
 30
0.0
 10
11.002873027
 20
7.4718318613
 30
0.0
 10
11.0032675269
 20
7.4649947747
 30
0.0
 10
11.0044309265
 20
7.458316439
 30
0.0
 10
11.0063078289
 20
7.4519363262
 30
0.0
 10
11.0088178713
 20
7.4459612735
 30
0.0
 10
11.0118694852
 20
7.4404611774
 30
0.0
 10
11.0153743669
 20
7.4354740504
 30
0.0
 10
11.0192482044
 20
7.4310137064
 30
0.0
 10
11.0220683035
 20
7.4283510903
 30
0.0
 10
11.0235162159
 20
7.4271105009
 30
0.0
  0
SPLINE
  5
293
100
AcDbEntity
  8
0
100
AcDbSpline
 62
7
  6
CONTINUOUS
 70
0
 71
3
 72
21
 73
17
 74
0
 42
0.0000001
 43
0.0000001
 44
0.0000000001
 40
0.0
 40
0.0
 40
0.0
 40
0.0
 40
0.0548518581
 40
0.1118705052
 40
0.1712108262
 40
0.2329898736
 40
0.2971588967
 40
0.36346021
 40
0.4999999912
 40
0.6365397798
 40
0.7028410992
 40
0.767010123
 40
0.8287891687
 40
0.8881294922
 40
0.9451481412
 40
1.0
 40
1.0
 40
1.0
 40
1.0
 10
11.0235162159
 20
7.4271105009
 30
0.0
 10
11.0248453292
 20
7.428356511
 30
0.0
 10
11.0274332923
 20
7.4310322615
 30
0.0
 10
11.0309722888
 20
7.4354947105
 30
0.0
 10
11.0341731811
 20
7.4404828396
 30
0.0
 10
11.0369590899
 20
7.4459821265
 30
0.0
 10
11.0392498598
 20
7.4519550795
 30
0.0
 10
11.0415541161
 20
7.4605329826
 30
0.0
 10
11.0427395219
 20
7.4718318598
 30
0.0
 10
11.0415541163
 20
7.4831307371
 30
0.0
 10
11.03924986
 20
7.4917086407
 30
0.0
 10
11.0369590901
 20
7.4976815939
 30
0.0
 10
11.0341731813
 20
7.5031808809
 30
0.0
 10
11.030972289
 20
7.50816901
 30
0.0
 10
11.0274332924
 20
7.5126314592
 30
0.0
 10
11.0248453292
 20
7.5153072098
 30
0.0
 10
11.0235162159
 20
7.51655322
 30
0.0
  0
SPLINE
  5
294
100
AcDbEntity
  8
0
100
AcDbSpline
 62
7
  6
CONTINUOUS
 70
0
 71
3
 72
21
 73
17
 74
0
 42
0.0000001
 43
0.0000001
 44
0.0000000001
 40
0.0
 40
0.0
 40
0.0
 40
0.0
 40
0.0548534192
 40
0.1118731603
 40
0.1712140849
 40
0.232993245
 40
0.2971619192
 40
0.3634624858
 40
0.4999999905
 40
0.6365375043
 40
0.7028380768
 40
0.7670067515
 40
0.8287859099
 40
0.8881268371
 40
0.9451465802
 40
1.0
 40
1.0
 40
1.0
 40
1.0
 10
11.0710742562
 20
7.51655322
 30
0.0
 10
11.0697450221
 20
7.5153072156
 30
0.0
 10
11.0671568229
 20
7.5126314788
 30
0.0
 10
11.0636174866
 20
7.5081690316
 30
0.0
 10
11.060416286
 20
7.5031809032
 30
0.0
 10
11.0576301078
 20
7.4976816153
 30
0.0
 10
11.0553391159
 20
7.4917086593
 30
0.0
 10
11.0530346395
 20
7.4831307663
 30
0.0
 10
11.0518491117
 20
7.4718318611
 30
0.0
 10
11.0530346393
 20
7.4605329556
 30
0.0
 10
11.0553391157
 20
7.4519550621
 30
0.0
 10
11.0576301076
 20
7.4459821059
 30
0.0
 10
11.0604162858
 20
7.440482818
 30
0.0
 10
11.0636174865
 20
7.4354946894
 30
0.0
 10
11.0671568228
 20
7.4310322421
 30
0.0
 10
11.0697450221
 20
7.4283565052
 30
0.0
 10
11.0710742562
 20
7.4271105009
 30
0.0
  0
SPLINE
  5
295
100
AcDbEntity
  8
0
100
AcDbSpline
 62
7
  6
CONTINUOUS
 70
0
 71
3
 72
23
 73
19
 74
0
 42
0.0000001
 43
0.0000001
 44
0.0000000001
 40
0.0
 40
0.0
 40
0.0
 40
0.0
 40
0.0563654803
 40
0.1144436271
 40
0.1743620491
 40
0.2362330391
 40
0.300032918
 40
0.3655651263
 40
0.4324224705
 40
0.4999999914
 40
0.567577514
 40
0.6344348636
 40
0.6999670779
 40
0.7637669575
 40
0.8256379458
 40
0.8855563703
 40
0.943634519
 40
1.0
 40
1.0
 40
1.0
 40
1.0
 10
11.0710742562
 20
7.4271105009
 30
0.0
 10
11.0725220586
 20
7.4283510951
 30
0.0
 10
11.0753419431
 20
7.4310137229
 30
0.0
 10
11.0792154703
 20
7.4354740689
 30
0.0
 10
11.0827200702
 20
7.440461197
 30
0.0
 10
11.0857714377
 20
7.4459612928
 30
0.0
 10
11.0882812765
 20
7.451936343
 30
0.0
 10
11.090158026
 20
7.4583164512
 30
0.0
 10
11.0913213306
 20
7.4649947803
 30
0.0
 10
11.0917157984
 20
7.4718318596
 30
0.0
 10
11.0913213307
 20
7.478668939
 30
0.0
 10
11.0901580262
 20
7.4853472687
 30
0.0
 10
11.0882812767
 20
7.4917273772
 30
0.0
 10
11.0857714379
 20
7.4977024277
 30
0.0
 10
11.0827200704
 20
7.5032025234
 30
0.0
 10
11.0792154705
 20
7.5081896517
 30
0.0
 10
11.0753419432
 20
7.5126499978
 30
0.0
 10
11.0725220587
 20
7.5153126257
 30
0.0
 10
11.0710742562
 20
7.51655322
 30
0.0
  0
SPLINE
  5
296
100
AcDbEntity
  8
0
100
AcDbSpline
 62
7
  6
CONTINUOUS
 70
0
 71
3
 72
15
 73
11
 74
0
 42
0.0000001
 43
0.0000001
 44
0.0000000001
 40
0.0
 40
0.0
 40
0.0
 40
0.0
 40
0.1090196474
 40
0.2293596908
 40
0.3609549107
 40
0.4999999903
 40
0.6390450793
 40
0.7706403058
 40
0.89098035
 40
1.0
 40
1.0
 40
1.0
 40
1.0
 10
11.1184410171
 20
7.51655322
 30
0.0
 10
11.1159840163
 20
7.513988202
 30
0.0
 10
11.1113508468
 20
7.5080558427
 30
0.0
 10
11.1059878476
 20
7.4975129698
 30
0.0
 10
11.1024332773
 20
7.485200147
 30
0.0
 10
11.1011822297
 20
7.4718318611
 30
0.0
 10
11.1024332771
 20
7.4584635749
 30
0.0
 10
11.1059878474
 20
7.4461507515
 30
0.0
 10
11.1113508467
 20
7.4356078782
 30
0.0
 10
11.1159840163
 20
7.4296755188
 30
0.0
 10
11.1184410171
 20
7.4271105009
 30
0.0
  0
SPLINE
  5
297
100
AcDbEntity
  8
0
100
AcDbSpline
 62
7
  6
CONTINUOUS
 70
0
 71
3
 72
23
 73
19
 74
0
 42
0.0000001
 43
0.0000001
 44
0.0000000001
 40
0.0
 40
0.0
 40
0.0
 40
0.0
 40
0.0577493273
 40
0.1168140789
 40
0.1772906152
 40
0.2392798194
 40
0.3027744815
 40
0.3676296113
 40
0.4335301327
 40
0.4999999916
 40
0.5664698521
 40
0.6323703787
 40
0.6972255144
 40
0.7607201771
 40
0.8227093796
 40
0.8831859185
 40
0.942250672
 40
1.0
 40
1.0
 40
1.0
 40
1.0
 10
11.1184410171
 20
7.4271105009
 30
0.0
 10
11.1199960569
 20
7.428346666
 30
0.0
 10
11.1230250644
 20
7.4309981493
 30
0.0
 10
11.1272014271
 20
7.4354561392
 30
0.0
 10
11.1309811609
 20
7.4404418006
 30
0.0
 10
11.1342732911
 20
7.4459419329
 30
0.0
 10
11.1369821889
 20
7.4519189191
 30
0.0
 10
11.1390085568
 20
7.4583031537
 30
0.0
 10
11.1402649817
 20
7.4649875573
 30
0.0
 10
11.1406910971
 20
7.4718318596
 30
0.0
 10
11.1402649818
 20
7.478676162
 30
0.0
 10
11.1390085571
 20
7.4853605661
 30
0.0
 10
11.1369821891
 20
7.4917448011
 30
0.0
 10
11.1342732913
 20
7.4977217876
 30
0.0
 10
11.1309811611
 20
7.5032219199
 30
0.0
 10
11.1272014273
 20
7.5082075814
 30
0.0
 10
11.1230250645
 20
7.5126655715
 30
0.0
 10
11.1199960569
 20
7.5153170547
 30
0.0
 10
11.1184410171
 20
7.51655322
 30
0.0
  0
SPLINE
  5
298
100
AcDbEntity
  8
0
100
AcDbSpline
 62
7
  6
CONTINUOUS
 70
0
 71
3
 72
15
 73
11
 74
0
 42
0.0000001
 43
0.0000001
 44
0.0000000001
 40
0.0
 40
0.0
 40
0.0
 40
0.0
 40
0.1060809661
 40
0.2256942426
 40
0.3585223827
 40
0.4999999902
 40
0.6414776071
 40
0.774305754
 40
0.8939190314
 40
1.0
 40
1.0
 40
1.0
 40
1.0
 10
11.1652351083
 20
7.51655322
 30
0.0
 10
11.1630506326
 20
7.5139565691
 30
0.0
 10
11.1589523211
 20
7.5079536844
 30
0.0
 10
11.1542690657
 20
7.497424043
 30
0.0
 10
11.1511695222
 20
7.4851477821
 30
0.0
 10
11.1500795938
 20
7.4718318611
 30
0.0
 10
11.1511695221
 20
7.4585159398
 30
0.0
 10
11.1542690654
 20
7.4462396783
 30
0.0
 10
11.158952321
 20
7.4357100366
 30
0.0
 10
11.1630506325
 20
7.4297071517
 30
0.0
 10
11.1652351083
 20
7.4271105009
 30
0.0
  0
SPLINE
  5
299
100
AcDbEntity
  8
0
100
AcDbSpline
 62
7
  6
CONTINUOUS
 70
0
 71
3
 72
23
 73
19
 74
0
 42
0.0000001
 43
0.0000001
 44
0.0000000001
 40
0.0
 40
0.0
 40
0.0
 40
0.0
 40
0.0589659077
 40
0.118906731
 40
0.1798866581
 40
0.2419911351
 40
0.3052224689
 40
0.3694779317
 40
0.4345235052
 40
0.4999999917
 40
0.5654764798
 40
0.6305220585
 40
0.694777527
 40
0.7580088615
 40
0.8201133368
 40
0.8810932663
 40
0.9410340916
 40
1.0
 40
1.0
 40
1.0
 40
1.0
 10
11.1652351083
 20
7.4271105009
 30
0.0
 10
11.1668852451
 20
7.4283430896
 30
0.0
 10
11.1700993757
 20
7.4309852952
 30
0.0
 10
11.1745445168
 20
7.435440921
 30
0.0
 10
11.1785685587
 20
7.4404248605
 30
0.0
 10
11.1820746932
 20
7.4459245559
 30
0.0
 10
11.1849607873
 20
7.4519028949
 30
0.0
 10
11.1871205778
 20
7.4582906857
 30
0.0
 10
11.1884601785
 20
7.4649807
 30
0.0
 10
11.1889145895
 20
7.4718318596
 30
0.0
 10
11.1884601786
 20
7.4786830194
 30
0.0
 10
11.1871205781
 20
7.4853730342
 30
0.0
 10
11.1849607875
 20
7.4917608253
 30
0.0
 10
11.1820746935
 20
7.4977391646
 30
0.0
 10
11.1785685589
 20
7.50323886
 30
0.0
 10
11.174544517
 20
7.5082227996
 30
0.0
 10
11.1700993758
 20
7.5126784255
 30
0.0
 10
11.1668852452
 20
7.5153206312
 30
0.0
 10
11.1652351083
 20
7.51655322
 30
0.0
  0
SPLINE
  5
29A
100
AcDbEntity
  8
0
100
AcDbSpline
 62
7
  6
CONTINUOUS
 70
0
 71
3
 72
21
 73
17
 74
0
 42
0.0000001
 43
0.0000001
 44
0.0000000001
 40
0.0
 40
0.0
 40
0.0
 40
0.0
 40
0.1030760343
 40
0.1605324384
 40
0.2220290436
 40
0.2873848852
 40
0.3561148155
 40
0.4273765527
 40
0.5000000022
 40
0.5726234515
 40
0.6438851876
 40
0.7126151156
 40
0.7779709562
 40
0.8394675616
 40
0.8969239657
 40
1.0
 40
1.0
 40
1.0
 40
1.0
 10
11.2110797503
 20
7.51655322
 30
0.0
 10
11.2091896828
 20
7.5139203417
 30
0.0
 10
11.2066417773
 20
7.509524863
 30
0.0
 10
11.203880338
 20
7.5031088249
 30
0.0
 10
11.2020134153
 20
7.4976154818
 30
0.0
 10
11.2004796272
 20
7.4916544372
 30
0.0
 10
11.1993335588
 20
7.4852942895
 30
0.0
 10
11.198623626
 20
7.4786410585
 30
0.0
 10
11.1983829625
 20
7.4718318602
 30
0.0
 10
11.198623626
 20
7.4650226619
 30
0.0
 10
11.1993335588
 20
7.458369431
 30
0.0
 10
11.2004796273
 20
7.4520092835
 30
0.0
 10
11.2020134154
 20
7.446048239
 30
0.0
 10
11.203880338
 20
7.4405548959
 30
0.0
 10
11.2066417773
 20
7.4341388578
 30
0.0
 10
11.2091896828
 20
7.4297433791
 30
0.0
 10
11.2110797503
 20
7.4271105009
 30
0.0
  0
SPLINE
  5
29B
100
AcDbEntity
  8
0
100
AcDbSpline
 62
7
  6
CONTINUOUS
 70
0
 71
3
 72
23
 73
19
 74
0
 42
0.0000001
 43
0.0000001
 44
0.0000000001
 40
0.0
 40
0.0
 40
0.0
 40
0.0
 40
0.0600060254
 40
0.1207020941
 40
0.182121734
 40
0.2443333217
 40
0.30734353
 40
0.3710832467
 40
0.4353876202
 40
0.5000000044
 40
0.5646123876
 40
0.628916758
 40
0.6926564704
 40
0.7556666763
 40
0.8178782633
 40
0.8792979045
 40
0.9399939743
 40
1.0
 40
1.0
 40
1.0
 40
1.0
 10
11.2110797503
 20
7.4271105009
 30
0.0
 10
11.2128121888
 20
7.4283402447
 30
0.0
 10
11.2161863017
 20
7.43097489
 30
0.0
 10
11.2208641081
 20
7.4354283136
 30
0.0
 10
11.2250996917
 20
7.4404104815
 30
0.0
 10
11.2287912753
 20
7.445909449
 30
0.0
 10
11.2318311226
 20
7.4518886571
 30
0.0
 10
11.2341068839
 20
7.4582794098
 30
0.0
 10
11.2355189021
 20
7.4649744264
 30
0.0
 10
11.2359979746
 20
7.4718318608
 30
0.0
 10
11.2355189021
 20
7.4786892952
 30
0.0
 10
11.2341068838
 20
7.4853843115
 30
0.0
 10
11.2318311226
 20
7.4917750638
 30
0.0
 10
11.2287912754
 20
7.4977542717
 30
0.0
 10
11.2250996918
 20
7.5032532392
 30
0.0
 10
11.2208641083
 20
7.508235407
 30
0.0
 10
11.2161863018
 20
7.5126888308
 30
0.0
 10
11.2128121888
 20
7.5153234761
 30
0.0
 10
11.2110797503
 20
7.51655322
 30
0.0
  0
SPLINE
  5
29C
100
AcDbEntity
  8
0
100
AcDbSpline
 62
7
  6
CONTINUOUS
 70
0
 71
3
 72
23
 73
19
 74
0
 42
0.0000001
 43
0.0000001
 44
0.0000000001
 40
0.0
 40
0.0
 40
0.0
 40
0.0
 40
0.0479812093
 40
0.10033409
 40
0.1572122673
 40
0.218645193
 40
0.2843938511
 40
0.3538929388
 40
0.4261945387
 40
0.4999999898
 40
0.5738054435
 40
0.6461070507
 40
0.7156061447
 40
0.7813548036
 40
0.8427877277
 40
0.8996659076
 40
0.9520187902
 40
1.0
 40
1.0
 40
1.0
 40
1.0
 10
11.2556058084
 20
7.51655322
 30
0.0
 10
11.2548528423
 20
7.5152741782
 30
0.0
 10
11.2533950787
 20
7.5125296084
 30
0.0
 10
11.2514511296
 20
7.5080673585
 30
0.0
 10
11.2496942468
 20
7.5030844617
 30
0.0
 10
11.2481661499
 20
7.497595574
 30
0.0
 10
11.2469103272
 20
7.4916385637
 30
0.0
 10
11.2459720575
 20
7.4852833707
 30
0.0
 10
11.2453908193
 20
7.4786354661
 30
0.0
 10
11.2451937882
 20
7.4718318613
 30
0.0
 10
11.2453908192
 20
7.4650282562
 30
0.0
 10
11.2459720573
 20
7.4583803511
 30
0.0
 10
11.2469103271
 20
7.4520251577
 30
0.0
 10
11.2481661498
 20
7.4460681472
 30
0.0
 10
11.2496942467
 20
7.4405792595
 30
0.0
 10
11.2514511295
 20
7.4355963625
 30
0.0
 10
11.2533950787
 20
7.4311341125
 30
0.0
 10
11.2548528423
 20
7.4283895426
 30
0.0
 10
11.2556058084
 20
7.4271105009
 30
0.0
  0
SPLINE
  5
29D
100
AcDbEntity
  8
0
100
AcDbSpline
 62
7
  6
CONTINUOUS
 70
0
 71
3
 72
23
 73
19
 74
0
 42
0.0000001
 43
0.0000001
 44
0.0000000001
 40
0.0
 40
0.0
 40
0.0
 40
0.0
 40
0.0608654164
 40
0.1221897199
 40
0.1839790982
 40
0.246285224
 40
0.3091156991
 40
0.3724272846
 40
0.4361120631
 40
0.4999999919
 40
0.5638879223
 40
0.6275727058
 40
0.6908842969
 40
0.7537147726
 40
0.8160208966
 40
0.8778102773
 40
0.9391345829
 40
1.0
 40
1.0
 40
1.0
 40
1.0
 10
11.2556058084
 20
7.4271105009
 30
0.0
 10
11.2574071583
 20
7.4283380304
 30
0.0
 10
11.2609150709
 20
7.4309666785
 30
0.0
 10
11.2657876683
 20
7.4354181764
 30
0.0
 10
11.2702003829
 20
7.4403986854
 30
0.0
 10
11.2740473404
 20
7.4458968029
 30
0.0
 10
11.2772161484
 20
7.4518765115
 30
0.0
 10
11.279589333
 20
7.4582696386
 30
0.0
 10
11.2810622858
 20
7.4649689319
 30
0.0
 10
11.2815621309
 20
7.4718318596
 30
0.0
 10
11.2810622859
 20
7.4786947875
 30
0.0
 10
11.2795893333
 20
7.4853940812
 30
0.0
 10
11.2772161486
 20
7.4917872088
 30
0.0
 10
11.2740473407
 20
7.4977669176
 30
0.0
 10
11.2702003831
 20
7.5032650351
 30
0.0
 10
11.2657876685
 20
7.5082455441
 30
0.0
 10
11.260915071
 20
7.5126970423
 30
0.0
 10
11.2574071584
 20
7.5153256904
 30
0.0
 10
11.2556058084
 20
7.51655322
 30
0.0
  0
SPLINE
  5
29E
100
AcDbEntity
  8
0
100
AcDbSpline
 62
7
  6
CONTINUOUS
 70
0
 71
3
 72
23
 73
19
 74
0
 42
0.0000001
 43
0.0000001
 44
0.0000000001
 40
0.0
 40
0.0
 40
0.0
 40
0.0
 40
0.0464461202
 40
0.0978034097
 40
0.1541904786
 40
0.2155917747
 40
0.281710379
 40
0.3519070628
 40
0.4251403726
 40
0.4999999897
 40
0.5748596092
 40
0.6480929266
 40
0.7182896168
 40
0.7844082219
 40
0.8458095163
 40
0.9021965879
 40
0.9535538793
 40
1.0
 40
1.0
 40
1.0
 40
1.0
 10
11.2984547653
 20
7.51655322
 30
0.0
 10
11.2978684625
 20
7.5152640185
 30
0.0
 10
11.2967367131
 20
7.5125018205
 30
0.0
 10
11.2952377691
 20
7.5080426221
 30
0.0
 10
11.2938828718
 20
7.5030632107
 30
0.0
 10
11.2927042442
 20
7.4975781119
 30
0.0
 10
11.2917355203
 20
7.4916251206
 30
0.0
 10
11.2910117101
 20
7.4852742217
 30
0.0
 10
11.290563309
 20
7.4786308319
 30
0.0
 10
11.2904113052
 20
7.4718318613
 30
0.0
 10
11.290563309
 20
7.4650328904
 30
0.0
 10
11.29101171
 20
7.4583895001
 30
0.0
 10
11.2917355202
 20
7.4520386008
 30
0.0
 10
11.2927042441
 20
7.4460856093
 30
0.0
 10
11.2938828717
 20
7.4406005105
 30
0.0
 10
11.295237769
 20
7.435621099
 30
0.0
 10
11.2967367131
 20
7.4311619004
 30
0.0
 10
11.2978684625
 20
7.4283997023
 30
0.0
 10
11.2984547653
 20
7.4271105009
 30
0.0
  0
SPLINE
  5
29F
100
AcDbEntity
  8
0
100
AcDbSpline
 62
7
  6
CONTINUOUS
 70
0
 71
3
 72
21
 73
17
 74
0
 42
0.0000001
 43
0.0000001
 44
0.0000000001
 40
0.0
 40
0.0
 40
0.0
 40
0.0
 40
0.1232563435
 40
0.18535911
 40
0.2477616219
 40
0.3104704917
 40
0.373461582
 40
0.4366716231
 40
0.499999992
 40
0.5633283625
 40
0.6265384085
 40
0.6895295043
 40
0.7522383747
 40
0.8146408849
 40
0.8767436538
 40
1.0
 40
1.0
 40
1.0
 40
1.0
 10
11.2984547653
 20
7.4271105009
 30
0.0
 10
11.3021715575
 20
7.4295649252
 30
0.0
 10
11.3074556254
 20
7.4337713396
 30
0.0
 10
11.3135073366
 20
7.4403890665
 30
0.0
 10
11.3174790188
 20
7.4458868384
 30
0.0
 10
11.3207506988
 20
7.451866663
 30
0.0
 10
11.3232018898
 20
7.458261641
 30
0.0
 10
11.3247236596
 20
7.464964389
 30
0.0
 10
11.3252401715
 20
7.4718318596
 30
0.0
 10
11.3247236597
 20
7.4786993303
 30
0.0
 10
11.3232018902
 20
7.4854020789
 30
0.0
 10
11.3207506991
 20
7.4917970572
 30
0.0
 10
11.3174790191
 20
7.497776882
 30
0.0
 10
11.3135073368
 20
7.5032746539
 30
0.0
 10
11.3074556256
 20
7.509892381
 30
0.0
 10
11.3021715576
 20
7.5140987955
 30
0.0
 10
11.2984547653
 20
7.51655322
 30
0.0
  0
SPLINE
  5
2A0
100
AcDbEntity
  8
0
100
AcDbSpline
 62
7
  6
CONTINUOUS
 70
0
 71
3
 72
21
 73
17
 74
0
 42
0.0000001
 43
0.0000001
 44
0.0000000001
 40
0.0
 40
0.0
 40
0.0
 40
0.0
 40
0.0451896357
 40
0.0957464556
 40
0.1517486747
 40
0.2131368063
 40
0.2795629865
 40
0.3503267194
 40
0.4999999895
 40
0.6496732699
 40
0.7204370093
 40
0.7868631903
 40
0.8482513203
 40
0.904253542
 40
0.9548103638
 40
1.0
 40
1.0
 40
1.0
 40
1.0
 10
11.339281607
 20
7.51655322
 30
0.0
 10
11.3388696953
 20
7.5152546424
 30
0.0
 10
11.3380770832
 20
7.5124775108
 30
0.0
 10
11.3370334719
 20
7.5080218786
 30
0.0
 10
11.3360899074
 20
7.5030459838
 30
0.0
 10
11.3352689406
 20
7.4975643125
 30
0.0
 10
11.3345940041
 20
7.491614664
 30
0.0
 10
11.3339093502
 20
7.4829923017
 30
0.0
 10
11.333569624
 20
7.471831861
 30
0.0
 10
11.3339093501
 20
7.4606714202
 30
0.0
 10
11.334594004
 20
7.4520490573
 30
0.0
 10
11.3352689406
 20
7.4460994087
 30
0.0
 10
11.3360899074
 20
7.4406177374
 30
0.0
 10
11.3370334718
 20
7.4356418424
 30
0.0
 10
11.3380770832
 20
7.4311862101
 30
0.0
 10
11.3388696953
 20
7.4284090784
 30
0.0
 10
11.339281607
 20
7.4271105009
 30
0.0
  0
SPLINE
  5
2A1
100
AcDbEntity
  8
0
100
AcDbSpline
 62
7
  6
CONTINUOUS
 70
0
 71
3
 72
21
 73
17
 74
0
 42
0.0000001
 43
0.0000001
 44
0.0000000001
 40
0.0
 40
0.0
 40
0.0
 40
0.0
 40
0.1241182655
 40
0.1864395077
 40
0.2489015412
 40
0.3115092803
 40
0.3742518195
 40
0.4370984314
 40
0.4999999921
 40
0.5629015543
 40
0.6257481711
 40
0.6884907157
 40
0.7510984554
 40
0.8135604871
 40
0.8758817318
 40
1.0
 40
1.0
 40
1.0
 40
1.0
 10
11.339281607
 20
7.4271105009
 30
0.0
 10
11.3430758594
 20
7.4295599953
 30
0.0
 10
11.3484753816
 20
7.4337585072
 30
0.0
 10
11.3546732031
 20
7.4403823483
 30
0.0
 10
11.3587366181
 20
7.4458794172
 30
0.0
 10
11.3620845724
 20
7.4518593378
 30
0.0
 10
11.3645935196
 20
7.4582556073
 30
0.0
 10
11.3661515113
 20
7.4649609422
 30
0.0
 10
11.3666803931
 20
7.4718318596
 30
0.0
 10
11.3661515114
 20
7.4787027771
 30
0.0
 10
11.36459352
 20
7.4854081126
 30
0.0
 10
11.3620845726
 20
7.4918043824
 30
0.0
 10
11.3587366184
 20
7.4977843032
 30
0.0
 10
11.3546732034
 20
7.5032813721
 30
0.0
 10
11.3484753818
 20
7.5099052134
 30
0.0
 10
11.3430758595
 20
7.5141037255
 30
0.0
 10
11.339281607
 20
7.51655322
 30
0.0
  0
SPLINE
  5
2A2
100
AcDbEntity
  8
0
100
AcDbSpline
 62
7
  6
CONTINUOUS
 70
0
 71
3
 72
19
 73
15
 74
0
 42
0.0000001
 43
0.0000001
 44
0.0000000001
 40
0.0
 40
0.0
 40
0.0
 40
0.0
 40
0.0443203357
 40
0.0943299518
 40
0.1500725183
 40
0.2114545243
 40
0.3492335252
 40
0.4999999895
 40
0.6507664641
 40
0.7885454723
 40
0.8499274767
 40
0.9056700458
 40
0.9556796638
 40
1.0
 40
1.0
 40
1.0
 40
1.0
 10
11.3777576016
 20
7.51655322
 30
0.0
 10
11.3775264029
 20
7.5152475328
 30
0.0
 10
11.3770826998
 20
7.5124598888
 30
0.0
 10
11.3765009512
 20
7.5080073266
 30
0.0
 10
11.3759747787
 20
7.5030342084
 30
0.0
 10
11.3753399645
 20
7.4954338313
 30
0.0
 10
11.3747927671
 20
7.484976032
 30
0.0
 10
11.3745688809
 20
7.471831861
 30
0.0
 10
11.374792767
 20
7.4586876899
 30
0.0
 10
11.3753399644
 20
7.4482298901
 30
0.0
 10
11.3759747786
 20
7.4406295127
 30
0.0
 10
11.3765009512
 20
7.4356563944
 30
0.0
 10
11.3770826998
 20
7.4312038321
 30
0.0
 10
11.3775264029
 20
7.428416188
 30
0.0
 10
11.3777576016
 20
7.4271105009
 30
0.0
  0
SPLINE
  5
2A3
100
AcDbEntity
  8
0
100
AcDbSpline
 62
7
  6
CONTINUOUS
 70
0
 71
3
 72
21
 73
17
 74
0
 42
0.0000001
 43
0.0000001
 44
0.0000000001
 40
0.0
 40
0.0
 40
0.0
 40
0.0
 40
0.1246663435
 40
0.1871273164
 40
0.2496281122
 40
0.3121721374
 40
0.3747565479
 40
0.4373712072
 40
0.4999999921
 40
0.5626287785
 40
0.6252434427
 40
0.6878278587
 40
0.7503718844
 40
0.8128726784
 40
0.8753336538
 40
1.0
 40
1.0
 40
1.0
 40
1.0
 10
11.3777576016
 20
7.4271105009
 30
0.0
 10
11.3816014252
 20
7.4295569379
 30
0.0
 10
11.3870747518
 20
7.433750461
 30
0.0
 10
11.3933661723
 20
7.4403780978
 30
0.0
 10
11.3974883064
 20
7.4458746817
 30
0.0
 10
11.400885107
 20
7.4518546237
 30
0.0
 10
11.4034310697
 20
7.4582516958
 30
0.0
 10
11.4050122963
 20
7.4649586965
 30
0.0
 10
11.4055491176
 20
7.4718318596
 30
0.0
 10
11.4050122964
 20
7.4787050228
 30
0.0
 10
11.40343107
 20
7.485412024
 30
0.0
 10
11.4008851073
 20
7.4918090966
 30
0.0
 10
11.3974883067
 20
7.4977890387
 30
0.0
 10
11.3933661725
 20
7.5032856226
 30
0.0
 10
11.387074752
 20
7.5099132596
 30
0.0
 10
11.3816014253
 20
7.5141067829
 30
0.0
 10
11.3777576016
 20
7.51655322
 30
0.0
  0
SPLINE
  5
2A4
100
AcDbEntity
  8
0
100
AcDbSpline
 62
7
  6
CONTINUOUS
 70
0
 71
3
 72
15
 73
11
 74
0
 42
0.0000001
 43
0.0000001
 44
0.0000000001
 40
0.0
 40
0.0
 40
0.0
 40
0.0
 40
0.0936936432
 40
0.2107002437
 40
0.3487496116
 40
0.4999999894
 40
0.6512503776
 40
0.7892997529
 40
0.9063063544
 40
1.0
 40
1.0
 40
1.0
 40
1.0
 10
11.4135729459
 20
7.51655322
 30
0.0
 10
11.4134737919
 20
7.5137611847
 30
0.0
 10
11.4132973339
 20
7.5074807478
 30
0.0
 10
11.4131054246
 20
7.4970832539
 30
0.0
 10
11.4129782514
 20
7.4849683923
 30
0.0
 10
11.4129334449
 20
7.471831861
 30
0.0
 10
11.4129782514
 20
7.4586953295
 30
0.0
 10
11.4131054246
 20
7.4465804674
 30
0.0
 10
11.4132973339
 20
7.4361829732
 30
0.0
 10
11.4134737919
 20
7.4299025362
 30
0.0
 10
11.4135729459
 20
7.4271105009
 30
0.0
  0
SPLINE
  5
2A5
100
AcDbEntity
  8
0
100
AcDbSpline
 62
7
  6
CONTINUOUS
 70
0
 71
3
 72
21
 73
17
 74
0
 42
0.0000001
 43
0.0000001
 44
0.0000000001
 40
0.0
 40
0.0
 40
0.0
 40
0.0
 40
0.1249011305
 40
0.1874221528
 40
0.2499397714
 40
0.3124566453
 40
0.3749732986
 40
0.4374883895
 40
0.4999999921
 40
0.5625115962
 40
0.625026692
 40
0.6875433507
 40
0.7500602251
 40
0.812577842
 40
0.8750988668
 40
1.0
 40
1.0
 40
1.0
 40
1.0
 10
11.4135729459
 20
7.4271105009
 30
0.0
 10
11.4174380847
 20
7.4295556461
 30
0.0
 10
11.422943127
 20
7.433747041
 30
0.0
 10
11.4292748148
 20
7.4403762822
 30
0.0
 10
11.4334222001
 20
7.4458726493
 30
0.0
 10
11.4368400114
 20
7.4518525908
 30
0.0
 10
11.4394019027
 20
7.4582500022
 30
0.0
 10
11.4409931329
 20
7.4649577214
 30
0.0
 10
11.4415333737
 20
7.4718318596
 30
0.0
 10
11.440993133
 20
7.478705998
 30
0.0
 10
11.439401903
 20
7.4854137177
 30
0.0
 10
11.4368400116
 20
7.4918111294
 30
0.0
 10
11.4334222004
 20
7.4977910712
 30
0.0
 10
11.429274815
 20
7.5032874382
 30
0.0
 10
11.4229431272
 20
7.5099166797
 30
0.0
 10
11.4174380848
 20
7.5141080747
 30
0.0
 10
11.4135729459
 20
7.51655322
 30
0.0
  0
SPLINE
  5
2A6
100
AcDbEntity
  8
0
100
AcDbSpline
 62
7
  6
CONTINUOUS
 70
0
 71
3
 72
21
 73
17
 74
0
 42
0.0000001
 43
0.0000001
 44
0.0000000001
 40
0.0
 40
0.0
 40
0.0
 40
0.0
 40
0.1248229805
 40
0.1873240024
 40
0.2498360069
 40
0.3123619087
 40
0.3749011165
 40
0.4374493628
 40
0.4999999921
 40
0.5625506229
 40
0.6250988741
 40
0.6876380873
 40
0.7501639896
 40
0.8126759924
 40
0.8751770168
 40
1.0
 40
1.0
 40
1.0
 40
1.0
 10
11.4464392597
 20
7.4271105009
 30
0.0
 10
11.4502972982
 20
7.4295560749
 30
0.0
 10
11.455791777
 20
7.4337481775
 30
0.0
 10
11.46211005
 20
7.4403768862
 30
0.0
 10
11.4662490237
 20
7.445873326
 30
0.0
 10
11.4696598357
 20
7.4518532684
 30
0.0
 10
11.4722164202
 20
7.4582505671
 30
0.0
 10
11.4738043173
 20
7.4649580469
 30
0.0
 10
11.4743434187
 20
7.4718318596
 30
0.0
 10
11.4738043174
 20
7.4787056725
 30
0.0
 10
11.4722164206
 20
7.4854131527
 30
0.0
 10
11.469659836
 20
7.4918104519
 30
0.0
 10
11.4662490241
 20
7.4977903944
 30
0.0
 10
11.4621100503
 20
7.5032868343
 30
0.0
 10
11.4557917772
 20
7.5099155431
 30
0.0
 10
11.4502972983
 20
7.5141076459
 30
0.0
 10
11.4464392597
 20
7.51655322
 30
0.0
  0
SPLINE
  5
2A7
100
AcDbEntity
  8
0
100
AcDbSpline
 62
7
  6
CONTINUOUS
 70
0
 71
3
 72
21
 73
17
 74
0
 42
0.0000001
 43
0.0000001
 44
0.0000000001
 40
0.0
 40
0.0
 40
0.0
 40
0.0
 40
0.1244317677
 40
0.1868328596
 40
0.2493169765
 40
0.3118882141
 40
0.3745403143
 40
0.4372543368
 40
0.5000000042
 40
0.5627456708
 40
0.6254596904
 40
0.6881117863
 40
0.7506830215
 40
0.8131671376
 40
0.8755682309
 40
1.0
 40
1.0
 40
1.0
 40
1.0
 10
11.4760919082
 20
7.4271105009
 30
0.0
 10
11.4799144841
 20
7.4295582392
 30
0.0
 10
11.4853561837
 20
7.433753894
 30
0.0
 10
11.4916074764
 20
7.4403799149
 30
0.0
 10
11.4957044407
 20
7.4458767099
 30
0.0
 10
11.4990803014
 20
7.4518566466
 30
0.0
 10
11.5016103934
 20
7.4582533774
 30
0.0
 10
11.5031816555
 20
7.4649596638
 30
0.0
 10
11.5037150715
 20
7.4718318608
 30
0.0
 10
11.5031816555
 20
7.4787040578
 30
0.0
 10
11.5016103932
 20
7.4854103439
 30
0.0
 10
11.4990803013
 20
7.4918070743
 30
0.0
 10
11.4957044408
 20
7.4977870108
 30
0.0
 10
11.4916074765
 20
7.5032838057
 30
0.0
 10
11.4853561838
 20
7.5099098267
 30
0.0
 10
11.4799144841
 20
7.5141054816
 30
0.0
 10
11.4760919082
 20
7.51655322
 30
0.0
  0
SPLINE
  5
2A8
100
AcDbEntity
  8
0
100
AcDbSpline
 62
7
  6
CONTINUOUS
 70
0
 71
3
 72
21
 73
17
 74
0
 42
0.0000001
 43
0.0000001
 44
0.0000000001
 40
0.0
 40
0.0
 40
0.0
 40
0.0
 40
0.1237269806
 40
0.1859488492
 40
0.2483836443
 40
0.3110371532
 40
0.3738925465
 40
0.4369043472
 40
0.499999992
 40
0.5630956384
 40
0.626107444
 40
0.6889628428
 40
0.7516163523
 40
0.8140511457
 40
0.8762730166
 40
1.0
 40
1.0
 40
1.0
 40
1.0
 10
11.5022921323
 20
7.4271105009
 30
0.0
 10
11.5060511477
 20
7.4295622146
 30
0.0
 10
11.5113981682
 20
7.4337643055
 30
0.0
 10
11.5175294998
 20
7.4403853931
 30
0.0
 10
11.521551181
 20
7.4458827902
 30
0.0
 10
11.5248644292
 20
7.4518626766
 30
0.0
 10
11.5273470897
 20
7.458258364
 30
0.0
 10
11.5288885909
 20
7.4649625196
 30
0.0
 10
11.52941184
 20
7.4718318596
 30
0.0
 10
11.528888591
 20
7.4787011997
 30
0.0
 10
11.5273470901
 20
7.4854053558
 30
0.0
 10
11.5248644295
 20
7.4918010437
 30
0.0
 10
11.5215511814
 20
7.4977809302
 30
0.0
 10
11.5175295
 20
7.5032783274
 30
0.0
 10
11.5113981684
 20
7.5098994151
 30
0.0
 10
11.5060511477
 20
7.5141015062
 30
0.0
 10
11.5022921323
 20
7.51655322
 30
0.0
  0
SPLINE
  5
2A9
100
AcDbEntity
  8
0
100
AcDbSpline
 62
7
  6
CONTINUOUS
 70
0
 71
3
 72
23
 73
19
 74
0
 42
0.0000001
 43
0.0000001
 44
0.0000000001
 40
0.0
 40
0.0
 40
0.0
 40
0.0
 40
0.0612271914
 40
0.1228170786
 40
0.1847638311
 40
0.2471114028
 40
0.3098670565
 40
0.3729979039
 40
0.4364199099
 40
0.499999992
 40
0.5635800756
 40
0.6270020865
 40
0.6901329395
 40
0.7528885937
 40
0.8152361637
 40
0.8771829187
 40
0.9387728078
 40
1.0
 40
1.0
 40
1.0
 40
1.0
 10
11.5248289715
 20
7.4271105009
 30
0.0
 10
11.5266596181
 20
7.4283371329
 30
0.0
 10
11.5302243738
 20
7.4309633222
 30
0.0
 10
11.5351797692
 20
7.4354139843
 30
0.0
 10
11.539667779
 20
7.4403937447
 30
0.0
 10
11.5435808051
 20
7.4458914367
 30
0.0
 10
11.5468044889
 20
7.4518712937
 30
0.0
 10
11.5492191736
 20
7.4582653973
 30
0.0
 10
11.5507181128
 20
7.4649665305
 30
0.0
 10
11.5512268233
 20
7.4718318596
 30
0.0
 10
11.5507181129
 20
7.4786971889
 30
0.0
 10
11.5492191739
 20
7.4853983225
 30
0.0
 10
11.5468044891
 20
7.4917924265
 30
0.0
 10
11.5435808054
 20
7.4977722837
 30
0.0
 10
11.5396677792
 20
7.5032699758
 30
0.0
 10
11.5351797695
 20
7.5082497363
 30
0.0
 10
11.5302243739
 20
7.5127003986
 30
0.0
 10
11.5266596181
 20
7.5153265879
 30
0.0
 10
11.5248289715
 20
7.51655322
 30
0.0
  0
SPLINE
  5
2AA
100
AcDbEntity
  8
0
100
AcDbSpline
 62
7
  6
CONTINUOUS
 70
0
 71
3
 72
23
 73
19
 74
0
 42
0.0000001
 43
0.0000001
 44
0.0000000001
 40
0.0
 40
0.0
 40
0.0
 40
0.0
 40
0.060458861
 40
0.121485494
 40
0.1830992374
 40
0.2453599554
 40
0.3082751127
 40
0.3717894509
 40
0.4357681506
 40
0.4999999919
 40
0.5642318347
 40
0.6282105394
 40
0.6917248833
 40
0.7546400412
 40
0.8169007575
 40
0.8785145033
 40
0.9395411383
 40
1.0
 40
1.0
 40
1.0
 40
1.0
 10
11.5435209625
 20
7.4271105009
 30
0.0
 10
11.5452895982
 20
7.4283390632
 30
0.0
 10
11.5487340091
 20
7.4309705207
 30
0.0
 10
11.5535141387
 20
7.4354229407
 30
0.0
 10
11.5578427668
 20
7.4404042557
 30
0.0
 10
11.5616159565
 20
7.4459028035
 30
0.0
 10
11.5647235212
 20
7.4518823008
 30
0.0
 10
11.5670504215
 20
7.4582743136
 30
0.0
 10
11.5684944135
 20
7.464971567
 30
0.0
 10
11.5689843832
 20
7.4718318596
 30
0.0
 10
11.5684944136
 20
7.4786921523
 30
0.0
 10
11.5670504218
 20
7.4853894062
 30
0.0
 10
11.5647235214
 20
7.4917814195
 30
0.0
 10
11.5616159568
 20
7.4977609169
 30
0.0
 10
11.557842767
 20
7.5032594648
 30
0.0
 10
11.5535141389
 20
7.5082407799
 30
0.0
 10
11.5487340092
 20
7.5126932
 30
0.0
 10
11.5452895982
 20
7.5153246576
 30
0.0
 10
11.5435209625
 20
7.51655322
 30
0.0
  0
SPLINE
  5
2AB
100
AcDbEntity
  8
0
100
AcDbSpline
 62
7
  6
CONTINUOUS
 70
0
 71
3
 72
23
 73
19
 74
0
 42
0.0000001
 43
0.0000001
 44
0.0000000001
 40
0.0
 40
0.0
 40
0.0
 40
0.0
 40
0.0595088864
 40
0.1198432684
 40
0.1810516737
 40
0.2432110751
 40
0.3063264957
 40
0.3703130581
 40
0.4349728786
 40
0.4999999918
 40
0.5650271065
 40
0.6296869321
 40
0.6936735002
 40
0.7567889215
 40
0.8189483212
 40
0.8801567289
 40
0.9404911129
 40
1.0
 40
1.0
 40
1.0
 40
1.0
 10
11.5582175998
 20
7.4271105009
 30
0.0
 10
11.5599105658
 20
7.4283415811
 30
0.0
 10
11.5632079758
 20
7.4309797981
 30
0.0
 10
11.5677741938
 20
7.4354342932
 30
0.0
 10
11.5719083148
 20
7.4404173411
 30
0.0
 10
11.5755109349
 20
7.4459166975
 30
0.0
 10
11.5784770005
 20
7.4518955249
 30
0.0
 10
11.5806970866
 20
7.4582848723
 30
0.0
 10
11.5820743238
 20
7.4649774739
 30
0.0
 10
11.5825415483
 20
7.4718318596
 30
0.0
 10
11.5820743238
 20
7.4786862454
 30
0.0
 10
11.5806970869
 20
7.4853788475
 30
0.0
 10
11.5784770007
 20
7.4917681954
 30
0.0
 10
11.5755109352
 20
7.4977470229
 30
0.0
 10
11.571908315
 20
7.5032463794
 30
0.0
 10
11.567774194
 20
7.5082294274
 30
0.0
 10
11.5632079759
 20
7.5126839227
 30
0.0
 10
11.5599105659
 20
7.5153221397
 30
0.0
 10
11.5582175998
 20
7.51655322
 30
0.0
  0
SPLINE
  5
2AC
100
AcDbEntity
  8
0
100
AcDbSpline
 62
7
  6
CONTINUOUS
 70
0
 71
3
 72
23
 73
19
 74
0
 42
0.0000001
 43
0.0000001
 44
0.0000000001
 40
0.0
 40
0.0
 40
0.0
 40
0.0
 40
0.0583798348
 40
0.1178976225
 40
0.1786335693
 40
0.2406811773
 40
0.3040387567
 40
0.3685836001
 40
0.4340426474
 40
0.4999999916
 40
0.5659573375
 40
0.6314163901
 40
0.6959612392
 40
0.7593188193
 40
0.8213664255
 40
0.8821023748
 40
0.9416201645
 40
1.0
 40
1.0
 40
1.0
 40
1.0
 10
11.5688005484
 20
7.4271105009
 30
0.0
 10
11.5704047425
 20
7.4283447775
 30
0.0
 10
11.5735294748
 20
7.430991393
 30
0.0
 10
11.57784475
 20
7.4354481886
 30
0.0
 10
11.5817507382
 20
7.4404330063
 30
0.0
 10
11.5851534382
 20
7.4459329675
 30
0.0
 10
11.5879538572
 20
7.4519106981
 30
0.0
 10
11.5900491079
 20
7.4582967862
 30
0.0
 10
11.591348457
 20
7.4649840656
 30
0.0
 10
11.5917891711
 20
7.4718318596
 30
0.0
 10
11.5913484571
 20
7.4786796537
 30
0.0
 10
11.5900491082
 20
7.4853669336
 30
0.0
 10
11.5879538575
 20
7.4917530222
 30
0.0
 10
11.5851534385
 20
7.497730753
 30
0.0
 10
11.5817507383
 20
7.5032307142
 30
0.0
 10
11.5778447502
 20
7.508215532
 30
0.0
 10
11.5735294748
 20
7.5126723278
 30
0.0
 10
11.5704047426
 20
7.5153189433
 30
0.0
 10
11.5688005484
 20
7.51655322
 30
0.0
  0
SPLINE
  5
2AD
100
AcDbEntity
  8
0
100
AcDbSpline
 62
7
  6
CONTINUOUS
 70
0
 71
3
 72
23
 73
19
 74
0
 42
0.0000001
 43
0.0000001
 44
0.0000000001
 40
0.0
 40
0.0
 40
0.0
 40
0.0
 40
0.0570781513
 40
0.1156630498
 40
0.1758669592
 40
0.2377971281
 40
0.3014390983
 40
0.3666233083
 40
0.4329899741
 40
0.4999999915
 40
0.5670100105
 40
0.6333766817
 40
0.6985608976
 40
0.7622028685
 40
0.8241330357
 40
0.8843369475
 40
0.942921848
 40
1.0
 40
1.0
 40
1.0
 40
1.0
 10
11.5751845957
 20
7.4271105009
 30
0.0
 10
11.5766875439
 20
7.4283487636
 30
0.0
 10
11.5796150174
 20
7.431005572
 30
0.0
 10
11.5836442265
 20
7.435464753
 30
0.0
 10
11.5872902473
 20
7.4404511933
 30
0.0
 10
11.5904653347
 20
7.445951378
 30
0.0
 10
11.5930774252
 20
7.4519274752
 30
0.0
 10
11.5950309968
 20
7.4583097167
 30
0.0
 10
11.596242096
 20
7.4649911338
 30
0.0
 10
11.5966528034
 20
7.4718318596
 30
0.0
 10
11.5962420961
 20
7.4786725855
 30
0.0
 10
11.5950309971
 20
7.4853540032
 30
0.0
 10
11.5930774254
 20
7.4917362451
 30
0.0
 10
11.5904653349
 20
7.4977123424
 30
0.0
 10
11.5872902474
 20
7.5032125271
 30
0.0
 10
11.5836442267
 20
7.5081989676
 30
0.0
 10
11.5796150175
 20
7.5126581488
 30
0.0
 10
11.5766875439
 20
7.5153149572
 30
0.0
 10
11.5751845957
 20
7.51655322
 30
0.0
  0
SPLINE
  5
2AE
100
AcDbEntity
  8
0
100
AcDbSpline
 62
7
  6
CONTINUOUS
 70
0
 71
3
 72
21
 73
17
 74
0
 42
0.0000001
 43
0.0000001
 44
0.0000000001
 40
0.0
 40
0.0
 40
0.0
 40
0.0
 40
0.1231281327
 40
0.2462247671
 40
0.3077865989
 40
0.3693714388
 40
0.4926823737
 40
0.5544778994
 40
0.616429215
 40
0.678617748
 40
0.7411624007
 40
0.804246236
 40
0.8360746431
 40
0.8681468739
 40
0.9332153926
 40
1.0
 40
1.0
 40
1.0
 40
1.0
 10
10.4288705676
 20
8.5521329612
 30
0.0
 10
10.4343028387
 20
8.5523621228
 30
0.0
 10
10.4451740571
 20
8.5526388573
 30
0.0
 10
10.4587670177
 20
8.5526091741
 30
0.0
 10
10.4696379814
 20
8.5523501304
 30
0.0
 10
10.4805130142
 20
8.5519253475
 30
0.0
 10
10.4913864474
 20
8.5512072177
 30
0.0
 10
10.5022414281
 20
8.5501060347
 30
0.0
 10
10.5103838477
 20
8.5490395502
 30
0.0
 10
10.5185177499
 20
8.5476875955
 30
0.0
 10
10.526640955
 20
8.5460021685
 30
0.0
 10
10.5333746388
 20
8.5442547116
 30
0.0
 10
10.5387368211
 20
8.5426119672
 30
0.0
 10
10.5441289773
 20
8.5407770557
 30
0.0
 10
10.5508583423
 20
8.5380914568
 30
0.0
 10
10.5560755762
 20
8.535486067
 30
0.0
 10
10.558649804
 20
8.5340471695
 30
0.0
  0
SPLINE
  5
2AF
100
AcDbEntity
  8
0
100
AcDbSpline
 62
7
  6
CONTINUOUS
 70
0
 71
3
 72
31
 73
27
 74
0
 42
0.0000001
 43
0.0000001
 44
0.0000000001
 40
0.0
 40
0.0
 40
0.0
 40
0.0
 40
0.0312494671
 40
0.0624990724
 40
0.0937482857
 40
0.1249971575
 40
0.1562459963
 40
0.1874944228
 40
0.2499896565
 40
0.3124849724
 40
0.3749801761
 40
0.4374753306
 40
0.468723106
 40
0.499970931
 40
0.5624662579
 40
0.6249618748
 40
0.6874585026
 40
0.7499589941
 40
0.7812086538
 40
0.8124584172
 40
0.8437095187
 40
0.8749613013
 40
0.9062185515
 40
0.937487297
 40
0.9687508456
 40
1.0
 40
1.0
 40
1.0
 40
1.0
 10
10.8448201862
 20
8.5368802311
 30
0.0
 10
10.8490582734
 20
8.537894304
 30
0.0
 10
10.8575754702
 20
8.5397537952
 30
0.0
 10
10.8704358739
 20
8.542113054
 30
0.0
 10
10.8833574085
 20
8.5441076756
 30
0.0
 10
10.8963226527
 20
8.5457906458
 30
0.0
 10
10.9093195672
 20
8.5472050629
 30
0.0
 10
10.926678733
 20
8.5487843359
 30
0.0
 10
10.9484188684
 20
8.5502623804
 30
0.0
 10
10.9745383632
 20
8.5514457195
 30
0.0
 10
11.0006738124
 20
8.5521801684
 30
0.0
 10
11.0224593648
 20
8.5524998156
 30
0.0
 10
11.0398890243
 20
8.5526027658
 30
0.0
 10
11.0573190149
 20
8.5526104806
 30
0.0
 10
11.0791062138
 20
8.5524357053
 30
0.0
 10
11.1052468267
 20
8.551913582
 30
0.0
 10
11.1313775412
 20
8.5509951979
 30
0.0
 10
11.1531363386
 20
8.5498185039
 30
0.0
 10
11.1705207813
 20
8.5485356866
 30
0.0
 10
11.1835434997
 20
8.5473787687
 30
0.0
 10
11.1965451298
 20
8.5460003047
 30
0.0
 10
11.2095171956
 20
8.5443558582
 30
0.0
 10
11.2224490989
 20
8.5424024165
 30
0.0
 10
11.2353257753
 20
8.5401001576
 30
0.0
 10
11.2481188605
 20
8.5373736316
 30
0.0
 10
11.2565693493
 20
8.535220111
 30
0.0
 10
11.2607661999
 20
8.5340471695
 30
0.0
  0
SPLINE
  5
2B0
100
AcDbEntity
  8
0
100
AcDbSpline
 62
7
  6
CONTINUOUS
 70
0
 71
3
 72
16
 73
12
 74
0
 42
0.0000001
 43
0.0000001
 44
0.0000000001
 40
0.0
 40
0.0
 40
0.0
 40
0.0
 40
0.1218018397
 40
0.2439139425
 40
0.3664970369
 40
0.4897856191
 40
0.6141388727
 40
0.6768802903
 40
0.7401021222
 40
0.8683650316
 40
1.0
 40
1.0
 40
1.0
 40
1.0
 10
11.6852026068
 20
8.5508712005
 30
0.0
 10
11.6879066492
 20
8.5506261651
 30
0.0
 10
11.6933161829
 20
8.5500717001
 30
0.0
 10
11.7014169633
 20
8.549002483
 30
0.0
 10
11.7095091985
 20
8.5476485607
 30
0.0
 10
11.7175906237
 20
8.5459629764
 30
0.0
 10
11.7242896216
 20
8.5442179442
 30
0.0
 10
11.7296240945
 20
8.5425786923
 30
0.0
 10
11.7349882665
 20
8.5407484868
 30
0.0
 10
11.741682685
 20
8.5380723531
 30
0.0
 10
11.7468733947
 20
8.5354788628
 30
0.0
 10
11.7494347343
 20
8.5340471695
 30
0.0
  0
ENDSEC
  0
SECTION
  2
OBJECTS
  0
DICTIONARY
  5
C
100
AcDbDictionary
280
0
281
1
  3
ACAD_GROUP
350
D
  3
ACAD_MLINESTYLE
350
17
  3
ACAD_LAYOUT
350
1A
  3
ACAD_PLOTSETTINGS
350
19
  3
ACAD_PLOTSTYLENAME
350
E
  0
DICTIONARY
  5
D
102
{ACAD_REACTORS
330
C
102
}
100
AcDbDictionary
280
0
281
1
  0
ACDBDICTIONARYWDFLT
  5
E
102
{ACAD_REACTORS
330
C
102
}
100
AcDbDictionary
281
1
  3
Normal
350
F
100
AcDbDictionaryWithDefault
340
F
  0
DICTIONARY
  5
17
102
{ACAD_REACTORS
330
C
102
}
100
AcDbDictionary
280
0
281
1
  3
Standard
350
18
  0
DICTIONARY
  5
19
102
{ACAD_REACTORS
330
C
102
}
100
AcDbDictionary
281
1
  0
DICTIONARY
  5
1A
102
{ACAD_REACTORS
330
C
102
}
100
AcDbDictionary
281
1
  3
Model
350
2B1
  3
Layout1
350
2B2
  0
ACDBPLACEHOLDER
  5
F
102
{ACAD_REACTORS
330
E
102
}
  0
MLINESTYLE
  5
18
102
{ACAD_REACTORS
330
17
102
}
100
AcDbMlineStyle
  2
STANDARD
 70
0
  3

 62
256
 51
90.0
 52
90.0
 71
2
 49
0.5
 62
256
  6
BYLAYER
 49
-0.5
 62
256
  6
BYLAYER
  0
LAYOUT
  5
2B1
102
{ACAD_REACTORS
330
1A
102
}
100
AcDbPlotSettings
  1

  2
none_device
  4
ANSI_C_(22.00_x_17.00_Inches)
  6

 40
0.0
 41
0.0
 42
0.0
 43
0.0
 44
558.8
 45
431.8
 46
0.0
 47
0.0
 48
0.0
 49
0.0
140
0.0
141
0.0
142
1.0
143
1.0
 70
1024
 72
0
 73
0
 74
0
  7

 75
0
147
1.0
148
0.0
149
0.0
100
AcDbLayout
  1
Model
 70
0
 71
0
 10
0.0
 20
0.0
 11
22.0
 21
17.0
 12
0.0
 22
0.0
 32
0.0
 14
0.0
 24
0.0
 34
0.0
 15
0.0
 25
0.0
 35
0.0
146
0.0
 13
0.0
 23
0.0
 33
0.0
 16
1.0
 26
0.0
 36
0.0
 17
0.0
 27
1.0
 37
0.0
 76
0
330
205
345
0
346
0
  0
LAYOUT
  5
2B2
102
{ACAD_REACTORS
330
1A
102
}
100
AcDbPlotSettings
  1

  2
none_device
  4
ANSI_C_(22.00_x_17.00_Inches)
  6

 40
0.0
 41
0.0
 42
0.0
 43
0.0
 44
558.8
 45
431.8
 46
0.0
 47
0.0
 48
0.0
 49
0.0
140
0.0
141
0.0
142
1.0
143
1.0
 70
0
 72
0
 73
0
 74
0
  7

 75
0
147
1.0
148
0.0
149
0.0
100
AcDbLayout
  1
Layout1
 70
0
 71
1
 10
0.0
 20
0.0
 11
22.0
 21
17.0
 12
0.0
 22
0.0
 32
0.0
 14
0.0
 24
0.0
 34
0.0
 15
0.0
 25
0.0
 35
0.0
146
0.0
 13
0.0
 23
0.0
 33
0.0
 16
1.0
 26
0.0
 36
0.0
 17
0.0
 27
1.0
 37
0.0
 76
0
330
206
345
0
346
0
  0
ENDSEC
  0
EOF
