  0
SECTION
  2
HEADER
  9
$ACADVER
  1
AC1015
  9
$DWGCODEPAGE
  3
ANSI_1252
  9
$EXTMAX
 10
16.5354330709
 20
11.6929133858
 30
0.0
  9
$EXTMIN
 10
0.0
 20
0.0
 30
0.0
  9
$LIMMIN
 10
0.0
 20
0.0
  9
$LIMMAX
 10
16.5354330709
 20
11.6929133858
  9
$VIEWCTR
 10
8.2677165354
 20
5.8464566929
  9
$VIEWSIZE
 40
11.6929133858
  9
$CLAYER
  8
0
  9
$LTSCALE
 40
0.9094488189
  9
$CELTYPE
  6
BYLAYER
  9
$DIMSCALE
 40
1.0
  9
$DIMASZ
 40
0.1875
  9
$DIMEXO
 40
0.1033464567
  9
$DIMDLI
 40
0.6283464567
  9
$DIMEXE
 40
0.2976377953
  9
$DIMCEN
 40
0.1488188976
  9
$DIMLFAC
 40
1.0
  9
$DIMBLK
  1
_CLOSED
  9
$DIMTXT
 40
0.15625
  9
$DIMTOL
 70
0
  9
$DIMLIM
 70
0
  9
$DIMTFAC
 40
1.0
  9
$PDMODE
 70
3
  9
$PDSIZE
 40
0.3125
  9
$HANDSEED
  5
2FB
  9
$TILEMODE
 70
1
  9
$MEASUREMENT
 70
0
  9
$INSUNITS
 70
1
  0
ENDSEC
  0
SECTION
  2
CLASSES
  0
CLASS
  1
ACDBDICTIONARYWDFLT
  2
AcDbDictionaryWithDefault
  3
AutoCAD 2000
 90
0
280
0
281
0
  0
CLASS
  1
ACDBPLACEHOLDER
  2
AcDbPlaceHolder
  3
AutoCAD 2000
 90
0
280
0
281
0
  0
CLASS
  1
LAYOUT
  2
AcDbLayout
  3
AutoCAD 2000
 90
0
280
0
281
0
  0
ENDSEC
  0
SECTION
  2
TABLES
  0
TABLE
  2
VPORT
  5
8
100
AcDbSymbolTable
 70
2
  0
VPORT
  5
1F4
100
AcDbSymbolTableRecord
100
AcDbViewportTableRecord
  2
*ACTIVE
 70
0
 10
0.0
 20
0.0
 11
1.0
 21
1.0
 12
8.2677165354
 22
5.8464566929
 13
0.0
 23
0.0
 14
1.0
 24
1.0
 15
0.0
 25
0.0
 16
0.0
 26
0.0
 36
1.0
 17
0.0
 27
0.0
 37
0.0
 40
11.6929133858
 41
1.4141414141
 42
50.0
 43
0.0
 44
0.0
 50
0.0
 51
0.0
 71
0
 72
100
 73
1
 74
1
 75
0
 76
0
 77
0
 78
0
  0
ENDTAB
  0
TABLE
  2
LTYPE
  5
5
100
AcDbSymbolTable
 70
6
  0
LTYPE
  5
14
100
AcDbSymbolTableRecord
100
AcDbLinetypeTableRecord
  2
BYBLOCK
 70
0
  3

 72
65
 73
0
 40
0.0
  0
LTYPE
  5
15
100
AcDbSymbolTableRecord
100
AcDbLinetypeTableRecord
  2
BYLAYER
 70
0
  3

 72
65
 73
0
 40
0.0
  0
LTYPE
  5
16
100
AcDbSymbolTableRecord
100
AcDbLinetypeTableRecord
  2
CONTINUOUS
 70
64
  3
Solid line
 72
65
 73
0
 40
0.0
  0
LTYPE
  5
1F5
100
AcDbSymbolTableRecord
100
AcDbLinetypeTableRecord
  2
CENTER
 70
64
  3
____ _ ____ _ ____ _ ____ _ ____ _ ____ _ ____
 72
65
 73
4
 40
0.6
 49
0.375
 74
0
 49
-0.075
 74
0
 49
0.075
 74
0
 49
-0.075
 74
0
  0
LTYPE
  5
1F6
100
AcDbSymbolTableRecord
100
AcDbLinetypeTableRecord
  2
HIDDEN
 70
64
  3
- - - - - - - - - - - - - - - - - - - -
 72
65
 73
2
 40
0.2
 49
0.1
 74
0
 49
-0.1
 74
0
  0
LTYPE
  5
1F7
100
AcDbSymbolTableRecord
100
AcDbLinetypeTableRecord
  2
PHANTOM
 70
64
  3
_____ _ _ _____ _ _ _____ _ _ _____
 72
65
 73
6
 40
0.8
 49
0.45
 74
0
 49
-0.05
 74
0
 49
0.1
 74
0
 49
-0.05
 74
0
 49
0.1
 74
0
 49
-0.05
 74
0
  0
LTYPE
  5
1F8
100
AcDbSymbolTableRecord
100
AcDbLinetypeTableRecord
  2
DOT
 70
64
  3
. . . . . . . . . . . . . . . . . . . .
 72
65
 73
2
 40
0.2
 49
0.1
 74
0
 49
-0.1
 74
0
  0
LTYPE
  5
1F9
100
AcDbSymbolTableRecord
100
AcDbLinetypeTableRecord
  2
DASHED
 70
64
  3
- - - - - - - - - - - - - - - - - - - -
 72
65
 73
2
 40
0.2
 49
0.1
 74
0
 49
-0.1
 74
0
  0
ENDTAB
  0
TABLE
  2
LAYER
  5
2
100
AcDbSymbolTable
 70
36
  0
LAYER
  5
10
100
AcDbSymbolTableRecord
100
AcDbLayerTableRecord
  2
0
 70
0
 62
7
  6
CONTINUOUS
370
-3
390
F
  0
LAYER
  5
1FA
100
AcDbSymbolTableRecord
100
AcDbLayerTableRecord
  2
DEFAULT_1
 70
0
 62
7
  6
CENTER
370
-3
390
F
  0
LAYER
  5
1FB
100
AcDbSymbolTableRecord
100
AcDbLayerTableRecord
  2
DEFAULT_2
 70
0
 62
8
  6
HIDDEN
370
-3
390
F
  0
LAYER
  5
1FC
100
AcDbSymbolTableRecord
100
AcDbLayerTableRecord
  2
DEFAULT_3
 70
0
 62
7
  6
PHANTOM
370
-3
390
F
  0
LAYER
  5
1FD
100
AcDbSymbolTableRecord
100
AcDbLayerTableRecord
  2
DEFAULT_COORDINATE_SYSTEM
 70
0
 62
7
  6
CONTINUOUS
370
-3
390
F
  0
LAYER
  5
1FE
100
AcDbSymbolTableRecord
100
AcDbLayerTableRecord
  2
DEFAULT_DATUM_AXES
 70
0
 62
7
  6
CONTINUOUS
370
-3
390
F
  0
LAYER
  5
1FF
100
AcDbSymbolTableRecord
100
AcDbLayerTableRecord
  2
DEFAULT_DATUM_CURVES
 70
0
 62
7
  6
CONTINUOUS
370
-3
390
F
  0
LAYER
  5
200
100
AcDbSymbolTableRecord
100
AcDbLayerTableRecord
  2
DEFAULT_DATUM_PLANES
 70
0
 62
7
  6
CONTINUOUS
370
-3
390
F
  0
ENDTAB
  0
TABLE
  2
STYLE
  5
3
100
AcDbSymbolTable
 70
1
  0
STYLE
  5
11
100
AcDbSymbolTableRecord
100
AcDbTextStyleTableRecord
  2
STANDARD
 70
0
 40
0.0
 41
0.8
 50
0.0
 71
0
 42
0.2
  3
txt
  4

  0
STYLE
  5
201
100
AcDbSymbolTableRecord
100
AcDbTextStyleTableRecord
  2
TEXTSTYLE_1
 70
0
 40
0.0
 41
0.8
 50
0.0
 71
0
 42
0.2
  3
gdt
  4

  0
ENDTAB
  0
TABLE
  2
VIEW
  5
6
100
AcDbSymbolTable
 70
0
  0
ENDTAB
  0
TABLE
  2
UCS
  5
7
100
AcDbSymbolTable
 70
0
  0
ENDTAB
  0
TABLE
  2
APPID
  5
9
100
AcDbSymbolTable
 70
1
  0
APPID
  5
202
100
AcDbSymbolTableRecord
100
AcDbRegAppTableRecord
  2
ACAD
 70
0
  0
ENDTAB
  0
TABLE
  2
BLOCK_RECORD
  5
1
100
AcDbSymbolTable
 70
0
  0
BLOCK_RECORD
  5
203
100
AcDbSymbolTableRecord
100
AcDbBlockTableRecord
  2
*Model_Space
  0
BLOCK_RECORD
  5
204
100
AcDbSymbolTableRecord
100
AcDbBlockTableRecord
  2
*Paper_Space
  0
ENDTAB
  0
TABLE
  2
DIMSTYLE
  5
A
100
AcDbSymbolTable
 70
1
100
AcDbDimStyleTable
 71
0
  0
DIMSTYLE
105
205
100
AcDbSymbolTableRecord
100
AcDbDimStyleTableRecord
  2
STANDARD
 70
0
  3

  4

 40
1.0
 41
0.1875
 42
0.0625
 43
0.38
 44
0.18
 45
0.0
 46
0.0
 47
0.01
 48
0.01
140
0.15625
141
0.09
142
0.0
143
25.4
144
1.0
145
0.0
146
1.0
147
0.09
 71
0.0
 72
0.0
 73
1
 74
1
 75
0
 76
0
 77
0
 78
4
170
0
171
2
172
0
173
0
174
0
175
0
176
0
177
0
178
0
270
2
271
2
272
2
273
2
274
2
275
0
280
0
281
0
282
0
283
1
284
4
285
0
286
0
287
3
288
0
340
11
  0
ENDTAB
  0
ENDSEC
  0
SECTION
  2
BLOCKS
  0
BLOCK
  5
20
100
AcDbEntity
  8
0
100
AcDbBlockBegin
  2
*Model_Space
 70
0
 10
0.0
 20
0.0
 30
0.0
  3
*Model_Space
  1

  0
ENDBLK
  5
21
100
AcDbEntity
  8
0
100
AcDbBlockEnd
  0
BLOCK
  5
1C
100
AcDbEntity
  8
0
100
AcDbBlockBegin
  2
*Paper_Space
 70
0
 10
0.0
 20
0.0
 30
0.0
  3
*Paper_Space
  1

  0
ENDBLK
  5
1D
100
AcDbEntity
  8
0
100
AcDbBlockEnd
  0
ENDSEC
  0
SECTION
  2
ENTITIES
  0
LWPOLYLINE
  5
206
100
AcDbEntity
  8
0
100
AcDbPolyline
 62
6
  6
CONTINUOUS
 90
9
 70
0
 10
8.5207663186
 20
3.2826116022
 10
8.5273973991
 20
3.283239275
 10
8.5478796815
 20
3.2856761034
 10
8.5682022262
 20
3.2888462525
 10
8.5882978123
 20
3.292732452
 10
8.6081561909
 20
3.2973256068
 10
8.6277792817
 20
3.3026225289
 10
8.647168394
 20
3.3086241545
 10
8.6620485028
 20
3.3137671219
  0
LWPOLYLINE
  5
207
100
AcDbEntity
  8
0
100
AcDbPolyline
 62
6
  6
CONTINUOUS
 90
9
 70
0
 10
8.3783858154
 20
3.2880731967
 10
8.3848251071
 20
3.2870274091
 10
8.4048924936
 20
3.2842698245
 10
8.425081082
 20
3.2822485271
 10
8.4453827117
 20
3.2809626346
 10
8.4657860044
 20
3.2804141224
 10
8.4862792998
 20
3.2806073371
 10
8.5068383933
 20
3.2815482343
 10
8.5207663185
 20
3.2826116022
  0
LWPOLYLINE
  5
208
100
AcDbEntity
  8
0
100
AcDbPolyline
 62
6
  6
CONTINUOUS
 90
8
 70
0
 10
8.6246660464
 20
3.3309968759
 10
8.6456699809
 20
3.3360517368
 10
8.6646377382
 20
3.3414110699
 10
8.6834607384
 20
3.347491625
 10
8.7021142477
 20
3.35428699
 10
8.7205727046
 20
3.3617908525
 10
8.7388085793
 20
3.369996363
 10
8.7448806514
 20
3.3729095164
  0
LWPOLYLINE
  5
209
100
AcDbEntity
  8
0
100
AcDbPolyline
 62
6
  6
CONTINUOUS
 90
7
 70
0
 10
8.6177450961
 20
3.4133285412
 10
8.6340846131
 20
3.4160968096
 10
8.6512302694
 20
3.4196830934
 10
8.668358461
 20
3.4239695341
 10
8.6854604558
 20
3.4289630578
 10
8.7024788972
 20
3.4346567972
 10
8.716195256
 20
3.4397867859
  0
LWPOLYLINE
  5
20A
100
AcDbEntity
  8
0
100
AcDbPolyline
 62
6
  6
CONTINUOUS
 90
7
 70
0
 10
8.5173908708
 20
3.4099456969
 10
8.5310810207
 20
3.4090375837
 10
8.5481949341
 20
3.4085138755
 10
8.5653666571
 20
3.4086659558
 10
8.5825500956
 20
3.4094959545
 10
8.5997335064
 20
3.4110066815
 10
8.6177450942
 20
3.4133285409
  0
LWPOLYLINE
  5
20B
100
AcDbEntity
  8
0
100
AcDbPolyline
 62
6
  6
CONTINUOUS
 90
4
 70
0
 10
8.2532220839
 20
3.3223777234
 10
8.2583088475
 20
3.3206756628
 10
8.2778301096
 20
3.314639702
 10
8.2816328408
 20
3.3136143172
  0
LWPOLYLINE
  5
20C
100
AcDbEntity
  8
0
100
AcDbPolyline
 62
6
  6
CONTINUOUS
 90
9
 70
0
 10
8.4117289139
 20
3.4325869333
 10
8.4167325117
 20
3.4308324397
 10
8.4322540039
 20
3.4258592841
 10
8.4480859894
 20
3.421487394
 10
8.4642120147
 20
3.4177261332
 10
8.4806049435
 20
3.414588117
 10
8.4972369826
 20
3.4120857553
 10
8.5140775972
 20
3.4102314122
 10
8.5173908708
 20
3.4099456969
  0
LWPOLYLINE
  5
20D
100
AcDbEntity
  8
0
100
AcDbPolyline
 62
6
  6
CONTINUOUS
 90
7
 70
0
 10
8.2688176794
 20
3.3183647244
 10
8.286514591
 20
3.3118047185
 10
8.3058595284
 20
3.3053972531
 10
8.325396483
 20
3.2997082656
 10
8.3450777871
 20
3.2947490501
 10
8.3648863483
 20
3.2905218701
 10
8.3783858152
 20
3.2880731967
  0
LWPOLYLINE
  5
20E
100
AcDbEntity
  8
0
100
AcDbPolyline
 62
6
  6
CONTINUOUS
 90
9
 70
0
 10
8.3132221385
 20
3.3588879043
 10
8.323269051
 20
3.3547629829
 10
8.3410854787
 20
3.3480562928
 10
8.3591312996
 20
3.3420265814
 10
8.3773643869
 20
3.3366851406
 10
8.3957742717
 20
3.3320334205
 10
8.4143538748
 20
3.3280746982
 10
8.4330964182
 20
3.3248148022
 10
8.4384834718
 20
3.3240118987
  0
LWPOLYLINE
  5
20F
100
AcDbEntity
  8
0
100
AcDbPolyline
 62
6
  6
CONTINUOUS
 90
8
 70
0
 10
8.1370240251
 20
3.3774950561
 10
8.147334493
 20
3.3712014669
 10
8.1649709817
 20
3.3611347687
 10
8.1829676388
 20
3.3517196816
 10
8.2013131072
 20
3.342959016
 10
8.2199963506
 20
3.3348580061
 10
8.2390065343
 20
3.3274242593
 10
8.2532220839
 20
3.3223777234
  0
LWPOLYLINE
  5
210
100
AcDbEntity
  8
0
100
AcDbPolyline
 62
6
  6
CONTINUOUS
 90
7
 70
0
 10
8.1676850515
 20
3.3703245636
 10
8.1771976896
 20
3.364252602
 10
8.1944084363
 20
3.3539535062
 10
8.2120438929
 20
3.3442611194
 10
8.2301177805
 20
3.3351724448
 10
8.2485942745
 20
3.3267127695
 10
8.2688176794
 20
3.3183647243
  0
LWPOLYLINE
  5
211
100
AcDbEntity
  8
0
100
AcDbPolyline
 62
6
  6
CONTINUOUS
 90
7
 70
0
 10
8.3417552257
 20
3.4657352796
 10
8.3440691257
 20
3.4643539427
 10
8.3579081427
 20
3.4565362516
 10
8.3721180879
 20
3.4492581846
 10
8.3866645953
 20
3.4425415256
 10
8.4015345947
 20
3.4363973579
 10
8.4117289132
 20
3.4325869335
  0
LWPOLYLINE
  5
212
100
AcDbEntity
  8
0
100
AcDbPolyline
 62
6
  6
CONTINUOUS
 90
9
 70
0
 10
8.1988957643
 20
3.4266207489
 10
8.2094185531
 20
3.4184758664
 10
8.2242996496
 20
3.4077335825
 10
8.2396701454
 20
3.397511743
 10
8.255517194
 20
3.3878228284
 10
8.2718253016
 20
3.3786824894
 10
8.2885788382
 20
3.3701075774
 10
8.3057460253
 20
3.3621231804
 10
8.3132221385
 20
3.3588879043
  0
LWPOLYLINE
  5
213
100
AcDbEntity
  8
0
100
AcDbPolyline
 62
6
  6
CONTINUOUS
 90
8
 70
0
 10
8.0736571451
 20
3.4481118754
 10
8.0830203605
 20
3.4386438442
 10
8.0975650804
 20
3.4248076436
 10
8.1126050739
 20
3.4115167282
 10
8.1281009634
 20
3.3988049634
 10
8.1440347239
 20
3.3866862206
 10
8.1604022278
 20
3.3751657907
 10
8.1676850518
 20
3.3703245634
  0
LWPOLYLINE
  5
214
100
AcDbEntity
  8
0
100
AcDbPolyline
 62
6
  6
CONTINUOUS
 90
7
 70
0
 10
8.271159059
 20
3.5205793305
 10
8.2817562341
 20
3.5104625386
 10
8.2931844614
 20
3.5004226151
 10
8.3051611502
 20
3.4907546455
 10
8.3176566793
 20
3.4814967295
 10
8.330638469
 20
3.4726848579
 10
8.3417552258
 20
3.4657352796
  0
LWPOLYLINE
  5
215
100
AcDbEntity
  8
0
100
AcDbPolyline
 62
6
  6
CONTINUOUS
 90
8
 70
0
 10
8.1283969333
 20
3.4960595205
 10
8.1305598837
 20
3.4934460604
 10
8.1424159137
 20
3.4797708118
 10
8.1548165296
 20
3.4665332569
 10
8.1677325576
 20
3.4537667303
 10
8.1811382117
 20
3.4414982372
 10
8.195030698
 20
3.4297340645
 10
8.198895765
 20
3.4266207483
  0
LWPOLYLINE
  5
216
100
AcDbEntity
  8
0
100
AcDbPolyline
 62
6
  6
CONTINUOUS
 90
8
 70
0
 10
7.9966474993
 20
3.5494910407
 10
8.0079455304
 20
3.5310771498
 10
8.0189039184
 20
3.5146938656
 10
8.0305034969
 20
3.4986711235
 10
8.0427305244
 20
3.4830304652
 10
8.0555710986
 20
3.4677942505
 10
8.069010198
 20
3.4529865453
 10
8.0736571451
 20
3.4481118754
  0
LWPOLYLINE
  5
217
100
AcDbEntity
  8
0
100
AcDbPolyline
 62
6
  6
CONTINUOUS
 90
8
 70
0
 10
8.2660224819
 20
4.3716258469
 10
8.2498281668
 20
4.3671736998
 10
8.2316846156
 20
4.3614447713
 10
8.213794118
 20
4.3550489479
 10
8.1961659958
 20
4.3479912097
 10
8.1788079025
 20
4.3402730667
 10
8.1617287476
 20
4.3318937874
 10
8.1568985949
 20
4.3293769192
  0
LWPOLYLINE
  5
218
100
AcDbEntity
  8
0
100
AcDbPolyline
 62
6
  6
CONTINUOUS
 90
3
 70
0
 10
8.2660224819
 20
4.2633479129
 10
8.2528493798
 20
4.2601731779
 10
8.2423622917
 20
4.2572638059
  0
LINE
  5
219
100
AcDbEntity
  8
0
100
AcDbLine
 62
9
  6
CONTINUOUS
 10
8.2660224819
 20
4.3224406453
 11
8.6560224819
 21
4.3224406453
  0
LINE
  5
21A
100
AcDbEntity
  8
0
100
AcDbLine
 62
9
  6
CONTINUOUS
 10
8.2085224819
 20
4.5374406453
 11
8.7135224819
 21
4.5374406453
  0
LWPOLYLINE
  5
21B
100
AcDbEntity
  8
0
100
AcDbPolyline
 62
6
  6
CONTINUOUS
 90
7
 70
0
 10
8.0728108748
 20
3.5815151393
 10
8.0804928429
 20
3.5668307772
 10
8.0892019006
 20
3.5516325117
 10
8.0985714503
 20
3.5366672164
 10
8.1086053806
 20
3.5219453365
 10
8.1192794362
 20
3.5075192992
 10
8.1283969333
 20
3.4960595204
  0
LWPOLYLINE
  5
21C
100
AcDbEntity
  8
0
100
AcDbPolyline
 62
6
  6
CONTINUOUS
 90
9
 70
0
 10
7.9185235878
 20
3.633353682
 10
7.9211696567
 20
3.6272411112
 10
7.9298165916
 20
3.6085143245
 10
7.9391115942
 20
3.5901660659
 10
7.9490174671
 20
3.5722549295
 10
7.9595223934
 20
3.5547878519
 10
7.9706239342
 20
3.5377620225
 10
7.9823233846
 20
3.5211764852
 10
7.9918128438
 20
3.5086139251
  0
LINE
  5
21D
100
AcDbEntity
  8
0
100
AcDbLine
 62
9
  6
CONTINUOUS
 10
8.204655538
 20
4.6573159052
 11
8.7173894258
 21
4.6573159052
  0
LINE
  5
21E
100
AcDbEntity
  8
0
100
AcDbLine
 62
9
  6
CONTINUOUS
 10
8.2235224819
 20
4.6774406453
 11
8.6985224819
 21
4.6774406453
  0
LINE
  5
21F
100
AcDbEntity
  8
0
100
AcDbLine
 62
9
  6
CONTINUOUS
 10
8.2235224819
 20
4.7274406453
 11
8.6985224819
 21
4.7274406453
  0
LWPOLYLINE
  5
220
100
AcDbEntity
  8
0
100
AcDbPolyline
 62
6
  6
CONTINUOUS
 90
8
 70
0
 10
8.7593815156
 20
4.3847389111
 10
8.753647922
 20
4.3881287644
 10
8.7356450756
 20
4.3981965124
 10
8.7173404247
 20
4.4075770999
 10
8.6987985033
 20
4.4162449877
 10
8.6800329488
 20
4.4242015095
 10
8.6610440822
 20
4.4314503729
 10
8.6560224819
 20
4.4331599461
  0
LWPOLYLINE
  5
221
100
AcDbEntity
  8
0
100
AcDbPolyline
 62
6
  6
CONTINUOUS
 90
4
 70
0
 10
8.6872672073
 20
4.2797394261
 10
8.6767254189
 20
4.2885209733
 10
8.6631878
 20
4.299003968
 10
8.6560224819
 20
4.3041135393
  0
LWPOLYLINE
  5
222
100
AcDbEntity
  8
0
100
AcDbPolyline
 62
6
  6
CONTINUOUS
 90
7
 70
0
 10
8.0385824376
 20
3.6759123229
 10
8.0419492595
 20
3.6626115942
 10
8.0467396736
 20
3.6461734606
 10
8.0521906647
 20
3.6298891769
 10
8.0582900149
 20
3.6138032394
 10
8.0650367676
 20
3.597927685
 10
8.0728108739
 20
3.5815151411
  0
LINE
  5
223
100
AcDbEntity
  8
0
100
AcDbLine
 62
6
  6
CONTINUOUS
 10
7.7200224819
 20
7.0074406453
 11
7.7200224819
 21
7.0694406453
  0
LINE
  5
224
100
AcDbEntity
  8
0
100
AcDbLine
 62
6
  6
CONTINUOUS
 10
7.8045224819
 20
6.6562330273
 11
7.8045224819
 21
7.0074406453
  0
LWPOLYLINE
  5
225
100
AcDbEntity
  8
0
100
AcDbPolyline
 62
6
  6
CONTINUOUS
 90
4
 70
0
 10
7.8736677012
 20
3.900091777
 10
7.8736208418
 20
3.8947280117
 10
7.8739127037
 20
3.8742969737
 10
7.8741126134
 20
3.8703635001
  0
LINE
  5
226
100
AcDbEntity
  8
0
100
AcDbLine
 62
9
  6
CONTINUOUS
 10
8.1457813708
 20
5.0063022095
 11
8.7762635929
 21
5.0063022095
  0
LWPOLYLINE
  5
227
100
AcDbEntity
  8
0
100
AcDbPolyline
 62
6
  6
CONTINUOUS
 90
9
 70
0
 10
8.8713595177
 20
4.2966312283
 10
8.8667647198
 20
4.3012622089
 10
8.8521507306
 20
4.3152884556
 10
8.8370059083
 20
4.328790274
 10
8.8213373735
 20
4.3417635815
 10
8.8051531704
 20
4.3542000918
 10
8.7884601773
 20
4.3660894346
 10
8.7712744758
 20
4.3774125647
 10
8.7593815156
 20
4.3847389111
  0
LWPOLYLINE
  5
228
100
AcDbEntity
  8
0
100
AcDbPolyline
 62
6
  6
CONTINUOUS
 90
9
 70
0
 10
8.7594413412
 20
4.1993157411
 10
8.756424611
 20
4.2036761972
 10
8.7467906075
 20
4.2168228689
 10
8.7365519948
 20
4.2296656097
 10
8.7257165799
 20
4.2421871735
 10
8.7142989015
 20
4.2543614038
 10
8.7023141505
 20
4.2661619242
 10
8.6897797627
 20
4.2775607842
 10
8.6872672072
 20
4.2797394261
  0
LWPOLYLINE
  5
229
100
AcDbEntity
  8
0
100
AcDbPolyline
 62
6
  6
CONTINUOUS
 90
9
 70
0
 10
7.8797198777
 20
3.7704533129
 10
7.8807151251
 20
3.7640060164
 10
7.8842936698
 20
3.7440686572
 10
7.8886099187
 20
3.7242435534
 10
7.8936605108
 20
3.7045381936
 10
7.8994438088
 20
3.6849640095
 10
7.9059603435
 20
3.6655334339
 10
7.9132082992
 20
3.6462713273
 10
7.9185235878
 20
3.633353682
  0
LINE
  5
22A
100
AcDbEntity
  8
0
100
AcDbLine
 62
6
  6
CONTINUOUS
 10
8.1085224819
 20
5.3374406453
 11
8.1085224819
 21
5.7374406453
  0
LWPOLYLINE
  5
22B
100
AcDbEntity
  8
0
100
AcDbPolyline
 62
6
  6
CONTINUOUS
 90
9
 70
0
 10
8.0274641926
 20
3.7833993423
 10
8.0273417668
 20
3.7780984697
 10
8.0274084196
 20
3.7617998637
 10
8.0281428577
 20
3.7453917625
 10
8.0295489019
 20
3.7288927076
 10
8.0316301648
 20
3.7123324054
 10
8.0343898601
 20
3.695741124
 10
8.0378303111
 20
3.6791517242
 10
8.0385824376
 20
3.6759123228
  0
LWPOLYLINE
  5
22C
100
AcDbEntity
  8
0
100
AcDbPolyline
 62
6
  6
CONTINUOUS
 90
7
 70
0
 10
7.8746704164
 20
3.8840193995
 10
7.8739001264
 20
3.8651614831
 10
7.8737841791
 20
3.8447833386
 10
7.8744108815
 20
3.8244445968
 10
7.8757762448
 20
3.8041940824
 10
7.8778771398
 20
3.7840487507
 10
7.8797198777
 20
3.7704533131
  0
LWPOLYLINE
  5
22D
100
AcDbEntity
  8
0
100
AcDbPolyline
 62
6
  6
CONTINUOUS
 90
9
 70
0
 10
7.9269319832
 20
3.8543106005
 10
7.9261136166
 20
3.8434807481
 10
7.9252407541
 20
3.8244638372
 10
7.9250826232
 20
3.8054379584
 10
7.925636945
 20
3.7864466659
 10
7.9269018635
 20
3.7675003644
 10
7.9288783079
 20
3.7486067993
 10
7.931569727
 20
3.7297742181
 10
7.9324708116
 20
3.7244027148
  0
LINE
  5
22E
100
AcDbEntity
  8
0
100
AcDbLine
 62
6
  6
CONTINUOUS
 10
8.1605224819
 20
5.2773015137
 11
8.7615224819
 21
5.2773015137
  0
LINE
  5
22F
100
AcDbEntity
  8
0
100
AcDbLine
 62
6
  6
CONTINUOUS
 10
8.1085224819
 20
5.3374406453
 11
8.8135224819
 21
5.3374406453
  0
LINE
  5
230
100
AcDbEntity
  8
0
100
AcDbLine
 62
6
  6
CONTINUOUS
 10
8.1605224819
 20
5.2773015137
 11
8.1085224819
 21
5.3374406453
  0
LWPOLYLINE
  5
231
100
AcDbEntity
  8
0
100
AcDbPolyline
 62
6
  6
CONTINUOUS
 90
4
 70
0
 10
8.9524554086
 20
4.1953088878
 10
8.9493405765
 20
4.1996758084
 10
8.9370953924
 20
4.2160333132
 10
8.9346216243
 20
4.2190980562
  0
LWPOLYLINE
  5
232
100
AcDbEntity
  8
0
100
AcDbPolyline
 62
6
  6
CONTINUOUS
 90
7
 70
0
 10
8.9421970885
 20
4.2077223332
 10
8.931735861
 20
4.2234314731
 10
8.9198516916
 20
4.2399858904
 10
8.9073898662
 20
4.2560719118
 10
8.8943823104
 20
4.2716523816
 10
8.8808415218
 20
4.2867154222
 10
8.8713595178
 20
4.2966312282
  0
LWPOLYLINE
  5
233
100
AcDbEntity
  8
0
100
AcDbPolyline
 62
6
  6
CONTINUOUS
 90
9
 70
0
 10
8.8824541989
 20
4.2010386782
 10
8.8767506439
 20
4.2102812367
 10
8.8662789447
 20
4.2261792964
 10
8.8552237443
 20
4.2416645028
 10
8.8436124869
 20
4.256702959
 10
8.8314527897
 20
4.2712873384
 10
8.8187484537
 20
4.2854108288
 10
8.8055015364
 20
4.2990647306
 10
8.8016152533
 20
4.3028807238
  0
LWPOLYLINE
  5
234
100
AcDbEntity
  8
0
100
AcDbPolyline
 62
6
  6
CONTINUOUS
 90
7
 70
0
 10
8.7965671349
 20
4.1313686636
 10
8.79550708
 20
4.133846265
 10
8.7889062036
 20
4.14830528
 10
8.7816880569
 20
4.1625457561
 10
8.7738676383
 20
4.1765298699
 10
8.7654490073
 20
4.1902409724
 10
8.7594413416
 20
4.1993157405
  0
LINE
  5
235
100
AcDbEntity
  8
0
100
AcDbLine
 62
6
  6
CONTINUOUS
 10
8.2235224819
 20
4.6774406453
 11
8.2235224819
 21
4.7274406453
  0
LINE
  5
236
100
AcDbEntity
  8
0
100
AcDbLine
 62
6
  6
CONTINUOUS
 10
8.2660224819
 20
3.8724406453
 11
8.2660224819
 21
4.5374406453
  0
LINE
  5
237
100
AcDbEntity
  8
0
100
AcDbLine
 62
6
  6
CONTINUOUS
 10
8.4610224819
 20
7.0074406453
 11
8.4610224819
 21
6.7574961033
  0
LWPOLYLINE
  5
238
100
AcDbEntity
  8
0
100
AcDbPolyline
 62
6
  6
CONTINUOUS
 90
7
 70
0
 10
8.0373670846
 20
3.8601916768
 10
8.0367683895
 20
3.8575641705
 10
8.0336098149
 20
3.8419866838
 10
8.0310790764
 20
3.8262231765
 10
8.0291862721
 20
3.810313064
 10
8.0279379039
 20
3.7942722019
 10
8.0274641926
 20
3.783399343
  0
LWPOLYLINE
  5
239
100
AcDbEntity
  8
0
100
AcDbPolyline
 62
6
  6
CONTINUOUS
 90
8
 70
0
 10
7.8901802248
 20
4.0276348906
 10
7.8873807756
 20
4.0158842268
 10
7.8832567513
 20
3.9960001485
 10
7.8798637443
 20
3.9759748886
 10
7.8772009177
 20
3.9558201168
 10
7.8752698392
 20
3.9355479466
 10
7.8740743957
 20
3.9151710335
 10
7.8736677012
 20
3.900091777
  0
LWPOLYLINE
  5
23A
100
AcDbEntity
  8
0
100
AcDbPolyline
 62
6
  6
CONTINUOUS
 90
7
 70
0
 10
7.8928354593
 20
3.9962587175
 10
7.8900002476
 20
3.9853353217
 10
7.8855236386
 20
3.9657843334
 10
7.8817552868
 20
3.9460169052
 10
7.878696582
 20
3.9260190617
 10
7.8763605033
 20
3.9058326883
 10
7.8746704164
 20
3.8840193994
  0
LINE
  5
23B
100
AcDbEntity
  8
0
100
AcDbLine
 62
6
  6
CONTINUOUS
 10
9.1021859215
 20
6.6409406453
 11
9.1175251247
 21
6.6562356623
  0
LINE
  5
23C
100
AcDbEntity
  8
0
100
AcDbLine
 62
7
  6
CONTINUOUS
 10
8.1085224819
 20
5.7374406453
 11
8.8135224819
 21
5.7374406453
  0
LINE
  5
23D
100
AcDbEntity
  8
0
100
AcDbLine
 62
9
  6
CONTINUOUS
 10
8.8598713668
 20
5.7574406453
 11
8.0621735969
 21
5.7574406453
  0
LINE
  5
23E
100
AcDbEntity
  8
0
100
AcDbLine
 62
6
  6
CONTINUOUS
 10
7.9205224819
 20
6.0918242065
 11
7.8463884877
 21
6.1977418338
  0
LWPOLYLINE
  5
23F
100
AcDbEntity
  8
0
100
AcDbPolyline
 62
6
  6
CONTINUOUS
 90
8
 70
0
 10
9.0140644576
 20
4.0824185236
 10
9.0094223927
 20
4.0935704852
 10
9.0010712304
 20
4.1120810831
 10
8.9920456784
 20
4.1302762182
 10
8.9823532727
 20
4.1481469413
 10
8.9719998654
 20
4.165682531
 10
8.9609897504
 20
4.1828704641
 10
8.9524554086
 20
4.1953088878
  0
LWPOLYLINE
  5
240
100
AcDbEntity
  8
0
100
AcDbPolyline
 62
6
  6
CONTINUOUS
 90
7
 70
0
 10
8.9934738759
 20
4.1062416731
 10
8.9893469995
 20
4.1167453816
 10
8.9814768696
 20
4.1351937481
 10
8.9729065275
 20
4.1534009151
 10
8.9636266342
 20
4.1713773719
 10
8.9536513089
 20
4.1890816037
 10
8.9421970885
 20
4.2077223332
  0
LWPOLYLINE
  5
241
100
AcDbEntity
  8
0
100
AcDbPolyline
 62
6
  6
CONTINUOUS
 90
9
 70
0
 10
8.9351338114
 20
4.0790422992
 10
8.9314081383
 20
4.0918167875
 10
8.9256832343
 20
4.1092543669
 10
8.9192564885
 20
4.1265585594
 10
8.912130958
 20
4.1437117175
 10
8.9043099783
 20
4.1606920722
 10
8.8957962893
 20
4.1774768034
 10
8.8866008539
 20
4.1940269358
 10
8.8824541989
 20
4.2010386781
  0
LINE
  5
242
100
AcDbEntity
  8
0
100
AcDbLine
 62
6
  6
CONTINUOUS
 10
8.6560224819
 20
3.8724406453
 11
8.6560224819
 21
4.5374406453
  0
LINE
  5
243
100
AcDbEntity
  8
0
100
AcDbLine
 62
6
  6
CONTINUOUS
 10
8.6985224819
 20
4.6774406453
 11
8.6985224819
 21
4.7274406453
  0
LWPOLYLINE
  5
244
100
AcDbEntity
  8
0
100
AcDbPolyline
 62
6
  6
CONTINUOUS
 90
9
 70
0
 10
7.9560209539
 20
3.9839720437
 10
7.9515264309
 20
3.9714473698
 10
7.9459084235
 20
3.9539750577
 10
7.9409366209
 20
3.9361981254
 10
7.9366189228
 20
3.9181326473
 10
7.9329654263
 20
3.8997981952
 10
7.9299873278
 20
3.8812148416
 10
7.9276986676
 20
3.862420562
 10
7.9269319832
 20
3.8543106006
  0
LWPOLYLINE
  5
245
100
AcDbEntity
  8
0
100
AcDbPolyline
 62
6
  6
CONTINUOUS
 90
8
 70
0
 10
7.9377593681
 20
4.109722172
 10
7.9316481281
 20
4.0978914424
 10
7.9229836849
 20
4.0797829706
 10
7.9149908868
 20
4.0613719681
 10
7.9076897732
 20
4.04270635
 10
7.9010879667
 20
4.0238075458
 10
7.8951892236
 20
4.0046811159
 10
7.8928354592
 20
3.9962587172
  0
LINE
  5
246
100
AcDbEntity
  8
0
100
AcDbLine
 62
6
  6
CONTINUOUS
 10
9.0015224819
 20
6.0918242065
 11
9.0756564761
 21
6.1977418338
  0
LINE
  5
247
100
AcDbEntity
  8
0
100
AcDbLine
 62
9
  6
CONTINUOUS
 10
8.8907622094
 20
5.7858414024
 11
8.0312827543
 21
5.7858414024
  0
LINE
  5
248
100
AcDbEntity
  8
0
100
AcDbLine
 62
6
  6
CONTINUOUS
 10
7.8198590422
 20
6.6409406453
 11
7.804519839
 21
6.6562356623
  0
LWPOLYLINE
  5
249
100
AcDbEntity
  8
0
100
AcDbPolyline
 62
6
  6
CONTINUOUS
 90
7
 70
0
 10
8.8214441093
 20
4.0455035088
 10
8.8188173156
 20
4.0599170285
 10
8.8154730045
 20
4.0747568407
 10
8.8114663497
 20
4.0896181136
 10
8.8067989208
 20
4.1044526126
 10
8.8014759205
 20
4.119212071
 10
8.7965671349
 20
4.1313686636
  0
LWPOLYLINE
  5
24A
100
AcDbEntity
  8
0
100
AcDbPolyline
 62
6
  6
CONTINUOUS
 90
8
 70
0
 10
9.0238218155
 20
3.9880421992
 10
9.0218119842
 20
4.0012055572
 10
9.0181777732
 20
4.0209484505
 10
9.013822367
 20
4.0405413133
 10
9.0087577169
 20
4.0599336024
 10
9.0029902522
 20
4.0791035007
 10
8.9965202022
 20
4.0980443017
 10
8.9934738758
 20
4.1062416734
  0
LWPOLYLINE
  5
24B
100
AcDbEntity
  8
0
100
AcDbPolyline
 62
6
  6
CONTINUOUS
 90
8
 70
0
 10
8.9513534779
 20
3.9814269797
 10
8.9511397676
 20
3.9848126636
 10
8.9495861472
 20
4.0028449717
 10
8.9473346777
 20
4.0208432777
 10
8.9443893677
 20
4.0387634655
 10
8.940755205
 20
4.0565685307
 10
8.9364307547
 20
4.0742517449
 10
8.9351338112
 20
4.0790423
  0
LINE
  5
24C
100
AcDbEntity
  8
0
100
AcDbLine
 62
6
  6
CONTINUOUS
 10
8.8135224819
 20
5.3374406453
 11
8.8135224819
 21
5.7374406453
  0
LWPOLYLINE
  5
24D
100
AcDbEntity
  8
0
100
AcDbPolyline
 62
6
  6
CONTINUOUS
 90
7
 70
0
 10
8.0677114613
 20
3.9442803649
 10
8.0613645277
 20
3.9310755918
 10
8.0553475095
 20
3.9171041948
 10
8.0498537243
 20
3.90272612
 10
8.0449102539
 20
3.8879813123
 10
8.0405412596
 20
3.8729118785
 10
8.0373670846
 20
3.8601916767
  0
LWPOLYLINE
  5
24E
100
AcDbEntity
  8
0
100
AcDbPolyline
 62
6
  6
CONTINUOUS
 90
8
 70
0
 10
8.0002758132
 20
4.0724781768
 10
7.9984586534
 20
4.0696134852
 10
7.9891164339
 20
4.0541118464
 10
7.9803587721
 20
4.0382275304
 10
7.972208356
 20
4.0219985842
 10
7.9646829005
 20
4.0054578766
 10
7.9577875218
 20
3.9886100077
 10
7.9560209536
 20
3.9839720429
  0
LWPOLYLINE
  5
24F
100
AcDbEntity
  8
0
100
AcDbPolyline
 62
6
  6
CONTINUOUS
 90
8
 70
0
 10
8.0103793946
 20
4.2142905824
 10
7.9963580273
 20
4.1978553111
 10
7.9841629262
 20
4.1823705515
 10
7.9725088598
 20
4.1663873972
 10
7.9614120691
 20
4.1499255738
 10
7.9508895235
 20
4.1330052127
 10
7.940959469
 20
4.1156480371
 10
7.9377593681
 20
4.109722172
  0
LINE
  5
250
100
AcDbEntity
  8
0
100
AcDbLine
 62
6
  6
CONTINUOUS
 10
8.7615224819
 20
5.2773015137
 11
8.8135224819
 21
5.3374406453
  0
LINE
  5
251
100
AcDbEntity
  8
0
100
AcDbLine
 62
9
  6
CONTINUOUS
 10
7.9205224819
 20
6.0918242065
 11
9.0015224819
 21
6.0918242065
  0
LINE
  5
252
100
AcDbEntity
  8
0
100
AcDbLine
 62
9
  6
CONTINUOUS
 10
7.8463884877
 20
6.1977418338
 11
9.0756564761
 21
6.1977418338
  0
LINE
  5
253
100
AcDbEntity
  8
0
100
AcDbLine
 62
6
  6
CONTINUOUS
 10
9.1175224819
 20
7.0074406453
 11
9.1175224819
 21
6.6562330273
  0
LINE
  5
254
100
AcDbEntity
  8
0
100
AcDbLine
 62
6
  6
CONTINUOUS
 10
9.2020224819
 20
7.0074406453
 11
9.2020224819
 21
7.0694406453
  0
LWPOLYLINE
  5
255
100
AcDbEntity
  8
0
100
AcDbPolyline
 62
6
  6
CONTINUOUS
 90
8
 70
0
 10
9.0265347494
 20
3.8607595974
 10
9.0282178637
 20
3.8822975642
 10
9.0289821944
 20
3.9019930983
 10
9.0290158698
 20
3.9217738302
 10
9.028317345
 20
3.941614255
 10
9.0268847246
 20
3.9614881118
 10
9.0247160156
 20
3.9813671014
 10
9.0238218155
 20
3.9880421991
  0
LWPOLYLINE
  5
256
100
AcDbEntity
  8
0
100
AcDbPolyline
 62
6
  6
CONTINUOUS
 90
7
 70
0
 10
8.9460939914
 20
3.8796192663
 10
8.9485104002
 20
3.8960145124
 10
8.9503979408
 20
3.9134292232
 10
8.9516141957
 20
3.9310436845
 10
8.9521498794
 20
3.9488517318
 10
8.9519937991
 20
3.9667966936
 10
8.9513534779
 20
3.9814269797
  0
LWPOLYLINE
  5
257
100
AcDbEntity
  8
0
100
AcDbPolyline
 62
6
  6
CONTINUOUS
 90
7
 70
0
 10
8.0643718996
 20
4.1517508985
 10
8.0527801
 20
4.1399071952
 10
8.0410169374
 20
4.1269278668
 10
8.0296794459
 20
4.113392365
 10
8.0187787611
 20
4.0993002191
 10
8.0083572489
 20
4.0846906983
 10
8.0002758132
 20
4.0724781768
  0
LWPOLYLINE
  5
258
100
AcDbEntity
  8
0
100
AcDbPolyline
 62
6
  6
CONTINUOUS
 90
9
 70
0
 10
8.0659958898
 20
4.3145058189
 10
8.0610001698
 20
4.3101003695
 10
8.045861987
 20
4.2960897504
 10
8.0312840699
 20
4.2815797538
 10
8.01731065
 20
4.2666238633
 10
8.0039446728
 20
4.2512354609
 10
7.9911827116
 20
4.2354159976
 10
7.9790242572
 20
4.2191639462
 10
7.9700089567
 20
4.2062568896
  0
LINE
  5
259
100
AcDbEntity
  8
0
100
AcDbLine
 62
9
  6
CONTINUOUS
 10
7.8425224819
 20
6.4259406453
 11
9.0795224819
 21
6.4259406453
  0
LINE
  5
25A
100
AcDbEntity
  8
0
100
AcDbLine
 62
9
  6
CONTINUOUS
 10
7.8198590422
 20
6.6409406453
 11
9.1021859215
 21
6.6409406453
  0
LWPOLYLINE
  5
25B
100
AcDbEntity
  8
0
100
AcDbPolyline
 62
6
  6
CONTINUOUS
 90
9
 70
0
 10
9.0404450977
 20
3.7469932124
 10
9.0418972619
 20
3.7534937063
 10
9.0459090737
 20
3.7737265359
 10
9.0491740944
 20
3.7940340544
 10
9.0516879768
 20
3.8143469941
 10
9.0534562034
 20
3.8346527975
 10
9.0544823997
 20
3.8549523047
 10
9.0547660798
 20
3.8752470507
 10
9.0544730336
 20
3.8909881395
  0
LWPOLYLINE
  5
25C
100
AcDbEntity
  8
0
100
AcDbPolyline
 62
6
  6
CONTINUOUS
 90
7
 70
0
 10
8.9183001064
 20
3.78313137
 10
8.9233942624
 20
3.7958708539
 10
8.9291808285
 20
3.811985318
 10
8.9343425459
 20
3.8283635925
 10
8.9388631447
 20
3.8449624973
 10
8.9427363239
 20
3.8617717324
 10
8.9460939911
 20
3.8796192644
  0
LWPOLYLINE
  5
25D
100
AcDbEntity
  8
0
100
AcDbPolyline
 62
6
  6
CONTINUOUS
 90
7
 70
0
 10
8.1435717874
 20
4.2134744107
 10
8.1319624479
 20
4.2061622215
 10
8.1178091732
 20
4.1965266044
 10
8.104006348
 20
4.1863102833
 10
8.0905925152
 20
4.1755386286
 10
8.0775788269
 20
4.1642162693
 10
8.064371901
 20
4.1517508999
  0
LWPOLYLINE
  5
25E
100
AcDbEntity
  8
0
100
AcDbPolyline
 62
6
  6
CONTINUOUS
 90
9
 70
0
 10
8.1843943812
 20
4.3937764561
 10
8.1785701863
 20
4.3908375953
 10
8.160714462
 20
4.3812732143
 10
8.1431934621
 20
4.3710419237
 10
8.12601327
 20
4.360149234
 10
8.1091842521
 20
4.3486002352
 10
8.0927183965
 20
4.3363982644
 10
8.076638786
 20
4.3235527306
 10
8.0659958898
 20
4.3145058189
  0
LWPOLYLINE
  5
25F
100
AcDbEntity
  8
0
100
AcDbPolyline
 62
6
  6
CONTINUOUS
 90
6
 70
0
 10
8.2660224819
 20
4.4264600136
 10
8.2532522048
 20
4.422390882
 10
8.2341025736
 20
4.4155098357
 10
8.2152651104
 20
4.407953545
 10
8.1967549736
 20
4.3997302253
 10
8.1843943814
 20
4.3937764561
  0
LWPOLYLINE
  5
260
100
AcDbEntity
  8
0
100
AcDbPolyline
 62
6
  6
CONTINUOUS
 90
9
 70
0
 10
8.9912528175
 20
3.6132690326
 10
8.9942372711
 20
3.6190699968
 10
9.0030610534
 20
3.6373030749
 10
9.0112220384
 20
3.6558789483
 10
9.0187185434
 20
3.6747895829
 10
9.0255451737
 20
3.6940247677
 10
9.0316941922
 20
3.7135747565
 10
9.037152455
 20
3.7334183696
 10
9.0404450977
 20
3.7469932124
  0
LWPOLYLINE
  5
261
100
AcDbEntity
  8
0
100
AcDbPolyline
 62
6
  6
CONTINUOUS
 90
9
 70
0
 10
8.8641156707
 20
3.6896374042
 10
8.86733049
 20
3.6938539401
 10
8.876856647
 20
3.7070789669
 10
8.885906914
 20
3.7207850915
 10
8.8944673015
 20
3.7349595594
 10
8.9025174259
 20
3.7495804609
 10
8.910036896
 20
3.7646251977
 10
8.9170045172
 20
3.7800685504
 10
8.9183001064
 20
3.78313137
  0
LWPOLYLINE
  5
262
100
AcDbEntity
  8
0
100
AcDbPolyline
 62
6
  6
CONTINUOUS
 90
9
 70
0
 10
8.242362291
 20
4.2572638057
 10
8.2372830299
 20
4.2557421798
 10
8.2218027314
 20
4.250642243
 10
8.2064246536
 20
4.2448733688
 10
8.1911676114
 20
4.2384376529
 10
8.1760609738
 20
4.2313408395
 10
8.1611345202
 20
4.2235892254
 10
8.1464202213
 20
4.2151907556
 10
8.1435717874
 20
4.2134744107
  0
LINE
  5
263
100
AcDbEntity
  8
0
100
AcDbLine
 62
6
  6
CONTINUOUS
 10
7.7200256616
 20
7.0074406453
 11
9.2020193022
 21
7.0074406453
  0
LINE
  5
264
100
AcDbEntity
  8
0
100
AcDbLine
 62
9
  6
CONTINUOUS
 10
7.6480224298
 20
7.0694406453
 11
9.274022534
 21
7.0694406453
  0
LINE
  5
265
100
AcDbEntity
  8
0
100
AcDbLine
 62
6
  6
CONTINUOUS
 10
7.4610224819
 20
7.2574406453
 11
9.4610224819
 21
7.2574406453
  0
LWPOLYLINE
  5
266
100
AcDbEntity
  8
0
100
AcDbPolyline
 62
6
  6
CONTINUOUS
 90
4
 70
0
 10
8.9199495538
 20
3.5048319319
 10
8.923140206
 20
3.5091437659
 10
8.9349131475
 20
3.525844375
 10
8.937063455
 20
3.529144126
  0
LWPOLYLINE
  5
267
100
AcDbEntity
  8
0
100
AcDbPolyline
 62
6
  6
CONTINUOUS
 90
7
 70
0
 10
8.9285854466
 20
3.5184241397
 10
8.9402930294
 20
3.5332277495
 10
8.9523648055
 20
3.5496458625
 10
8.9638126052
 20
3.5664686167
 10
8.9746109568
 20
3.5836541673
 10
8.9847524259
 20
3.6011869581
 10
8.9912528174
 20
3.6132690324
  0
LWPOLYLINE
  5
268
100
AcDbEntity
  8
0
100
AcDbPolyline
 62
6
  6
CONTINUOUS
 90
9
 70
0
 10
8.9037673448
 20
3.5731776411
 10
8.9107950449
 20
3.5814581519
 10
8.9226790652
 20
3.5963301003
 10
8.9339901268
 20
3.6116294126
 10
8.9447044727
 20
3.6273195132
 10
8.9548174887
 20
3.6433908935
 10
8.9643238705
 20
3.6598378336
 10
8.9732159802
 20
3.6766556884
 10
8.9756442779
 20
3.68153097
  0
LWPOLYLINE
  5
269
100
AcDbEntity
  8
0
100
AcDbPolyline
 62
6
  6
CONTINUOUS
 90
7
 70
0
 10
8.8109666611
 20
3.6333318745
 10
8.812995425
 20
3.6351056675
 10
8.8247069825
 20
3.6458515554
 10
8.8360199501
 20
3.65711697
 10
8.8469029904
 20
3.6688759589
 10
8.8573415237
 20
3.6811195165
 10
8.8641156703
 20
3.6896374036
  0
LINE
  5
26A
100
AcDbEntity
  8
0
100
AcDbLine
 62
9
  6
CONTINUOUS
 10
11.2178612215
 20
7.4444406453
 11
5.7041837422
 21
7.4444406453
  0
LINE
  5
26B
100
AcDbEntity
  8
0
100
AcDbLine
 62
9
  6
CONTINUOUS
 10
11.4349418517
 20
7.5704406453
 11
5.4871031121
 21
7.5704406453
  0
LWPOLYLINE
  5
26C
100
AcDbEntity
  8
0
100
AcDbPolyline
 62
6
  6
CONTINUOUS
 90
8
 70
0
 10
8.8316226804
 20
3.4113532033
 10
8.8407943492
 20
3.4192142151
 10
8.8558183229
 20
3.4328767317
 10
8.8703338757
 20
3.4470831478
 10
8.8843348253
 20
3.4618235305
 10
8.8978127833
 20
3.4770890012
 10
8.9107571665
 20
3.4928716062
 10
8.9199495538
 20
3.5048319319
  0
LWPOLYLINE
  5
26D
100
AcDbEntity
  8
0
100
AcDbPolyline
 62
6
  6
CONTINUOUS
 90
7
 70
0
 10
8.8479170023
 20
3.4382977683
 10
8.8566313477
 20
3.4454684854
 10
8.8717447831
 20
3.4586542826
 10
8.8864124465
 20
3.4724314862
 10
8.9006414282
 20
3.4868122199
 10
8.9143966081
 20
3.5017702265
 10
8.9285854467
 20
3.5184241397
  0
LWPOLYLINE
  5
26E
100
AcDbEntity
  8
0
100
AcDbPolyline
 62
6
  6
CONTINUOUS
 90
9
 70
0
 10
8.8040207891
 20
3.4853773981
 10
8.8150187532
 20
3.4928682577
 10
8.829833784
 20
3.5037014733
 10
8.8443050755
 20
3.5151609614
 10
8.8584167882
 20
3.5272383609
 10
8.8721492495
 20
3.5399237728
 10
8.885481603
 20
3.5532075394
 10
8.8983801684
 20
3.5670671903
 10
8.9037673448
 20
3.5731776411
  0
LWPOLYLINE
  5
26F
100
AcDbEntity
  8
0
100
AcDbPolyline
 62
6
  6
CONTINUOUS
 90
7
 70
0
 10
8.7369914539
 20
3.5831386739
 10
8.7498878019
 20
3.5900909257
 10
8.762967853
 20
3.5978573087
 10
8.775863639
 20
3.6062602497
 10
8.7885297711
 20
3.6152833507
 10
8.8009219527
 20
3.6249067483
 10
8.8109666611
 20
3.6333318745
  0
LINE
  5
270
100
AcDbEntity
  8
0
100
AcDbLine
 62
9
  6
CONTINUOUS
 10
11.6519386597
 20
7.6964406313
 11
5.270106304
 21
7.6964406313
  0
LINE
  5
271
100
AcDbEntity
  8
0
100
AcDbLine
 62
9
  6
CONTINUOUS
 10
11.8689434238
 20
7.8224433975
 11
5.0531015399
 21
7.8224433975
  0
LWPOLYLINE
  5
272
100
AcDbEntity
  8
0
100
AcDbPolyline
 62
6
  6
CONTINUOUS
 90
8
 70
0
 10
8.7448806515
 20
3.3729095165
 10
8.7567786769
 20
3.3788886809
 10
8.7744322513
 20
3.3884459105
 10
8.7917202766
 20
3.3986426756
 10
8.8085983765
 20
3.4094519909
 10
8.8250477886
 20
3.4208610001
 10
8.8410622054
 20
3.4328674128
 10
8.8479170026
 20
3.4382977685
  0
LWPOLYLINE
  5
273
100
AcDbEntity
  8
0
100
AcDbPolyline
 62
6
  6
CONTINUOUS
 90
8
 70
0
 10
8.716195256
 20
3.4397867859
 10
8.7193491927
 20
3.4410362704
 10
8.7360188417
 20
3.4480861408
 10
8.7524405056
 20
3.4557891979
 10
8.768573466
 20
3.4641279968
 10
8.7843840713
 20
3.4730863586
 10
8.7998654788
 20
3.482663569
 10
8.8040207898
 20
3.4853773985
  0
LINE
  5
274
100
AcDbEntity
  8
0
100
AcDbLine
 62
9
  6
CONTINUOUS
 10
12.0860224819
 20
7.9484406453
 11
4.8360224819
 21
7.9484406453
  0
LINE
  5
275
100
AcDbEntity
  8
0
100
AcDbLine
 62
6
  6
CONTINUOUS
 10
12.3360224819
 20
8.1984406453
 11
4.5860224819
 21
8.1984406453
  0
ARC
  5
276
100
AcDbEntity
  8
0
100
AcDbCircle
 62
6
  6
CONTINUOUS
 10
7.4084835798
 20
5.7334373168
 40
0.625
100
AcDbArc
 50
4.8096995249
 51
34.9889904702
  0
ARC
  5
277
100
AcDbEntity
  8
0
100
AcDbCircle
 62
6
  6
CONTINUOUS
 10
8.433635056
 20
3.8531069133
 40
0.5605553617
100
AcDbArc
 50
251.2253491981
 51
252.8707342516
  0
ARC
  5
278
100
AcDbEntity
  8
0
100
AcDbCircle
 62
6
  6
CONTINUOUS
 10
8.43417183
 20
3.8925131834
 40
0.5605553617
100
AcDbArc
 50
179.225349198
 51
180.8707342457
  0
ARC
  5
279
100
AcDbEntity
  8
0
100
AcDbCircle
 62
6
  6
CONTINUOUS
 10
8.4333913707
 20
3.8523257258
 40
0.5597370534
100
AcDbArc
 50
252.8710202705
 51
253.7172806241
  0
ARC
  5
27A
100
AcDbEntity
  8
0
100
AcDbCircle
 62
6
  6
CONTINUOUS
 10
8.4333535736
 20
3.8925035417
 40
0.5597370532
100
AcDbArc
 50
180.8710202645
 51
181.7172806242
  0
ARC
  5
27B
100
AcDbEntity
  8
0
100
AcDbCircle
 62
6
  6
CONTINUOUS
 10
8.4331970243
 20
3.8516634979
 40
0.5590468972
100
AcDbArc
 50
253.7173705585
 51
254.4592309491
  0
ARC
  5
27C
100
AcDbEntity
  8
0
100
AcDbCircle
 62
6
  6
CONTINUOUS
 10
8.4313894924
 20
3.8965952486
 40
0.5551537967
100
AcDbArc
 50
107.3820130159
 51
116.4177692134
  0
ARC
  5
27D
100
AcDbEntity
  8
0
100
AcDbCircle
 62
6
  6
CONTINUOUS
 10
7.6845061804
 20
4.7274406453
 40
0.5390163015
100
AcDbArc
 50
0.0
 51
31.1548459197
  0
ARC
  5
27E
100
AcDbEntity
  8
0
100
AcDbCircle
 62
6
  6
CONTINUOUS
 10
8.4310997915
 20
3.8107250827
 40
0.5060468699
100
AcDbArc
 50
175.0590405187
 51
189.821665603
  0
ARC
  5
27F
100
AcDbEntity
  8
0
100
AcDbCircle
 62
6
  6
CONTINUOUS
 10
8.4489549808
 20
3.9399576893
 40
0.5060468533
100
AcDbArc
 50
31.0590434292
 51
45.8216690271
  0
ARC
  5
280
100
AcDbEntity
  8
0
100
AcDbCircle
 62
6
  6
CONTINUOUS
 10
8.3930243314
 20
3.8819612121
 40
0.5059021846
100
AcDbArc
 50
104.5436210102
 51
117.8230616112
  0
ARC
  5
281
100
AcDbEntity
  8
0
100
AcDbCircle
 62
6
  6
CONTINUOUS
 10
8.3980901575
 20
3.8182506541
 40
0.4721109081
100
AcDbArc
 50
147.4189518317
 51
159.4501548412
  0
ARC
  5
282
100
AcDbEntity
  8
0
100
AcDbCircle
 62
6
  6
CONTINUOUS
 10
8.4046960046
 20
3.9512326496
 40
0.4333164972
100
AcDbArc
 50
49.298917522
 51
54.5088734762
  0
ARC
  5
283
100
AcDbEntity
  8
0
100
AcDbCircle
 62
6
  6
CONTINUOUS
 10
8.3532203795
 20
3.8780310757
 40
0.3951037576
100
AcDbArc
 50
102.7569883239
 51
106.2948052601
  0
ARC
  5
284
100
AcDbEntity
  8
0
100
AcDbCircle
 62
6
  6
CONTINUOUS
 10
8.3520224819
 20
5.1309842214
 40
0.241
100
AcDbArc
 50
142.6180391693
 51
211.1548459197
  0
ARC
  5
285
100
AcDbEntity
  8
0
100
AcDbCircle
 62
6
  6
CONTINUOUS
 10
8.2085224819
 20
4.5974406453
 40
0.06
100
AcDbArc
 50
93.695220532
 51
270.0
  0
ARC
  5
286
100
AcDbEntity
  8
0
100
AcDbCircle
 62
6
  6
CONTINUOUS
 10
8.0621735934
 20
5.7884406453
 40
0.031
100
AcDbArc
 50
184.8096999639
 51
270.000004438
  0
ARC
  5
287
100
AcDbEntity
  8
0
100
AcDbCircle
 62
6
  6
CONTINUOUS
 10
8.2033558152
 20
4.6774406453
 40
0.0201666667
100
AcDbArc
 50
273.695220532
 51
360.0
  0
ARC
  5
288
100
AcDbEntity
  8
0
100
AcDbCircle
 62
6
  6
CONTINUOUS
 10
4.8360224819
 20
7.6984406453
 40
0.25
100
AcDbArc
 50
29.7364395186
 51
90.0
  0
ARC
  5
289
100
AcDbEntity
  8
0
100
AcDbCircle
 62
6
  6
CONTINUOUS
 10
5.2700224819
 20
7.4464406453
 40
0.25
100
AcDbArc
 50
29.7357131076
 51
89.9807893772
  0
ARC
  5
28A
100
AcDbEntity
  8
0
100
AcDbCircle
 62
6
  6
CONTINUOUS
 10
4.8360224819
 20
8.1984406453
 40
0.25
100
AcDbArc
 50
180.0
 51
270.0
  0
ARC
  5
28B
100
AcDbEntity
  8
0
100
AcDbCircle
 62
6
  6
CONTINUOUS
 10
5.7041837422
 20
7.6944406453
 40
0.25
100
AcDbArc
 50
209.7357131076
 51
270.0
  0
ARC
  5
28C
100
AcDbEntity
  8
0
100
AcDbCircle
 62
6
  6
CONTINUOUS
 10
5.2701901299
 20
7.9464515946
 40
0.2500109774
100
AcDbArc
 50
209.7364395186
 51
269.9807893772
  0
ARC
  5
28D
100
AcDbEntity
  8
0
100
AcDbCircle
 62
6
  6
CONTINUOUS
 10
8.013497603
 20
6.3147050485
 40
0.2039751211
100
AcDbArc
 50
146.9521644936
 51
214.9889904702
  0
ARC
  5
28E
100
AcDbEntity
  8
0
100
AcDbCircle
 62
6
  6
CONTINUOUS
 10
7.6480198081
 20
7.2564406453
 40
0.187
100
AcDbArc
 50
179.6936039968
 51
270.0
  0
ARC
  5
28F
100
AcDbEntity
  8
0
100
AcDbCircle
 62
6
  6
CONTINUOUS
 10
7.6987479483
 20
6.5194796699
 40
0.1715245336
100
AcDbArc
 50
326.9521644936
 51
45.0826423158
  0
ARC
  5
290
100
AcDbEntity
  8
0
100
AcDbCircle
 62
6
  6
CONTINUOUS
 10
7.468158593
 20
7.4444406453
 40
0.1871361111
100
AcDbArc
 50
180.0
 51
267.8145949287
  0
ARC
  5
291
100
AcDbEntity
  8
0
100
AcDbCircle
 62
6
  6
CONTINUOUS
 10
9.513561384
 20
5.7334373168
 40
0.625
100
AcDbArc
 50
145.0110095298
 51
175.1903004751
  0
ARC
  5
292
100
AcDbEntity
  8
0
100
AcDbCircle
 62
6
  6
CONTINUOUS
 10
8.4945434574
 20
3.8719840381
 40
0.5605553617
100
AcDbArc
 50
35.225349198
 51
36.8707342517
  0
ARC
  5
293
100
AcDbEntity
  8
0
100
AcDbCircle
 62
6
  6
CONTINUOUS
 10
8.4709468103
 20
3.8404191767
 40
0.5605553162
100
AcDbArc
 50
323.2253491723
 51
324.8709417866
  0
ARC
  5
294
100
AcDbEntity
  8
0
100
AcDbCircle
 62
6
  6
CONTINUOUS
 10
8.4951997735
 20
3.8724727973
 40
0.5597370533
100
AcDbArc
 50
36.8710202706
 51
37.7172806241
  0
ARC
  5
295
100
AcDbEntity
  8
0
100
AcDbCircle
 62
6
  6
CONTINUOUS
 10
9.2375387834
 20
4.7274406453
 40
0.5390163015
100
AcDbArc
 50
148.8451540803
 51
180.0
  0
ARC
  5
296
100
AcDbEntity
  8
0
100
AcDbCircle
 62
6
  6
CONTINUOUS
 10
8.5104709104
 20
3.8249116162
 40
0.5060471731
100
AcDbArc
 50
247.0590473823
 51
261.8216636361
  0
ARC
  5
297
100
AcDbEntity
  8
0
100
AcDbCircle
 62
6
  6
CONTINUOUS
 10
8.5215059436
 20
3.9047814348
 40
0.5060468533
100
AcDbArc
 50
319.0590434286
 51
333.8216690265
  0
ARC
  5
298
100
AcDbEntity
  8
0
100
AcDbCircle
 62
6
  6
CONTINUOUS
 10
8.4800837255
 20
3.9532719536
 40
0.4721109081
100
AcDbArc
 50
3.4189527674
 51
15.4501557776
  0
ARC
  5
299
100
AcDbEntity
  8
0
100
AcDbCircle
 62
6
  6
CONTINUOUS
 10
8.5437878593
 20
3.8792905665
 40
0.4721109081
100
AcDbArc
 50
291.4189545689
 51
303.4501575788
  0
ARC
  5
29A
100
AcDbEntity
  8
0
100
AcDbCircle
 62
6
  6
CONTINUOUS
 10
8.4931130522
 20
3.7958428358
 40
0.4721109081
100
AcDbArc
 50
219.4189545689
 51
231.4501575788
  0
ARC
  5
29B
100
AcDbEntity
  8
0
100
AcDbCircle
 62
6
  6
CONTINUOUS
 10
8.4610224819
 20
3.8724406453
 40
0.345
100
AcDbArc
 50
124.4237883953
 51
55.5762116047
  0
ARC
  5
29C
100
AcDbEntity
  8
0
100
AcDbCircle
 62
9
  6
CONTINUOUS
 10
8.4610224819
 20
3.8724406453
 40
0.3118911151
100
AcDbArc
 50
128.8674155645
 51
51.1325844355
  0
ARC
  5
29D
100
AcDbEntity
  8
0
100
AcDbCircle
 62
6
  6
CONTINUOUS
 10
8.5700224819
 20
5.1309842214
 40
0.241
100
AcDbArc
 50
328.8451540803
 51
37.3819608307
  0
ARC
  5
29E
100
AcDbEntity
  8
0
100
AcDbCircle
 62
9
  6
CONTINUOUS
 10
8.4610224819
 20
3.8724406453
 40
0.2252691196
100
AcDbArc
 50
150.3101309953
 51
29.6898760263
  0
ARC
  5
29F
100
AcDbEntity
  8
0
100
AcDbCircle
 62
9
  6
CONTINUOUS
 10
8.4610224819
 20
3.8724406453
 40
0.2152853813
100
AcDbArc
 50
155.2102594712
 51
24.7905413869
  0
ARC
  5
2A0
100
AcDbEntity
  8
0
100
AcDbCircle
 62
9
  6
CONTINUOUS
 10
8.4610224819
 20
3.8724406453
 40
0.195
100
AcDbArc
 50
180.0
 51
360.0
  0
ARC
  5
2A1
100
AcDbEntity
  8
0
100
AcDbCircle
 62
6
  6
CONTINUOUS
 10
8.7135224819
 20
4.5974406453
 40
0.06
100
AcDbArc
 50
270.0
 51
86.304779468
  0
ARC
  5
2A2
100
AcDbEntity
  8
0
100
AcDbCircle
 62
6
  6
CONTINUOUS
 10
8.8598713704
 20
5.7884406453
 40
0.031
100
AcDbArc
 50
269.999995562
 51
355.1903000361
  0
ARC
  5
2A3
100
AcDbEntity
  8
0
100
AcDbCircle
 62
6
  6
CONTINUOUS
 10
8.7186891486
 20
4.6774406453
 40
0.0201666667
100
AcDbArc
 50
180.0
 51
266.304779468
  0
ARC
  5
2A4
100
AcDbEntity
  8
0
100
AcDbCircle
 62
6
  6
CONTINUOUS
 10
8.9085473608
 20
6.3147050485
 40
0.2039751211
100
AcDbArc
 50
325.0110095298
 51
33.0478355064
  0
ARC
  5
2A5
100
AcDbEntity
  8
0
100
AcDbCircle
 62
6
  6
CONTINUOUS
 10
9.2740251557
 20
7.2564406453
 40
0.187
100
AcDbArc
 50
270.0
 51
0.3063960032
  0
ARC
  5
2A6
100
AcDbEntity
  8
0
100
AcDbCircle
 62
6
  6
CONTINUOUS
 10
9.2232970155
 20
6.5194796699
 40
0.1715245336
100
AcDbArc
 50
134.9173576842
 51
213.0478355064
  0
ARC
  5
2A7
100
AcDbEntity
  8
0
100
AcDbCircle
 62
6
  6
CONTINUOUS
 10
9.4538863708
 20
7.4444406453
 40
0.1871361111
100
AcDbArc
 50
272.1854050713
 51
360.0
  0
ARC
  5
2A8
100
AcDbEntity
  8
0
100
AcDbCircle
 62
6
  6
CONTINUOUS
 10
11.2178612215
 20
7.6944406453
 40
0.25
100
AcDbArc
 50
270.0
 51
330.2642868924
  0
ARC
  5
2A9
100
AcDbEntity
  8
0
100
AcDbCircle
 62
6
  6
CONTINUOUS
 10
11.6518548339
 20
7.9464515946
 40
0.2500109774
100
AcDbArc
 50
270.0192106228
 51
330.2635604814
  0
ARC
  5
2AA
100
AcDbEntity
  8
0
100
AcDbCircle
 62
6
  6
CONTINUOUS
 10
12.0860224819
 20
7.6984406453
 40
0.25
100
AcDbArc
 50
90.0
 51
150.2635604814
  0
ARC
  5
2AB
100
AcDbEntity
  8
0
100
AcDbCircle
 62
6
  6
CONTINUOUS
 10
11.6520224819
 20
7.4464406453
 40
0.25
100
AcDbArc
 50
90.0192106228
 51
150.2642868924
  0
ARC
  5
2AC
100
AcDbEntity
  8
0
100
AcDbCircle
 62
6
  6
CONTINUOUS
 10
12.0860224819
 20
8.1984406453
 40
0.25
100
AcDbArc
 50
270.0
 51
360.0
  0
SPLINE
  5
2AD
100
AcDbEntity
  8
0
100
AcDbSpline
 62
6
  6
CONTINUOUS
 70
0
 71
3
 72
13
 73
9
 74
7
 42
0.0000001
 43
0.0000001
 44
0.0000000001
 12
-0.0482230866
 22
0.1195216101
 32
0.0
 13
-0.0743392002
 23
0.1052832593
 33
0.0
 40
0.0
 40
0.0
 40
0.0
 40
0.0
 40
0.1252559003
 40
0.2504447537
 40
0.3755664229
 40
0.5006190378
 40
0.7504760573
 40
1.0
 40
1.0
 40
1.0
 40
1.0
 10
9.0140644576
 20
4.0824185236
 30
0.0
 10
9.0120510489
 20
4.0874087859
 30
0.0
 10
9.0078790772
 20
4.0973283694
 30
0.0
 10
9.0011897971
 20
4.1120134951
 30
0.0
 10
8.9940797316
 20
4.1264900885
 30
0.0
 10
8.9840538872
 20
4.1454917426
 30
0.0
 10
8.9705132781
 20
4.1686678278
 30
0.0
 10
8.9586385454
 20
4.1865519898
 30
0.0
 10
8.9524554086
 20
4.1953088878
 30
0.0
 11
9.0140644576
 21
4.0824185236
 31
0.0
 11
9.0078057356
 21
4.0972992893
 31
0.0
 11
9.0011178088
 21
4.1119826644
 31
0.0
 11
8.9940090494
 21
4.1264573342
 31
0.0
 11
8.9864881045
 21
4.1407121211
 31
0.0
 11
8.9702442459
 21
4.1685173359
 31
0.0
 11
8.9524554086
 21
4.1953088878
 31
0.0
  0
SPLINE
  5
2AE
100
AcDbEntity
  8
0
100
AcDbSpline
 62
6
  6
CONTINUOUS
 70
0
 71
3
 72
15
 73
11
 74
9
 42
0.0000001
 43
0.0000001
 44
0.0000000001
 12
0.0605096007
 22
0.1785401917
 32
0.0
 13
-0.029979327
 23
0.1861162319
 33
0.0
 40
0.0
 40
0.0
 40
0.0
 40
0.0
 40
0.1176243393
 40
0.2372874241
 40
0.3590591447
 40
0.4829501252
 40
0.6089589329
 40
0.7371037532
 40
0.8674270887
 40
1.0
 40
1.0
 40
1.0
 40
1.0
 10
8.8069195798
 20
3.8593735534
 30
0.0
 10
8.8092920471
 20
3.8663737774
 30
0.0
 10
8.8136470569
 20
3.8806457173
 30
0.0
 10
8.8189093121
 20
3.9025999767
 30
0.0
 10
8.8228853455
 20
3.9252242402
 30
0.0
 10
8.8255239604
 20
3.9484443192
 30
0.0
 10
8.8267741798
 20
3.9721815979
 30
0.0
 10
8.8265839747
 20
3.9963557211
 30
0.0
 10
8.8249016243
 20
4.0208848644
 30
0.0
 10
8.8227689226
 20
4.0372788658
 30
0.0
 10
8.821444107
 20
4.0455035227
 30
0.0
 11
8.8069195798
 21
3.8593735534
 31
0.0
 11
8.8133940418
 21
3.8805812637
 31
0.0
 11
8.8186546862
 21
3.9025176134
 31
0.0
 11
8.8226338633
 21
3.9251259369
 31
0.0
 11
8.8252760032
 21
3.9483313491
 31
0.0
 11
8.8265296001
 21
3.9720528341
 31
0.0
 11
8.8263431515
 21
3.9962093716
 31
0.0
 11
8.8246651546
 21
4.0207199413
 31
0.0
 11
8.821444107
 21
4.0455035227
 31
0.0
  0
SPLINE
  5
2AF
100
AcDbEntity
  8
0
100
AcDbSpline
 62
6
  6
CONTINUOUS
 70
0
 71
3
 72
12
 73
8
 74
6
 42
0.0000001
 43
0.0000001
 44
0.0000000001
 12
-0.0142492183
 22
0.0884613118
 32
0.0
 13
-0.0349584109
 23
0.0825006267
 33
0.0
 40
0.0
 40
0.0
 40
0.0
 40
0.0
 40
0.24687615
 40
0.3711103256
 40
0.4958655697
 40
0.7469043056
 40
1.0
 40
1.0
 40
1.0
 40
1.0
 10
8.821444107
 20
4.0455035227
 30
0.0
 10
8.8202715096
 20
4.0527831854
 30
0.0
 10
8.8181662345
 20
4.0636748389
 30
0.0
 10
8.8146942056
 20
4.0780738166
 30
0.0
 10
8.8107551228
 20
4.0924816309
 30
0.0
 10
8.8049852153
 20
4.1103687833
 30
0.0
 10
8.7995164094
 20
4.1244084792
 30
0.0
 10
8.7965671349
 20
4.1313686636
 30
0.0
 11
8.821444107
 21
4.0455035227
 31
0.0
 11
8.817252227
 21
4.0672232005
 31
0.0
 11
8.8146435679
 21
4.0780447969
 31
0.0
 11
8.8116962313
 21
4.0888275086
 31
0.0
 11
8.8047949304
 21
4.1102361089
 31
0.0
 11
8.7965671349
 21
4.1313686636
 31
0.0
  0
SPLINE
  5
2B0
100
AcDbEntity
  8
0
100
AcDbSpline
 62
6
  6
CONTINUOUS
 70
0
 71
3
 72
15
 73
11
 74
9
 42
0.0000001
 43
0.0000001
 44
0.0000000001
 12
0.1885003077
 22
-0.0023760966
 32
0.0
 13
0.1677429336
 23
0.0860251129
 33
0.0
 40
0.0
 40
0.0
 40
0.0
 40
0.0
 40
0.1176243393
 40
0.2372874241
 40
0.3590591447
 40
0.4829501252
 40
0.6089589329
 40
0.7371037532
 40
0.8674270887
 40
1.0
 40
1.0
 40
1.0
 40
1.0
 10
8.5554830205
 20
3.5394350029
 30
0.0
 10
8.5628737619
 20
3.5393418406
 30
0.0
 10
8.5777929554
 20
3.5396102522
 30
0.0
 10
8.6002988231
 20
3.5413897893
 30
0.0
 10
8.6230444382
 20
3.5445996387
 30
0.0
 10
8.6459434225
 20
3.5492655659
 30
0.0
 10
8.6689052552
 20
3.555411759
 30
0.0
 10
8.6918374359
 20
3.5630628697
 30
0.0
 10
8.7146461627
 20
3.5722428022
 30
0.0
 10
8.7295787435
 20
3.5793371471
 30
0.0
 10
8.7369914665
 20
3.5831386803
 30
0.0
 11
8.5554830205
 21
3.5394350029
 31
0.0
 11
8.5776534704
 21
3.5398309665
 31
0.0
 11
8.6001418072
 21
3.5416065012
 31
0.0
 11
8.622873234
 21
3.5448084351
 31
0.0
 11
8.6457593586
 21
3.5494664775
 31
0.0
 11
8.6687072143
 21
3.555604578
 31
0.0
 11
8.6916238309
 21
3.5632466818
 31
0.0
 11
8.7144162383
 21
3.5724167342
 31
0.0
 11
8.7369914665
 21
3.5831386803
 31
0.0
  0
SPLINE
  5
2B1
100
AcDbEntity
  8
0
100
AcDbSpline
 62
6
  6
CONTINUOUS
 70
0
 71
3
 72
12
 73
8
 74
6
 42
0.0000001
 43
0.0000001
 44
0.0000000001
 12
0.0797284564
 22
0.0408878606
 32
0.0
 13
0.0676600156
 23
0.0587415202
 33
0.0
 40
0.0
 40
0.0
 40
0.0
 40
0.0
 40
0.24687615
 40
0.3711103256
 40
0.4958655697
 40
0.7469043056
 40
1.0
 40
1.0
 40
1.0
 40
1.0
 10
8.7369914665
 20
3.5831386803
 30
0.0
 10
8.7435524846
 20
3.5865034262
 30
0.0
 10
8.7532604969
 20
3.5918713679
 30
0.0
 10
8.7658818224
 20
3.5996229924
 30
0.0
 10
8.7783672247
 20
3.6078215422
 30
0.0
 10
8.793595918
 20
3.6188364845
 30
0.0
 10
8.8052585083
 20
3.6283761326
 30
0.0
 10
8.8109666611
 20
3.6333318745
 30
0.0
 11
8.7369914665
 21
3.5831386803
 31
0.0
 11
8.7563527454
 21
3.5938371447
 31
0.0
 11
8.7658385752
 21
3.5996621841
 31
0.0
 11
8.7751827663
 21
3.605797309
 31
0.0
 11
8.7934109359
 21
3.6189764575
 31
0.0
 11
8.8109666611
 21
3.6333318745
 31
0.0
  0
SPLINE
  5
2B2
100
AcDbEntity
  8
0
100
AcDbSpline
 62
6
  6
CONTINUOUS
 70
0
 71
3
 72
15
 73
11
 74
9
 42
0.0000001
 43
0.0000001
 44
0.0000000001
 12
0.0559899964
 22
-0.1800087002
 32
0.0
 13
0.1336501614
 23
-0.1329497882
 33
0.0
 40
0.0
 40
0.0
 40
0.0
 40
0.0
 40
0.1176243393
 40
0.2372874241
 40
0.3590591447
 40
0.4829501252
 40
0.6089589329
 40
0.7371037532
 40
0.8674270887
 40
1.0
 40
1.0
 40
1.0
 40
1.0
 10
8.1735052074
 20
3.6796989318
 30
0.0
 10
8.1757004695
 20
3.6726411303
 30
0.0
 10
8.1805660284
 20
3.6585350778
 30
0.0
 10
8.1892131644
 20
3.6376806329
 30
0.0
 10
8.1992946942
 20
3.6170401654
 30
0.0
 10
8.2108084299
 20
3.596703788
 30
0.0
 10
8.2237494035
 20
3.5767650656
 30
0.0
 10
8.2381124758
 20
3.5573195889
 30
0.0
 10
8.2538913945
 20
3.5384639558
 30
0.0
 10
8.2652529387
 20
3.5264545007
 30
0.0
 10
8.2711590691
 20
3.5205793205
 30
0.0
 11
8.1735052074
 21
3.6796989318
 31
0.0
 11
8.180732837
 21
3.6587359404
 31
0.0
 11
8.1893707491
 21
3.6378969316
 31
0.0
 11
8.1994403664
 21
3.617267512
 31
0.0
 11
8.2109426294
 21
3.5969409283
 31
0.0
 11
8.2238715872
 21
3.577012998
 31
0.0
 11
8.2382212838
 21
3.5575795404
 31
0.0
 11
8.2539857631
 21
3.5387363748
 31
0.0
 11
8.2711590691
 21
3.5205793205
 31
0.0
  0
SPLINE
  5
2B3
100
AcDbEntity
  8
0
100
AcDbSpline
 62
6
  6
CONTINUOUS
 70
0
 71
3
 72
12
 73
8
 74
6
 42
0.0000001
 43
0.0000001
 44
0.0000000001
 12
0.0635241142
 22
-0.0631912242
 32
0.0
 13
0.0767746002
 23
-0.0461963707
 33
0.0
 40
0.0
 40
0.0
 40
0.0
 40
0.0
 40
0.24687615
 40
0.3711103256
 40
0.4958655697
 40
0.7469043056
 40
1.0
 40
1.0
 40
1.0
 40
1.0
 10
8.2711590691
 20
3.5205793205
 30
0.0
 10
8.2763865986
 20
3.5153791852
 30
0.0
 10
8.2844917553
 20
3.507805102
 30
0.0
 10
8.2957641924
 20
3.4981968918
 30
0.0
 10
8.3074196781
 20
3.4888560599
 30
0.0
 10
8.3226014358
 20
3.4777765162
 30
0.0
 10
8.3352781189
 20
3.4696326471
 30
0.0
 10
8.3417552258
 20
3.4657352796
 30
0.0
 11
8.2711590691
 21
3.5205793205
 31
0.0
 11
8.2873168776
 21
3.5054716574
 31
0.0
 11
8.2957881018
 21
3.4982501333
 31
0.0
 11
8.3045104662
 21
3.4912591373
 31
0.0
 11
8.3226773954
 21
3.4779956987
 31
0.0
 11
8.3417552258
 21
3.4657352796
 31
0.0
  0
SPLINE
  5
2B4
100
AcDbEntity
  8
0
100
AcDbSpline
 62
6
  6
CONTINUOUS
 70
0
 71
3
 72
15
 73
11
 74
9
 42
0.0000001
 43
0.0000001
 44
0.0000000001
 12
-0.1538965869
 22
-0.1088753984
 32
0.0
 13
-0.0851425913
 23
-0.1681926008
 33
0.0
 40
0.0
 40
0.0
 40
0.0
 40
0.0
 40
0.1176243393
 40
0.2372874241
 40
0.3590591447
 40
0.4829501252
 40
0.6089589329
 40
0.7371037532
 40
0.8674270887
 40
1.0
 40
1.0
 40
1.0
 40
1.0
 10
8.1888664953
 20
4.0863253577
 30
0.0
 10
8.1828325005
 20
4.0820565588
 30
0.0
 10
8.1709203877
 20
4.0730701274
 30
0.0
 10
8.153758744
 20
4.0584018345
 30
0.0
 10
8.1372438569
 20
4.0424354746
 30
0.0
 10
8.1214607527
 20
4.025200975
 30
0.0
 10
8.1064968815
 20
4.0067319737
 30
0.0
 10
8.0924415676
 20
3.9870628975
 30
0.0
 10
8.079384749
 20
3.9662295429
 30
0.0
 10
8.0714739887
 20
3.9517129465
 30
0.0
 10
8.067711455
 20
3.9442803523
 30
0.0
 11
8.1888664953
 21
4.0863253577
 31
0.0
 11
8.1711629661
 21
4.0729735529
 31
0.0
 11
8.1540131526
 21
4.0583188025
 31
0.0
 11
8.1375050915
 21
4.0423671861
 31
0.0
 11
8.1217277564
 21
4.0251466241
 31
0.0
 11
8.1067704361
 21
4.0066923854
 31
0.0
 11
8.0927224198
 21
3.9870397443
 31
0.0
 11
8.0796729964
 21
3.9662239751
 31
0.0
 11
8.067711455
 21
3.9442803523
 31
0.0
  0
SPLINE
  5
2B5
100
AcDbEntity
  8
0
100
AcDbSpline
 62
6
  6
CONTINUOUS
 70
0
 71
3
 72
12
 73
8
 74
6
 42
0.0000001
 43
0.0000001
 44
0.0000000001
 12
-0.0404683947
 22
-0.0799421849
 32
0.0
 13
-0.0202107032
 23
-0.0872924474
 33
0.0
 40
0.0
 40
0.0
 40
0.0
 40
0.0
 40
0.24687615
 40
0.3711103256
 40
0.4958655697
 40
0.7469043056
 40
1.0
 40
1.0
 40
1.0
 40
1.0
 10
8.067711455
 20
3.9442803523
 30
0.0
 10
8.0643812278
 20
3.937701746
 30
0.0
 10
8.0596824778
 20
3.9276527635
 30
0.0
 10
8.0540279015
 20
3.9139629385
 30
0.0
 10
8.0487459856
 20
3.8999914371
 30
0.0
 10
8.0429001345
 20
3.8821289602
 30
0.0
 10
8.0390721653
 20
3.8675561242
 30
0.0
 10
8.0373670846
 20
3.8601916767
 30
0.0
 11
8.067711455
 21
3.9442803523
 31
0.0
 11
8.0583362509
 21
3.9242448385
 31
0.0
 11
8.0540859256
 21
3.9139566519
 31
0.0
 11
8.0501324521
 21
3.9035008538
 31
0.0
 11
8.0431320623
 21
3.8821244495
 31
0.0
 11
8.0373670846
 21
3.8601916767
 31
0.0
  0
SPLINE
  5
2B6
100
AcDbEntity
  8
0
100
AcDbSpline
 62
6
  6
CONTINUOUS
 70
0
 71
3
 72
13
 73
9
 74
7
 42
0.0000001
 43
0.0000001
 44
0.0000000001
 12
0.124646538
 22
0.0272951367
 32
0.0
 13
0.1147026305
 23
0.0559025087
 33
0.0
 40
0.0
 40
0.0
 40
0.0
 40
0.0
 40
0.1242410149
 40
0.248710369
 40
0.3734050716
 40
0.4983203352
 40
0.7487601409
 40
1.0
 40
1.0
 40
1.0
 40
1.0
 10
8.6246660464
 20
3.3309968759
 30
0.0
 10
8.6298281172
 20
3.3321272678
 30
0.0
 10
8.6401282162
 20
3.3345465433
 30
0.0
 10
8.6554749653
 20
3.3386444124
 30
0.0
 10
8.6707196496
 20
3.3432088497
 30
0.0
 10
8.6909063792
 20
3.3499149216
 30
0.0
 10
8.7158145933
 20
3.3594401015
 30
0.0
 10
8.7352746939
 20
3.3682278703
 30
0.0
 10
8.7448806514
 20
3.3729095164
 30
0.0
 11
8.6246660464
 21
3.3309968759
 31
0.0
 11
8.6400992367
 21
3.3346217181
 31
0.0
 11
8.6554441326
 21
3.338718261
 31
0.0
 11
8.6706867967
 21
3.343281471
 31
0.0
 11
8.6858133437
 21
3.3483059763
 31
0.0
 11
8.7156625444
 21
3.359717386
 31
0.0
 11
8.7448806514
 21
3.3729095164
 31
0.0
  0
SPLINE
  5
2B7
100
AcDbEntity
  8
0
100
AcDbSpline
 62
6
  6
CONTINUOUS
 70
0
 71
3
 72
14
 73
10
 74
8
 42
0.0000001
 43
0.0000001
 44
0.0000000001
 12
-0.1040056211
 22
-0.0304001157
 32
0.0
 13
-0.0925938967
 23
-0.0562823822
 33
0.0
 40
0.0
 40
0.0
 40
0.0
 40
0.0
 40
0.0614819455
 40
0.1231021305
 40
0.2467533607
 40
0.3709564104
 40
0.4957073429
 40
0.7467966576
 40
1.0
 40
1.0
 40
1.0
 40
1.0
 10
8.2423622917
 20
4.2572638059
 30
0.0
 10
8.2402308024
 20
4.2566407865
 30
0.0
 10
8.2359734299
 20
4.2553574042
 30
0.0
 10
8.227484417
 20
4.2526416058
 30
0.0
 10
8.2169249298
 20
4.2489681557
 30
0.0
 10
8.20436525
 20
4.2441262946
 30
0.0
 10
8.1877330335
 20
4.2370782473
 30
0.0
 10
8.1672577697
 20
4.2271918807
 30
0.0
 10
8.1513868154
 20
4.2182247064
 30
0.0
 10
8.1435717874
 20
4.2134744107
 30
0.0
 11
8.2423622917
 21
4.2572638059
 31
0.0
 11
8.2359837761
 21
4.2553410117
 31
0.0
 11
8.2296242422
 21
4.2533066233
 31
0.0
 11
8.2169692333
 21
4.2489053282
 31
0.0
 11
8.2044113658
 21
4.2440652367
 31
0.0
 11
8.1919647152
 21
4.2387918223
 31
0.0
 11
8.1674613656
 21
4.2269669201
 31
0.0
 11
8.1435717874
 21
4.2134744107
 31
0.0
  0
SPLINE
  5
2B8
100
AcDbEntity
  8
0
100
AcDbSpline
 62
6
  6
CONTINUOUS
 70
0
 71
3
 72
13
 73
9
 74
7
 42
0.0000001
 43
0.0000001
 44
0.0000000001
 12
-0.0859872053
 22
-0.0522665632
 32
0.0
 13
-0.0717269866
 23
-0.0705750133
 33
0.0
 40
0.0
 40
0.0
 40
0.0
 40
0.0
 40
0.2473626773
 40
0.4964832814
 40
0.6217088961
 40
0.7473687042
 40
0.8734644439
 40
1.0
 40
1.0
 40
1.0
 40
1.0
 10
8.1435717874
 20
4.2134744107
 30
0.0
 10
8.1364817789
 20
4.2091648117
 30
0.0
 10
8.1224985504
 20
4.2001013251
 30
0.0
 10
8.1056711814
 20
4.1877643068
 30
0.0
 10
8.0925844668
 20
4.1772725376
 30
0.0
 10
8.0829500074
 20
4.169080304
 30
0.0
 10
8.0735244186
 20
4.1605831064
 30
0.0
 10
8.0673972377
 20
4.154727648
 30
0.0
 10
8.0643718996
 20
4.1517508985
 30
0.0
 11
8.1435717874
 21
4.2134744107
 31
0.0
 11
8.1226834119
 21
4.199937663
 31
0.0
 11
8.1024658802
 21
4.1851168463
 31
0.0
 11
8.0926343488
 21
4.1772349037
 31
0.0
 11
8.0830013301
 21
4.1690439337
 31
0.0
 11
8.0735770913
 21
4.1605479331
 31
0.0
 11
8.0643718996
 21
4.1517508985
 31
0.0
  0
SPLINE
  5
2B9
100
AcDbEntity
  8
0
100
AcDbSpline
 62
6
  6
CONTINUOUS
 70
0
 71
3
 72
9
 73
5
 74
3
 42
0.0000001
 43
0.0000001
 44
0.0000000001
 12
-0.0727804536
 22
-0.0716115604
 32
0.0
 13
-0.0550042912
 23
-0.0860217295
 33
0.0
 40
0.0
 40
0.0
 40
0.0
 40
0.0
 40
0.496730383
 40
1.0
 40
1.0
 40
1.0
 40
1.0
 10
8.064371901
 20
4.1517508999
 30
0.0
 10
8.0523211468
 20
4.1398936873
 30
0.0
 10
8.0294268517
 20
4.1145987184
 30
0.0
 10
8.0095031427
 20
4.0869088844
 30
0.0
 10
8.0002758132
 20
4.0724781768
 30
0.0
 11
8.064371901
 21
4.1517508999
 31
0.0
 11
8.0303095285
 21
4.1141732165
 31
0.0
 11
8.0002758132
 21
4.0724781768
 31
0.0
  0
SPLINE
  5
2BA
100
AcDbEntity
  8
0
100
AcDbSpline
 62
6
  6
CONTINUOUS
 70
0
 71
3
 72
14
 73
10
 74
8
 42
0.0000001
 43
0.0000001
 44
0.0000000001
 12
-0.0467843705
 22
-0.1247989302
 32
0.0
 13
-0.0114715387
 23
-0.1327853685
 33
0.0
 40
0.0
 40
0.0
 40
0.0
 40
0.0
 40
0.0617172261
 40
0.1235425261
 40
0.2475125189
 40
0.3719114006
 40
0.4967331087
 40
0.7475759027
 40
1.0
 40
1.0
 40
1.0
 40
1.0
 10
7.9560209536
 20
3.9839720429
 30
0.0
 10
7.9550584864
 20
3.9814046283
 30
0.0
 10
7.9531766567
 20
3.9762483659
 30
0.0
 10
7.9495878774
 20
3.9658538629
 30
0.0
 10
7.9454314856
 20
3.9527115658
 30
0.0
 10
7.9409790291
 20
3.9367375802
 30
0.0
 10
7.9357480221
 20
3.9151422435
 30
0.0
 10
7.9305650222
 20
3.8877014685
 30
0.0
 10
7.9278972141
 20
3.8654833428
 30
0.0
 10
7.9269319832
 20
3.8543106006
 30
0.0
 11
7.9560209536
 21
3.9839720429
 31
0.0
 11
7.9532008981
 21
3.9762448873
 31
0.0
 11
7.9505115688
 21
3.968456028
 31
0.0
 11
7.9455281025
 21
3.9527027668
 31
0.0
 11
7.9410753578
 21
3.936731998
 31
0.0
 11
7.9371578925
 21
3.9205635803
 31
0.0
 11
7.9309470317
 21
3.8877132344
 31
0.0
 11
7.9269319832
 21
3.8543106006
 31
0.0
  0
SPLINE
  5
2BB
100
AcDbEntity
  8
0
100
AcDbSpline
 62
6
  6
CONTINUOUS
 70
0
 71
3
 72
15
 73
11
 74
9
 42
0.0000001
 43
0.0000001
 44
0.0000000001
 12
0.0319778445
 22
-0.1845419869
 32
0.0
 13
0.0946398515
 23
-0.1616218611
 33
0.0
 40
0.0
 40
0.0
 40
0.0
 40
0.0
 40
0.123580354
 40
0.2475992252
 40
0.3720407513
 40
0.4968872345
 40
0.62212086
 40
0.747725385
 40
0.8736878053
 40
1.0
 40
1.0
 40
1.0
 40
1.0
 10
7.9324708116
 20
3.7244027148
 30
0.0
 10
7.9337880893
 20
3.7168007935
 30
0.0
 10
7.9367751285
 20
3.701627968
 30
0.0
 10
7.9422862567
 20
3.6790568643
 30
0.0
 10
7.9488244926
 20
3.6566787894
 30
0.0
 10
7.9563778167
 20
3.6345426465
 30
0.0
 10
7.9649343438
 20
3.6126966042
 30
0.0
 10
7.9744822842
 20
3.5911888756
 30
0.0
 10
7.9850094771
 20
3.5700683202
 30
0.0
 10
7.9926627768
 20
3.556295978
 30
0.0
 10
7.9966474993
 20
3.5494910407
 30
0.0
 11
7.9324708116
 21
3.7244027148
 31
0.0
 11
7.9369394127
 21
3.7016925527
 31
0.0
 11
7.9424472067
 21
3.679127253
 31
0.0
 11
7.9489822379
 21
3.6567552707
 31
0.0
 11
7.9565325504
 21
3.6346250606
 31
0.0
 11
7.9650861885
 21
3.6127850777
 31
0.0
 11
7.9746311965
 21
3.5912837768
 31
0.0
 11
7.9851556187
 21
3.5701696129
 31
0.0
 11
7.9966474993
 21
3.5494910407
 31
0.0
  0
SPLINE
  5
2BC
100
AcDbEntity
  8
0
100
AcDbSpline
 62
6
  6
CONTINUOUS
 70
0
 71
3
 72
13
 73
9
 74
7
 42
0.0000001
 43
0.0000001
 44
0.0000000001
 12
0.0849167761
 22
-0.0879856029
 32
0.0
 13
0.1023791677
 23
-0.0668642745
 33
0.0
 40
0.0
 40
0.0
 40
0.0
 40
0.0
 40
0.2490557131
 40
0.4987531859
 40
0.6238428369
 40
0.7490809516
 40
0.8744664298
 40
1.0
 40
1.0
 40
1.0
 40
1.0
 10
8.0736571451
 20
3.4481118754
 30
0.0
 10
8.0807068145
 20
3.4408074364
 30
0.0
 10
8.0952349614
 20
3.4265702042
 30
0.0
 10
8.1143696155
 20
3.4098030656
 30
0.0
 10
8.1302501492
 20
3.3970247436
 30
0.0
 10
8.1424481299
 20
3.3877622258
 30
0.0
 10
8.1549173443
 20
3.3788374337
 30
0.0
 10
8.163401044
 20
3.3731224673
 30
0.0
 10
8.1676850515
 20
3.3703245636
 30
0.0
 11
8.0736571451
 21
3.4481118754
 31
0.0
 11
8.0954082047
 21
3.4267960264
 31
0.0
 11
8.1183724852
 21
3.4066738552
 31
0.0
 11
8.1302896104
 21
3.3970849319
 31
0.0
 11
8.1424860736
 21
3.3878238679
 31
0.0
 11
8.1549538855
 21
3.3789004763
 31
0.0
 11
8.1676850515
 21
3.3703245636
 31
0.0
  0
SPLINE
  5
2BD
100
AcDbEntity
  8
0
100
AcDbSpline
 62
6
  6
CONTINUOUS
 70
0
 71
3
 72
12
 73
8
 74
6
 42
0.0000001
 43
0.0000001
 44
0.0000000001
 12
0.095356289
 22
-0.0622776021
 32
0.0
 13
0.1061067737
 23
-0.0413844674
 33
0.0
 40
0.0
 40
0.0
 40
0.0
 40
0.0
 40
0.2492473757
 40
0.3740804933
 40
0.4990406857
 40
0.7493004362
 40
1.0
 40
1.0
 40
1.0
 40
1.0
 10
8.1676850518
 20
3.3703245634
 30
0.0
 10
8.1756074868
 20
3.3651503871
 30
0.0
 10
8.1877053011
 20
3.3576959088
 30
0.0
 10
8.2042109197
 20
3.3483924941
 30
0.0
 10
8.2209861087
 20
3.3395009655
 30
0.0
 10
8.2424058591
 20
3.3291880035
 30
0.0
 10
8.2599507055
 20
3.3218230803
 30
0.0
 10
8.2688176794
 20
3.3183647243
 30
0.0
 11
8.1676850518
 21
3.3703245634
 31
0.0
 11
8.1918508648
 21
3.3554300286
 31
0.0
 11
8.2042361701
 21
3.3484486031
 31
0.0
 11
8.2168107744
 21
3.3417832331
 31
0.0
 11
8.2424909796
 21
3.329417143
 31
0.0
 11
8.2688176794
 21
3.3183647243
 31
0.0
  0
SPLINE
  5
2BE
100
AcDbEntity
  8
0
100
AcDbSpline
 62
6
  6
CONTINUOUS
 70
0
 71
3
 72
12
 73
8
 74
6
 42
0.0000001
 43
0.0000001
 44
0.0000000001
 12
0.1060837569
 22
-0.0413754903
 32
0.0
 13
0.1122837648
 23
-0.0189222314
 33
0.0
 40
0.0
 40
0.0
 40
0.0
 40
0.0
 40
0.2495287815
 40
0.4993928905
 40
0.6244478695
 40
0.7495725693
 40
1.0
 40
1.0
 40
1.0
 40
1.0
 10
8.2688176794
 20
3.3183647244
 30
0.0
 10
8.2776413296
 20
3.3149232658
 30
0.0
 10
8.2954788185
 20
3.3084838495
 30
0.0
 10
8.3181627074
 20
3.3015775198
 30
0.0
 10
8.3365196859
 20
3.2967488158
 30
0.0
 10
8.3550147763
 20
3.29238759
 30
0.0
 10
8.3690128371
 20
3.2896527453
 30
0.0
 10
8.3783858154
 20
3.2880731967
 30
0.0
 11
8.2688176794
 21
3.3183647244
 31
0.0
 11
8.2955426427
 21
3.3087169114
 31
0.0
 11
8.3227605786
 21
3.3004308291
 31
0.0
 11
8.33653179
 21
3.2968085417
 31
0.0
 11
8.3503990989
 21
3.2935388125
 31
0.0
 11
8.3783858154
 21
3.2880731967
 31
0.0
  0
SPLINE
  5
2BF
100
AcDbEntity
  8
0
100
AcDbSpline
 62
6
  6
CONTINUOUS
 70
0
 71
3
 72
14
 73
10
 74
8
 42
0.0000001
 43
0.0000001
 44
0.0000000001
 12
0.1408718208
 22
-0.0237399343
 32
0.0
 13
0.1422989805
 23
0.0126275306
 33
0.0
 40
0.0
 40
0.0
 40
0.0
 40
0.0
 40
0.0623637126
 40
0.1247477858
 40
0.2495734558
 40
0.3744804822
 40
0.4994657087
 40
0.7496168462
 40
1.0
 40
1.0
 40
1.0
 40
1.0
 10
8.3783858152
 20
3.2880731967
 30
0.0
 10
8.3813142451
 20
3.2875796933
 30
0.0
 10
8.3871802054
 20
3.2866400751
 30
0.0
 10
8.3989446318
 20
3.2849518229
 30
0.0
 10
8.4137065717
 20
3.2831991324
 30
0.0
 10
8.4314876266
 20
3.2816669982
 30
0.0
 10
8.4552682274
 20
3.2803829429
 30
0.0
 10
8.4850752986
 20
3.2801985037
 30
0.0
 10
8.508889896
 20
3.2815576952
 30
0.0
 10
8.5207663185
 20
3.2826116022
 30
0.0
 11
8.3783858152
 21
3.2880731967
 31
0.0
 11
8.3871828511
 21
3.2866641595
 31
0.0
 11
8.3960045377
 21
3.2853980991
 31
0.0
 11
8.4137124341
 21
3.2832948457
 31
0.0
 11
8.4314904861
 21
3.2817622724
 31
0.0
 11
8.4493196434
 21
3.2807990077
 31
0.0
 11
8.4850550724
 21
3.2805749174
 31
0.0
 11
8.5207663185
 21
3.2826116022
 31
0.0
  0
SPLINE
  5
2C0
100
AcDbEntity
  8
0
100
AcDbSpline
 62
6
  6
CONTINUOUS
 70
0
 71
3
 72
13
 73
9
 74
7
 42
0.0000001
 43
0.0000001
 44
0.0000000001
 12
0.1444962013
 22
0.0128225108
 32
0.0
 13
0.1364185063
 23
0.0493311273
 33
0.0
 40
0.0
 40
0.0
 40
0.0
 40
0.0
 40
0.2498943065
 40
0.499879953
 40
0.6249050276
 40
0.7499343728
 40
0.8749659188
 40
1.0
 40
1.0
 40
1.0
 40
1.0
 10
8.5207663186
 20
3.2826116022
 30
0.0
 10
8.5328025779
 20
3.283679693
 30
0.0
 10
8.5568178506
 20
3.2865858336
 30
0.0
 10
8.5865437953
 20
3.2921308836
 30
0.0
 10
8.6100745875
 20
3.2977087239
 30
0.0
 10
8.6275811345
 20
3.3024625737
 30
0.0
 10
8.6449235196
 20
3.3077846882
 30
0.0
 10
8.6563628486
 20
3.3117110979
 30
0.0
 10
8.6620485028
 20
3.3137671219
 30
0.0
 11
8.5207663186
 21
3.2826116022
 31
0.0
 11
8.5567543307
 21
3.2869675399
 31
0.0
 11
8.59240287
 21
3.2936198842
 31
0.0
 11
8.6100503579
 21
3.2978036463
 31
0.0
 11
8.6275536022
 21
3.302557235
 31
0.0
 11
8.644892811
 21
3.3078792255
 31
0.0
 11
8.6620485028
 21
3.3137671219
 31
0.0
  0
SPLINE
  5
2C1
100
AcDbEntity
  8
0
100
AcDbSpline
 62
6
  6
CONTINUOUS
 70
0
 71
3
 72
15
 73
11
 74
9
 42
0.0000001
 43
0.0000001
 44
0.0000000001
 12
0.1849149568
 22
0.0668682243
 32
0.0
 13
0.1506910286
 23
0.1263214731
 33
0.0
 40
0.0
 40
0.0
 40
0.0
 40
0.0
 40
0.1251143453
 40
0.2502243538
 40
0.3753183862
 40
0.5003815448
 40
0.6253972186
 40
0.750348629
 40
0.8752203776
 40
1.0
 40
1.0
 40
1.0
 40
1.0
 10
8.6620485028
 20
3.3137671219
 30
0.0
 10
8.6697603408
 20
3.3165558466
 30
0.0
 10
8.6850622568
 20
3.3224758797
 30
0.0
 10
8.7075995237
 20
3.3323554337
 30
0.0
 10
8.7296805733
 20
3.3432097942
 30
0.0
 10
8.7512619488
 20
3.3550132704
 30
0.0
 10
8.7723008968
 20
3.3677404318
 30
0.0
 10
8.7927546136
 20
3.3813659372
 30
0.0
 10
8.812579717
 20
3.3958639678
 30
0.0
 10
8.8253549572
 20
3.4060990881
 30
0.0
 10
8.8316226804
 20
3.4113532033
 30
0.0
 11
8.6620485028
 21
3.3137671219
 31
0.0
 11
8.6849934334
 21
3.3226426517
 31
0.0
 11
8.7075249417
 21
3.3325185842
 31
0.0
 11
8.7296000019
 21
3.3433693937
 31
0.0
 11
8.7511755884
 21
3.3551695548
 31
0.0
 11
8.7722086752
 21
3.3678935419
 31
0.0
 11
8.7926562367
 21
3.3815158293
 31
0.0
 11
8.812475247
 21
3.3960108917
 31
0.0
 11
8.8316226804
 21
3.4113532033
 31
0.0
  0
LINE
  5
2C2
100
AcDbEntity
  8
0
100
AcDbLine
 62
6
  6
CONTINUOUS
 10
8.9294014554
 20
3.5178643738
 11
8.9295229431
 21
3.5180371183
  0
LINE
  5
2C3
100
AcDbEntity
  8
0
100
AcDbLine
 62
6
  6
CONTINUOUS
 10
8.9295229431
 20
3.5180371183
 11
8.9297651359
 21
3.5183819084
  0
SPLINE
  5
2C4
100
AcDbEntity
  8
0
100
AcDbSpline
 62
6
  6
CONTINUOUS
 70
0
 71
3
 72
13
 73
9
 74
7
 42
0.0000001
 43
0.0000001
 44
0.0000000001
 12
0.0644771161
 22
-0.1101112411
 32
0.0
 13
0.0886115073
 23
-0.091813859
 33
0.0
 40
0.0
 40
0.0
 40
0.0
 40
0.0
 40
0.1242410149
 40
0.248710369
 40
0.3734050716
 40
0.4983203352
 40
0.7487601409
 40
1.0
 40
1.0
 40
1.0
 40
1.0
 10
7.9966474993
 20
3.5494910407
 30
0.0
 10
7.9993177334
 20
3.5449309299
 30
0.0
 10
8.0048015067
 20
3.5358825509
 30
0.0
 10
8.0134412181
 20
3.5225532363
 30
0.0
 10
8.0224931226
 20
3.5094651687
 30
0.0
 10
8.0351090184
 20
3.4923387381
 30
0.0
 10
8.0518650642
 20
3.4715930613
 30
0.0
 10
8.0662362309
 20
3.4558009757
 30
0.0
 10
8.0736571451
 20
3.4481118754
 30
0.0
 11
7.9966474993
 21
3.5494910407
 31
0.0
 11
8.0048640472
 21
3.5359333423
 31
0.0
 11
8.0135019246
 21
3.5226053805
 31
0.0
 11
8.0225520374
 21
3.5095188548
 31
0.0
 11
8.032004986
 21
3.4966853113
 31
0.0
 11
8.0520817918
 21
3.471823354
 31
0.0
 11
8.0736571451
 21
3.4481118754
 31
0.0
  0
SPLINE
  5
2C5
100
AcDbEntity
  8
0
100
AcDbSpline
 62
6
  6
CONTINUOUS
 70
0
 71
3
 72
13
 73
9
 74
7
 42
0.0000001
 43
0.0000001
 44
0.0000000001
 12
0.0987700529
 22
0.0827970895
 32
0.0
 13
0.0771582536
 23
0.1032350971
 33
0.0
 40
0.0
 40
0.0
 40
0.0
 40
0.0
 40
0.1252559003
 40
0.2504447537
 40
0.3755664229
 40
0.5006190378
 40
0.7504760573
 40
1.0
 40
1.0
 40
1.0
 40
1.0
 10
8.8316226804
 20
3.4113532033
 30
0.0
 10
8.8357465243
 20
3.4148101447
 30
0.0
 10
8.8438913987
 20
3.4218432454
 30
0.0
 10
8.855790682
 20
3.4327430823
 30
0.0
 10
8.8673616095
 20
3.4439786698
 30
0.0
 10
8.8823351001
 20
3.4593856484
 30
0.0
 10
8.9001925887
 20
3.4794253371
 30
0.0
 10
8.9135319432
 20
3.4962453891
 30
0.0
 10
8.9199495538
 20
3.5048319319
 30
0.0
 11
8.8316226804
 21
3.4113532033
 31
0.0
 11
8.8438410782
 21
3.4219040112
 31
0.0
 11
8.8557391147
 21
3.43280202
 31
0.0
 11
8.8673086163
 21
3.4440357709
 31
0.0
 11
8.8785416244
 21
3.455593586
 31
0.0
 11
8.8999663268
 21
3.4796346975
 31
0.0
 11
8.9199495538
 21
3.5048319319
 31
0.0
  0
SPLINE
  5
2C6
100
AcDbEntity
  8
0
100
AcDbSpline
 62
6
  6
CONTINUOUS
 70
0
 71
3
 72
12
 73
8
 74
6
 42
0.0000001
 43
0.0000001
 44
0.0000000001
 12
-0.0302556275
 22
0.0714022225
 32
0.0
 13
-0.0436927523
 23
0.0640673378
 33
0.0
 40
0.0
 40
0.0
 40
0.0
 40
0.0
 40
0.2475299163
 40
0.4967043816
 40
0.6219159205
 40
0.7475377693
 40
1.0
 40
1.0
 40
1.0
 40
1.0
 10
8.7965671349
 20
4.1313686636
 30
0.0
 10
8.794070744
 20
4.137260059
 30
0.0
 10
8.7887666687
 20
4.148959381
 30
0.0
 10
8.7814109083
 20
4.1632614755
 30
0.0
 10
8.7750783721
 20
4.1745301263
 30
0.0
 10
8.7684263066
 20
4.1857118218
 30
0.0
 10
8.7631182644
 20
4.1939242135
 30
0.0
 10
8.7594413412
 20
4.1993157411
 30
0.0
 11
8.7965671349
 21
4.1313686636
 31
0.0
 11
8.7886424894
 21
4.1488519288
 31
0.0
 11
8.7798058707
 21
4.1660359633
 31
0.0
 11
8.775049058
 21
4.1745008785
 31
0.0
 11
8.7700684357
 21
4.1828731173
 31
0.0
 11
8.7594413412
 21
4.1993157411
 31
0.0
  0
SPLINE
  5
2C7
100
AcDbEntity
  8
0
100
AcDbSpline
 62
6
  6
CONTINUOUS
 70
0
 71
3
 72
14
 73
10
 74
8
 42
0.0000001
 43
0.0000001
 44
0.0000000001
 12
-0.0610517326
 22
0.0895210713
 32
0.0
 13
-0.082140814
 23
0.0706698163
 33
0.0
 40
0.0
 40
0.0
 40
0.0
 40
0.0
 40
0.0614819455
 40
0.1231021305
 40
0.2467533607
 40
0.3709564104
 40
0.4957073429
 40
0.7467966576
 40
1.0
 40
1.0
 40
1.0
 40
1.0
 10
8.7594413416
 20
4.1993157405
 30
0.0
 10
8.7581901485
 20
4.2011503837
 30
0.0
 10
8.755653979
 20
4.2048027986
 30
0.0
 10
8.750447852
 20
4.2120371018
 30
0.0
 10
8.7436911323
 20
4.2209446124
 30
0.0
 10
8.7352050942
 20
4.2313933604
 30
0.0
 10
8.7233623654
 20
4.2450335718
 30
0.0
 10
8.7076326675
 20
4.2614516496
 30
0.0
 10
8.6941999835
 20
4.2737748149
 30
0.0
 10
8.6872672072
 20
4.2797394261
 30
0.0
 11
8.7594413416
 21
4.1993157405
 31
0.0
 11
8.755641586
 21
4.2047878932
 31
0.0
 11
8.7517415636
 21
4.2102075088
 31
0.0
 11
8.7436450704
 21
4.2208830625
 31
0.0
 11
8.7351612753
 21
4.2313306336
 31
0.0
 11
8.7262997337
 21
4.2415385272
 31
0.0
 11
8.7074816319
 21
4.2611885017
 31
0.0
 11
8.6872672072
 21
4.2797394261
 31
0.0
  0
SPLINE
  5
2C8
100
AcDbEntity
  8
0
100
AcDbSpline
 62
6
  6
CONTINUOUS
 70
0
 71
3
 72
15
 73
11
 74
9
 42
0.0000001
 43
0.0000001
 44
0.0000000001
 12
-0.1656281618
 22
-0.0874393475
 32
0.0
 13
-0.1244662017
 23
-0.1399517492
 33
0.0
 40
0.0
 40
0.0
 40
0.0
 40
0.0
 40
0.123580354
 40
0.2475992252
 40
0.3720407513
 40
0.4968872345
 40
0.62212086
 40
0.747725385
 40
0.8736878053
 40
1.0
 40
1.0
 40
1.0
 40
1.0
 10
8.1568985949
 20
4.3293769192
 30
0.0
 10
8.1500757993
 20
4.3257749907
 30
0.0
 10
8.1365686306
 20
4.3182454868
 30
0.0
 10
8.1168052676
 20
4.3060292377
 30
0.0
 10
8.0975428797
 20
4.2928958004
 30
0.0
 10
8.0788242623
 20
4.278871718
 30
0.0
 10
8.0606915537
 20
4.2639831788
 30
0.0
 10
8.043186964
 20
4.2482562942
 30
0.0
 10
8.0263532037
 20
4.2317177283
 30
0.0
 10
8.0156199276
 20
4.2201831199
 30
0.0
 10
8.0103793946
 20
4.2142905824
 30
0.0
 11
8.1568985949
 21
4.3293769192
 31
0.0
 11
8.1366808209
 21
4.3181092009
 31
0.0
 11
8.1169219476
 21
4.3058979165
 31
0.0
 11
8.0976643637
 21
4.2927694098
 31
0.0
 11
8.0789504581
 21
4.2787500249
 31
0.0
 11
8.0608226195
 21
4.2638661057
 31
0.0
 11
8.0433232369
 21
4.2481439963
 31
0.0
 11
8.026494699
 21
4.2316100405
 31
0.0
 11
8.0103793946
 21
4.2142905824
 31
0.0
  0
SPLINE
  5
2C9
100
AcDbEntity
  8
0
100
AcDbSpline
 62
6
  6
CONTINUOUS
 70
0
 71
3
 72
13
 73
9
 74
7
 42
0.0000001
 43
0.0000001
 44
0.0000000001
 12
-0.0574385541
 22
-0.1079496998
 32
0.0
 13
-0.0319548012
 23
-0.1180305717
 33
0.0
 40
0.0
 40
0.0
 40
0.0
 40
0.0
 40
0.2490557131
 40
0.4987531859
 40
0.6238428369
 40
0.7490809516
 40
0.8744664298
 40
1.0
 40
1.0
 40
1.0
 40
1.0
 10
7.9377593681
 20
4.109722172
 30
0.0
 10
7.9329909014
 20
4.1007603421
 30
0.0
 10
7.9239399333
 20
4.0825437067
 30
0.0
 10
7.9139063701
 20
4.0591642384
 30
0.0
 10
7.9066608186
 20
4.0401122347
 30
0.0
 10
7.901621024
 20
4.0256489903
 30
0.0
 10
7.8969862414
 20
4.0110321502
 30
0.0
 10
7.8941725928
 20
4.0011976505
 30
0.0
 10
7.8928354593
 20
3.9962587175
 30
0.0
 11
7.9377593681
 21
4.109722172
 31
0.0
 11
7.9242082381
 21
4.0824487253
 31
0.0
 11
7.912167269
 21
4.0543903039
 31
0.0
 11
7.9067302552
 21
4.0400933041
 31
0.0
 11
7.9016913743
 21
4.0256319521
 31
0.0
 11
7.8970574904
 21
4.0110168787
 31
0.0
 11
7.8928354593
 21
3.9962587175
 31
0.0
  0
SPLINE
  5
2CA
100
AcDbEntity
  8
0
100
AcDbSpline
 62
6
  6
CONTINUOUS
 70
0
 71
3
 72
12
 73
8
 74
6
 42
0.0000001
 43
0.0000001
 44
0.0000000001
 12
-0.0297628055
 22
-0.1099340574
 32
0.0
 13
-0.0065701712
 23
-0.1137020423
 33
0.0
 40
0.0
 40
0.0
 40
0.0
 40
0.0
 40
0.2492473757
 40
0.3740804933
 40
0.4990406857
 40
0.7493004362
 40
1.0
 40
1.0
 40
1.0
 40
1.0
 10
7.8928354592
 20
3.9962587172
 30
0.0
 10
7.8903626922
 20
3.9871251254
 30
0.0
 10
7.8870114923
 20
3.9733158597
 30
0.0
 10
7.8832639358
 20
3.9547431704
 30
0.0
 10
7.8799914081
 20
3.9360413841
 30
0.0
 10
7.8768022652
 20
3.9124831104
 30
0.0
 10
7.8752194627
 20
3.8935210835
 30
0.0
 10
7.8746704164
 20
3.8840193994
 30
0.0
 11
7.8928354592
 21
3.9962587172
 31
0.0
 11
7.8861375618
 21
3.9686729989
 31
0.0
 11
7.8833251014
 21
3.9547364945
 31
0.0
 11
7.8808717243
 21
3.9407176225
 31
0.0
 11
7.8770464935
 21
3.912472964
 31
0.0
 11
7.8746704164
 21
3.8840193994
 31
0.0
  0
SPLINE
  5
2CB
100
AcDbEntity
  8
0
100
AcDbSpline
 62
6
  6
CONTINUOUS
 70
0
 71
3
 72
12
 73
8
 74
6
 42
0.0000001
 43
0.0000001
 44
0.0000000001
 12
-0.006568746
 22
-0.113677378
 32
0.0
 13
0.01670148
 23
-0.1126354973
 33
0.0
 40
0.0
 40
0.0
 40
0.0
 40
0.0
 40
0.2495287815
 40
0.4993928905
 40
0.6244478695
 40
0.7495725693
 40
1.0
 40
1.0
 40
1.0
 40
1.0
 10
7.8746704164
 20
3.8840193995
 30
0.0
 10
7.8741240526
 20
3.8745641403
 30
0.0
 10
7.873511891
 20
3.8556097911
 30
0.0
 10
7.8739532883
 20
3.8319019575
 30
0.0
 10
7.8750335363
 20
3.8129512819
 30
0.0
 10
7.8766010612
 20
3.7940137127
 30
0.0
 10
7.8783257081
 20
3.7798556523
 30
0.0
 10
7.8797198777
 20
3.7704533129
 30
0.0
 11
7.8746704164
 21
3.8840193995
 31
0.0
 11
7.8737532688
 21
3.8556211108
 31
0.0
 11
7.874283541
 21
3.8271747752
 31
0.0
 11
7.8750940793
 21
3.8129582265
 31
0.0
 11
7.8762696162
 21
3.7987592301
 31
0.0
 11
7.8797198777
 21
3.7704533129
 31
0.0
  0
SPLINE
  5
2CC
100
AcDbEntity
  8
0
100
AcDbSpline
 62
6
  6
CONTINUOUS
 70
0
 71
3
 72
14
 73
10
 74
8
 42
0.0000001
 43
0.0000001
 44
0.0000000001
 12
0.0209537674
 22
-0.1413131063
 32
0.0
 13
0.0559822986
 23
-0.1314322511
 33
0.0
 40
0.0
 40
0.0
 40
0.0
 40
0.0
 40
0.0623637126
 40
0.1247477858
 40
0.2495734558
 40
0.3744804822
 40
0.4994657087
 40
0.7496168462
 40
1.0
 40
1.0
 40
1.0
 40
1.0
 10
7.8797198777
 20
3.7704533131
 30
0.0
 10
7.8801554626
 20
3.7675157098
 30
0.0
 10
7.881074514
 20
3.761646492
 30
0.0
 10
7.8831042985
 20
3.7499361591
 30
0.0
 10
7.885999081
 20
3.7353551087
 30
0.0
 10
7.8900365829
 20
3.7179708651
 30
0.0
 10
7.8961639836
 20
3.6949573749
 30
0.0
 10
7.905199463
 20
3.6665521707
 30
0.0
 10
7.9138512463
 20
3.6443231559
 30
0.0
 10
7.9185235878
 20
3.633353682
 30
0.0
 11
7.8797198777
 21
3.7704533131
 31
0.0
 11
7.8810982372
 21
3.7616514183
 31
0.0
 11
7.8826201933
 21
3.7528702616
 31
0.0
 11
7.8860919214
 21
3.7353791103
 31
0.0
 11
7.8901280777
 21
3.7179975869
 31
0.0
 11
7.8947214711
 21
3.7007433855
 31
0.0
 11
7.9055512035
 21
3.6666877252
 31
0.0
 11
7.9185235878
 21
3.633353682
 31
0.0
  0
SPLINE
  5
2CD
100
AcDbEntity
  8
0
100
AcDbSpline
 62
6
  6
CONTINUOUS
 70
0
 71
3
 72
13
 73
9
 74
7
 42
0.0000001
 43
0.0000001
 44
0.0000000001
 12
0.0568467142
 22
-0.1334616801
 32
0.0
 13
0.0890723269
 23
-0.1144975526
 33
0.0
 40
0.0
 40
0.0
 40
0.0
 40
0.0
 40
0.2498943065
 40
0.499879953
 40
0.6249050276
 40
0.7499343728
 40
0.8749659188
 40
1.0
 40
1.0
 40
1.0
 40
1.0
 10
7.9185235878
 20
3.633353682
 30
0.0
 10
7.9232588112
 20
3.6222365774
 30
0.0
 10
7.9334438425
 20
3.6002947427
 30
0.0
 10
7.9479033205
 20
3.5737372039
 30
0.0
 10
7.9604795766
 20
3.5530817381
 30
0.0
 10
7.970410577
 20
3.5379010429
 30
0.0
 10
7.9808313004
 20
3.5230520783
 30
0.0
 10
7.9881004849
 20
3.5133859572
 30
0.0
 10
7.9918128438
 20
3.5086139251
 30
0.0
 11
7.9185235878
 21
3.633353682
 31
0.0
 11
7.9337872381
 21
3.6004731074
 31
0.0
 11
7.9511299979
 21
3.5686250192
 31
0.0
 11
7.9605623658
 21
3.5531341144
 31
0.0
 11
7.9704920973
 21
3.5379564796
 31
0.0
 11
7.9809117211
 21
3.5231104975
 31
0.0
 11
7.9918128438
 21
3.5086139251
 31
0.0
  0
SPLINE
  5
2CE
100
AcDbEntity
  8
0
100
AcDbSpline
 62
6
  6
CONTINUOUS
 70
0
 71
3
 72
15
 73
11
 74
9
 42
0.0000001
 43
0.0000001
 44
0.0000000001
 12
0.1207373246
 22
-0.1552011569
 32
0.0
 13
0.1667049489
 23
-0.1042802027
 33
0.0
 40
0.0
 40
0.0
 40
0.0
 40
0.0
 40
0.1251143453
 40
0.2502243538
 40
0.3753183862
 40
0.5003815448
 40
0.6253972186
 40
0.750348629
 40
0.8752203776
 40
1.0
 40
1.0
 40
1.0
 40
1.0
 10
7.9918128438
 20
3.5086139251
 30
0.0
 10
7.9968481676
 20
3.5021412947
 30
0.0
 10
8.0072070056
 20
3.4894176985
 30
0.0
 10
8.0235674184
 20
3.4710364341
 30
0.0
 10
8.0407139483
 20
3.4533902899
 30
0.0
 10
8.058608733
 20
3.4365126568
 30
0.0
 10
8.0772143752
 20
3.4204363374
 30
0.0
 10
8.0964935471
 20
3.4051942095
 30
0.0
 10
8.1164082874
 20
3.3908195536
 30
0.0
 10
8.1300902315
 20
3.3818324042
 30
0.0
 10
8.1370240251
 20
3.3774950561
 30
0.0
 11
7.9918128438
 21
3.5086139251
 31
0.0
 11
8.0073443477
 21
3.4895346889
 31
0.0
 11
8.0236995366
 21
3.4711577821
 31
0.0
 11
8.0408408385
 21
3.4535162368
 31
0.0
 11
8.0587306814
 21
3.436643085
 31
0.0
 11
8.0773314935
 21
3.4205713589
 31
0.0
 11
8.0966057028
 21
3.4053340907
 31
0.0
 11
8.1165157373
 21
3.3909643124
 31
0.0
 11
8.1370240251
 21
3.3774950561
 31
0.0
  0
SPLINE
  5
2CF
100
AcDbEntity
  8
0
100
AcDbSpline
 62
6
  6
CONTINUOUS
 70
0
 71
3
 72
13
 73
9
 74
7
 42
0.0000001
 43
0.0000001
 44
0.0000000001
 12
-0.0847974888
 22
-0.0953476262
 32
0.0
 13
-0.0599377072
 23
-0.1126465942
 33
0.0
 40
0.0
 40
0.0
 40
0.0
 40
0.0
 40
0.1242410149
 40
0.248710369
 40
0.3734050716
 40
0.4983203352
 40
0.7487601409
 40
1.0
 40
1.0
 40
1.0
 40
1.0
 10
8.0103793946
 20
4.2142905824
 30
0.0
 10
8.0068676192
 20
4.2103418871
 30
0.0
 10
7.9999566786
 20
4.2023304058
 30
0.0
 10
7.9899495647
 20
4.1899945673
 30
0.0
 10
7.9802992651
 20
4.1773412593
 30
0.0
 10
7.9679095878
 20
4.1600504712
 30
0.0
 10
7.9533571796
 20
4.1377037579
 30
0.0
 10
7.9427789485
 20
4.1191559435
 30
0.0
 10
7.9377593681
 20
4.109722172
 30
0.0
 11
8.0103793946
 21
4.2142905824
 31
0.0
 11
8.0000243101
 21
4.2022866218
 31
0.0
 11
7.9900179161
 21
4.1899529454
 31
0.0
 11
7.9803685293
 21
4.1773018179
 31
0.0
 11
7.9710842258
 21
4.1643457465
 31
0.0
 11
7.9536431735
 21
4.1375688021
 31
0.0
 11
7.9377593681
 21
4.109722172
 31
0.0
  0
SPLINE
  5
2D0
100
AcDbEntity
  8
0
100
AcDbSpline
 62
6
  6
CONTINUOUS
 70
0
 71
3
 72
13
 73
9
 74
7
 42
0.0000001
 43
0.0000001
 44
0.0000000001
 12
0.1092663364
 22
-0.0683501947
 32
0.0
 13
0.1220256234
 23
-0.0414804605
 33
0.0
 40
0.0
 40
0.0
 40
0.0
 40
0.0
 40
0.1252559003
 40
0.2504447537
 40
0.3755664229
 40
0.5006190378
 40
0.7504760573
 40
1.0
 40
1.0
 40
1.0
 40
1.0
 10
8.1370240251
 20
3.3774950561
 30
0.0
 10
8.1415861095
 20
3.3746413011
 30
0.0
 10
8.1507918904
 20
3.3690684129
 30
0.0
 10
8.1648353321
 20
3.3611197568
 30
0.0
 10
8.179096624
 20
3.3535871383
 30
0.0
 10
8.1983765945
 20
3.3441075208
 30
0.0
 10
8.2229537384
 20
3.3333166442
 30
0.0
 10
8.2430726457
 20
3.325827846
 30
0.0
 10
8.2532220839
 20
3.3223777234
 30
0.0
 11
8.1370240251
 21
3.3774950561
 31
0.0
 11
8.1508341322
 21
3.3691350482
 31
0.0
 11
8.16487545
 21
3.361187013
 31
0.0
 11
8.1791345546
 21
3.3536551831
 31
0.0
 11
8.1935978803
 21
3.3465435187
 31
0.0
 11
8.2230829332
 21
3.333596528
 31
0.0
 11
8.2532220839
 21
3.3223777234
 31
0.0
  0
SPLINE
  5
2D1
100
AcDbEntity
  8
0
100
AcDbSpline
 62
6
  6
CONTINUOUS
 70
0
 71
3
 72
12
 73
8
 74
6
 42
0.0000001
 43
0.0000001
 44
0.0000000001
 12
0.0585580459
 22
0.0508393119
 32
0.0
 13
0.0474298561
 23
0.061352173
 33
0.0
 40
0.0
 40
0.0
 40
0.0
 40
0.0
 40
0.2475299163
 40
0.4967043816
 40
0.6219159205
 40
0.7475377693
 40
1.0
 40
1.0
 40
1.0
 40
1.0
 10
8.8109666611
 20
3.6333318745
 30
0.0
 10
8.8157982838
 20
3.6375266247
 30
0.0
 10
8.8252859509
 20
3.6461863894
 30
0.0
 10
8.8366149961
 20
3.6576017234
 30
0.0
 10
8.8453752585
 20
3.6671065279
 30
0.0
 10
8.8539540816
 20
3.6768883521
 30
0.0
 10
8.860124255
 20
3.6844743688
 30
0.0
 10
8.8641156707
 20
3.6896374042
 30
0.0
 11
8.8109666611
 21
3.6333318745
 31
0.0
 11
8.8251453842
 21
3.6462712863
 31
0.0
 11
8.8387577069
 21
3.6599855688
 31
0.0
 11
8.8453383836
 21
3.6671253692
 31
0.0
 11
8.851761759
 21
3.6744493865
 31
0.0
 11
8.8641156707
 21
3.6896374042
 31
0.0
  0
SPLINE
  5
2D2
100
AcDbEntity
  8
0
100
AcDbSpline
 62
6
  6
CONTINUOUS
 70
0
 71
3
 72
14
 73
10
 74
8
 42
0.0000001
 43
0.0000001
 44
0.0000000001
 12
0.0662735753
 22
0.0857271805
 32
0.0
 13
0.0418280818
 23
0.0999587306
 33
0.0
 40
0.0
 40
0.0
 40
0.0
 40
0.0
 40
0.0614819455
 40
0.1231021305
 40
0.2467533607
 40
0.3709564104
 40
0.4957073429
 40
0.7467966576
 40
1.0
 40
1.0
 40
1.0
 40
1.0
 10
8.8641156703
 20
3.6896374036
 30
0.0
 10
8.8654738797
 20
3.6913942949
 30
0.0
 10
8.8681638132
 20
3.6949349938
 30
0.0
 10
8.8734352627
 20
3.7021218374
 30
0.0
 10
8.8798188675
 20
3.7113004318
 30
0.0
 10
8.8871338874
 20
3.7225999743
 30
0.0
 10
8.8964468948
 20
3.7380781359
 30
0.0
 10
8.9072006708
 20
3.7581114326
 30
0.0
 10
8.9147697697
 20
3.7746947418
 30
0.0
 10
8.9183001064
 20
3.78313137
 30
0.0
 11
8.8641156703
 21
3.6896374036
 31
0.0
 11
8.8681458077
 21
3.6949421742
 31
0.0
 11
8.8720949953
 21
3.7003260692
 31
0.0
 11
8.8797460962
 21
3.7113252194
 31
0.0
 11
8.8870606899
 21
3.722622265
 31
0.0
 11
8.8940306066
 21
3.7342045045
 31
0.0
 11
8.9069037297
 21
3.7581737589
 31
0.0
 11
8.9183001064
 21
3.78313137
 31
0.0
  0
SPLINE
  5
2D3
100
AcDbEntity
  8
0
100
AcDbSpline
 62
6
  6
CONTINUOUS
 70
0
 71
3
 72
13
 73
9
 74
7
 42
0.0000001
 43
0.0000001
 44
0.0000000001
 12
0.0388435954
 22
0.092826549
 32
0.0
 13
0.0165453992
 23
0.0992564501
 33
0.0
 40
0.0
 40
0.0
 40
0.0
 40
0.0
 40
0.2473626773
 40
0.4964832814
 40
0.6217088961
 40
0.7473687042
 40
0.8734644439
 40
1.0
 40
1.0
 40
1.0
 40
1.0
 10
8.9183001064
 20
3.78313137
 30
0.0
 10
8.921502925
 20
3.7907853113
 30
0.0
 10
8.9274882108
 20
3.8063369614
 30
0.0
 10
8.9338503209
 20
3.8262086983
 30
0.0
 10
8.9382707882
 20
3.8423888957
 30
0.0
 10
8.9412499555
 20
3.854679545
 30
0.0
 10
8.9438808895
 20
3.8670941444
 30
0.0
 10
8.945396131
 20
3.8754327763
 30
0.0
 10
8.9460939914
 20
3.8796192663
 30
0.0
 11
8.9183001064
 21
3.78313137
 31
0.0
 11
8.9272424565
 21
3.806360708
 31
0.0
 11
8.9348873258
 21
3.8302345676
 31
0.0
 11
8.9382083121
 21
3.8423900223
 31
0.0
 11
8.9411870566
 21
3.8546788025
 31
0.0
 11
8.9438176021
 21
3.8670916399
 31
0.0
 11
8.9460939914
 21
3.8796192663
 31
0.0
  0
SPLINE
  5
2D4
100
AcDbEntity
  8
0
100
AcDbSpline
 62
6
  6
CONTINUOUS
 70
0
 71
3
 72
9
 73
5
 74
3
 42
0.0000001
 43
0.0000001
 44
0.0000000001
 12
0.0167884047
 22
0.1007142466
 32
0.0
 13
-0.0060628976
 23
0.1019237523
 33
0.0
 40
0.0
 40
0.0
 40
0.0
 40
0.0
 40
0.496730383
 40
1.0
 40
1.0
 40
1.0
 40
1.0
 10
8.9460939911
 20
3.8796192644
 30
0.0
 10
8.9488737613
 20
3.8962952065
 30
0.0
 10
8.9525276255
 20
3.9302161952
 30
0.0
 10
8.9523705686
 20
3.9643286038
 30
0.0
 10
8.9513534779
 20
3.9814269797
 30
0.0
 11
8.9460939911
 21
3.8796192644
 31
0.0
 11
8.9515634212
 21
3.9300416091
 31
0.0
 11
8.9513534779
 21
3.9814269797
 31
0.0
  0
SPLINE
  5
2D5
100
AcDbEntity
  8
0
100
AcDbSpline
 62
6
  6
CONTINUOUS
 70
0
 71
3
 72
14
 73
10
 74
8
 42
0.0000001
 43
0.0000001
 44
0.0000000001
 12
-0.0355056198
 22
0.1284636184
 32
0.0
 13
-0.0687686116
 23
0.114168421
 33
0.0
 40
0.0
 40
0.0
 40
0.0
 40
0.0
 40
0.0617172261
 40
0.1235425261
 40
0.2475125189
 40
0.3719114006
 40
0.4967331087
 40
0.7475759027
 40
1.0
 40
1.0
 40
1.0
 40
1.0
 10
8.9351338112
 20
4.0790423
 30
0.0
 10
8.934403375
 20
4.081685106
 30
0.0
 10
8.9328950323
 20
4.0869627217
 30
0.0
 10
8.9296886801
 20
4.0974814828
 30
0.0
 10
8.9253264233
 20
4.1105568904
 30
0.0
 10
8.9195392631
 20
4.1260972044
 30
0.0
 10
8.9110778163
 20
4.1466429075
 30
0.0
 10
8.8991416684
 20
4.1718894518
 30
0.0
 10
8.8882404838
 20
4.1914323913
 30
0.0
 10
8.8824541989
 20
4.2010386781
 30
0.0
 11
8.9351338112
 21
4.0790423
 31
0.0
 11
8.9328733759
 21
4.0869512872
 31
0.0
 11
8.9304709123
 21
4.0948333549
 31
0.0
 11
8.9252430866
 21
4.1105072188
 31
0.0
 11
8.9194580504
 21
4.1260450999
 31
0.0
 11
8.913123789
 21
4.1414282529
 31
0.0
 11
8.898839532
 21
4.1716553934
 31
0.0
 11
8.8824541989
 21
4.2010386781
 31
0.0
  0
SPLINE
  5
2D6
100
AcDbEntity
  8
0
100
AcDbSpline
 62
6
  6
CONTINUOUS
 70
0
 71
3
 72
15
 73
11
 74
9
 42
0.0000001
 43
0.0000001
 44
0.0000000001
 12
-0.1271333846
 22
0.1234992552
 32
0.0
 13
-0.160969224
 23
0.0741880882
 33
0.0
 40
0.0
 40
0.0
 40
0.0
 40
0.0
 40
0.1236468938
 40
0.2477100281
 40
0.372175353
 40
0.4970271031
 40
0.6222491832
 40
0.7478265311
 40
0.8737464627
 40
1.0
 40
1.0
 40
1.0
 40
1.0
 10
8.8016152533
 20
4.3028807238
 30
0.0
 10
8.7963753706
 20
4.3079708235
 30
0.0
 10
8.7856563538
 20
4.3179427628
 30
0.0
 10
8.7689274491
 20
4.3322225767
 30
0.0
 10
8.7515515526
 20
4.3458240528
 30
0.0
 10
8.7335613409
 20
4.3587195894
 30
0.0
 10
8.7149890328
 20
4.3708820243
 30
0.0
 10
8.6958668075
 20
4.3822841238
 30
0.0
 10
8.6762274126
 20
4.3928983883
 30
0.0
 10
8.6628275971
 20
4.3994231281
 30
0.0
 10
8.6560532858
 20
4.4025452976
 30
0.0
 11
8.8016152533
 21
4.3028807238
 31
0.0
 11
8.7855708897
 21
4.3178094804
 31
0.0
 11
8.7688471959
 21
4.3320869642
 31
0.0
 11
8.751476568
 21
4.3456858565
 31
0.0
 11
8.7334914023
 21
4.3585788389
 31
0.0
 11
8.714924095
 21
4.3707385927
 31
0.0
 11
8.6958070424
 21
4.3821377995
 31
0.0
 11
8.6761726406
 21
4.3927491406
 31
0.0
 11
8.6560532858
 21
4.4025452976
 31
0.0
  0
SPLINE
  5
2D7
100
AcDbEntity
  8
0
100
AcDbSpline
 62
6
  6
CONTINUOUS
 70
0
 71
3
 72
14
 73
10
 74
8
 42
0.0000001
 43
0.0000001
 44
0.0000000001
 12
-0.1279216804
 22
-0.0635963684
 32
0.0
 13
-0.1077000172
 23
-0.093857129
 33
0.0
 40
0.0
 40
0.0
 40
0.0
 40
0.0
 40
0.0623637126
 40
0.1247477858
 40
0.2495734558
 40
0.3744804822
 40
0.4994657087
 40
0.7496168462
 40
1.0
 40
1.0
 40
1.0
 40
1.0
 10
8.1843943814
 20
4.3937764561
 30
0.0
 10
8.1817351578
 20
4.3924544209
 30
0.0
 10
8.1764372025
 20
4.389766663
 30
0.0
 10
8.1659272519
 20
4.3842175314
 30
0.0
 10
8.152954386
 20
4.3769586372
 30
0.0
 10
8.1376686445
 20
4.367746718
 30
0.0
 10
8.1176749856
 20
4.3548076541
 30
0.0
 10
8.0934521478
 20
4.3374367117
 30
0.0
 10
8.0749846465
 20
4.3223392335
 30
0.0
 10
8.0659958898
 20
4.3145058189
 30
0.0
 11
8.1843943814
 21
4.3937764561
 31
0.0
 11
8.1764492185
 21
4.3897456232
 31
0.0
 11
8.1685681525
 21
4.3855846303
 31
0.0
 11
8.1530059021
 21
4.3768777577
 31
0.0
 11
8.1377223319
 21
4.3676679588
 31
0.0
 11
8.1227320479
 21
4.3579675406
 31
0.0
 11
8.0936897615
 21
4.3371440752
 31
0.0
 11
8.0659958898
 21
4.3145058189
 31
0.0
  0
SPLINE
  5
2D8
100
AcDbEntity
  8
0
100
AcDbSpline
 62
6
  6
CONTINUOUS
 70
0
 71
3
 72
13
 73
9
 74
7
 42
0.0000001
 43
0.0000001
 44
0.0000000001
 12
-0.1093629997
 22
-0.0953063653
 32
0.0
 13
-0.0813687808
 23
-0.1200945065
 33
0.0
 40
0.0
 40
0.0
 40
0.0
 40
0.0
 40
0.2498943065
 40
0.499879953
 40
0.6249050276
 40
0.7499343728
 40
0.8749659188
 40
1.0
 40
1.0
 40
1.0
 40
1.0
 10
8.0659958898
 20
4.3145058189
 30
0.0
 10
8.0568861595
 20
4.3065669795
 30
0.0
 10
8.0391655823
 20
4.2901000393
 30
0.0
 10
8.0183760865
 20
4.2681415277
 30
0.0
 10
8.002617848
 20
4.2497979074
 30
0.0
 10
7.9912489968
 20
4.235661872
 30
0.0
 10
7.9803469729
 20
4.2211625927
 30
0.0
 10
7.973400247
 20
4.2112621917
 30
0.0
 10
7.9700089567
 20
4.2062568896
 30
0.0
 11
8.0659958898
 21
4.3145058189
 31
0.0
 11
8.0394413323
 21
4.2898285684
 31
0.0
 11
8.014511208
 21
4.2634930232
 31
0.0
 11
8.0026932441
 21
4.2497353554
 31
0.0
 11
7.9913269114
 21
4.2356014725
 31
0.0
 11
7.9804273843
 21
4.2211041605
 31
0.0
 11
7.9700089567
 21
4.2062568896
 31
0.0
  0
SPLINE
  5
2D9
100
AcDbEntity
  8
0
100
AcDbSpline
 62
6
  6
CONTINUOUS
 70
0
 71
3
 72
15
 73
11
 74
9
 42
0.0000001
 43
0.0000001
 44
0.0000000001
 12
-0.1102951865
 22
-0.1627878144
 32
0.0
 13
-0.0476617041
 23
-0.1907701828
 33
0.0
 40
0.0
 40
0.0
 40
0.0
 40
0.0
 40
0.1251143453
 40
0.2502243538
 40
0.3753183862
 40
0.5003815448
 40
0.6253972186
 40
0.750348629
 40
0.8752203776
 40
1.0
 40
1.0
 40
1.0
 40
1.0
 10
7.9700089567
 20
4.2062568896
 30
0.0
 10
7.96540912
 20
4.1994678593
 30
0.0
 10
7.956509318
 20
4.1856842114
 30
0.0
 10
7.9440833422
 20
4.1644444112
 30
0.0
 10
7.9325994309
 20
4.1426841337
 30
0.0
 10
7.9220776406
 20
4.1204497067
 30
0.0
 10
7.912537612
 20
4.0977868335
 30
0.0
 10
7.9039990786
 20
4.0747411749
 30
0.0
 10
7.8964819616
 20
4.0513591184
 30
0.0
 10
7.8921626279
 20
4.0355696344
 30
0.0
 10
7.8901802248
 20
4.0276348906
 30
0.0
 11
7.9700089567
 21
4.2062568896
 31
0.0
 11
7.9566630235
 21
4.1855897434
 31
0.0
 11
7.9442395778
 21
4.1643562579
 31
0.0
 11
7.9327584248
 21
4.1426023737
 31
0.0
 11
7.9222393693
 21
4.1203740313
 31
0.0
 11
7.9127022166
 21
4.0977171713
 31
0.0
 11
7.9041667715
 21
4.0746777341
 31
0.0
 11
7.8966528392
 21
4.0513016604
 31
0.0
 11
7.8901802248
 21
4.0276348906
 31
0.0
  0
SPLINE
  5
2DA
100
AcDbEntity
  8
0
100
AcDbSpline
 62
6
  6
CONTINUOUS
 70
0
 71
3
 72
13
 73
9
 74
7
 42
0.0000001
 43
0.0000001
 44
0.0000000001
 12
-0.0312397432
 22
-0.1250398329
 32
0.0
 13
-0.0017422709
 23
-0.1288714315
 33
0.0
 40
0.0
 40
0.0
 40
0.0
 40
0.0
 40
0.1252559003
 40
0.2504447537
 40
0.3755664229
 40
0.5006190378
 40
0.7504760573
 40
1.0
 40
1.0
 40
1.0
 40
1.0
 10
7.8901802248
 20
4.0276348906
 30
0.0
 10
7.8888759041
 20
4.0224142316
 30
0.0
 10
7.8864205152
 20
4.0119368966
 30
0.0
 10
7.8832005561
 20
3.99612452
 30
0.0
 10
7.8804435918
 20
3.9802335183
 30
0.0
 10
7.8773857783
 20
3.9589678138
 30
0.0
 10
7.8747178
 20
3.9322589967
 30
0.0
 10
7.8738126139
 20
3.9108106129
 30
0.0
 10
7.8736677012
 20
3.900091777
 30
0.0
 11
7.8901802248
 21
4.0276348906
 31
0.0
 11
7.8864969426
 21
4.0119173137
 31
0.0
 11
7.8832769177
 21
3.996107149
 31
0.0
 11
7.8805200274
 21
3.9802184712
 31
0.0
 11
7.8782258461
 21
3.9642654058
 31
0.0
 11
7.8750239087
 21
3.932222614
 31
0.0
 11
7.8736677012
 21
3.900091777
 31
0.0
  0
SPLINE
  5
2DB
100
AcDbEntity
  8
0
100
AcDbSpline
 62
6
  6
CONTINUOUS
 70
0
 71
3
 72
15
 73
11
 74
9
 42
0.0000001
 43
0.0000001
 44
0.0000000001
 12
-0.0064535963
 22
0.1965279923
 32
0.0
 13
-0.0735727714
 23
0.1823511666
 33
0.0
 40
0.0
 40
0.0
 40
0.0
 40
0.0
 40
0.1251143453
 40
0.2502243538
 40
0.3753183862
 40
0.5003815448
 40
0.6253972186
 40
0.750348629
 40
0.8752203776
 40
1.0
 40
1.0
 40
1.0
 40
1.0
 10
9.0544730336
 20
3.8909881395
 30
0.0
 10
9.0542038877
 20
3.8991842965
 30
0.0
 10
9.0533021539
 20
3.9155666743
 30
0.0
 10
9.0508705381
 20
3.9400538389
 30
0.0
 10
9.0473708474
 20
3.9644083469
 30
0.0
 10
9.0428140862
 20
3.9885809294
 30
0.0
 10
9.0372112289
 20
4.0125230671
 30
0.0
 10
9.0305731493
 20
4.0361862205
 30
0.0
 10
9.0229109967
 20
4.0595211521
 30
0.0
 10
9.0171245851
 20
4.0748339537
 30
0.0
 10
9.0140644576
 20
4.0824185236
 30
0.0
 11
9.0544730336
 21
3.8909881395
 31
0.0
 11
9.0531222766
 21
3.9155527547
 31
0.0
 11
9.0506923257
 21
3.9400333234
 31
0.0
 11
9.0471941613
 21
3.9643810379
 31
0.0
 11
9.0426387641
 21
3.9885470903
 31
0.0
 11
9.0370371146
 21
4.0124826728
 31
0.0
 11
9.0304001933
 21
4.0361389778
 31
0.0
 11
9.0227389808
 21
4.0594671973
 31
0.0
 11
9.0140644576
 21
4.0824185236
 31
0.0
  0
SPLINE
  5
2DC
100
AcDbEntity
  8
0
100
AcDbSpline
 62
6
  6
CONTINUOUS
 70
0
 71
3
 72
13
 73
9
 74
7
 42
0.0000001
 43
0.0000001
 44
0.0000000001
 12
0.0324568494
 22
0.1413864276
 32
0.0
 13
-0.0047610533
 23
0.144985866
 33
0.0
 40
0.0
 40
0.0
 40
0.0
 40
0.0
 40
0.2498943065
 40
0.499879953
 40
0.6249050276
 40
0.7499343728
 40
0.8749659188
 40
1.0
 40
1.0
 40
1.0
 40
1.0
 10
9.0404450977
 20
3.7469932124
 30
0.0
 10
9.0431486916
 20
3.7587704335
 30
0.0
 10
9.0478059151
 20
3.7825083619
 30
0.0
 10
9.0517180812
 20
3.81249293
 30
0.0
 10
9.0536846545
 20
3.8365956907
 30
0.0
 10
9.0545732952
 20
3.8547144267
 30
0.0
 10
9.0548707553
 20
3.8728526388
 30
0.0
 10
9.0546714649
 20
3.8849454146
 30
0.0
 10
9.0544730336
 20
3.8909881395
 30
0.0
 11
9.0404450977
 21
3.7469932124
 31
0.0
 11
9.0474232621
 21
3.7825659046
 31
0.0
 11
9.0521125112
 21
3.8185253677
 31
0.0
 11
9.0535868907
 21
3.8366019796
 31
0.0
 11
9.054474759
 21
3.8547174938
 31
0.0
 11
9.0547713555
 21
3.8728526469
 31
0.0
 11
9.0544730336
 21
3.8909881395
 31
0.0
  0
SPLINE
  5
2DD
100
AcDbEntity
  8
0
100
AcDbSpline
 62
6
  6
CONTINUOUS
 70
0
 71
3
 72
12
 73
8
 74
6
 42
0.0000001
 43
0.0000001
 44
0.0000000001
 12
0.0664464902
 22
-0.0399817998
 32
0.0
 13
0.0730060155
 23
-0.0261496097
 33
0.0
 40
0.0
 40
0.0
 40
0.0
 40
0.0
 40
0.2475299163
 40
0.4967043816
 40
0.6219159205
 40
0.7475377693
 40
1.0
 40
1.0
 40
1.0
 40
1.0
 10
8.3417552257
 20
3.4657352796
 30
0.0
 10
8.3472377238
 20
3.4624363825
 30
0.0
 10
8.3584054998
 20
3.4560890894
 30
0.0
 10
8.3727629951
 20
3.4488420593
 30
0.0
 10
8.3845096713
 20
3.4434477007
 30
0.0
 10
8.3964637411
 20
3.438311505
 30
0.0
 10
8.4055851601
 20
3.4347875295
 30
0.0
 10
8.4117289139
 20
3.4325869333
 30
0.0
 11
8.3417552257
 21
3.4657352796
 31
0.0
 11
8.3584428041
 21
3.4562490108
 31
0.0
 11
8.3756923008
 21
3.447540869
 31
0.0
 11
8.3845161955
 21
3.4434885931
 31
0.0
 11
8.3934666821
 21
3.4396428459
 31
0.0
 11
8.4117289139
 21
3.4325869333
 31
0.0
  0
SPLINE
  5
2DE
100
AcDbEntity
  8
0
100
AcDbSpline
 62
6
  6
CONTINUOUS
 70
0
 71
3
 72
14
 73
10
 74
8
 42
0.0000001
 43
0.0000001
 44
0.0000000001
 12
0.1020110547
 22
-0.03653876
 32
0.0
 13
0.1079919902
 23
-0.0088919233
 33
0.0
 40
0.0
 40
0.0
 40
0.0
 40
0.0
 40
0.0614819455
 40
0.1231021305
 40
0.2467533607
 40
0.3709564104
 40
0.4957073429
 40
0.7467966576
 40
1.0
 40
1.0
 40
1.0
 40
1.0
 10
8.4117289132
 20
3.4325869335
 30
0.0
 10
8.4138195259
 20
3.4318381088
 30
0.0
 10
8.4180181658
 20
3.4303739661
 30
0.0
 10
8.4264822277
 20
3.4275813766
 30
0.0
 10
8.4371842321
 20
3.4243465494
 30
0.0
 10
8.4501912011
 20
3.4208813027
 30
0.0
 10
8.4677896851
 20
3.4168071212
 30
0.0
 10
8.490165582
 20
3.4127703017
 30
0.0
 10
8.5082762265
 20
3.4106961851
 30
0.0
 10
8.5173908708
 20
3.4099456969
 30
0.0
 11
8.4117289132
 21
3.4325869335
 31
0.0
 11
8.4180194308
 21
3.4303933093
 31
0.0
 11
8.4243601853
 21
3.4283011238
 31
0.0
 11
8.4371853189
 21
3.4244234188
 31
0.0
 11
8.4501897815
 21
3.4209578058
 31
0.0
 11
8.4633589686
 21
3.4179081299
 31
0.0
 11
8.490133098
 21
3.4130719693
 31
0.0
 11
8.5173908708
 21
3.4099456969
 31
0.0
  0
SPLINE
  5
2DF
100
AcDbEntity
  8
0
100
AcDbSpline
 62
6
  6
CONTINUOUS
 70
0
 71
3
 72
13
 73
9
 74
7
 42
0.0000001
 43
0.0000001
 44
0.0000000001
 12
0.1002866254
 22
-0.0082574734
 32
0.0
 13
0.0995113031
 23
0.0149363202
 33
0.0
 40
0.0
 40
0.0
 40
0.0
 40
0.0
 40
0.2473626773
 40
0.4964832814
 40
0.6217088961
 40
0.7473687042
 40
0.8734644439
 40
1.0
 40
1.0
 40
1.0
 40
1.0
 10
8.5173908708
 20
3.4099456969
 30
0.0
 10
8.5256599268
 20
3.4092648333
 30
0.0
 10
8.5422999801
 20
3.4083782125
 30
0.0
 10
8.563165125
 20
3.4084681906
 30
0.0
 10
8.5799194068
 20
3.4092640324
 30
0.0
 10
8.5925291222
 20
3.4102286954
 30
0.0
 10
8.6051491112
 20
3.4115628506
 30
0.0
 10
8.6135478568
 20
3.4126985494
 30
0.0
 10
8.6177450961
 20
3.4133285412
 30
0.0
 11
8.5173908708
 21
3.4099456969
 31
0.0
 11
8.5422466222
 21
3.4086192768
 31
0.0
 11
8.5673144065
 21
3.4087260024
 31
0.0
 11
8.579901172
 21
3.4093237988
 31
0.0
 11
8.5925089792
 21
3.4102882863
 31
0.0
 11
8.6051271724
 21
3.4116222666
 31
0.0
 11
8.6177450961
 21
3.4133285412
 31
0.0
  0
SPLINE
  5
2E0
100
AcDbEntity
  8
0
100
AcDbSpline
 62
6
  6
CONTINUOUS
 70
0
 71
3
 72
9
 73
5
 74
3
 42
0.0000001
 43
0.0000001
 44
0.0000000001
 12
0.1009728429
 22
0.0151556921
 32
0.0
 13
0.0950617104
 23
0.0372623299
 33
0.0
 40
0.0
 40
0.0
 40
0.0
 40
0.0
 40
0.496730383
 40
1.0
 40
1.0
 40
1.0
 40
1.0
 10
8.6177450942
 20
3.4133285409
 30
0.0
 10
8.6344638538
 20
3.4158379718
 30
0.0
 10
8.6678537373
 20
3.4228451025
 30
0.0
 10
8.7002480325
 20
3.4335357864
 30
0.0
 10
8.716195256
 20
3.4397867859
 30
0.0
 11
8.6177450942
 21
3.4133285409
 31
0.0
 11
8.6673897405
 21
3.4237081651
 31
0.0
 11
8.716195256
 21
3.4397867859
 31
0.0
  0
SPLINE
  5
2E1
100
AcDbEntity
  8
0
100
AcDbSpline
 62
6
  6
CONTINUOUS
 70
0
 71
3
 72
14
 73
10
 74
8
 42
0.0000001
 43
0.0000001
 44
0.0000000001
 12
0.1112043215
 22
0.0734652923
 32
0.0
 13
0.0873299511
 23
0.1006828185
 33
0.0
 40
0.0
 40
0.0
 40
0.0
 40
0.0
 40
0.0617172261
 40
0.1235425261
 40
0.2475125189
 40
0.3719114006
 40
0.4967331087
 40
0.7475759027
 40
1.0
 40
1.0
 40
1.0
 40
1.0
 10
8.8040207898
 20
3.4853773985
 30
0.0
 10
8.8063085305
 20
3.4868887565
 30
0.0
 10
8.8108617377
 20
3.4899541487
 30
0.0
 10
8.8198748567
 20
3.4962540468
 30
0.0
 10
8.8309622968
 20
3.5044433227
 30
0.0
 10
8.8439536829
 20
3.5147494602
 30
0.0
 10
8.8608790769
 20
3.5291457458
 30
0.0
 10
8.8812014947
 20
3.5482993082
 30
0.0
 10
8.8964192834
 20
3.5647060512
 30
0.0
 10
8.9037673448
 20
3.5731776411
 30
0.0
 11
8.8040207898
 21
3.4853773985
 31
0.0
 11
8.8108441707
 21
3.4899712117
 31
0.0
 11
8.8175980605
 21
3.4946917832
 31
0.0
 11
8.8308893039
 21
3.5045072312
 31
0.0
 11
8.8438790325
 21
3.5148105969
 31
0.0
 11
8.856551886
 21
3.5255884932
 31
0.0
 11
8.8808855268
 21
3.5485143289
 31
0.0
 11
8.9037673448
 21
3.5731776411
 31
0.0
  0
SPLINE
  5
2E2
100
AcDbEntity
  8
0
100
AcDbSpline
 62
6
  6
CONTINUOUS
 70
0
 71
3
 72
15
 73
11
 74
9
 42
0.0000001
 43
0.0000001
 44
0.0000000001
 12
0.0826004387
 22
0.168093709
 32
0.0
 13
0.0184336982
 23
0.1863827413
 33
0.0
 40
0.0
 40
0.0
 40
0.0
 40
0.0
 40
0.123580354
 40
0.2475992252
 40
0.3720407513
 40
0.4968872345
 40
0.62212086
 40
0.747725385
 40
0.8736878053
 40
1.0
 40
1.0
 40
1.0
 40
1.0
 10
8.9756442779
 20
3.68153097
 30
0.0
 10
8.979046875
 20
3.68845533
 30
0.0
 10
8.9855486727
 20
3.7024861412
 30
0.0
 10
8.9943570382
 20
3.7239859076
 30
0.0
 10
9.0022209966
 20
3.7459332291
 30
0.0
 10
9.0091215274
 20
3.7682814774
 30
0.0
 10
9.015039933
 20
3.7909846973
 30
0.0
 10
9.0199574127
 20
3.8139969539
 30
0.0
 10
9.0238550857
 20
3.8372715708
 30
0.0
 10
9.0257586158
 20
3.8529121264
 30
0.0
 10
9.0265347494
 20
3.8607595974
 30
0.0
 11
8.9756442779
 21
3.68153097
 31
0.0
 11
8.985377802
 21
3.702530455
 31
0.0
 11
8.9941854534
 21
3.724023566
 31
0.0
 11
9.0020484234
 21
3.7459640748
 31
0.0
 11
9.0089479034
 21
3.7683057532
 31
0.0
 11
9.0148650847
 21
3.7910023728
 31
0.0
 11
9.0197811585
 21
3.8140077056
 31
0.0
 11
9.0236773163
 21
3.8372755232
 31
0.0
 11
9.0265347494
 21
3.8607595974
 31
0.0
  0
SPLINE
  5
2E3
100
AcDbEntity
  8
0
100
AcDbSpline
 62
6
  6
CONTINUOUS
 70
0
 71
3
 72
13
 73
9
 74
7
 42
0.0000001
 43
0.0000001
 44
0.0000000001
 12
-0.0169824751
 22
0.1210946767
 32
0.0
 13
-0.0435246521
 23
0.1142712993
 33
0.0
 40
0.0
 40
0.0
 40
0.0
 40
0.0
 40
0.2490557131
 40
0.4987531859
 40
0.6238428369
 40
0.7490809516
 40
0.8744664298
 40
1.0
 40
1.0
 40
1.0
 40
1.0
 10
9.0238218155
 20
3.9880421992
 30
0.0
 10
9.0224119547
 20
3.9980953062
 30
0.0
 10
9.019026872
 20
4.0181528994
 30
0.0
 10
9.0134020885
 20
4.042964867
 30
0.0
 10
9.008065376
 20
4.0626370902
 30
0.0
 10
9.0036413737
 20
4.0773004176
 30
0.0
 10
8.9987994285
 20
4.0918499465
 30
0.0
 10
8.9952951442
 20
4.101460045
 30
0.0
 10
8.9934738759
 20
4.1062416731
 30
0.0
 11
9.0238218155
 21
3.9880421992
 31
0.0
 11
9.0187539802
 21
4.0180720353
 31
0.0
 11
9.0120030026
 21
4.0478492792
 31
0.0
 11
9.0079980734
 21
4.0626115915
 31
0.0
 11
9.0035744443
 21
4.0772728509
 31
0.0
 11
8.9987328105
 21
4.0918204223
 31
0.0
 11
8.9934738759
 21
4.1062416731
 31
0.0
  0
SPLINE
  5
2E4
100
AcDbEntity
  8
0
100
AcDbSpline
 62
6
  6
CONTINUOUS
 70
0
 71
3
 72
12
 73
8
 74
6
 42
0.0000001
 43
0.0000001
 44
0.0000000001
 12
-0.0405390022
 22
0.1064326588
 32
0.0
 13
-0.0615170035
 23
0.0958487342
 33
0.0
 40
0.0
 40
0.0
 40
0.0
 40
0.0
 40
0.2492473757
 40
0.3740804933
 40
0.4990406857
 40
0.7493004362
 40
1.0
 40
1.0
 40
1.0
 40
1.0
 10
8.9934738758
 20
4.1062416734
 30
0.0
 10
8.9901057958
 20
4.1150843604
 30
0.0
 10
8.9847000908
 20
4.1282260769
 30
0.0
 10
8.9768151748
 20
4.1454544566
 30
0.0
 10
8.9684700712
 20
4.1625080631
 30
0.0
 10
8.9572029361
 20
4.1834416381
 30
0.0
 10
8.9473378505
 20
4.1997125879
 30
0.0
 10
8.9421970885
 20
4.2077223332
 30
0.0
 11
8.9934738758
 21
4.1062416734
 31
0.0
 11
8.9826781103
 21
4.1324959136
 31
0.0
 11
8.9767617668
 21
4.1454239053
 31
0.0
 11
8.9705065044
 21
4.1582074698
 31
0.0
 11
8.9569993873
 21
4.1833062928
 31
0.0
 11
8.9421970885
 21
4.2077223332
 31
0.0
  0
SPLINE
  5
2E5
100
AcDbEntity
  8
0
100
AcDbSpline
 62
6
  6
CONTINUOUS
 70
0
 71
3
 72
12
 73
8
 74
6
 42
0.0000001
 43
0.0000001
 44
0.0000000001
 12
-0.0615036592
 22
0.0958279427
 32
0.0
 13
-0.0797172653
 23
0.0813071478
 33
0.0
 40
0.0
 40
0.0
 40
0.0
 40
0.0
 40
0.2495287815
 40
0.4993928905
 40
0.6244478695
 40
0.7495725693
 40
1.0
 40
1.0
 40
1.0
 40
1.0
 10
8.9421970885
 20
4.2077223332
 30
0.0
 10
8.9370814441
 20
4.2156929431
 30
0.0
 10
8.9264356064
 20
4.2313871533
 30
0.0
 10
8.9121433935
 20
4.2503077467
 30
0.0
 10
8.9001305269
 20
4.2650042115
 30
0.0
 10
8.8877311487
 20
4.2794036588
 30
0.0
 10
8.878013981
 20
4.2898440483
 30
0.0
 10
8.8713595177
 20
4.2966312283
 30
0.0
 11
8.9421970885
 21
4.2077223332
 31
0.0
 11
8.9262469812
 21
4.2312361172
 31
0.0
 11
8.9090976455
 21
4.2539379999
 31
0.0
 11
8.9000856286
 21
4.2649630069
 31
0.0
 11
8.8907886385
 21
4.275759273
 31
0.0
 11
8.8713595177
 21
4.2966312283
 31
0.0
  0
SPLINE
  5
2E6
100
AcDbEntity
  8
0
100
AcDbSpline
 62
6
  6
CONTINUOUS
 70
0
 71
3
 72
14
 73
10
 74
8
 42
0.0000001
 43
0.0000001
 44
0.0000000001
 12
-0.1000137138
 22
0.1020083891
 32
0.0
 13
-0.1225445698
 23
0.0734253553
 33
0.0
 40
0.0
 40
0.0
 40
0.0
 40
0.0
 40
0.0623637126
 40
0.1247477858
 40
0.2495734558
 40
0.3744804822
 40
0.4994657087
 40
0.7496168462
 40
1.0
 40
1.0
 40
1.0
 40
1.0
 10
8.8713595178
 20
4.2966312282
 30
0.0
 10
8.8692804423
 20
4.2987517688
 30
0.0
 10
8.8650870744
 20
4.3029598608
 30
0.0
 10
8.8565617833
 20
4.3112406418
 30
0.0
 10
8.8456493286
 20
4.3213354489
 30
0.0
 10
8.8321647189
 20
4.3330264133
 30
0.0
 10
8.8136805576
 20
4.3480431223
 30
0.0
 10
8.789674541
 20
4.3657124936
 30
0.0
 10
8.7696092143
 20
4.3786107537
 30
0.0
 10
8.7593815156
 20
4.3847389111
 30
0.0
 11
8.8713595178
 21
4.2966312282
 31
0.0
 11
8.8650707775
 21
4.3029419312
 31
0.0
 11
8.8586780548
 21
4.3091514529
 31
0.0
 11
8.845588327
 21
4.321261461
 31
0.0
 11
8.8321064048
 21
4.3329510156
 31
0.0
 11
8.8182485064
 21
4.3442100289
 31
0.0
 11
8.7894696539
 21
4.3653960799
 31
0.0
 11
8.7593815156
 21
4.3847389111
 31
0.0
  0
SPLINE
  5
2E7
100
AcDbEntity
  8
0
100
AcDbSpline
 62
6
  6
CONTINUOUS
 70
0
 71
3
 72
12
 73
8
 74
6
 42
0.0000001
 43
0.0000001
 44
0.0000000001
 12
-0.097761412
 22
0.0585759648
 32
0.0
 13
-0.1075356884
 23
0.037742722
 33
0.0
 40
0.0
 40
0.0
 40
0.0
 40
0.0
 40
0.2499063945
 40
0.4998956633
 40
0.6249188974
 40
0.7499492216
 40
1.0
 40
1.0
 40
1.0
 40
1.0
 10
8.7593815156
 20
4.3847389111
 30
0.0
 10
8.7512377816
 20
4.3896184138
 30
0.0
 10
8.7346999241
 20
4.3989719441
 30
0.0
 10
8.7134659497
 20
4.4096113914
 30
0.0
 10
8.696171026
 20
4.4174732866
 30
0.0
 10
8.6786809471
 20
4.4248956514
 30
0.0
 10
8.6653539956
 20
4.4299609542
 30
0.0
 10
8.656390868
 20
4.4331068199
 30
0.0
 11
8.7593815156
 21
4.3847389111
 31
0.0
 11
8.7345907076
 21
4.3987598023
 31
0.0
 11
8.7091184171
 21
4.4115218577
 31
0.0
 11
8.696147144
 21
4.4174181157
 31
0.0
 11
8.6830300139
 21
4.4229844171
 31
0.0
 11
8.656390868
 21
4.4331068199
 31
0.0
  0
SPLINE
  5
2E8
100
AcDbEntity
  8
0
100
AcDbSpline
 62
6
  6
CONTINUOUS
 70
0
 71
3
 72
14
 73
10
 74
8
 42
0.0000001
 43
0.0000001
 44
0.0000000001
 12
0.0661098059
 22
0.12664102
 32
0.0
 13
0.031963308
 23
0.1392364942
 33
0.0
 40
0.0
 40
0.0
 40
0.0
 40
0.0
 40
0.0623637126
 40
0.1247477858
 40
0.2495734558
 40
0.3744804822
 40
0.4994657087
 40
0.7496168462
 40
1.0
 40
1.0
 40
1.0
 40
1.0
 10
8.9912528174
 20
3.6132690324
 30
0.0
 10
8.9926271017
 20
3.6159016338
 30
0.0
 10
8.9953334131
 20
3.6211901356
 30
0.0
 10
9.000574444
 20
3.6318570713
 30
0.0
 10
9.0068030421
 20
3.6453548994
 30
0.0
 10
9.0137548365
 20
3.661792232
 30
0.0
 10
9.0223246553
 20
3.6840121324
 30
0.0
 10
9.031710959
 20
3.7123033468
 30
0.0
 10
9.0377774064
 20
3.7353723882
 30
0.0
 10
9.0404450977
 20
3.7469932124
 30
0.0
 11
8.9912528174
 21
3.6132690324
 31
0.0
 11
8.995311325
 21
3.6212000943
 31
0.0
 11
8.9992414711
 21
3.6291987827
 31
0.0
 11
9.0067138249
 21
3.6453900518
 31
0.0
 11
9.0136651089
 21
3.6618243928
 31
0.0
 11
9.0200907407
 21
3.6784832639
 31
0.0
 11
9.031346718
 21
3.7124004289
 31
0.0
 11
9.0404450977
 21
3.7469932124
 31
0.0
  0
SPLINE
  5
2E9
100
AcDbEntity
  8
0
100
AcDbSpline
 62
6
  6
CONTINUOUS
 70
0
 71
3
 72
12
 73
8
 74
6
 42
0.0000001
 43
0.0000001
 44
0.0000000001
 12
0.0721321134
 22
0.0881059186
 32
0.0
 13
0.052693703
 23
0.1009409151
 33
0.0
 40
0.0
 40
0.0
 40
0.0
 40
0.0
 40
0.2495287815
 40
0.4993928905
 40
0.6244478695
 40
0.7495725693
 40
1.0
 40
1.0
 40
1.0
 40
1.0
 10
8.9285854466
 20
3.5184241397
 30
0.0
 10
8.9345851261
 20
3.5257524605
 30
0.0
 10
8.9462214622
 20
3.5407270315
 30
0.0
 10
8.9597994792
 20
3.5601665186
 30
0.0
 10
8.9700644679
 20
3.5761328911
 30
0.0
 10
8.9799275374
 20
3.5923750744
 30
0.0
 10
8.9868541679
 20
3.6048429079
 30
0.0
 10
8.9912528175
 20
3.6132690326
 30
0.0
 11
8.9285854466
 21
3.5184241397
 31
0.0
 11
8.9460195299
 21
3.540859752
 31
0.0
 11
8.9623108672
 21
3.5641850071
 31
0.0
 11
8.9700114056
 21
3.576162859
 31
0.0
 11
8.9774063369
 21
3.5883410517
 31
0.0
 11
8.9912528175
 21
3.6132690326
 31
0.0
  0
SPLINE
  5
2EA
100
AcDbEntity
  8
0
100
AcDbSpline
 62
6
  6
CONTINUOUS
 70
0
 71
3
 72
12
 73
8
 74
6
 42
0.0000001
 43
0.0000001
 44
0.0000000001
 12
0.0886962331
 22
0.0714443826
 32
0.0
 13
0.0721477637
 23
0.0881250348
 33
0.0
 40
0.0
 40
0.0
 40
0.0
 40
0.0
 40
0.2492473757
 40
0.3740804933
 40
0.4990406857
 40
0.7493004362
 40
1.0
 40
1.0
 40
1.0
 40
1.0
 10
8.8479170026
 20
3.4382977685
 30
0.0
 10
8.8552861037
 20
3.4442335435
 30
0.0
 10
8.8661141641
 20
3.4534356882
 30
0.0
 10
8.8800627539
 20
3.4662585511
 30
0.0
 10
8.8937029185
 20
3.4794650704
 30
0.0
 10
8.9101301952
 20
3.4966495831
 30
0.0
 10
8.922556309
 20
3.5110598371
 30
0.0
 10
8.9285854467
 20
3.5184241397
 30
0.0
 11
8.8479170026
 21
3.4382977685
 31
0.0
 11
8.8695501938
 21
3.456678158
 31
0.0
 11
8.8800171938
 21
3.4662999042
 31
0.0
 11
8.8902421038
 21
3.476199351
 31
0.0
 11
8.9099385742
 21
3.4968013455
 31
0.0
 11
8.9285854467
 21
3.5184241397
 31
0.0
  0
SPLINE
  5
2EB
100
AcDbEntity
  8
0
100
AcDbSpline
 62
6
  6
CONTINUOUS
 70
0
 71
3
 72
13
 73
9
 74
7
 42
0.0000001
 43
0.0000001
 44
0.0000000001
 12
0.1099200079
 22
0.0535716067
 32
0.0
 13
0.0952286066
 23
0.0767061775
 33
0.0
 40
0.0
 40
0.0
 40
0.0
 40
0.0
 40
0.2490557131
 40
0.4987531859
 40
0.6238428369
 40
0.7490809516
 40
0.8744664298
 40
1.0
 40
1.0
 40
1.0
 40
1.0
 10
8.7448806515
 20
3.3729095165
 30
0.0
 10
8.7540060535
 20
3.3773569547
 30
0.0
 10
8.7720359101
 20
3.3867744968
 30
0.0
 10
8.7938953399
 20
3.3997913035
 30
0.0
 10
8.8109556011
 20
3.4109458699
 30
0.0
 10
8.8235341623
 20
3.4196845635
 30
0.0
 10
8.8358753432
 20
3.4287855787
 30
0.0
 10
8.8439322066
 20
3.4350880348
 30
0.0
 10
8.8479170023
 20
3.4382977683
 30
0.0
 11
8.7448806515
 21
3.3729095165
 31
0.0
 11
8.7718746756
 21
3.3870090439
 31
0.0
 11
8.7981083506
 21
3.4026312796
 31
0.0
 11
8.8109105528
 21
3.4110019989
 31
0.0
 11
8.8234872625
 21
3.4197396985
 31
0.0
 11
8.835826678
 21
3.4288398127
 31
0.0
 11
8.8479170023
 21
3.4382977683
 31
0.0
  0
SPLINE
  5
2EC
100
AcDbEntity
  8
0
100
AcDbSpline
 62
6
  6
CONTINUOUS
 70
0
 71
3
 72
15
 73
11
 74
9
 42
0.0000001
 43
0.0000001
 44
0.0000000001
 12
0.1853915566
 22
-0.0266138728
 32
0.0
 13
0.1829568467
 23
0.0400639457
 33
0.0
 40
0.0
 40
0.0
 40
0.0
 40
0.0
 40
0.123580354
 40
0.2475992252
 40
0.3720407513
 40
0.4968872345
 40
0.62212086
 40
0.747725385
 40
0.8736878053
 40
1.0
 40
1.0
 40
1.0
 40
1.0
 10
8.4384834718
 20
3.3240118987
 30
0.0
 10
8.4461203898
 20
3.3229155815
 30
0.0
 10
8.4614736503
 20
3.3210677635
 30
0.0
 10
8.4846430778
 20
3.3193343033
 30
0.0
 10
8.5079463177
 20
3.3186373298
 30
0.0
 10
8.5313331462
 20
3.3189805235
 30
0.0
 10
8.5547540793
 20
3.320367466
 30
0.0
 10
8.5781596207
 20
3.3228018433
 30
0.0
 10
8.601499544
 20
3.3262871881
 30
0.0
 10
8.6169628194
 20
3.329310021
 30
0.0
 10
8.6246660464
 20
3.3309968759
 30
0.0
 11
8.4384834718
 21
3.3240118987
 31
0.0
 11
8.4614629932
 21
3.3212439649
 31
0.0
 11
8.4846258704
 21
3.3195091272
 31
0.0
 11
8.5079223257
 21
3.3188109884
 31
0.0
 11
8.531302581
 21
3.3191531513
 31
0.0
 11
8.5547168587
 21
3.3205392187
 31
0.0
 11
8.5781153807
 21
3.3229727934
 31
0.0
 11
8.6014483692
 21
3.3264574782
 31
0.0
 11
8.6246660464
 21
3.3309968759
 31
0.0
  0
SPLINE
  5
2ED
100
AcDbEntity
  8
0
100
AcDbSpline
 62
6
  6
CONTINUOUS
 70
0
 71
3
 72
13
 73
9
 74
7
 42
0.0000001
 43
0.0000001
 44
0.0000000001
 12
0.012558681
 22
0.1269805633
 32
0.0
 13
-0.0177213831
 23
0.1263635094
 33
0.0
 40
0.0
 40
0.0
 40
0.0
 40
0.0
 40
0.1242410149
 40
0.248710369
 40
0.3734050716
 40
0.4983203352
 40
0.7487601409
 40
1.0
 40
1.0
 40
1.0
 40
1.0
 10
9.0265347494
 20
3.8607595974
 30
0.0
 10
9.0270548505
 20
3.8660183288
 30
0.0
 10
9.0279368884
 20
3.8765619023
 30
0.0
 10
9.0287819896
 20
3.8924238393
 30
0.0
 10
9.0291518182
 20
3.9083328843
 30
0.0
 10
9.0290120074
 20
3.9296038952
 30
0.0
 10
9.0276500844
 20
3.956236457
 30
0.0
 10
9.0253059214
 20
3.9774596824
 30
0.0
 10
9.0238218155
 20
3.9880421991
 30
0.0
 11
9.0265347494
 21
3.8607595974
 31
0.0
 11
9.0278564377
 21
3.8765575715
 31
0.0
 11
9.0287022275
 21
3.8924173361
 31
0.0
 11
9.0290725992
 21
3.9083240806
 31
0.0
 11
9.0289683708
 21
3.9242629392
 31
0.0
 11
9.0273393855
 21
3.9561775356
 31
0.0
 11
9.0238218155
 21
3.9880421991
 31
0.0
  0
SPLINE
  5
2EE
100
AcDbEntity
  8
0
100
AcDbSpline
 62
6
  6
CONTINUOUS
 70
0
 71
3
 72
14
 73
10
 74
8
 42
0.0000001
 43
0.0000001
 44
0.0000000001
 12
0.1042336702
 22
-0.0830595708
 32
0.0
 13
0.1227414896
 23
-0.0519430171
 33
0.0
 40
0.0
 40
0.0
 40
0.0
 40
0.0
 40
0.0617172261
 40
0.1235425261
 40
0.2475125189
 40
0.3719114006
 40
0.4967331087
 40
0.7475759027
 40
1.0
 40
1.0
 40
1.0
 40
1.0
 10
8.198895765
 20
3.4266207483
 30
0.0
 10
8.2010401027
 20
3.4249120129
 30
0.0
 10
8.2053624822
 20
3.4215289138
 30
0.0
 10
8.2141392483
 20
3.4149037038
 30
0.0
 10
8.2253539199
 20
3.4068895471
 30
0.0
 10
8.2391701983
 20
3.3977187763
 30
0.0
 10
8.2580921138
 20
3.386070467
 30
0.0
 10
8.2825882067
 20
3.3726614754
 30
0.0
 10
8.3028945019
 20
3.3632584607
 30
0.0
 10
8.3132221385
 20
3.3588879043
 30
0.0
 11
8.198895765
 21
3.4266207483
 31
0.0
 11
8.2053732816
 21
3.4215508938
 31
0.0
 11
8.2119498786
 21
3.4165862998
 31
0.0
 11
8.2253921445
 21
3.4069787163
 31
0.0
 11
8.2392052745
 21
3.3978086654
 31
0.0
 11
8.2533717901
 21
3.3890866186
 31
0.0
 11
8.2826950641
 21
3.3730284239
 31
0.0
 11
8.3132221385
 21
3.3588879043
 31
0.0
  0
SPLINE
  5
2EF
100
AcDbEntity
  8
0
100
AcDbSpline
 62
6
  6
CONTINUOUS
 70
0
 71
3
 72
12
 73
8
 74
6
 42
0.0000001
 43
0.0000001
 44
0.0000000001
 12
-0.0174918565
 22
-0.0755494231
 32
0.0
 13
-0.0023096572
 23
-0.0775135205
 33
0.0
 40
0.0
 40
0.0
 40
0.0
 40
0.0
 40
0.2475299163
 40
0.4967043816
 40
0.6219159205
 40
0.7475377693
 40
1.0
 40
1.0
 40
1.0
 40
1.0
 10
8.0373670846
 20
3.8601916768
 30
0.0
 10
8.035923832
 20
3.853958096
 30
0.0
 10
8.0333382302
 20
3.8413754884
 30
0.0
 10
8.030882605
 20
3.8254812435
 30
0.0
 10
8.0293821877
 20
3.8126425421
 30
0.0
 10
8.028191386
 20
3.7996863743
 30
0.0
 10
8.0276585597
 20
3.789922421
 30
0.0
 10
8.0274641926
 20
3.7833993423
 30
0.0
 11
8.0373670846
 21
3.8601916768
 31
0.0
 11
8.0335018521
 21
3.8413894283
 31
0.0
 11
8.0305503047
 21
3.8222932183
 31
0.0
 11
8.0294230948
 21
3.8126489736
 31
0.0
 11
8.0285314243
 21
3.8029481538
 31
0.0
 11
8.0274641926
 21
3.7833993423
 31
0.0
  0
SPLINE
  5
2F0
100
AcDbEntity
  8
0
100
AcDbSpline
 62
6
  6
CONTINUOUS
 70
0
 71
3
 72
14
 73
10
 74
8
 42
0.0000001
 43
0.0000001
 44
0.0000000001
 12
-0.0032272763
 22
-0.1083093761
 32
0.0
 13
0.0249146386
 23
-0.1054542414
 33
0.0
 40
0.0
 40
0.0
 40
0.0
 40
0.0
 40
0.0614819455
 40
0.1231021305
 40
0.2467533607
 40
0.3709564104
 40
0.4957073429
 40
0.7467966576
 40
1.0
 40
1.0
 40
1.0
 40
1.0
 10
8.0274641926
 20
3.783399343
 30
0.0
 10
8.0273980529
 20
3.7811796526
 30
0.0
 10
8.0273030215
 20
3.7767340639
 30
0.0
 10
8.0272626501
 20
3.767821305
 30
0.0
 10
8.0274932477
 20
3.7566434774
 30
0.0
 10
8.0282169768
 20
3.7432022946
 30
0.0
 10
8.0297804306
 20
3.7252061504
 30
0.0
 10
8.0328557194
 20
3.702677962
 30
0.0
 10
8.0364796143
 20
3.6848127783
 30
0.0
 10
8.0385824376
 20
3.6759123228
 30
0.0
 11
8.0274641926
 21
3.783399343
 31
0.0
 11
8.0273218089
 21
3.7767388381
 31
0.0
 11
8.0272914231
 21
3.7700619013
 31
0.0
 11
8.0275666907
 21
3.7566661977
 31
0.0
 11
8.0282892969
 21
3.7432272855
 31
0.0
 11
8.0294583853
 21
3.7297602426
 31
0.0
 11
8.0331325843
 21
3.7028020766
 31
0.0
 11
8.0385824376
 21
3.6759123228
 31
0.0
  0
SPLINE
  5
2F1
100
AcDbEntity
  8
0
100
AcDbSpline
 62
6
  6
CONTINUOUS
 70
0
 71
3
 72
13
 73
9
 74
7
 42
0.0000001
 43
0.0000001
 44
0.0000000001
 12
0.0231369477
 22
-0.0979299482
 32
0.0
 13
0.0449559684
 23
-0.0900252965
 33
0.0
 40
0.0
 40
0.0
 40
0.0
 40
0.0
 40
0.2473626773
 40
0.4964832814
 40
0.6217088961
 40
0.7473687042
 40
0.8734644439
 40
1.0
 40
1.0
 40
1.0
 40
1.0
 10
8.0385824376
 20
3.6759123229
 30
0.0
 10
8.0404901767
 20
3.6678375848
 30
0.0
 10
8.0447890094
 20
3.6517379728
 30
0.0
 10
8.051322268
 20
3.6319218455
 30
0.0
 10
8.0572565163
 20
3.6162335053
 30
0.0
 10
8.0620705817
 20
3.6045390505
 30
0.0
 10
8.0672392298
 20
3.5929490045
 30
0.0
 10
8.0709146986
 20
3.585312273
 30
0.0
 10
8.0728108748
 20
3.5815151393
 30
0.0
 11
8.0385824376
 21
3.6759123229
 31
0.0
 11
8.0450017867
 21
3.6518632121
 31
0.0
 11
8.0528496601
 21
3.6280553126
 31
0.0
 11
8.0573077227
 21
3.6162693164
 31
0.0
 11
8.0621210316
 21
3.6045766223
 31
0.0
 11
8.0672889583
 21
3.59298823
 31
0.0
 11
8.0728108748
 21
3.5815151393
 31
0.0
  0
SPLINE
  5
2F2
100
AcDbEntity
  8
0
100
AcDbSpline
 62
6
  6
CONTINUOUS
 70
0
 71
3
 72
9
 73
5
 74
3
 42
0.0000001
 43
0.0000001
 44
0.0000000001
 12
0.0456162441
 22
-0.0913475138
 32
0.0
 13
0.0648142657
 23
-0.0788943659
 33
0.0
 40
0.0
 40
0.0
 40
0.0
 40
0.0
 40
0.496730383
 40
1.0
 40
1.0
 40
1.0
 40
1.0
 10
8.0728108739
 20
3.5815151411
 30
0.0
 10
8.0803638654
 20
3.5663901125
 30
0.0
 10
8.0973460841
 20
3.5367997688
 30
0.0
 10
8.1175239165
 20
3.5092945662
 30
0.0
 10
8.1283969333
 20
3.4960595204
 30
0.0
 11
8.0728108739
 21
3.5815151411
 31
0.0
 11
8.0980235225
 21
3.5375077569
 31
0.0
 11
8.1283969333
 21
3.4960595204
 31
0.0
  0
SPLINE
  5
2F3
100
AcDbEntity
  8
0
100
AcDbSpline
 62
6
  6
CONTINUOUS
 70
0
 71
3
 72
37
 73
33
 74
31
 42
0.0000001
 43
0.0000001
 44
0.0000000001
 12
0.6023733943
 22
-0.3467786226
 32
0.0
 13
0.6023733944
 23
0.3467786223
 33
0.0
 40
0.0
 40
0.0
 40
0.0
 40
0.0
 40
0.063520279
 40
0.0951731423
 40
0.1109709972
 40
0.1267495234
 40
0.1896538065
 40
0.2209855726
 40
0.2522392984
 40
0.3145055169
 40
0.345538669
 40
0.3765106504
 40
0.4074299004
 40
0.4228746793
 40
0.4383111449
 40
0.4691630491
 40
0.500000048
 40
0.5308370431
 40
0.5616889431
 40
0.5771254083
 40
0.592570188
 40
0.6234894301
 40
0.6544613984
 40
0.6854945453
 40
0.7477607427
 40
0.7790144608
 40
0.8103462206
 40
0.873250482
 40
0.8890290048
 40
0.9048268576
 40
0.9364797196
 40
1.0
 40
1.0
 40
1.0
 40
1.0
 10
7.8045224819
 20
6.7574961029
 30
0.0
 10
7.8172767906
 20
6.7501536113
 30
0.0
 10
7.8365979811
 20
6.7395107655
 30
0.0
 10
7.8595173589
 20
6.7278562594
 30
0.0
 10
7.8726915591
 20
6.7214486066
 30
0.0
 10
7.892492035
 20
6.7121153721
 30
0.0
 10
7.9158941444
 20
6.7019748682
 30
0.0
 10
7.9430567986
 20
6.6915950642
 30
0.0
 10
7.9703899339
 20
6.6821166541
 30
0.0
 10
7.9981173862
 20
6.6740187102
 30
0.0
 10
8.0261676405
 20
6.6674998016
 30
0.0
 10
8.0473166815
 20
6.6634407373
 30
0.0
 10
8.0650403255
 20
6.660773688
 30
0.0
 10
8.0792601436
 20
6.6590886823
 30
0.0
 10
8.0934968089
 20
6.6577058294
 30
0.0
 10
8.1113339398
 20
6.6565454997
 30
0.0
 10
8.1327725144
 20
6.6560768307
 30
0.0
 10
8.1542110887
 20
6.6565454908
 30
0.0
 10
8.1720482165
 20
6.6577058393
 30
0.0
 10
8.1862848802
 20
6.6590886975
 30
0.0
 10
8.2005046979
 20
6.6607736919
 30
0.0
 10
8.218228338
 20
6.6634407378
 30
0.0
 10
8.2393773702
 20
6.6674998154
 30
0.0
 10
8.2674276158
 20
6.6740187205
 30
0.0
 10
8.2951550609
 20
6.6821166619
 30
0.0
 10
8.322488187
 20
6.6915950735
 30
0.0
 10
8.3496508336
 20
6.7019748739
 30
0.0
 10
8.3730529362
 20
6.7121153752
 30
0.0
 10
8.3928534061
 20
6.7214486078
 30
0.0
 10
8.4060276047
 20
6.7278562602
 30
0.0
 10
8.4289469821
 20
6.7395107661
 30
0.0
 10
8.4482681729
 20
6.7501536115
 30
0.0
 10
8.4610224819
 20
6.7574961033
 30
0.0
 11
7.8045224819
 21
6.7574961029
 31
0.0
 11
7.8432168095
 21
6.7362355721
 31
0.0
 11
7.8628304262
 21
6.7262688835
 31
0.0
 11
7.8727051942
 21
6.7214668452
 31
0.0
 11
7.8826257648
 21
6.7167915872
 31
0.0
 11
7.9227670214
 21
6.6994619138
 31
0.0
 11
7.9431124599
 21
6.6916952229
 31
0.0
 11
7.963639079
 21
6.6845849023
 31
0.0
 11
8.005199267
 21
6.6725099519
 31
0.0
 11
8.0262105905
 21
6.6676328956
 31
0.0
 11
8.0473532185
 21
6.6635809467
 31
0.0
 11
8.0686055908
 21
6.6603889259
 31
0.0
 11
8.0792661034
 21
6.6591260333
 31
0.0
 11
8.0899451474
 21
6.658089009
 31
0.0
 11
8.1113440064
 21
6.6566992551
 31
0.0
 11
8.1327725154
 21
6.656233027
 31
0.0
 11
8.1542010218
 21
6.6566992515
 31
0.0
 11
8.175599877
 21
6.6580890193
 31
0.0
 11
8.1862789204
 21
6.6591260463
 31
0.0
 11
8.1969394342
 21
6.6603889335
 31
0.0
 11
8.2181918017
 21
6.6635809503
 31
0.0
 11
8.239334419
 21
6.6676329064
 31
0.0
 11
8.2603457385
 21
6.6725099634
 31
0.0
 11
8.3019059123
 21
6.6845849104
 31
0.0
 11
8.3224325257
 21
6.6916952314
 31
0.0
 11
8.3427779599
 21
6.699461921
 31
0.0
 11
8.3829192024
 21
6.7167915889
 31
0.0
 11
8.3928397707
 21
6.7214668463
 31
0.0
 11
8.4027145374
 21
6.7262688842
 31
0.0
 11
8.4223281532
 21
6.7362355724
 31
0.0
 11
8.4610224819
 21
6.7574961033
 31
0.0
  0
SPLINE
  5
2F4
100
AcDbEntity
  8
0
100
AcDbSpline
 62
6
  6
CONTINUOUS
 70
0
 71
3
 72
49
 73
45
 74
43
 42
0.0000001
 43
0.0000001
 44
0.0000000001
 12
0.602402905
 22
-0.3467956112
 32
0.0
 13
0.6024031443
 23
0.3467951955
 33
0.0
 40
0.0
 40
0.0
 40
0.0
 40
0.0
 40
0.0317961622
 40
0.0635228351
 40
0.0951747645
 40
0.1109722058
 40
0.1267501462
 40
0.1582445709
 40
0.1896565455
 40
0.2209882998
 40
0.2522404888
 40
0.2834136198
 40
0.298972869
 40
0.3145145972
 40
0.3455457183
 40
0.3765148321
 40
0.4074330654
 40
0.4228770629
 40
0.4383122531
 40
0.453740296
 40
0.4691630824
 40
0.484582461
 40
0.5000001404
 40
0.5154178199
 40
0.5308371991
 40
0.5462599856
 40
0.5616880268
 40
0.577123214
 40
0.592567208
 40
0.6234854358
 40
0.6544545401
 40
0.6854856493
 40
0.7010273738
 40
0.7165866212
 40
0.7477597459
 40
0.7790119236
 40
0.8103436663
 40
0.841755634
 40
0.8732500505
 40
0.88902798
 40
0.904825402
 40
0.9364772722
 40
0.9682038758
 40
1.0
 40
1.0
 40
1.0
 40
1.0
 10
8.4610224819
 20
6.7574980282
 30
0.0
 10
8.4674071821
 20
6.7538224383
 30
0.0
 10
8.4802324183
 20
6.7465995883
 30
0.0
 10
8.4996652717
 20
6.73617295
 30
0.0
 10
8.5160189076
 20
6.7278566826
 30
0.0
 10
8.529192946
 20
6.7214483769
 30
0.0
 10
8.5424112614
 20
6.7152170426
 30
0.0
 10
8.5590487019
 20
6.7077572748
 30
0.0
 10
8.5792113327
 20
6.6993697007
 30
0.0
 10
8.5995584921
 20
6.6915947299
 30
0.0
 10
8.6200860901
 20
6.6844758093
 30
0.0
 10
8.6373481294
 20
6.6791236037
 30
0.0
 10
8.6512384187
 20
6.675215914
 30
0.0
 10
8.6651652288
 20
6.6715683432
 30
0.0
 10
8.6826694147
 20
6.6674989286
 30
0.0
 10
8.7038175881
 20
6.6634385762
 30
0.0
 10
8.721541658
 20
6.6607750088
 30
0.0
 10
8.7357612953
 20
6.6590892805
 30
0.0
 10
8.7464410216
 20
6.6580503855
 30
0.0
 10
8.7571355124
 20
6.6572393638
 30
0.0
 10
8.7678413805
 20
6.6566594344
 30
0.0
 10
8.7785548943
 20
6.6563116047
 30
0.0
 10
8.789272242
 20
6.6561956337
 30
0.0
 10
8.7999895899
 20
6.6563115983
 30
0.0
 10
8.8107031042
 20
6.6566594189
 30
0.0
 10
8.8214089731
 20
6.6572393298
 30
0.0
 10
8.8321034638
 20
6.6580503385
 30
0.0
 10
8.8427831891
 20
6.6590892243
 30
0.0
 10
8.8570028247
 20
6.6607749434
 30
0.0
 10
8.8747268928
 20
6.6634384937
 30
0.0
 10
8.8958750633
 20
6.6674988288
 30
0.0
 10
8.9133792454
 20
6.6715682334
 30
0.0
 10
8.9273060559
 20
6.6752157868
 30
0.0
 10
8.9411963499
 20
6.6791234494
 30
0.0
 10
8.958458397
 20
6.6844756149
 30
0.0
 10
8.9789859967
 20
6.6915945118
 30
0.0
 10
8.9993331297
 20
6.6993695346
 30
0.0
 10
9.0194957145
 20
6.7077572027
 30
0.0
 10
9.0361331499
 20
6.7152169637
 30
0.0
 10
9.0493515084
 20
6.7214481846
 30
0.0
 10
9.0625256277
 20
6.7278562757
 30
0.0
 10
9.0788794278
 20
6.7361721429
 30
0.0
 10
9.0983124866
 20
6.7465983185
 30
0.0
 10
9.1111377868
 20
6.7538210084
 30
0.0
 10
9.1175224819
 20
6.7574965894
 30
0.0
 11
8.4610224819
 21
6.7574980282
 31
0.0
 11
8.4802827532
 21
6.7466577717
 31
0.0
 11
8.4997181263
 21
6.7362365073
 31
0.0
 11
8.5193318787
 21
6.7262691395
 31
0.0
 11
8.5292066703
 21
6.7214665771
 31
0.0
 11
8.5391271757
 21
6.7167908753
 31
0.0
 11
8.5591056912
 21
6.7078409469
 31
0.0
 11
8.5792680399
 21
6.6994614458
 31
0.0
 11
8.5996145532
 21
6.6916946022
 31
0.0
 11
8.6201410663
 21
6.6845839874
 31
0.0
 11
8.6408396186
 21
6.6781743049
 31
0.0
 11
8.6512508705
 21
6.6752462863
 31
0.0
 11
8.6617015518
 21
6.6725099677
 31
0.0
 11
8.6827123156
 21
6.6676320706
 31
0.0
 11
8.7038539208
 21
6.6635797716
 31
0.0
 11
8.725106945
 21
6.6603897608
 31
0.0
 11
8.735767391
 21
6.6591264521
 31
0.0
 11
8.7464459482
 21
6.6580881495
 31
0.0
 11
8.7571392332
 21
6.6572777591
 31
0.0
 11
8.7678438434
 21
6.6566980648
 31
0.0
 11
8.7785561241
 21
6.6563502336
 31
0.0
 11
8.789272242
 21
6.6562342882
 31
0.0
 11
8.7999883601
 21
6.6563502268
 31
0.0
 11
8.8107006415
 21
6.6566980476
 31
0.0
 11
8.8214052527
 21
6.657277726
 31
0.0
 11
8.8320985375
 21
6.6580881032
 31
0.0
 11
8.8427770935
 21
6.6591263963
 31
0.0
 11
8.853437538
 21
6.6603896973
 31
0.0
 11
8.8746905611
 21
6.6635796899
 31
0.0
 11
8.8958321627
 21
6.6676319719
 31
0.0
 11
8.9168429219
 21
6.6725098526
 31
0.0
 11
8.927293604
 21
6.6752461577
 31
0.0
 11
8.9377048601
 21
6.6781741571
 31
0.0
 11
8.9584034208
 21
6.6845837975
 31
0.0
 11
8.978929931
 21
6.6916943967
 31
0.0
 11
8.9992764182
 21
6.6994612862
 31
0.0
 11
9.0194387323
 21
6.707840858
 31
0.0
 11
9.0394172532
 21
6.7167907605
 31
0.0
 11
9.0493377918
 21
6.7214663737
 31
0.0
 11
9.0592126446
 21
6.7262687797
 31
0.0
 11
9.078826576
 21
6.7362357045
 31
0.0
 11
9.0982621267
 21
6.7466565357
 31
0.0
 11
9.1175224819
 21
6.7574965894
 31
0.0
  0
SPLINE
  5
2F5
100
AcDbEntity
  8
0
100
AcDbSpline
 62
9
  6
CONTINUOUS
 70
0
 71
3
 72
32
 73
28
 74
26
 42
0.0000001
 43
0.0000001
 44
0.0000000001
 12
0.1127097063
 22
0.0108898823
 32
0.0
 13
0.0180075396
 23
-0.1117935417
 33
0.0
 40
0.0
 40
0.0
 40
0.0
 40
0.0
 40
0.0757607778
 40
0.1508239711
 40
0.2248295562
 40
0.2974205614
 40
0.3330826597
 40
0.3682650421
 40
0.4029296573
 40
0.4370413114
 40
0.4705683055
 40
0.5034831626
 40
0.5357634586
 40
0.5673966704
 40
0.5983887032
 40
0.6287499745
 40
0.6876114777
 40
0.7441175284
 40
0.7984348156
 40
0.8248541755
 40
0.850820632
 40
0.8763770283
 40
0.9015728701
 40
0.9264648546
 40
0.9511172838
 40
0.9756023143
 40
1.0
 40
1.0
 40
1.0
 40
1.0
 10
8.7281709198
 20
4.0909942469
 30
0.0
 10
8.7310172448
 20
4.0912692556
 30
0.0
 10
8.7367016671
 20
4.0916458872
 30
0.0
 10
8.7451925436
 20
4.091698996
 30
0.0
 10
8.7535518968
 20
4.0912459652
 30
0.0
 10
8.7603898886
 20
4.0904479119
 30
0.0
 10
8.7657309216
 20
4.0895572248
 30
0.0
 10
8.7696356877
 20
4.088770521
 30
0.0
 10
8.7734538409
 20
4.0878621644
 30
0.0
 10
8.777176505
 20
4.0868330169
 30
0.0
 10
8.7807947547
 20
4.0856839529
 30
0.0
 10
8.7842996776
 20
4.084415841
 30
0.0
 10
8.787682518
 20
4.0830294492
 30
0.0
 10
8.7909349587
 20
4.0815253867
 30
0.0
 10
8.7940517888
 20
4.0799088991
 30
0.0
 10
8.7979794054
 20
4.0776342066
 30
0.0
 10
8.8025397493
 20
4.0745413608
 30
0.0
 10
8.8074560894
 20
4.0704189806
 30
0.0
 10
8.8110473499
 20
4.0666685536
 30
0.0
 10
8.8135640826
 20
4.0635215502
 30
0.0
 10
8.8152586957
 20
4.0611143198
 30
0.0
 10
8.8167728691
 20
4.0586436543
 30
0.0
 10
8.818102141
 20
4.0561143505
 30
0.0
 10
8.8192419365
 20
4.0535313307
 30
0.0
 10
8.8201876959
 20
4.0508994437
 30
0.0
 10
8.8209347976
 20
4.0482238383
 30
0.0
 10
8.8212976596
 20
4.0464126906
 30
0.0
 10
8.821444107
 20
4.0455035227
 30
0.0
 11
8.7281709198
 21
4.0909942469
 31
0.0
 11
8.7367308781
 21
4.0915615877
 31
0.0
 11
8.7452304705
 21
4.0916130656
 31
0.0
 11
8.7535979784
 21
4.0911558436
 31
0.0
 11
8.7617616832
 21
4.0901970847
 31
0.0
 11
8.7657446974
 21
4.0895318673
 31
0.0
 11
8.7696498664
 21
4.0887439518
 31
0.0
 11
8.7734682253
 21
4.0878342335
 31
0.0
 11
8.7771908093
 21
4.0868036079
 31
0.0
 11
8.7808086536
 21
4.0856529702
 31
0.0
 11
8.7843127934
 21
4.084383216
 31
0.0
 11
8.7876942639
 21
4.0829952404
 31
0.0
 11
8.7909449301
 21
4.0814906805
 31
0.0
 11
8.7940596633
 21
4.0798738593
 31
0.0
 11
8.7970340157
 21
4.0781497082
 31
0.0
 11
8.8025437861
 21
4.074399142
 31
0.0
 11
8.8074386576
 21
4.0702784327
 31
0.0
 11
8.8116830467
 21
4.0658270313
 31
0.0
 11
8.8135501905
 21
4.0634896494
 31
0.0
 11
8.8152413698
 21
4.0610843887
 31
0.0
 11
8.8167521367
 21
4.0586161803
 31
0.0
 11
8.8180780432
 21
4.0560899557
 31
0.0
 11
8.8192146415
 21
4.0535106463
 31
0.0
 11
8.8201574835
 21
4.0508831834
 31
0.0
 11
8.8209021213
 21
4.0482124984
 31
0.0
 11
8.821444107
 21
4.0455035227
 31
0.0
  0
SPLINE
  5
2F6
100
AcDbEntity
  8
0
100
AcDbSpline
 62
9
  6
CONTINUOUS
 70
0
 71
3
 72
32
 73
28
 74
26
 42
0.0000001
 43
0.0000001
 44
0.0000000001
 12
0.0451861082
 22
-0.103828142
 32
0.0
 13
-0.1007573405
 23
-0.0516722922
 33
0.0
 40
0.0
 40
0.0
 40
0.0
 40
0.0
 40
0.0757607778
 40
0.1508239711
 40
0.2248295562
 40
0.2974205614
 40
0.3330826597
 40
0.3682650421
 40
0.4029296573
 40
0.4370413114
 40
0.4705683055
 40
0.5034831626
 40
0.5357634586
 40
0.5673966704
 40
0.5983887032
 40
0.6287499745
 40
0.6876114777
 40
0.7441175284
 40
0.7984348156
 40
0.8248541755
 40
0.850820632
 40
0.8763770283
 40
0.9015728701
 40
0.9264648546
 40
0.9511172838
 40
0.9756023143
 40
1.0
 40
1.0
 40
1.0
 40
1.0
 10
8.7514327162
 20
3.6859041597
 30
0.0
 10
8.7525738278
 20
3.6832821261
 30
0.0
 10
8.7546886088
 20
3.6779923048
 30
0.0
 10
8.7573629434
 20
3.6699334129
 30
0.0
 10
8.7595152678
 20
3.6618432013
 30
0.0
 10
8.7608693296
 20
3.6550932727
 30
0.0
 10
8.7616727058
 20
3.6497384109
 30
0.0
 10
8.7621311451
 20
3.6457816529
 30
0.0
 10
8.7624471209
 20
3.6418696757
 30
0.0
 10
8.7626187099
 20
3.6380111878
 30
0.0
 10
8.7626439857
 20
3.6342149475
 30
0.0
 10
8.7625210204
 20
3.6304896996
 30
0.0
 10
8.7622478386
 20
3.6268440086
 30
0.0
 10
8.7618224496
 20
3.6232859728
 30
0.0
 10
8.7612482321
 20
3.6198221691
 30
0.0
 10
8.7602985712
 20
3.6153838651
 30
0.0
 10
8.7587663238
 20
3.6100909783
 30
0.0
 10
8.7563649399
 20
3.6041413755
 30
0.0
 10
8.7539078324
 20
3.5995669382
 30
0.0
 10
8.7516925675
 20
3.5962009056
 30
0.0
 10
8.7499268196
 20
3.5938453576
 30
0.0
 10
8.7480449823
 20
3.5916418155
 30
0.0
 10
8.7460502391
 20
3.589596005
 30
0.0
 10
8.7439458575
 20
3.587713798
 30
0.0
 10
8.7417350399
 20
3.5860010296
 30
0.0
 10
8.7394212551
 20
3.5844636861
 30
0.0
 10
8.7378108818
 20
3.5835589084
 30
0.0
 10
8.7369914665
 20
3.5831386803
 30
0.0
 11
8.7514327162
 21
3.6859041597
 31
0.0
 11
8.7546174619
 21
3.6779384735
 31
0.0
 11
8.7572929388
 21
3.6698707883
 31
0.0
 11
8.759443797
 21
3.661771526
 31
0.0
 11
8.7610546866
 21
3.6537111086
 31
0.0
 11
8.7616528463
 21
3.6497174735
 31
0.0
 11
8.7621102577
 21
3.6457599578
 31
0.0
 11
8.7624250021
 21
3.6418473643
 31
0.0
 11
8.7625951606
 21
3.6379884957
 31
0.0
 11
8.7626188145
 21
3.6341921547
 31
0.0
 11
8.7624940452
 21
3.630467144
 31
0.0
 11
8.7622189338
 21
3.6268222664
 31
0.0
 11
8.7617925234
 21
3.6232657646
 31
0.0
 11
8.7612173405
 21
3.619803852
 31
0.0
 11
8.7604967009
 21
3.6164422828
 31
0.0
 11
8.7586323131
 21
3.6100431911
 31
0.0
 11
8.7562258842
 21
3.6041145225
 31
0.0
 11
8.7533039382
 21
3.5987023099
 31
0.0
 11
8.7516579351
 21
3.5962042599
 31
0.0
 11
8.7498929993
 21
3.5938525864
 31
0.0
 11
8.7480124463
 21
3.5916530433
 31
0.0
 11
8.7460195917
 21
3.5896113849
 31
0.0
 11
8.7439177508
 21
3.5877333653
 31
0.0
 11
8.7417102393
 21
3.5860247386
 31
0.0
 11
8.7394003727
 21
3.5844912589
 31
0.0
 11
8.7369914665
 21
3.5831386803
 31
0.0
  0
SPLINE
  5
2F7
100
AcDbEntity
  8
0
100
AcDbSpline
 62
9
  6
CONTINUOUS
 70
0
 71
3
 72
32
 73
28
 74
26
 42
0.0000001
 43
0.0000001
 44
0.0000000001
 12
-0.0847831557
 22
-0.075059203
 32
0.0
 13
-0.0802790007
 23
0.0798583088
 33
0.0
 40
0.0
 40
0.0
 40
0.0
 40
0.0
 40
0.0757607778
 40
0.1508239711
 40
0.2248295562
 40
0.2974205614
 40
0.3330826597
 40
0.3682650421
 40
0.4029296573
 40
0.4370413114
 40
0.4705683055
 40
0.5034831626
 40
0.5357634586
 40
0.5673966704
 40
0.5983887032
 40
0.6287499745
 40
0.6876114777
 40
0.7441175284
 40
0.7984348156
 40
0.8248541755
 40
0.850820632
 40
0.8763770283
 40
0.9015728701
 40
0.9264648546
 40
0.9511172838
 40
0.9756023143
 40
1.0
 40
1.0
 40
1.0
 40
1.0
 10
8.3733574395
 20
3.5386011554
 30
0.0
 10
8.3712163602
 20
3.5367056409
 30
0.0
 10
8.3668389444
 20
3.53305972
 30
0.0
 10
8.3600008976
 20
3.528025942
 30
0.0
 10
8.352971754
 20
3.5234789471
 30
0.0
 10
8.3469706185
 20
3.520105315
 30
0.0
 10
8.3421260992
 20
3.5176865156
 30
0.0
 10
8.3385046643
 20
3.5160278085
 30
0.0
 10
8.3348817948
 20
3.5145184302
 30
0.0
 10
8.3312651786
 20
3.513162901
 30
0.0
 10
8.3276625502
 20
3.5119657595
 30
0.0
 10
8.3240816305
 20
3.5109315415
 30
0.0
 10
8.3205299545
 20
3.5100647724
 30
0.0
 10
8.317014609
 20
3.5093698479
 30
0.0
 10
8.3135428929
 20
3.508845587
 30
0.0
 10
8.3090283536
 20
3.5083772568
 30
0.0
 10
8.3035210287
 20
3.5081989187
 30
0.0
 10
8.2971205517
 20
3.5086442421
 30
0.0
 10
8.2920107153
 20
3.5095675114
 30
0.0
 10
8.2881248735
 20
3.5106341922
 30
0.0
 10
8.2853389682
 20
3.5115856139
 30
0.0
 10
8.2826617554
 20
3.5126944155
 30
0.0
 10
8.2800996645
 20
3.5139593389
 30
0.0
 10
8.2776592896
 20
3.5153790908
 30
0.0
 10
8.2753471698
 20
3.5169524287
 30
0.0
 10
8.2731700704
 20
3.5186779036
 30
0.0
 10
8.271811943
 20
3.5199298679
 30
0.0
 10
8.2711590691
 20
3.5205793205
 30
0.0
 11
8.3733574395
 21
3.5386011554
 31
0.0
 11
8.3667657622
 21
3.5331107499
 31
0.0
 11
8.3599197055
 21
3.5280731683
 31
0.0
 11
8.3528815011
 21
3.523524771
 31
0.0
 11
8.3457133808
 21
3.5195019179
 31
0.0
 11
8.3421000496
 21
3.5176989331
 31
0.0
 11
8.3384775765
 21
3.5160409694
 31
0.0
 11
8.3348537402
 21
3.5145325718
 31
0.0
 11
8.33123632
 21
3.5131782855
 31
0.0
 11
8.3276330946
 21
3.5119826554
 31
0.0
 11
8.3240518431
 21
3.5109502265
 31
0.0
 11
8.3205003444
 21
3.5100855438
 31
0.0
 11
8.3169861421
 21
3.5093920647
 31
0.0
 11
8.3135159263
 21
3.5088693063
 31
0.0
 11
8.3100961941
 21
3.5085158933
 31
0.0
 11
8.3034341688
 21
3.5083116034
 31
0.0
 11
8.2970520424
 21
3.5087681939
 31
0.0
 11
8.2910017914
 21
3.509874664
 31
0.0
 11
8.2881173618
 21
3.5106681661
 31
0.0
 11
8.2853353921
 21
3.5116200127
 31
0.0
 11
8.2826623796
 21
3.5127288287
 31
0.0
 11
8.2801048211
 21
3.513993239
 31
0.0
 11
8.2776692137
 21
3.5154118684
 31
0.0
 11
8.2753620546
 21
3.5169833419
 31
0.0
 11
8.2731898407
 21
3.5187062843
 31
0.0
 11
8.2711590691
 21
3.5205793205
 31
0.0
  0
SPLINE
  5
2F8
100
AcDbEntity
  8
0
100
AcDbSpline
 62
9
  6
CONTINUOUS
 70
0
 71
3
 72
32
 73
28
 74
26
 42
0.0000001
 43
0.0000001
 44
0.0000000001
 12
-0.0975849801
 22
0.0574390034
 32
0.0
 13
0.0511421895
 23
0.1010274413
 33
0.0
 40
0.0
 40
0.0
 40
0.0
 40
0.0
 40
0.0757607778
 40
0.1508239711
 40
0.2248295562
 40
0.2974205614
 40
0.3330826597
 40
0.3682650421
 40
0.4029296573
 40
0.4370413114
 40
0.4705683055
 40
0.5034831626
 40
0.5357634586
 40
0.5673966704
 40
0.5983887032
 40
0.6287499745
 40
0.6876114777
 40
0.7441175284
 40
0.7984348156
 40
0.8248541755
 40
0.850820632
 40
0.8763770283
 40
0.9015728701
 40
0.9264648546
 40
0.9511172838
 40
0.9756023143
 40
1.0
 40
1.0
 40
1.0
 40
1.0
 10
8.1164322717
 20
3.8526529794
 30
0.0
 10
8.1139679004
 20
3.8541035206
 30
0.0
 10
8.1091477276
 20
3.8571400389
 30
0.0
 10
8.1022472477
 20
3.8620878849
 30
0.0
 10
8.0957506737
 20
3.867367899
 30
0.0
 10
8.0906877061
 20
3.8720328084
 30
0.0
 10
8.0868902524
 20
3.8758927699
 30
0.0
 10
8.0841936432
 20
3.8788243905
 30
0.0
 10
8.0816386109
 20
3.8818035206
 30
0.0
 10
8.0792318301
 20
3.8848242455
 30
0.0
 10
8.0769800075
 20
3.8878806116
 30
0.0
 10
8.0748898428
 20
3.8909666776
 30
0.0
 10
8.0729679681
 20
3.8940766759
 30
0.0
 10
8.071220754
 20
3.8972052247
 30
0.0
 10
8.0696493331
 20
3.9003450173
 30
0.0
 10
8.0678088552
 20
3.9044938774
 30
0.0
 10
8.0659373886
 20
3.9096765451
 30
0.0
 10
8.0643830602
 20
3.9159013729
 30
0.0
 10
8.0636821151
 20
3.9210464221
 30
0.0
 10
8.0634957978
 20
3.9250716997
 30
0.0
 10
8.0635397615
 20
3.9280152586
 30
0.0
 10
8.0637669902
 20
3.9309040778
 30
0.0
 10
8.0641782742
 20
3.9337316539
 30
0.0
 10
8.0647744212
 20
3.9364913158
 30
0.0
 10
8.0655562701
 20
3.9391764606
 30
0.0
 10
8.0665245336
 20
3.9417802062
 30
0.0
 10
8.0672955379
 20
3.9434587403
 30
0.0
 10
8.067711455
 20
3.9442803523
 30
0.0
 11
8.1164322717
 21
3.8526529794
 31
0.0
 11
8.1091736455
 21
3.8572254084
 31
0.0
 11
8.1022670728
 21
3.8621796969
 31
0.0
 11
8.0957663651
 21
3.867467895
 31
0.0
 11
8.0897253335
 21
3.8730420526
 31
0.0
 11
8.0868940123
 21
3.8759213817
 31
0.0
 11
8.0841977893
 21
3.8788542195
 31
0.0
 11
8.0816433911
 21
3.8818345721
 31
0.0
 11
8.0792375439
 21
3.8848564457
 31
0.0
 11
8.0769869742
 21
3.8879138467
 31
0.0
 11
8.0748984084
 21
3.8910007812
 31
0.0
 11
8.0729785728
 21
3.8941112555
 31
0.0
 11
8.0712330868
 21
3.8972391637
 31
0.0
 11
8.0696635583
 21
3.9003779937
 31
0.0
 11
8.0682706873
 21
3.9035211417
 31
0.0
 11
8.0660177169
 21
3.9097939753
 31
0.0
 11
8.0644797748
 21
3.9160048324
 31
0.0
 11
8.06366246
 21
3.9221008811
 31
0.0
 11
8.0635257876
 21
3.9250893423
 31
0.0
 11
8.0635713716
 21
3.9280292894
 31
0.0
 11
8.063799912
 21
3.9309141185
 31
0.0
 11
8.0642121086
 21
3.9337372254
 31
0.0
 11
8.0648086613
 21
3.9364920062
 31
0.0
 11
8.06559027
 21
3.939171857
 31
0.0
 11
8.0665576346
 21
3.9417701737
 31
0.0
 11
8.067711455
 21
3.9442803523
 31
0.0
  0
ENDSEC
  0
SECTION
  2
OBJECTS
  0
DICTIONARY
  5
C
100
AcDbDictionary
280
0
281
1
  3
ACAD_GROUP
350
D
  3
ACAD_MLINESTYLE
350
17
  3
ACAD_LAYOUT
350
1A
  3
ACAD_PLOTSETTINGS
350
19
  3
ACAD_PLOTSTYLENAME
350
E
  0
DICTIONARY
  5
D
102
{ACAD_REACTORS
330
C
102
}
100
AcDbDictionary
280
0
281
1
  0
ACDBDICTIONARYWDFLT
  5
E
102
{ACAD_REACTORS
330
C
102
}
100
AcDbDictionary
281
1
  3
Normal
350
F
100
AcDbDictionaryWithDefault
340
F
  0
DICTIONARY
  5
17
102
{ACAD_REACTORS
330
C
102
}
100
AcDbDictionary
280
0
281
1
  3
Standard
350
18
  0
DICTIONARY
  5
19
102
{ACAD_REACTORS
330
C
102
}
100
AcDbDictionary
281
1
  0
DICTIONARY
  5
1A
102
{ACAD_REACTORS
330
C
102
}
100
AcDbDictionary
281
1
  3
Model
350
2F9
  3
Layout1
350
2FA
  0
ACDBPLACEHOLDER
  5
F
102
{ACAD_REACTORS
330
E
102
}
  0
MLINESTYLE
  5
18
102
{ACAD_REACTORS
330
17
102
}
100
AcDbMlineStyle
  2
STANDARD
 70
0
  3

 62
256
 51
90.0
 52
90.0
 71
2
 49
0.5
 62
256
  6
BYLAYER
 49
-0.5
 62
256
  6
BYLAYER
  0
LAYOUT
  5
2F9
102
{ACAD_REACTORS
330
1A
102
}
100
AcDbPlotSettings
  1

  2
none_device
  4
ISO_A3_(420.00_x_297.00_MM)
  6

 40
0.0
 41
0.0
 42
0.0
 43
0.0
 44
420.0
 45
297.0
 46
0.0
 47
0.0
 48
0.0
 49
0.0
140
0.0
141
0.0
142
1.0
143
1.0
 70
1024
 72
0
 73
0
 74
0
  7

 75
0
147
1.0
148
0.0
149
0.0
100
AcDbLayout
  1
Model
 70
0
 71
0
 10
0.0
 20
0.0
 11
16.5354330709
 21
11.6929133858
 12
0.0
 22
0.0
 32
0.0
 14
0.0
 24
0.0
 34
0.0
 15
0.0
 25
0.0
 35
0.0
146
0.0
 13
0.0
 23
0.0
 33
0.0
 16
1.0
 26
0.0
 36
0.0
 17
0.0
 27
1.0
 37
0.0
 76
0
330
203
345
0
346
0
  0
LAYOUT
  5
2FA
102
{ACAD_REACTORS
330
1A
102
}
100
AcDbPlotSettings
  1

  2
none_device
  4
ISO_A3_(420.00_x_297.00_MM)
  6

 40
0.0
 41
0.0
 42
0.0
 43
0.0
 44
420.0
 45
297.0
 46
0.0
 47
0.0
 48
0.0
 49
0.0
140
0.0
141
0.0
142
1.0
143
1.0
 70
0
 72
0
 73
0
 74
0
  7

 75
0
147
1.0
148
0.0
149
0.0
100
AcDbLayout
  1
Layout1
 70
0
 71
1
 10
0.0
 20
0.0
 11
16.5354330709
 21
11.6929133858
 12
0.0
 22
0.0
 32
0.0
 14
0.0
 24
0.0
 34
0.0
 15
0.0
 25
0.0
 35
0.0
146
0.0
 13
0.0
 23
0.0
 33
0.0
 16
1.0
 26
0.0
 36
0.0
 17
0.0
 27
1.0
 37
0.0
 76
0
330
204
345
0
346
0
  0
ENDSEC
  0
EOF
