999
DXF file: E:\BT Custom\CADOUTPUT\_RIGHT.dxf
999
Pro/ENGINEER 2018400 by Parametric Technology Corporation
  0
SECTION
  2
HEADER
  9
$ACADVER
  1
AC1018
  9
$DWGCODEPAGE
  3
ANSI_1252
  9
$EXTMAX
 10
22.0
 20
17.0
 30
0.0
  9
$EXTMIN
 10
0.0
 20
0.0
 30
0.0
  9
$LIMMIN
 10
0.0
 20
0.0
  9
$LIMMAX
 10
22.0
 20
17.0
  9
$VIEWCTR
 10
11.0
 20
8.5
  9
$VIEWSIZE
 40
17.0
  9
$CLAYER
  8
0
  9
$LTSCALE
 40
1.21
  9
$CELTYPE
  6
BYLAYER
  9
$DIMSCALE
 40
1.0
  9
$DIMASZ
 40
0.1
  9
$DIMEXO
 40
0.0625
  9
$DIMDLI
 40
0.836
  9
$DIMEXE
 40
0.125
  9
$DIMCEN
 40
0.198
  9
$DIMLFAC
 40
1.0
  9
$DIMBLK
  1
_FILLED
  9
$DIMALT
 70
1
  9
$DIMALTD
 70
2
  9
$DIMALTTD
 70
2
  9
$DIMALTF
 40
25.4
  9
$DIMTXT
 40
0.08
  9
$DIMTOL
 70
1
  9
$DIMLIM
 70
0
  9
$DIMTFAC
 40
1.0
  9
$DIMTP
 40
0.001
  9
$DIMTM
 40
0.001
  9
$DIMGAP
 40
0.09
  9
$DIMDSEP
 70
46
  9
$AUNITS
 70
0
  9
$PDMODE
 70
3
  9
$PDSIZE
 40
0.06
  9
$HANDSEED
  5
245
  9
$TILEMODE
 70
1
  9
$MEASUREMENT
 70
0
  9
$INSUNITS
 70
1
  0
ENDSEC
  0
SECTION
  2
CLASSES
  0
CLASS
  1
ACDBDICTIONARYWDFLT
  2
AcDbDictionaryWithDefault
  3
AutoCAD 2000
 90
0
 91
1
280
0
281
0
  0
CLASS
  1
ACDBPLACEHOLDER
  2
AcDbPlaceHolder
  3
AutoCAD 2000
 90
0
 91
1
280
0
281
0
  0
CLASS
  1
LAYOUT
  2
AcDbLayout
  3
AutoCAD 2000
 90
0
 91
0
280
0
281
0
  0
ENDSEC
  0
SECTION
  2
TABLES
  0
TABLE
  2
VPORT
  5
8
100
AcDbSymbolTable
 70
2
  0
VPORT
  5
1F4
100
AcDbSymbolTableRecord
100
AcDbViewportTableRecord
  2
*ACTIVE
 70
0
 10
0.0
 20
0.0
 11
1.0
 21
1.0
 12
11.0
 22
8.5
 13
0.0
 23
0.0
 14
1.0
 24
1.0
 15
0.0
 25
0.0
 16
0.0
 26
0.0
 36
1.0
 17
0.0
 27
0.0
 37
0.0
 40
17.0
 41
1.2941176471
 42
50.0
 43
0.0
 44
0.0
 50
0.0
 51
0.0
 71
0
 72
100
 73
1
 74
1
 75
0
 76
0
 77
0
 78
0
  0
ENDTAB
  0
TABLE
  2
LTYPE
  5
5
100
AcDbSymbolTable
 70
6
  0
LTYPE
  5
14
100
AcDbSymbolTableRecord
100
AcDbLinetypeTableRecord
  2
BYBLOCK
 70
0
  3

 72
65
 73
0
 40
0.0
  0
LTYPE
  5
15
100
AcDbSymbolTableRecord
100
AcDbLinetypeTableRecord
  2
BYLAYER
 70
0
  3

 72
65
 73
0
 40
0.0
  0
LTYPE
  5
16
100
AcDbSymbolTableRecord
100
AcDbLinetypeTableRecord
  2
CONTINUOUS
 70
64
  3
Solid line
 72
65
 73
0
 40
0.0
  0
LTYPE
  5
1F5
100
AcDbSymbolTableRecord
100
AcDbLinetypeTableRecord
  2
CENTER
 70
64
  3
____ _ ____ _ ____ _ ____ _ ____ _ ____ _ ____
 72
65
 73
4
 40
0.6
 49
0.375
 74
0
 49
-0.075
 74
0
 49
0.075
 74
0
 49
-0.075
 74
0
  0
LTYPE
  5
1F6
100
AcDbSymbolTableRecord
100
AcDbLinetypeTableRecord
  2
HIDDEN
 70
64
  3
- - - - - - - - - - - - - - - - - - - -
 72
65
 73
2
 40
0.2
 49
0.1
 74
0
 49
-0.1
 74
0
  0
LTYPE
  5
1F7
100
AcDbSymbolTableRecord
100
AcDbLinetypeTableRecord
  2
PHANTOM
 70
64
  3
_____ _ _ _____ _ _ _____ _ _ _____
 72
65
 73
6
 40
0.8
 49
0.45
 74
0
 49
-0.05
 74
0
 49
0.1
 74
0
 49
-0.05
 74
0
 49
0.1
 74
0
 49
-0.05
 74
0
  0
LTYPE
  5
1F8
100
AcDbSymbolTableRecord
100
AcDbLinetypeTableRecord
  2
DOT
 70
64
  3
. . . . . . . . . . . . . . . . . . . .
 72
65
 73
2
 40
0.2
 49
0.1
 74
0
 49
-0.1
 74
0
  0
LTYPE
  5
1F9
100
AcDbSymbolTableRecord
100
AcDbLinetypeTableRecord
  2
DASHED
 70
64
  3
- - - - - - - - - - - - - - - - - - - -
 72
65
 73
2
 40
0.2
 49
0.1
 74
0
 49
-0.1
 74
0
  0
ENDTAB
  0
TABLE
  2
LAYER
  5
2
100
AcDbSymbolTable
 70
36
  0
LAYER
  5
10
100
AcDbSymbolTableRecord
100
AcDbLayerTableRecord
  2
0
 70
0
 62
7
  6
CONTINUOUS
370
-3
390
F
  0
LAYER
  5
1FA
100
AcDbSymbolTableRecord
100
AcDbLayerTableRecord
  2
DEFAULT_1
 70
0
 62
7
  6
CENTER
370
-3
390
F
  0
LAYER
  5
1FB
100
AcDbSymbolTableRecord
100
AcDbLayerTableRecord
  2
DEFAULT_2
 70
0
 62
8
  6
HIDDEN
370
-3
390
F
  0
LAYER
  5
1FC
100
AcDbSymbolTableRecord
100
AcDbLayerTableRecord
  2
DEFAULT_3
 70
0
 62
7
  6
PHANTOM
370
-3
390
F
  0
LAYER
  5
1FD
100
AcDbSymbolTableRecord
100
AcDbLayerTableRecord
  2
ALL_FEATURES
 70
0
 62
7
  6
CONTINUOUS
370
-3
390
F
  0
LAYER
  5
1FE
100
AcDbSymbolTableRecord
100
AcDbLayerTableRecord
  2
AXES_FEATURES
 70
0
 62
7
  6
CONTINUOUS
370
-3
390
F
  0
LAYER
  5
1FF
100
AcDbSymbolTableRecord
100
AcDbLayerTableRecord
  2
DEFAULT_COORDINATE_SYSTEM
 70
0
 62
7
  6
CONTINUOUS
370
-3
390
F
  0
LAYER
  5
200
100
AcDbSymbolTableRecord
100
AcDbLayerTableRecord
  2
DEFAULT_DATUM_AXES
 70
0
 62
7
  6
CONTINUOUS
370
-3
390
F
  0
LAYER
  5
201
100
AcDbSymbolTableRecord
100
AcDbLayerTableRecord
  2
DEFAULT_DATUM_PLANES
 70
0
 62
7
  6
CONTINUOUS
370
-3
390
F
  0
LAYER
  5
202
100
AcDbSymbolTableRecord
100
AcDbLayerTableRecord
  2
DIMENSIONS
 70
0
 62
7
  6
CONTINUOUS
370
-3
390
F
  0
ENDTAB
  0
TABLE
  2
STYLE
  5
3
100
AcDbSymbolTable
 70
1
  0
STYLE
  5
11
100
AcDbSymbolTableRecord
100
AcDbTextStyleTableRecord
  2
STANDARD
 70
0
 40
0.0
 41
0.8
 50
0.0
 71
0
 42
0.2
  3
txt
  4

  0
STYLE
  5
203
100
AcDbSymbolTableRecord
100
AcDbTextStyleTableRecord
  2
TEXTSTYLE_1
 70
0
 40
0.0
 41
0.8
 50
0.0
 71
0
 42
0.2
  3
gdt
  4

  0
ENDTAB
  0
TABLE
  2
VIEW
  5
6
100
AcDbSymbolTable
 70
0
  0
ENDTAB
  0
TABLE
  2
UCS
  5
7
100
AcDbSymbolTable
 70
0
  0
ENDTAB
  0
TABLE
  2
APPID
  5
9
100
AcDbSymbolTable
 70
1
  0
APPID
  5
204
100
AcDbSymbolTableRecord
100
AcDbRegAppTableRecord
  2
ACAD
 70
0
  0
ENDTAB
  0
TABLE
  2
BLOCK_RECORD
  5
1
100
AcDbSymbolTable
 70
0
  0
BLOCK_RECORD
  5
205
100
AcDbSymbolTableRecord
100
AcDbBlockTableRecord
  2
*Model_Space
  0
BLOCK_RECORD
  5
206
100
AcDbSymbolTableRecord
100
AcDbBlockTableRecord
  2
*Paper_Space
  0
BLOCK_RECORD
  5
207
100
AcDbSymbolTableRecord
100
AcDbBlockTableRecord
  2
_FILLED
  0
ENDTAB
  0
TABLE
  2
DIMSTYLE
  5
A
100
AcDbSymbolTable
 70
1
100
AcDbDimStyleTable
 71
0
  0
DIMSTYLE
105
208
100
AcDbSymbolTableRecord
100
AcDbDimStyleTableRecord
  2
STANDARD
 70
0
  3

  4

 40
1.0
 41
0.1
 42
0.0625
 43
0.38
 44
0.125
 45
0.0
 46
0.0
 47
0.001
 48
0.001
140
0.08
141
0.09
142
0.0
143
25.4
144
1.0
145
0.0
146
1.0
147
0.09
 71
1.0
 72
0.0
 73
1
 74
1
 75
0
 76
0
 77
0
 78
4
 79
1
170
1
171
2
172
0
173
0
174
0
175
0
176
0
177
0
178
0
270
2
179
3
271
3
272
3
273
2
274
2
275
0
280
0
281
0
282
0
283
1
284
4
285
0
286
0
287
3
288
0
340
11
278
46
341
207
342
207
343
207
344
207
  0
ENDTAB
  0
ENDSEC
  0
SECTION
  2
BLOCKS
  0
BLOCK
  5
20
100
AcDbEntity
  8
0
100
AcDbBlockBegin
  2
*Model_Space
 70
0
 10
0.0
 20
0.0
 30
0.0
  3
*Model_Space
  1

  0
ENDBLK
  5
21
100
AcDbEntity
  8
0
100
AcDbBlockEnd
  0
BLOCK
  5
1C
100
AcDbEntity
  8
0
100
AcDbBlockBegin
  2
*Paper_Space
 70
0
 10
0.0
 20
0.0
 30
0.0
  3
*Paper_Space
  1

  0
ENDBLK
  5
1D
100
AcDbEntity
  8
0
100
AcDbBlockEnd
  0
BLOCK
  5
209
100
AcDbEntity
  8
0
100
AcDbBlockBegin
  2
_FILLED
 70
64
 10
0.0
 20
0.0
  3
_FILLED
  1

  0
SOLID
  5
20A
100
AcDbEntity
  8
0
  6
BYBLOCK
 62
0
100
AcDbTrace
 10
0.0
 20
0.0
 11
-1.0
 21
0.2
 12
-1.0
 22
-0.2
 13
-1.0
 23
-0.2
  0
ENDBLK
  5
20B
100
AcDbEntity
  8
0
  6
BYBLOCK
 62
0
100
AcDbBlockEnd
  0
ENDSEC
  0
SECTION
  2
ENTITIES
  0
LINE
  5
20C
100
AcDbEntity
  8
0
100
AcDbLine
 62
7
  6
CONTINUOUS
 10
12.4849834891
 20
6.009891804
 11
12.1532403743
 21
6.0389155658
  0
LINE
  5
20D
100
AcDbEntity
  8
0
100
AcDbLine
 62
7
  6
CONTINUOUS
 10
9.8789834891
 20
6.449891804
 11
8.9749834891
 21
6.449891804
  0
LINE
  5
20E
100
AcDbEntity
  8
0
100
AcDbLine
 62
9
  6
CONTINUOUS
 10
8.9349834891
 20
6.489891804
 11
9.9189834891
 21
6.489891804
  0
LINE
  5
20F
100
AcDbEntity
  8
0
100
AcDbLine
 62
7
  6
CONTINUOUS
 10
8.9349834891
 20
6.489891804
 11
8.9349834891
 21
9.596891804
  0
LINE
  5
210
100
AcDbEntity
  8
0
100
AcDbLine
 62
9
  6
CONTINUOUS
 10
8.9749834891
 20
6.449891804
 11
8.9749834891
 21
9.636891804
  0
LINE
  5
211
100
AcDbEntity
  8
0
100
AcDbLine
 62
9
  6
CONTINUOUS
 10
9.1852508911
 20
9.4148663401
 11
9.1852510611
 21
9.4525383899
  0
LINE
  5
212
100
AcDbEntity
  8
0
100
AcDbLine
 62
9
  6
CONTINUOUS
 10
9.1677067204
 20
9.3381685727
 11
9.1394224492
 21
9.3098843015
  0
LINE
  5
213
100
AcDbEntity
  8
0
100
AcDbLine
 62
9
  6
CONTINUOUS
 10
9.8525442675
 20
8.5967624832
 11
9.1394224492
 21
9.3098843015
  0
LINE
  5
214
100
AcDbEntity
  8
0
100
AcDbLine
 62
9
  6
CONTINUOUS
 10
9.8789834891
 20
6.449891804
 11
9.8789834891
 21
8.5773979557
  0
LINE
  5
215
100
AcDbEntity
  8
0
100
AcDbLine
 62
9
  6
CONTINUOUS
 10
9.87898349
 20
9.4148663401
 11
9.8789834891
 21
9.636891804
  0
LINE
  5
216
100
AcDbEntity
  8
0
100
AcDbLine
 62
7
  6
CONTINUOUS
 10
9.9189834891
 20
9.596891804
 11
9.9189834891
 21
9.473374274
  0
LINE
  5
217
100
AcDbEntity
  8
0
100
AcDbLine
 62
7
  6
CONTINUOUS
 10
9.9189834891
 20
8.546409334
 11
9.9189834891
 21
6.489891804
  0
LINE
  5
218
100
AcDbEntity
  8
0
100
AcDbLine
 62
9
  6
CONTINUOUS
 10
9.9589834891
 20
9.439891804
 11
9.9589834891
 21
9.4339289575
  0
LINE
  5
219
100
AcDbEntity
  8
0
100
AcDbLine
 62
9
  6
CONTINUOUS
 10
9.9589834891
 20
8.5858546506
 11
9.9589834891
 21
8.579891804
  0
LINE
  5
21A
100
AcDbEntity
  8
0
100
AcDbLine
 62
7
  6
CONTINUOUS
 10
9.8808285274
 20
8.6250467658
 11
9.1677067103
 21
9.3381685829
  0
LINE
  5
21B
100
AcDbEntity
  8
0
100
AcDbLine
 62
9
  6
CONTINUOUS
 10
9.8969215462
 20
8.6124912347
 11
9.8789834891
 21
8.5773979557
  0
LINE
  5
21C
100
AcDbEntity
  8
0
100
AcDbLine
 62
9
  6
CONTINUOUS
 10
9.8808285388
 20
8.6250467544
 11
9.8525442675
 21
8.5967624832
  0
LINE
  5
21D
100
AcDbEntity
  8
0
100
AcDbLine
 62
7
  6
CONTINUOUS
 10
12.1349834891
 20
8.579891804
 11
11.7589834891
 21
8.579891804
  0
LINE
  5
21E
100
AcDbEntity
  8
0
100
AcDbLine
 62
7
  6
CONTINUOUS
 10
11.7089834891
 20
8.579891804
 11
9.9589834891
 21
8.579891804
  0
LINE
  5
21F
100
AcDbEntity
  8
0
100
AcDbLine
 62
7
  6
CONTINUOUS
 10
11.7589834891
 20
8.669891804
 11
11.7089834891
 21
8.669891804
  0
LINE
  5
220
100
AcDbEntity
  8
0
100
AcDbLine
 62
7
  6
CONTINUOUS
 10
11.7589834891
 20
9.349891804
 11
11.7089834891
 21
9.349891804
  0
LINE
  5
221
100
AcDbEntity
  8
0
100
AcDbLine
 62
9
  6
CONTINUOUS
 10
9.87898349
 20
9.4148663401
 11
9.1852508911
 21
9.4148663401
  0
LINE
  5
222
100
AcDbEntity
  8
0
100
AcDbLine
 62
7
  6
CONTINUOUS
 10
12.1349834891
 20
9.439891804
 11
11.7589834891
 21
9.439891804
  0
LINE
  5
223
100
AcDbEntity
  8
0
100
AcDbLine
 62
7
  6
CONTINUOUS
 10
11.7089834891
 20
9.439891804
 11
9.9589834891
 21
9.439891804
  0
LINE
  5
224
100
AcDbEntity
  8
0
100
AcDbLine
 62
9
  6
CONTINUOUS
 10
9.8789834891
 20
9.4525383899
 11
9.1852152993
 21
9.4525383899
  0
LINE
  5
225
100
AcDbEntity
  8
0
100
AcDbLine
 62
9
  6
CONTINUOUS
 10
9.9189834891
 20
9.596891804
 11
8.9349834891
 21
9.596891804
  0
LINE
  5
226
100
AcDbEntity
  8
0
100
AcDbLine
 62
7
  6
CONTINUOUS
 10
9.8789834891
 20
9.636891804
 11
8.9749834891
 21
9.636891804
  0
LINE
  5
227
100
AcDbEntity
  8
0
100
AcDbLine
 62
7
  6
CONTINUOUS
 10
11.7089834891
 20
8.579891804
 11
11.7089834891
 21
9.439891804
  0
LINE
  5
228
100
AcDbEntity
  8
0
100
AcDbLine
 62
7
  6
CONTINUOUS
 10
11.7589834891
 20
8.5798922269
 11
11.7589834891
 21
9.4398913812
  0
LINE
  5
229
100
AcDbEntity
  8
0
100
AcDbLine
 62
7
  6
CONTINUOUS
 10
12.1349834891
 20
6.0588396327
 11
12.1349834891
 21
11.9609439754
  0
LINE
  5
22A
100
AcDbEntity
  8
0
100
AcDbLine
 62
9
  6
CONTINUOUS
 10
12.1532403743
 20
6.0389155658
 11
12.1532403743
 21
11.9808680423
  0
LINE
  5
22B
100
AcDbEntity
  8
0
100
AcDbLine
 62
7
  6
CONTINUOUS
 10
12.4849834891
 20
6.0098919799
 11
12.4849834891
 21
12.0098916282
  0
LINE
  5
22C
100
AcDbEntity
  8
0
100
AcDbLine
 62
7
  6
CONTINUOUS
 10
12.4849834891
 20
12.009891804
 11
12.1532403743
 21
11.9808680423
  0
ARC
  5
22D
100
AcDbEntity
  8
0
100
AcDbCircle
 62
7
  6
CONTINUOUS
 10
9.9589834891
 20
8.539891804
 40
0.04
100
AcDbArc
 50
90.0
 51
180.0
  0
ARC
  5
22E
100
AcDbEntity
  8
0
100
AcDbCircle
 62
7
  6
CONTINUOUS
 10
9.9589834891
 20
9.479891804
 40
0.04
100
AcDbArc
 50
180.0
 51
270.0
  0
ARC
  5
22F
100
AcDbEntity
  8
0
100
AcDbCircle
 62
7
  6
CONTINUOUS
 10
8.9749834891
 20
9.596891804
 40
0.04
100
AcDbArc
 50
90.0
 51
180.0
  0
ARC
  5
230
100
AcDbEntity
  8
0
100
AcDbCircle
 62
7
  6
CONTINUOUS
 10
9.8789834891
 20
9.596891804
 40
0.04
100
AcDbArc
 50
0.0
 51
90.0
  0
ARC
  5
231
100
AcDbEntity
  8
0
100
AcDbCircle
 62
7
  6
CONTINUOUS
 10
8.9749834891
 20
6.489891804
 40
0.04
100
AcDbArc
 50
180.0
 51
270.0
  0
ARC
  5
232
100
AcDbEntity
  8
0
100
AcDbCircle
 62
7
  6
CONTINUOUS
 10
9.8789834891
 20
6.489891804
 40
0.04
100
AcDbArc
 50
270.0
 51
360.0
  0
ARC
  5
233
100
AcDbEntity
  8
0
100
AcDbCircle
 62
7
  6
CONTINUOUS
 10
12.1549834891
 20
11.9609441483
 40
0.02
100
AcDbArc
 50
95.0
 51
180.0
  0
ARC
  5
234
100
AcDbEntity
  8
0
100
AcDbCircle
 62
7
  6
CONTINUOUS
 10
12.1549834891
 20
6.0588394598
 40
0.02
100
AcDbArc
 50
180.0
 51
265.0
  0
SPLINE
  5
235
100
AcDbEntity
  8
0
100
AcDbSpline
 62
9
  6
CONTINUOUS
 70
0
 71
3
 72
34
 73
30
 74
0
 42
0.0000001
 43
0.0000001
 44
0.0000000001
 40
0.0
 40
0.0
 40
0.0
 40
0.0
 40
0.0604840961
 40
0.1211649047
 40
0.1820798486
 40
0.2126486995
 40
0.2432938363
 40
0.2740208707
 40
0.3048405195
 40
0.3357532972
 40
0.3667640228
 40
0.3978825708
 40
0.4291118519
 40
0.460450922
 40
0.4919058435
 40
0.5550835543
 40
0.6186441686
 40
0.650576428
 40
0.6825574215
 40
0.7145612675
 40
0.7465629026
 40
0.7785349801
 40
0.8104543631
 40
0.8422996797
 40
0.8740552131
 40
0.9057074888
 40
0.9372507334
 40
0.9686854829
 40
1.0
 40
1.0
 40
1.0
 40
1.0
 10
9.1677066106
 20
9.3381684629
 30
0.0
 10
9.1661945279
 20
9.3396805715
 30
0.0
 10
9.1632704827
 20
9.3428173471
 30
0.0
 10
9.1592474645
 20
9.3478509764
 30
0.0
 10
9.1562494831
 20
9.3523275518
 30
0.0
 10
9.1541034454
 20
9.3560760221
 30
0.0
 10
9.1526288832
 20
9.3589745457
 30
0.0
 10
9.1513051953
 20
9.361954863
 30
0.0
 10
9.1501469343
 20
9.3650136411
 30
0.0
 10
9.1491687717
 20
9.3681454149
 30
0.0
 10
9.1483867478
 20
9.3713430173
 30
0.0
 10
9.1478203529
 20
9.3745974961
 30
0.0
 10
9.1474871197
 20
9.3778959441
 30
0.0
 10
9.1474042222
 20
9.3812227626
 30
0.0
 10
9.1476553703
 20
9.3856734865
 30
0.0
 10
9.1486890691
 20
9.3912024264
 30
0.0
 10
9.1507629633
 20
9.3964582798
 30
0.0
 10
9.1530456605
 20
9.4003524739
 30
0.0
 10
9.1550625958
 20
9.4030869065
 30
0.0
 10
9.15736276
 20
9.4055909533
 30
0.0
 10
9.1599185425
 20
9.4078330526
 30
0.0
 10
9.1626966011
 20
9.4097875604
 30
0.0
 10
9.1656595667
 20
9.4114364399
 30
0.0
 10
9.1687675824
 20
9.4127720022
 30
0.0
 10
9.1719827616
 20
9.4137914705
 30
0.0
 10
9.1752685122
 20
9.4145020594
 30
0.0
 10
9.1785929561
 20
9.4149146621
 30
0.0
 10
9.1819277981
 20
9.4150438359
 30
0.0
 10
9.1841470265
 20
9.4149523762
 30
0.0
 10
9.1852507211
 20
9.4148652212
 30
0.0
  0
SPLINE
  5
236
100
AcDbEntity
  8
0
100
AcDbSpline
 62
9
  6
CONTINUOUS
 70
0
 71
3
 72
18
 73
14
 74
0
 42
0.0000001
 43
0.0000001
 44
0.0000000001
 40
0.0
 40
0.0
 40
0.0
 40
0.0
 40
0.1141991464
 40
0.1731668551
 40
0.2332341842
 40
0.3561540631
 40
0.4187829383
 40
0.4820424567
 40
0.5458288123
 40
0.6100509002
 40
0.7394238978
 40
0.8695606743
 40
1.0
 40
1.0
 40
1.0
 40
1.0
 10
9.9010751447
 20
8.5627312167
 30
0.0
 10
9.9001443557
 20
8.563138733
 30
0.0
 10
9.8987345678
 20
8.5637609552
 30
0.0
 10
9.896862611
 20
8.5646570851
 30
0.0
 10
9.8949412545
 20
8.5656283856
 30
0.0
 10
9.8930222249
 20
8.5666755971
 30
0.0
 10
9.8911142864
 20
8.5677986304
 30
0.0
 10
9.8896800378
 20
8.5686883722
 30
0.0
 10
9.8882580116
 20
8.5696236844
 30
0.0
 10
9.8863822522
 20
8.5709378964
 30
0.0
 10
9.8840969088
 20
8.5726941284
 30
0.0
 10
9.88146953
 20
8.5749626312
 30
0.0
 10
9.8797975282
 20
8.5765707302
 30
0.0
 10
9.8789834891
 20
8.5773979557
 30
0.0
  0
SPLINE
  5
237
100
AcDbEntity
  8
0
100
AcDbSpline
 62
9
  6
CONTINUOUS
 70
0
 71
3
 72
31
 73
27
 74
0
 42
0.0000001
 43
0.0000001
 44
0.0000000001
 40
0.0
 40
0.0
 40
0.0
 40
0.0
 40
0.0462476313
 40
0.0703969382
 40
0.0951564404
 40
0.1205490763
 40
0.1465967049
 40
0.2006620741
 40
0.2573322039
 40
0.3165265362
 40
0.3781110204
 40
0.4419044946
 40
0.5076883528
 40
0.5752116166
 40
0.6441977978
 40
0.7143491917
 40
0.7497662396
 40
0.7853557201
 40
0.8210750957
 40
0.8568810147
 40
0.8748023205
 40
0.892727405
 40
0.9106495619
 40
0.9285613084
 40
0.9643255244
 40
1.0
 40
1.0
 40
1.0
 40
1.0
 10
9.9237383782
 20
8.6006562765
 30
0.0
 10
9.9230937406
 20
8.600371315
 30
0.0
 10
9.9221336143
 20
8.599887495
 30
0.0
 10
9.9208896394
 20
8.5991413619
 30
0.0
 10
9.9199483975
 20
8.5985109795
 30
0.0
 10
9.9190142728
 20
8.5978204049
 30
0.0
 10
9.9177641246
 20
8.5968085409
 30
0.0
 10
9.9162277714
 20
8.5953960219
 30
0.0
 10
9.9144579495
 20
8.5935024481
 30
0.0
 10
9.912750575
 20
8.5914027014
 30
0.0
 10
9.9111167182
 20
8.5891108584
 30
0.0
 10
9.9095669728
 20
8.5866421083
 30
0.0
 10
9.9081112486
 20
8.5840129948
 30
0.0
 10
9.9067587858
 20
8.5812410889
 30
0.0
 10
9.9055176504
 20
8.578345166
 30
0.0
 10
9.9045846511
 20
8.5758528643
 30
0.0
 10
9.9038982618
 20
8.5738139208
 30
0.0
 10
9.9034119926
 20
8.5722616824
 30
0.0
 10
9.9029555248
 20
8.5706942695
 30
0.0
 10
9.9025982157
 20
8.5693787046
 30
0.0
 10
9.9023225874
 20
8.5683220798
 30
0.0
 10
9.9021203381
 20
8.5675279962
 30
0.0
 10
9.9019215311
 20
8.566733195
 30
0.0
 10
9.9016619459
 20
8.5656733662
 30
0.0
 10
9.9013585808
 20
8.5643457328
 30
0.0
 10
9.9011590377
 20
8.5632748665
 30
0.0
 10
9.9010756762
 20
8.5627376174
 30
0.0
  0
SPLINE
  5
238
100
AcDbEntity
  8
0
100
AcDbSpline
 62
9
  6
CONTINUOUS
 70
0
 71
3
 72
18
 73
14
 74
0
 42
0.0000001
 43
0.0000001
 44
0.0000000001
 40
0.0
 40
0.0
 40
0.0
 40
0.0
 40
0.1422049773
 40
0.2119268873
 40
0.2805815112
 40
0.4141306227
 40
0.5424156194
 40
0.6045635719
 40
0.6653537353
 40
0.7827429082
 40
0.8392642946
 40
0.8942994792
 40
1.0
 40
1.0
 40
1.0
 40
1.0
 10
9.8969215197
 20
8.6124911829
 30
0.0
 10
9.8981235437
 20
8.6117906267
 30
0.0
 10
9.899937329
 20
8.6107843198
 30
0.0
 10
9.9023792542
 20
8.6095300364
 30
0.0
 10
9.9047686545
 20
8.6083598793
 30
0.0
 10
9.9077058144
 20
8.6070068446
 30
0.0
 10
9.9106163853
 20
8.6057510041
 30
0.0
 10
9.912887386
 20
8.6048109085
 30
0.0
 10
9.9150683185
 20
8.6039322054
 30
0.0
 10
9.9172091928
 20
8.6031017482
 30
0.0
 10
9.9193037454
 20
8.6023080031
 30
0.0
 10
9.9212938354
 20
8.6015613244
 30
0.0
 10
9.9227683657
 20
8.6010147434
 30
0.0
 10
9.9237383782
 20
8.6006562765
 30
0.0
  0
SPLINE
  5
239
100
AcDbEntity
  8
0
100
AcDbSpline
 62
9
  6
CONTINUOUS
 70
0
 71
3
 72
11
 73
7
 74
0
 42
0.0000001
 43
0.0000001
 44
0.0000000001
 40
0.0
 40
0.0
 40
0.0
 40
0.0
 40
0.2499968989
 40
0.499994783
 40
0.7499968653
 40
1.0
 40
1.0
 40
1.0
 40
1.0
 10
9.8789834891
 20
8.5773979557
 30
0.0
 10
9.8765422881
 20
8.5786453689
 30
0.0
 10
9.8717618354
 20
8.5813452648
 30
0.0
 10
9.8649430141
 20
8.5859583187
 30
0.0
 10
9.8585047534
 20
8.5910885695
 30
0.0
 10
9.8544827208
 20
8.5948238558
 30
0.0
 10
9.8525442675
 20
8.5967624832
 30
0.0
  0
SPLINE
  5
23A
100
AcDbEntity
  8
0
100
AcDbSpline
 62
9
  6
CONTINUOUS
 70
0
 71
3
 72
10
 73
6
 74
0
 42
0.0000001
 43
0.0000001
 44
0.0000000001
 40
0.0
 40
0.0
 40
0.0
 40
0.0
 40
0.5012859786
 40
0.7509565246
 40
1.0
 40
1.0
 40
1.0
 40
1.0
 10
9.8969215462
 20
8.6124912347
 30
0.0
 10
9.893966222
 20
8.614209435
 30
0.0
 10
9.8897272222
 20
8.617121856
 30
0.0
 10
9.884502123
 20
8.6215070968
 30
0.0
 10
9.8820295108
 20
8.6238459067
 30
0.0
 10
9.8808286124
 20
8.6250468281
 30
0.0
  0
LINE
  5
23B
100
AcDbEntity
  8
0
100
AcDbLine
 62
9
  6
CONTINUOUS
 10
9.9237039097
 20
8.6006719402
 11
9.1852510146
 21
9.4148663401
  0
SPLINE
  5
23C
100
AcDbEntity
  8
0
100
AcDbSpline
 62
9
  6
CONTINUOUS
 70
0
 71
3
 72
28
 73
24
 74
0
 42
0.0000001
 43
0.0000001
 44
0.0000000001
 40
0.0
 40
0.0
 40
0.0
 40
0.0
 40
0.1000278581
 40
0.1963961471
 40
0.288778794
 40
0.37681048
 40
0.4601660665
 40
0.5385328277
 40
0.6116012285
 40
0.6790747621
 40
0.7406674029
 40
0.7961198854
 40
0.845250927
 40
0.8674125217
 40
0.8879608891
 40
0.9069022005
 40
0.9242586635
 40
0.9400706024
 40
0.9544077414
 40
0.9673792341
 40
0.9791418473
 40
0.9899164096
 40
1.0
 40
1.0
 40
1.0
 40
1.0
 10
9.9237039097
 20
8.6006719402
 30
0.0
 10
9.9249890789
 20
8.6004159811
 30
0.0
 10
9.9275071856
 20
8.5998868178
 30
0.0
 10
9.9311926269
 20
8.5990314872
 30
0.0
 10
9.934706698
 20
8.5981363777
 30
0.0
 10
9.9380348453
 20
8.5972056586
 30
0.0
 10
9.9411635392
 20
8.5962470893
 30
0.0
 10
9.9440799191
 20
8.5952682645
 30
0.0
 10
9.9467712507
 20
8.5942764666
 30
0.0
 10
9.9492249718
 20
8.5932793305
 30
0.0
 10
9.9514287995
 20
8.5922844155
 30
0.0
 10
9.9533707073
 20
8.5912986017
 30
0.0
 10
9.954808116
 20
8.5904648217
 30
0.0
 10
9.9558135773
 20
8.5898035035
 30
0.0
 10
9.9564691636
 20
8.5893312975
 30
0.0
 10
9.9570514211
 20
8.5888664314
 30
0.0
 10
9.9575593339
 20
8.5884096079
 30
0.0
 10
9.9579919808
 20
8.5879613881
 30
0.0
 10
9.9583485783
 20
8.5875221867
 30
0.0
 10
9.9586285025
 20
8.5870923157
 30
0.0
 10
9.9588309148
 20
8.5866717153
 30
0.0
 10
9.9589544808
 20
8.5862605841
 30
0.0
 10
9.9589835183
 20
8.5859867502
 30
0.0
 10
9.9589834891
 20
8.5858546506
 30
0.0
  0
SPLINE
  5
23D
100
AcDbEntity
  8
0
100
AcDbSpline
 62
9
  6
CONTINUOUS
 70
0
 71
3
 72
24
 73
20
 74
0
 42
0.0000001
 43
0.0000001
 44
0.0000000001
 40
0.0
 40
0.0
 40
0.0
 40
0.0
 40
0.0891063618
 40
0.132551088
 40
0.1752044079
 40
0.2580520085
 40
0.3375721397
 40
0.4136723353
 40
0.4862151227
 40
0.555078906
 40
0.6201577688
 40
0.6813405692
 40
0.7385320861
 40
0.7916889735
 40
0.840806944
 40
0.8859182275
 40
0.92720384
 40
0.9650581992
 40
1.0
 40
1.0
 40
1.0
 40
1.0
 10
9.9010751447
 20
8.5627312167
 30
0.0
 10
9.9017620431
 20
8.5624367444
 30
0.0
 10
9.9027733715
 20
8.5619738082
 30
0.0
 10
9.9040894938
 20
8.5613200784
 30
0.0
 10
9.9053465655
 20
8.5606659951
 30
0.0
 10
9.9068500292
 20
8.559830468
 30
0.0
 10
9.9085570753
 20
8.5587870171
 30
0.0
 10
9.9101454714
 20
8.5577186534
 30
0.0
 10
9.9116141337
 20
8.5566355108
 30
0.0
 10
9.912960197
 20
8.5555448143
 30
0.0
 10
9.9141804526
 20
8.5544531996
 30
0.0
 10
9.9152719915
 20
8.5533676406
 30
0.0
 10
9.9162320072
 20
8.5522948916
 30
0.0
 10
9.9170565364
 20
8.5512403577
 30
0.0
 10
9.9177416461
 20
8.5502097121
 30
0.0
 10
9.9182842029
 20
8.5492089406
 30
0.0
 10
9.918680133
 20
8.5482422101
 30
0.0
 10
9.9189238288
 20
8.5473137611
 30
0.0
 10
9.9189835094
 20
8.5467023998
 30
0.0
 10
9.9189834891
 20
8.546409334
 30
0.0
  0
SPLINE
  5
23E
100
AcDbEntity
  8
0
100
AcDbSpline
 62
9
  6
CONTINUOUS
 70
0
 71
3
 72
23
 73
19
 74
0
 42
0.0000001
 43
0.0000001
 44
0.0000000001
 40
0.0
 40
0.0
 40
0.0
 40
0.0
 40
0.0620635475
 40
0.1241476222
 40
0.1862612089
 40
0.248424157
 40
0.3106473335
 40
0.3729420851
 40
0.4353160488
 40
0.4977740446
 40
0.5603175826
 40
0.6229448842
 40
0.6856510345
 40
0.7484278571
 40
0.8112654373
 40
0.8741486828
 40
0.9370679423
 40
1.0
 40
1.0
 40
1.0
 40
1.0
 10
9.9189834891
 20
8.546409334
 30
0.0
 10
9.9189834891
 20
8.5476996744
 30
0.0
 10
9.919112167
 20
8.550282623
 30
0.0
 10
9.9196891793
 20
8.5541180373
 30
0.0
 10
9.9206448053
 20
8.5578795675
 30
0.0
 10
9.9219696304
 20
8.5615304169
 30
0.0
 10
9.923651003
 20
8.5650355838
 30
0.0
 10
9.92567263
 20
8.5683612606
 30
0.0
 10
9.928015045
 20
8.5714754296
 30
0.0
 10
9.9306556525
 20
8.574348108
 30
0.0
 10
9.9335690051
 20
8.5769516429
 30
0.0
 10
9.936727022
 20
8.5792609922
 30
0.0
 10
9.9400992777
 20
8.5812539356
 30
0.0
 10
9.9436533032
 20
8.5829113433
 30
0.0
 10
9.9473548351
 20
8.584217212
 30
0.0
 10
9.9511684114
 20
8.585159123
 30
0.0
 10
9.9550567969
 20
8.5857278366
 30
0.0
 10
9.9576750919
 20
8.5858546506
 30
0.0
 10
9.9589834891
 20
8.5858546506
 30
0.0
  0
SPLINE
  5
23F
100
AcDbEntity
  8
0
100
AcDbSpline
 62
9
  6
CONTINUOUS
 70
0
 71
3
 72
32
 73
28
 74
0
 42
0.0000001
 43
0.0000001
 44
0.0000000001
 40
0.0
 40
0.0
 40
0.0
 40
0.0
 40
0.0038180668
 40
0.0078314013
 40
0.012120552
 40
0.0167500774
 40
0.0217696156
 40
0.0272164252
 40
0.0394890435
 40
0.053706579
 40
0.0699167282
 40
0.0881255624
 40
0.1083130236
 40
0.1304355509
 40
0.1544359777
 40
0.1802463167
 40
0.207795076
 40
0.267808815
 40
0.3338498889
 40
0.4052692565
 40
0.4814037153
 40
0.5615861745
 40
0.6451712684
 40
0.7314820078
 40
0.8198388481
 40
0.9095768516
 40
1.0
 40
1.0
 40
1.0
 40
1.0
 10
9.9589834891
 20
9.4339289575
 30
0.0
 10
9.958983493
 20
9.4338216815
 30
0.0
 10
9.9589645823
 20
9.433601302
 30
0.0
 10
9.9588830539
 20
9.4332694852
 30
0.0
 10
9.9587487572
 20
9.4329307972
 30
0.0
 10
9.9585623566
 20
9.4325855249
 30
0.0
 10
9.9583243843
 20
9.4322337044
 30
0.0
 10
9.957922584
 20
9.4317361742
 30
0.0
 10
9.9572833882
 20
9.4311026961
 30
0.0
 10
9.9563482578
 20
9.4303489354
 30
0.0
 10
9.9552201408
 20
9.4295757461
 30
0.0
 10
9.9539035039
 20
9.4287866213
 30
0.0
 10
9.9524031226
 20
9.4279852852
 30
0.0
 10
9.9507246966
 20
9.4271755126
 30
0.0
 10
9.9488744608
 20
9.426361313
 30
0.0
 10
9.9468590553
 20
9.4255465563
 30
0.0
 10
9.9438743036
 20
9.4244328858
 30
0.0
 10
9.9397754158
 20
9.4230766435
 30
0.0
 10
9.9344389834
 20
9.4215527887
 30
0.0
 10
9.9286094439
 20
9.4201214813
 30
0.0
 10
9.9223449081
 20
9.4188121961
 30
0.0
 10
9.9157039195
 20
9.4176512249
 30
0.0
 10
9.9087457339
 20
9.4166656224
 30
0.0
 10
9.9015315678
 20
9.4158757922
 30
0.0
 10
9.8941239738
 20
9.4152962508
 30
0.0
 10
9.8865863984
 20
9.4149464985
 30
0.0
 10
9.8815241019
 20
9.4148660695
 30
0.0
 10
9.8789834891
 20
9.4148663401
 30
0.0
  0
SPLINE
  5
240
100
AcDbEntity
  8
0
100
AcDbSpline
 62
9
  6
CONTINUOUS
 70
0
 71
3
 72
23
 73
19
 74
0
 42
0.0000001
 43
0.0000001
 44
0.0000000001
 40
0.0
 40
0.0
 40
0.0
 40
0.0
 40
0.0620635489
 40
0.1241476248
 40
0.1862612125
 40
0.2484241613
 40
0.3106473383
 40
0.3729420901
 40
0.4353160538
 40
0.4977740493
 40
0.5603175869
 40
0.622944888
 40
0.6856510376
 40
0.7484278595
 40
0.811265439
 40
0.8741486838
 40
0.9370679427
 40
1.0
 40
1.0
 40
1.0
 40
1.0
 10
9.9189834891
 20
9.473374274
 30
0.0
 10
9.9189834891
 20
9.4720839336
 30
0.0
 10
9.919112167
 20
9.469500985
 30
0.0
 10
9.9196891793
 20
9.4656655706
 30
0.0
 10
9.9206448053
 20
9.4619040403
 30
0.0
 10
9.9219696304
 20
9.4582531909
 30
0.0
 10
9.923651003
 20
9.4547480239
 30
0.0
 10
9.92567263
 20
9.4514223471
 30
0.0
 10
9.928015045
 20
9.448308178
 30
0.0
 10
9.9306556525
 20
9.4454354996
 30
0.0
 10
9.9335690051
 20
9.4428319647
 30
0.0
 10
9.936727022
 20
9.4405226154
 30
0.0
 10
9.9400992777
 20
9.438529672
 30
0.0
 10
9.9436533032
 20
9.4368722644
 30
0.0
 10
9.9473548351
 20
9.4355663958
 30
0.0
 10
9.9511684114
 20
9.4346244849
 30
0.0
 10
9.9550567969
 20
9.4340557713
 30
0.0
 10
9.9576750919
 20
9.4339289574
 30
0.0
 10
9.9589834891
 20
9.4339289575
 30
0.0
  0
SPLINE
  5
241
100
AcDbEntity
  8
0
100
AcDbSpline
 62
9
  6
CONTINUOUS
 70
0
 71
3
 72
31
 73
27
 74
0
 42
0.0000001
 43
0.0000001
 44
0.0000000001
 40
0.0
 40
0.0
 40
0.0
 40
0.0
 40
0.0292867909
 40
0.0454332258
 40
0.0627303053
 40
0.0812686482
 40
0.1010901046
 40
0.1222017232
 40
0.1446036977
 40
0.1682978691
 40
0.1932750923
 40
0.2469547975
 40
0.3054270542
 40
0.3684777424
 40
0.4358483462
 40
0.5072955895
 40
0.5444682962
 40
0.5825507548
 40
0.6214963849
 40
0.6612567831
 40
0.7429754985
 40
0.8271617258
 40
0.8699686388
 40
0.9131187042
 40
0.9565075742
 40
1.0
 40
1.0
 40
1.0
 40
1.0
 10
9.9189834891
 20
9.473374274
 30
0.0
 10
9.9189834971
 20
9.4729070986
 30
0.0
 10
9.9188706636
 20
9.472180521
 30
0.0
 10
9.9185582548
 20
9.4712293797
 30
0.0
 10
9.9182244092
 20
9.4704688313
 30
0.0
 10
9.9178013294
 20
9.4696874135
 30
0.0
 10
9.9172908281
 20
9.4688869356
 30
0.0
 10
9.9166943934
 20
9.4680707361
 30
0.0
 10
9.9160137359
 20
9.4672417944
 30
0.0
 10
9.9152509692
 20
9.4664024258
 30
0.0
 10
9.914099345
 20
9.4652444544
 30
0.0
 10
9.9124583948
 20
9.463794118
 30
0.0
 10
9.9102309261
 20
9.4621025795
 30
0.0
 10
9.907712764
 20
9.4604437754
 30
0.0
 10
9.9049105373
 20
9.4588527778
 30
0.0
 10
9.9023837116
 20
9.4576247757
 30
0.0
 10
9.9002326515
 20
9.4567023891
 30
0.0
 10
9.8985356452
 20
9.4560390469
 30
0.0
 10
9.8967783242
 20
9.4554194432
 30
0.0
 10
9.8943367042
 20
9.4546517044
 30
0.0
 10
9.8911580242
 20
9.4538289809
 30
0.0
 10
9.887881844
 20
9.4532196442
 30
0.0
 10
9.8851897629
 20
9.4528705881
 30
0.0
 10
9.8831347007
 20
9.4526811814
 30
0.0
 10
9.8810633162
 20
9.4525649162
 30
0.0
 10
9.8796772693
 20
9.4525382829
 30
0.0
 10
9.8789834891
 20
9.4525383899
 30
0.0
  0
SPLINE
  5
242
100
AcDbEntity
  8
0
100
AcDbSpline
 62
9
  6
CONTINUOUS
 70
0
 71
3
 72
41
 73
37
 74
0
 42
0.0000001
 43
0.0000001
 44
0.0000000001
 40
0.0
 40
0.0
 40
0.0
 40
0.0
 40
0.0624812519
 40
0.1249589272
 40
0.1562112353
 40
0.1874633169
 40
0.2187154478
 40
0.2499673232
 40
0.2812189285
 40
0.312470443
 40
0.3437220444
 40
0.3749729538
 40
0.4062240592
 40
0.4374748338
 40
0.4687254009
 40
0.4999758944
 40
0.5312260691
 40
0.5624761078
 40
0.5937260416
 40
0.6249758745
 40
0.656225616
 40
0.6874753112
 40
0.7187249656
 40
0.7499746812
 40
0.78122436
 40
0.8124742672
 40
0.8281026129
 40
0.8437308332
 40
0.8749806653
 40
0.890609269
 40
0.906237728
 40
0.9218655595
 40
0.9374927317
 40
0.9531208592
 40
0.968750671
 40
1.0
 40
1.0
 40
1.0
 40
1.0
 10
9.1394224492
 20
9.3098843015
 30
0.0
 10
9.1365633889
 20
9.3127433172
 30
0.0
 10
9.1311523919
 20
9.3187779152
 30
0.0
 10
9.125283384
 20
9.3270377265
 30
0.0
 10
9.1212011998
 20
9.3340246943
 30
0.0
 10
9.1184632056
 20
9.3394433727
 30
0.0
 10
9.1160676289
 20
9.3450219017
 30
0.0
 10
9.1140339065
 20
9.3507425474
 30
0.0
 10
9.1123810069
 20
9.3565848217
 30
0.0
 10
9.1111268305
 20
9.3625256586
 30
0.0
 10
9.110285355
 20
9.3685390469
 30
0.0
 10
9.1098740827
 20
9.3745973877
 30
0.0
 10
9.109906351
 20
9.3806697139
 30
0.0
 10
9.1103890079
 20
9.3867231632
 30
0.0
 10
9.1113331771
 20
9.3927222382
 30
0.0
 10
9.1127409176
 20
9.3986298934
 30
0.0
 10
9.1146119391
 20
9.4044077745
 30
0.0
 10
9.116942385
 20
9.4100163178
 30
0.0
 10
9.1197231388
 20
9.4154159218
 30
0.0
 10
9.1229398106
 20
9.420567889
 30
0.0
 10
9.1265743483
 20
9.4254341984
 30
0.0
 10
9.130603308
 20
9.4299793872
 30
0.0
 10
9.1349990962
 20
9.4341708339
 30
0.0
 10
9.1397305297
 20
9.4379793719
 30
0.0
 10
9.144763181
 20
9.4413795037
 30
0.0
 10
9.1491781222
 20
9.4438558872
 30
0.0
 10
9.1528217169
 20
9.4456147287
 30
0.0
 10
9.156533973
 20
9.4472234292
 30
0.0
 10
9.1603418149
 20
9.4486033566
 30
0.0
 10
9.1642208103
 20
9.4497527949
 30
0.0
 10
9.1671622529
 20
9.4504999588
 30
0.0
 10
9.1701306536
 20
9.4511308386
 30
0.0
 10
9.1731215439
 20
9.4516444051
 30
0.0
 10
9.1761301584
 20
9.4520424031
 30
0.0
 10
9.1801578804
 20
9.4524221369
 30
0.0
 10
9.183193091
 20
9.4525380545
 30
0.0
 10
9.1852152993
 20
9.4525383899
 30
0.0
  0
ENDSEC
  0
SECTION
  2
OBJECTS
  0
DICTIONARY
  5
C
100
AcDbDictionary
280
0
281
1
  3
ACAD_GROUP
350
D
  3
ACAD_MLINESTYLE
350
17
  3
ACAD_LAYOUT
350
1A
  3
ACAD_PLOTSETTINGS
350
19
  3
ACAD_PLOTSTYLENAME
350
E
  0
DICTIONARY
  5
D
102
{ACAD_REACTORS
330
C
102
}
100
AcDbDictionary
280
0
281
1
  0
ACDBDICTIONARYWDFLT
  5
E
102
{ACAD_REACTORS
330
C
102
}
100
AcDbDictionary
281
1
  3
Normal
350
F
100
AcDbDictionaryWithDefault
340
F
  0
DICTIONARY
  5
17
102
{ACAD_REACTORS
330
C
102
}
100
AcDbDictionary
280
0
281
1
  3
Standard
350
18
  0
DICTIONARY
  5
19
102
{ACAD_REACTORS
330
C
102
}
100
AcDbDictionary
281
1
  0
DICTIONARY
  5
1A
102
{ACAD_REACTORS
330
C
102
}
100
AcDbDictionary
281
1
  3
Model
350
243
  3
Layout1
350
244
  0
ACDBPLACEHOLDER
  5
F
102
{ACAD_REACTORS
330
E
102
}
  0
MLINESTYLE
  5
18
102
{ACAD_REACTORS
330
17
102
}
100
AcDbMlineStyle
  2
STANDARD
 70
0
  3

 62
256
 51
90.0
 52
90.0
 71
2
 49
0.5
 62
256
  6
BYLAYER
 49
-0.5
 62
256
  6
BYLAYER
  0
LAYOUT
  5
243
102
{ACAD_REACTORS
330
1A
102
}
100
AcDbPlotSettings
  1

  2
none_device
  4
ANSI_C_(22.00_x_17.00_Inches)
  6

 40
0.0
 41
0.0
 42
0.0
 43
0.0
 44
558.8
 45
431.8
 46
0.0
 47
0.0
 48
0.0
 49
0.0
140
0.0
141
0.0
142
1.0
143
1.0
 70
1024
 72
0
 73
0
 74
0
  7

 75
0
147
1.0
148
0.0
149
0.0
100
AcDbLayout
  1
Model
 70
0
 71
0
 10
0.0
 20
0.0
 11
22.0
 21
17.0
 12
0.0
 22
0.0
 32
0.0
 14
0.0
 24
0.0
 34
0.0
 15
0.0
 25
0.0
 35
0.0
146
0.0
 13
0.0
 23
0.0
 33
0.0
 16
1.0
 26
0.0
 36
0.0
 17
0.0
 27
1.0
 37
0.0
 76
0
330
205
345
0
346
0
  0
LAYOUT
  5
244
102
{ACAD_REACTORS
330
1A
102
}
100
AcDbPlotSettings
  1

  2
none_device
  4
ANSI_C_(22.00_x_17.00_Inches)
  6

 40
0.0
 41
0.0
 42
0.0
 43
0.0
 44
558.8
 45
431.8
 46
0.0
 47
0.0
 48
0.0
 49
0.0
140
0.0
141
0.0
142
1.0
143
1.0
 70
0
 72
0
 73
0
 74
0
  7

 75
0
147
1.0
148
0.0
149
0.0
100
AcDbLayout
  1
Layout1
 70
0
 71
1
 10
0.0
 20
0.0
 11
22.0
 21
17.0
 12
0.0
 22
0.0
 32
0.0
 14
0.0
 24
0.0
 34
0.0
 15
0.0
 25
0.0
 35
0.0
146
0.0
 13
0.0
 23
0.0
 33
0.0
 16
1.0
 26
0.0
 36
0.0
 17
0.0
 27
1.0
 37
0.0
 76
0
330
206
345
0
346
0
  0
ENDSEC
  0
EOF
