999
DXF file: E:\BT Custom\CADOUTPUT\_TOP.dxf
999
Pro/ENGINEER 2018400 by Parametric Technology Corporation
  0
SECTION
  2
HEADER
  9
$ACADVER
  1
AC1018
  9
$DWGCODEPAGE
  3
ANSI_1252
  9
$EXTMAX
 10
22.0
 20
17.0
 30
0.0
  9
$EXTMIN
 10
0.0
 20
0.0
 30
0.0
  9
$LIMMIN
 10
0.0
 20
0.0
  9
$LIMMAX
 10
22.0
 20
17.0
  9
$VIEWCTR
 10
11.0
 20
8.5
  9
$VIEWSIZE
 40
17.0
  9
$CLAYER
  8
0
  9
$LTSCALE
 40
1.21
  9
$CELTYPE
  6
BYLAYER
  9
$DIMSCALE
 40
1.0
  9
$DIMASZ
 40
0.1
  9
$DIMEXO
 40
0.0625
  9
$DIMDLI
 40
0.836
  9
$DIMEXE
 40
0.125
  9
$DIMCEN
 40
0.198
  9
$DIMLFAC
 40
1.0
  9
$DIMBLK
  1
_FILLED
  9
$DIMALT
 70
1
  9
$DIMALTD
 70
2
  9
$DIMALTTD
 70
2
  9
$DIMALTF
 40
25.4
  9
$DIMTXT
 40
0.08
  9
$DIMTOL
 70
1
  9
$DIMLIM
 70
0
  9
$DIMTFAC
 40
1.0
  9
$DIMTP
 40
0.001
  9
$DIMTM
 40
0.001
  9
$DIMGAP
 40
0.09
  9
$DIMDSEP
 70
46
  9
$AUNITS
 70
0
  9
$PDMODE
 70
3
  9
$PDSIZE
 40
0.06
  9
$HANDSEED
  5
23C
  9
$TILEMODE
 70
1
  9
$MEASUREMENT
 70
0
  9
$INSUNITS
 70
1
  0
ENDSEC
  0
SECTION
  2
CLASSES
  0
CLASS
  1
ACDBDICTIONARYWDFLT
  2
AcDbDictionaryWithDefault
  3
AutoCAD 2000
 90
0
 91
1
280
0
281
0
  0
CLASS
  1
ACDBPLACEHOLDER
  2
AcDbPlaceHolder
  3
AutoCAD 2000
 90
0
 91
1
280
0
281
0
  0
CLASS
  1
LAYOUT
  2
AcDbLayout
  3
AutoCAD 2000
 90
0
 91
0
280
0
281
0
  0
ENDSEC
  0
SECTION
  2
TABLES
  0
TABLE
  2
VPORT
  5
8
100
AcDbSymbolTable
 70
2
  0
VPORT
  5
1F4
100
AcDbSymbolTableRecord
100
AcDbViewportTableRecord
  2
*ACTIVE
 70
0
 10
0.0
 20
0.0
 11
1.0
 21
1.0
 12
11.0
 22
8.5
 13
0.0
 23
0.0
 14
1.0
 24
1.0
 15
0.0
 25
0.0
 16
0.0
 26
0.0
 36
1.0
 17
0.0
 27
0.0
 37
0.0
 40
17.0
 41
1.2941176471
 42
50.0
 43
0.0
 44
0.0
 50
0.0
 51
0.0
 71
0
 72
100
 73
1
 74
1
 75
0
 76
0
 77
0
 78
0
  0
ENDTAB
  0
TABLE
  2
LTYPE
  5
5
100
AcDbSymbolTable
 70
6
  0
LTYPE
  5
14
100
AcDbSymbolTableRecord
100
AcDbLinetypeTableRecord
  2
BYBLOCK
 70
0
  3

 72
65
 73
0
 40
0.0
  0
LTYPE
  5
15
100
AcDbSymbolTableRecord
100
AcDbLinetypeTableRecord
  2
BYLAYER
 70
0
  3

 72
65
 73
0
 40
0.0
  0
LTYPE
  5
16
100
AcDbSymbolTableRecord
100
AcDbLinetypeTableRecord
  2
CONTINUOUS
 70
64
  3
Solid line
 72
65
 73
0
 40
0.0
  0
LTYPE
  5
1F5
100
AcDbSymbolTableRecord
100
AcDbLinetypeTableRecord
  2
CENTER
 70
64
  3
____ _ ____ _ ____ _ ____ _ ____ _ ____ _ ____
 72
65
 73
4
 40
0.6
 49
0.375
 74
0
 49
-0.075
 74
0
 49
0.075
 74
0
 49
-0.075
 74
0
  0
LTYPE
  5
1F6
100
AcDbSymbolTableRecord
100
AcDbLinetypeTableRecord
  2
HIDDEN
 70
64
  3
- - - - - - - - - - - - - - - - - - - -
 72
65
 73
2
 40
0.2
 49
0.1
 74
0
 49
-0.1
 74
0
  0
LTYPE
  5
1F7
100
AcDbSymbolTableRecord
100
AcDbLinetypeTableRecord
  2
PHANTOM
 70
64
  3
_____ _ _ _____ _ _ _____ _ _ _____
 72
65
 73
6
 40
0.8
 49
0.45
 74
0
 49
-0.05
 74
0
 49
0.1
 74
0
 49
-0.05
 74
0
 49
0.1
 74
0
 49
-0.05
 74
0
  0
LTYPE
  5
1F8
100
AcDbSymbolTableRecord
100
AcDbLinetypeTableRecord
  2
DOT
 70
64
  3
. . . . . . . . . . . . . . . . . . . .
 72
65
 73
2
 40
0.2
 49
0.1
 74
0
 49
-0.1
 74
0
  0
LTYPE
  5
1F9
100
AcDbSymbolTableRecord
100
AcDbLinetypeTableRecord
  2
DASHED
 70
64
  3
- - - - - - - - - - - - - - - - - - - -
 72
65
 73
2
 40
0.2
 49
0.1
 74
0
 49
-0.1
 74
0
  0
ENDTAB
  0
TABLE
  2
LAYER
  5
2
100
AcDbSymbolTable
 70
36
  0
LAYER
  5
10
100
AcDbSymbolTableRecord
100
AcDbLayerTableRecord
  2
0
 70
0
 62
7
  6
CONTINUOUS
370
-3
390
F
  0
LAYER
  5
1FA
100
AcDbSymbolTableRecord
100
AcDbLayerTableRecord
  2
DEFAULT_1
 70
0
 62
7
  6
CENTER
370
-3
390
F
  0
LAYER
  5
1FB
100
AcDbSymbolTableRecord
100
AcDbLayerTableRecord
  2
DEFAULT_2
 70
0
 62
8
  6
HIDDEN
370
-3
390
F
  0
LAYER
  5
1FC
100
AcDbSymbolTableRecord
100
AcDbLayerTableRecord
  2
DEFAULT_3
 70
0
 62
7
  6
PHANTOM
370
-3
390
F
  0
LAYER
  5
1FD
100
AcDbSymbolTableRecord
100
AcDbLayerTableRecord
  2
ALL_FEATURES
 70
0
 62
7
  6
CONTINUOUS
370
-3
390
F
  0
LAYER
  5
1FE
100
AcDbSymbolTableRecord
100
AcDbLayerTableRecord
  2
AXES_FEATURES
 70
0
 62
7
  6
CONTINUOUS
370
-3
390
F
  0
LAYER
  5
1FF
100
AcDbSymbolTableRecord
100
AcDbLayerTableRecord
  2
DEFAULT_COORDINATE_SYSTEM
 70
0
 62
7
  6
CONTINUOUS
370
-3
390
F
  0
LAYER
  5
200
100
AcDbSymbolTableRecord
100
AcDbLayerTableRecord
  2
DEFAULT_DATUM_AXES
 70
0
 62
7
  6
CONTINUOUS
370
-3
390
F
  0
LAYER
  5
201
100
AcDbSymbolTableRecord
100
AcDbLayerTableRecord
  2
DEFAULT_DATUM_PLANES
 70
0
 62
7
  6
CONTINUOUS
370
-3
390
F
  0
LAYER
  5
202
100
AcDbSymbolTableRecord
100
AcDbLayerTableRecord
  2
DIMENSIONS
 70
0
 62
7
  6
CONTINUOUS
370
-3
390
F
  0
ENDTAB
  0
TABLE
  2
STYLE
  5
3
100
AcDbSymbolTable
 70
1
  0
STYLE
  5
11
100
AcDbSymbolTableRecord
100
AcDbTextStyleTableRecord
  2
STANDARD
 70
0
 40
0.0
 41
0.8
 50
0.0
 71
0
 42
0.2
  3
txt
  4

  0
STYLE
  5
203
100
AcDbSymbolTableRecord
100
AcDbTextStyleTableRecord
  2
TEXTSTYLE_1
 70
0
 40
0.0
 41
0.8
 50
0.0
 71
0
 42
0.2
  3
gdt
  4

  0
ENDTAB
  0
TABLE
  2
VIEW
  5
6
100
AcDbSymbolTable
 70
0
  0
ENDTAB
  0
TABLE
  2
UCS
  5
7
100
AcDbSymbolTable
 70
0
  0
ENDTAB
  0
TABLE
  2
APPID
  5
9
100
AcDbSymbolTable
 70
1
  0
APPID
  5
204
100
AcDbSymbolTableRecord
100
AcDbRegAppTableRecord
  2
ACAD
 70
0
  0
ENDTAB
  0
TABLE
  2
BLOCK_RECORD
  5
1
100
AcDbSymbolTable
 70
0
  0
BLOCK_RECORD
  5
205
100
AcDbSymbolTableRecord
100
AcDbBlockTableRecord
  2
*Model_Space
  0
BLOCK_RECORD
  5
206
100
AcDbSymbolTableRecord
100
AcDbBlockTableRecord
  2
*Paper_Space
  0
BLOCK_RECORD
  5
207
100
AcDbSymbolTableRecord
100
AcDbBlockTableRecord
  2
_FILLED
  0
ENDTAB
  0
TABLE
  2
DIMSTYLE
  5
A
100
AcDbSymbolTable
 70
1
100
AcDbDimStyleTable
 71
0
  0
DIMSTYLE
105
208
100
AcDbSymbolTableRecord
100
AcDbDimStyleTableRecord
  2
STANDARD
 70
0
  3

  4

 40
1.0
 41
0.1
 42
0.0625
 43
0.38
 44
0.125
 45
0.0
 46
0.0
 47
0.001
 48
0.001
140
0.08
141
0.09
142
0.0
143
25.4
144
1.0
145
0.0
146
1.0
147
0.09
 71
1.0
 72
0.0
 73
1
 74
1
 75
0
 76
0
 77
0
 78
4
 79
1
170
1
171
2
172
0
173
0
174
0
175
0
176
0
177
0
178
0
270
2
179
3
271
3
272
3
273
2
274
2
275
0
280
0
281
0
282
0
283
1
284
4
285
0
286
0
287
3
288
0
340
11
278
46
341
207
342
207
343
207
344
207
  0
ENDTAB
  0
ENDSEC
  0
SECTION
  2
BLOCKS
  0
BLOCK
  5
20
100
AcDbEntity
  8
0
100
AcDbBlockBegin
  2
*Model_Space
 70
0
 10
0.0
 20
0.0
 30
0.0
  3
*Model_Space
  1

  0
ENDBLK
  5
21
100
AcDbEntity
  8
0
100
AcDbBlockEnd
  0
BLOCK
  5
1C
100
AcDbEntity
  8
0
100
AcDbBlockBegin
  2
*Paper_Space
 70
0
 10
0.0
 20
0.0
 30
0.0
  3
*Paper_Space
  1

  0
ENDBLK
  5
1D
100
AcDbEntity
  8
0
100
AcDbBlockEnd
  0
BLOCK
  5
209
100
AcDbEntity
  8
0
100
AcDbBlockBegin
  2
_FILLED
 70
64
 10
0.0
 20
0.0
  3
_FILLED
  1

  0
SOLID
  5
20A
100
AcDbEntity
  8
0
  6
BYBLOCK
 62
0
100
AcDbTrace
 10
0.0
 20
0.0
 11
-1.0
 21
0.2
 12
-1.0
 22
-0.2
 13
-1.0
 23
-0.2
  0
ENDBLK
  5
20B
100
AcDbEntity
  8
0
  6
BYBLOCK
 62
0
100
AcDbBlockEnd
  0
ENDSEC
  0
SECTION
  2
ENTITIES
  0
LINE
  5
20C
100
AcDbEntity
  8
0
100
AcDbLine
 62
7
  6
CONTINUOUS
 10
8.0473183383
 20
9.2573318604
 11
8.0763421
 21
8.9255887455
  0
LINE
  5
20D
100
AcDbEntity
  8
0
100
AcDbLine
 62
7
  6
CONTINUOUS
 10
11.1253183383
 20
5.7073318604
 11
10.9693183383
 21
5.7073318604
  0
LINE
  5
20E
100
AcDbEntity
  8
0
100
AcDbLine
 62
9
  6
CONTINUOUS
 10
10.9293183383
 20
5.7473318604
 11
11.1653183383
 21
5.7473318604
  0
LINE
  5
20F
100
AcDbEntity
  8
0
100
AcDbLine
 62
9
  6
CONTINUOUS
 10
11.1918715298
 20
5.9575992624
 11
11.1653183383
 21
5.9575994324
  0
LWPOLYLINE
  5
210
100
AcDbEntity
  8
0
100
AcDbPolyline
 62
7
  6
CONTINUOUS
 90
12
 70
0
 10
10.9027667897
 20
5.9199267267
 10
10.9059311768
 20
5.9186422604
 10
10.9099608019
 20
5.9165173203
 10
10.9137227129
 20
5.9139479468
 10
10.9171680863
 20
5.9109674735
 10
10.9202522125
 20
5.9076145741
 10
10.9229350613
 20
5.9039327832
 10
10.9251818355
 20
5.8999698954
 10
10.9269635979
 20
5.8957768284
 10
10.9282572622
 20
5.8914072122
 10
10.9290457648
 20
5.8869167206
 10
10.9292874744
 20
5.8828873737
  0
LINE
  5
211
100
AcDbEntity
  8
0
100
AcDbLine
 62
9
  6
CONTINUOUS
 10
10.9027651468
 20
6.6513318604
 11
11.1918715298
 21
6.6513318613
  0
LINE
  5
212
100
AcDbEntity
  8
0
100
AcDbLine
 62
7
  6
CONTINUOUS
 10
10.9693183383
 20
6.6913318604
 11
11.1253183383
 21
6.6913318604
  0
LINE
  5
213
100
AcDbEntity
  8
0
100
AcDbLine
 62
9
  6
CONTINUOUS
 10
10.9759566362
 20
6.7313318604
 11
11.1186800404
 21
6.7313318604
  0
LWPOLYLINE
  5
214
100
AcDbEntity
  8
0
100
AcDbPolyline
 62
7
  6
CONTINUOUS
 90
21
 70
0
 10
10.6173183204
 20
6.3248545515
 10
10.6176462378
 20
6.3080831678
 10
10.6200182823
 20
6.2767676799
 10
10.6246203503
 20
6.2459910742
 10
10.6313549615
 20
6.2159245581
 10
10.6401206283
 20
6.1867257911
 10
10.6507939241
 20
6.1585616959
 10
10.6632258013
 20
6.1315758763
 10
10.6772608933
 20
6.1059035097
 10
10.692714946
 20
6.0816792347
 10
10.7093984901
 20
6.0589840035
 10
10.7271491271
 20
6.037857733
 10
10.7457963321
 20
6.0183314574
 10
10.7651780261
 20
6.000404424
 10
10.7851612864
 20
5.984056078
 10
10.8056257873
 20
5.9692535608
 10
10.826463011
 20
5.9559520922
 10
10.8475769401
 20
5.9441066474
 10
10.8688973504
 20
5.9336642085
 10
10.8903661626
 20
5.9245698605
 10
10.9027676609
 20
5.9199264066
  0
LINE
  5
215
100
AcDbEntity
  8
0
100
AcDbLine
 62
7
  6
CONTINUOUS
 10
10.6173183383
 20
8.9073318604
 11
10.6173183383
 21
8.5313318604
  0
LINE
  5
216
100
AcDbEntity
  8
0
100
AcDbLine
 62
7
  6
CONTINUOUS
 10
10.6173183383
 20
8.4813318604
 11
10.6173183406
 21
6.3248576835
  0
LINE
  5
217
100
AcDbEntity
  8
0
100
AcDbLine
 62
7
  6
CONTINUOUS
 10
10.7073183383
 20
8.4813318604
 11
10.7073183383
 21
8.5313318604
  0
LINE
  5
218
100
AcDbEntity
  8
0
100
AcDbLine
 62
9
  6
CONTINUOUS
 10
10.9027651468
 20
5.9575989483
 11
10.9027651468
 21
6.6513318604
  0
LINE
  5
219
100
AcDbEntity
  8
0
100
AcDbLine
 62
7
  6
CONTINUOUS
 10
10.9293183383
 20
5.7473318604
 11
10.9293183383
 21
6.6513318604
  0
LINE
  5
21A
100
AcDbEntity
  8
0
100
AcDbLine
 62
9
  6
CONTINUOUS
 10
10.9693183383
 20
5.7073318604
 11
10.9693183383
 21
6.6913318604
  0
LINE
  5
21B
100
AcDbEntity
  8
0
100
AcDbLine
 62
9
  6
CONTINUOUS
 10
11.1253183383
 20
5.7073318604
 11
11.1253183383
 21
6.6913318604
  0
LINE
  5
21C
100
AcDbEntity
  8
0
100
AcDbLine
 62
7
  6
CONTINUOUS
 10
11.1653183383
 20
6.6513318604
 11
11.1653183383
 21
5.7473318604
  0
LINE
  5
21D
100
AcDbEntity
  8
0
100
AcDbLine
 62
9
  6
CONTINUOUS
 10
11.1918715298
 20
6.6513318613
 11
11.1918715298
 21
5.9575992624
  0
LWPOLYLINE
  5
21E
100
AcDbEntity
  8
0
100
AcDbPolyline
 62
7
  6
CONTINUOUS
 90
12
 70
0
 10
11.1653187045
 20
5.8822558082
 10
11.1655740253
 20
5.8867681617
 10
11.1663493119
 20
5.8912773714
 10
11.1676334942
 20
5.8956658093
 10
11.1694094139
 20
5.8998775792
 10
11.171653911
 20
5.9038587255
 10
11.1743379971
 20
5.9075579836
 10
11.1774266318
 20
5.9109269787
 10
11.1808794436
 20
5.9139216433
 10
11.1846513089
 20
5.9165028455
 10
11.188692922
 20
5.918636871
 10
11.1918708409
 20
5.9199274301
  0
LINE
  5
21F
100
AcDbEntity
  8
0
100
AcDbLine
 62
7
  6
CONTINUOUS
 10
11.3873183383
 20
8.4813318604
 11
11.3873183383
 21
8.5313318604
  0
LINE
  5
220
100
AcDbEntity
  8
0
100
AcDbLine
 62
7
  6
CONTINUOUS
 10
11.4773183355
 20
6.3249427392
 11
11.4773183383
 21
6.3248994263
  0
LINE
  5
221
100
AcDbEntity
  8
0
100
AcDbLine
 62
7
  6
CONTINUOUS
 10
11.4773183383
 20
8.9073318604
 11
11.4773183383
 21
8.5313318604
  0
LINE
  5
222
100
AcDbEntity
  8
0
100
AcDbLine
 62
7
  6
CONTINUOUS
 10
11.4773183383
 20
8.4813318604
 11
11.4773183383
 21
6.3249011444
  0
LINE
  5
223
100
AcDbEntity
  8
0
100
AcDbLine
 62
7
  6
CONTINUOUS
 10
11.4773183383
 20
8.4813318604
 11
10.6173183383
 21
8.4813318604
  0
LINE
  5
224
100
AcDbEntity
  8
0
100
AcDbLine
 62
7
  6
CONTINUOUS
 10
11.4773183383
 20
8.5313318604
 11
10.6173183383
 21
8.5313318604
  0
LINE
  5
225
100
AcDbEntity
  8
0
100
AcDbLine
 62
7
  6
CONTINUOUS
 10
13.9983706826
 20
8.9073318604
 11
8.096265994
 21
8.9073318604
  0
LWPOLYLINE
  5
226
100
AcDbEntity
  8
0
100
AcDbPolyline
 62
7
  6
CONTINUOUS
 90
21
 70
0
 10
11.1918689797
 20
5.9199266146
 10
11.2043632222
 20
5.924606195
 10
11.2258328795
 20
5.9337066092
 10
11.2471503515
 20
5.9441543118
 10
11.2682581217
 20
5.9560028323
 10
11.2890856261
 20
5.9693041523
 10
11.3095381693
 20
5.9841043123
 10
11.3295097039
 20
6.0004491467
 10
11.3488807037
 20
6.0183708853
 10
11.3675193136
 20
6.0378929597
 10
11.385260946
 20
6.0590134812
 10
11.4019345651
 20
6.0816975251
 10
11.4173774353
 20
6.1059059898
 10
11.4314011264
 20
6.1315573509
 10
11.4438259513
 20
6.158520944
 10
11.4544971601
 20
6.1866697392
 10
11.463265111
 20
6.2158626465
 10
11.4700050766
 20
6.2459292651
 10
11.4746114688
 20
6.2767056553
 10
11.476987254
 20
6.3080105348
 10
11.477318356
 20
6.3249485265
  0
LINE
  5
227
100
AcDbEntity
  8
0
100
AcDbLine
 62
9
  6
CONTINUOUS
 10
14.0182945765
 20
8.9255887455
 11
8.0763421
 21
8.9255887455
  0
LINE
  5
228
100
AcDbEntity
  8
0
100
AcDbLine
 62
7
  6
CONTINUOUS
 10
14.0473183383
 20
9.2573318604
 11
8.0473183383
 21
9.2573318604
  0
LINE
  5
229
100
AcDbEntity
  8
0
100
AcDbLine
 62
7
  6
CONTINUOUS
 10
14.0473183383
 20
9.2573318604
 11
14.0182945765
 21
8.9255887455
  0
ARC
  5
22A
100
AcDbEntity
  8
0
100
AcDbCircle
 62
9
  6
CONTINUOUS
 10
11.123492589
 20
6.324901753
 40
0.3538257596
100
AcDbArc
 50
358.780936145
 51
359.9998362729
  0
ARC
  5
22B
100
AcDbEntity
  8
0
100
AcDbCircle
 62
7
  6
CONTINUOUS
 10
10.9693183383
 20
5.7473318604
 40
0.04
100
AcDbArc
 50
180.0
 51
270.0
  0
ARC
  5
22C
100
AcDbEntity
  8
0
100
AcDbCircle
 62
7
  6
CONTINUOUS
 10
11.1253183383
 20
5.7473318604
 40
0.04
100
AcDbArc
 50
270.0
 51
360.0
  0
ARC
  5
22D
100
AcDbEntity
  8
0
100
AcDbCircle
 62
7
  6
CONTINUOUS
 10
11.1253183383
 20
6.6513318604
 40
0.04
100
AcDbArc
 50
0.0
 51
90.0
  0
ARC
  5
22E
100
AcDbEntity
  8
0
100
AcDbCircle
 62
7
  6
CONTINUOUS
 10
10.9693183383
 20
6.6513318604
 40
0.04
100
AcDbArc
 50
90.0
 51
180.0
  0
ARC
  5
22F
100
AcDbEntity
  8
0
100
AcDbCircle
 62
7
  6
CONTINUOUS
 10
8.096265994
 20
8.9273318604
 40
0.02
100
AcDbArc
 50
185.0
 51
270.0
  0
ARC
  5
230
100
AcDbEntity
  8
0
100
AcDbCircle
 62
7
  6
CONTINUOUS
 10
13.9983706826
 20
8.9273318604
 40
0.02
100
AcDbArc
 50
270.0
 51
355.0
  0
SPLINE
  5
231
100
AcDbEntity
  8
0
100
AcDbSpline
 62
9
  6
CONTINUOUS
 70
0
 71
3
 72
32
 73
28
 74
0
 42
0.0000001
 43
0.0000001
 44
0.0000000001
 40
0.0
 40
0.0
 40
0.0
 40
0.0
 40
0.0105569742
 40
0.0203232684
 40
0.0296963522
 40
0.0392048841
 40
0.0494242686
 40
0.0608581098
 40
0.0738903337
 40
0.0888129178
 40
0.1058300688
 40
0.1250795905
 40
0.1466462629
 40
0.1705818998
 40
0.1968887858
 40
0.2255364285
 40
0.28960225
 40
0.3620310761
 40
0.4417296309
 40
0.5274044927
 40
0.6176794185
 40
0.6641232032
 40
0.7112209765
 40
0.7588257042
 40
0.806795942
 40
0.903354049
 40
1.0
 40
1.0
 40
1.0
 40
1.0
 10
11.1918703806
 20
5.9199273028
 30
0.0
 10
11.1917379476
 20
5.9198800265
 30
0.0
 10
11.1914753911
 20
5.9198078085
 30
0.0
 10
11.1910778501
 20
5.9197792035
 30
0.0
 10
11.1906974633
 20
5.9198421465
 30
0.0
 10
11.1903396778
 20
5.9200014693
 30
0.0
 10
11.190008174
 20
5.9202566776
 30
0.0
 10
11.1897030728
 20
5.9206068065
 30
0.0
 10
11.1894244795
 20
5.9210534399
 30
0.0
 10
11.1891734795
 20
5.9215986827
 30
0.0
 10
11.1889496163
 20
5.9222435882
 30
0.0
 10
11.1887527282
 20
5.9229889449
 30
0.0
 10
11.1885840092
 20
5.9238352311
 30
0.0
 10
11.1884453188
 20
5.9247819655
 30
0.0
 10
11.1883369667
 20
5.9258274369
 30
0.0
 10
11.1882291714
 20
5.9274093795
 30
0.0
 10
11.1881821867
 20
5.9296097527
 30
0.0
 10
11.1882522433
 20
5.9324892877
 30
0.0
 10
11.1884454474
 20
5.9356515263
 30
0.0
 10
11.1887587336
 20
5.9390427645
 30
0.0
 10
11.189110238
 20
5.9419844532
 30
0.0
 10
11.1894447597
 20
5.9444099666
 30
0.0
 10
11.1897241144
 20
5.946269205
 30
0.0
 10
11.1900276806
 20
5.9481452353
 30
0.0
 10
11.1904631776
 20
5.9506671529
 30
0.0
 10
11.1910598941
 20
5.9538239328
 30
0.0
 10
11.1915910835
 20
5.9563421963
 30
0.0
 10
11.1918692993
 20
5.9575990924
 30
0.0
  0
SPLINE
  5
232
100
AcDbEntity
  8
0
100
AcDbSpline
 62
9
  6
CONTINUOUS
 70
0
 71
3
 72
33
 73
29
 74
0
 42
0.0000001
 43
0.0000001
 44
0.0000000001
 40
0.0
 40
0.0
 40
0.0
 40
0.0
 40
0.0966468315
 40
0.1932050225
 40
0.2411760568
 40
0.2887823645
 40
0.3358807874
 40
0.3823234608
 40
0.4279515331
 40
0.4726015283
 40
0.5582770496
 40
0.6379760691
 40
0.7104053327
 40
0.7744725341
 40
0.8031210447
 40
0.8294262111
 40
0.8533617835
 40
0.8749314175
 40
0.8941820034
 40
0.9111968077
 40
0.9261183224
 40
0.9391518386
 40
0.9505861097
 40
0.9608062657
 40
0.9703172021
 40
0.9796885749
 40
0.9894474829
 40
1.0
 40
1.0
 40
1.0
 40
1.0
 10
10.9027675264
 20
5.9575987357
 30
0.0
 10
10.9030459223
 20
5.956341883
 30
0.0
 10
10.9035773454
 20
5.953823682
 30
0.0
 10
10.9041736521
 20
5.9506668376
 30
0.0
 10
10.9046090649
 20
5.9481449045
 30
0.0
 10
10.9049128594
 20
5.9462688926
 30
0.0
 10
10.9051923211
 20
5.9444096792
 30
0.0
 10
10.9054453349
 20
5.9425732752
 30
0.0
 10
10.9056716394
 20
5.9407662489
 30
0.0
 10
10.9059339777
 20
5.938437265
 30
0.0
 10
10.9061913585
 20
5.935651229
 30
0.0
 10
10.9063842571
 20
5.9324890035
 30
0.0
 10
10.9064545596
 20
5.9296094749
 30
0.0
 10
10.9064074452
 20
5.927409094
 30
0.0
 10
10.9062996946
 20
5.9258271604
 30
0.0
 10
10.9061913096
 20
5.9247817164
 30
0.0
 10
10.9060526373
 20
5.923834977
 30
0.0
 10
10.9058840486
 20
5.9229886227
 30
0.0
 10
10.9056872042
 20
5.9222432354
 30
0.0
 10
10.9054631684
 20
5.9215984262
 30
0.0
 10
10.9052121091
 20
5.9210532638
 30
0.0
 10
10.9049338146
 20
5.9206064625
 30
0.0
 10
10.9046289226
 20
5.9202560838
 30
0.0
 10
10.9042971931
 20
5.9200010386
 30
0.0
 10
10.9039392599
 20
5.9198420643
 30
0.0
 10
10.9035590214
 20
5.9197790222
 30
0.0
 10
10.9031616399
 20
5.9198073214
 30
0.0
 10
10.9028992173
 20
5.9198794642
 30
0.0
 10
10.9027668454
 20
5.91992673
 30
0.0
  0
LINE
  5
233
100
AcDbEntity
  8
0
100
AcDbLine
 62
9
  6
CONTINUOUS
 10
10.9293183383
 20
5.9576480119
 11
10.9027651468
 21
5.9575989483
  0
SPLINE
  5
234
100
AcDbEntity
  8
0
100
AcDbSpline
 62
9
  6
CONTINUOUS
 70
0
 71
3
 72
31
 73
27
 74
0
 42
0.0000001
 43
0.0000001
 44
0.0000000001
 40
0.0
 40
0.0
 40
0.0
 40
0.0
 40
0.0273163102
 40
0.0546660115
 40
0.0820705752
 40
0.1095516072
 40
0.1648206682
 40
0.2206588097
 40
0.2488510375
 40
0.2772519984
 40
0.3058850235
 40
0.3347733683
 40
0.3933986385
 40
0.453322755
 40
0.5147387991
 40
0.5460712937
 40
0.5778462437
 40
0.6428018875
 40
0.7097872903
 40
0.7789394285
 40
0.8143669817
 40
0.8503670866
 40
0.8869400459
 40
0.9240791849
 40
0.9617736052
 40
1.0
 40
1.0
 40
1.0
 40
1.0
 10
11.4772382636
 20
6.3173740843
 30
0.0
 10
11.4771433658
 20
6.3129144769
 30
0.0
 10
11.4767846134
 20
6.3039924739
 30
0.0
 10
11.4757398085
 20
6.2906285374
 30
0.0
 10
11.4741873164
 20
6.2772865632
 30
0.0
 10
11.471433395
 20
6.2595072987
 30
0.0
 10
11.4666990914
 20
6.2373537041
 30
0.0
 10
11.4602690877
 20
6.2155104074
 30
0.0
 10
11.4540944406
 20
6.1982165197
 30
0.0
 10
11.448920207
 20
6.1852934231
 30
0.0
 10
11.4432135843
 20
6.1724718613
 30
0.0
 10
11.4348482474
 20
6.1554460458
 30
0.0
 10
11.4230006452
 20
6.1344577068
 30
0.0
 10
11.4066307292
 20
6.1100190397
 30
0.0
 10
11.3911991049
 20
6.0904045281
 30
0.0
 10
11.3777312458
 20
6.0751643203
 30
0.0
 10
11.36328657
 20
6.0600363441
 30
0.0
 10
11.3437056749
 20
6.0417919212
 30
0.0
 10
11.3179920268
 20
6.0213175462
 30
0.0
 10
11.2947456402
 20
6.005624326
 30
0.0
 10
11.2749919515
 20
5.9939200352
 30
0.0
 10
11.259469665
 20
5.9855379287
 30
0.0
 10
11.2433731155
 20
5.9776617071
 30
0.0
 10
11.2267182457
 20
5.9703300689
 30
0.0
 10
11.2095285964
 20
5.9635814406
 30
0.0
 10
11.1978101631
 20
5.9595222575
 30
0.0
 10
11.1918715298
 20
5.9575993858
 30
0.0
  0
SPLINE
  5
235
100
AcDbEntity
  8
0
100
AcDbSpline
 62
9
  6
CONTINUOUS
 70
0
 71
3
 72
25
 73
21
 74
0
 42
0.0000001
 43
0.0000001
 44
0.0000000001
 40
0.0
 40
0.0
 40
0.0
 40
0.0
 40
0.0624226575
 40
0.1246689832
 40
0.1867685983
 40
0.2487594475
 40
0.3106936331
 40
0.3416675526
 40
0.3726484187
 40
0.4346406119
 40
0.4967446002
 40
0.5278619675
 40
0.5590231936
 40
0.6214732734
 40
0.6841301271
 40
0.746995908
 40
0.8100540033
 40
0.8732724544
 40
0.936606124
 40
1.0
 40
1.0
 40
1.0
 40
1.0
 10
11.1186800404
 20
6.7313318604
 30
0.0
 10
11.1211838347
 20
6.7313318754
 30
0.0
 10
11.1261888606
 20
6.7310503824
 30
0.0
 10
11.1335893496
 20
6.729795975
 30
0.0
 10
11.1407900493
 20
6.7277370158
 30
0.0
 10
11.1477127867
 20
6.7249156677
 30
0.0
 10
11.1531947824
 20
6.7219652376
 30
0.0
 10
11.1573753273
 20
6.7192754967
 30
0.0
 10
11.1614144159
 20
6.7163735313
 30
0.0
 10
11.1661830686
 20
6.7123622987
 30
0.0
 10
11.1705345622
 20
6.7078952531
 30
0.0
 10
11.1737484226
 20
6.7040771198
 30
0.0
 10
11.1767843097
 20
6.7000985355
 30
0.0
 10
11.1802286577
 20
6.6948498614
 30
0.0
 10
11.1837714633
 20
6.6881827363
 30
0.0
 10
11.1866999224
 20
6.6811971755
 30
0.0
 10
11.1889967414
 20
6.6739563811
 30
0.0
 10
11.190654979
 20
6.6665236543
 30
0.0
 10
11.1916458322
 20
6.6589602263
 30
0.0
 10
11.1918717486
 20
6.6538746106
 30
0.0
 10
11.1918715298
 20
6.6513318604
 30
0.0
  0
SPLINE
  5
236
100
AcDbEntity
  8
0
100
AcDbSpline
 62
9
  6
CONTINUOUS
 70
0
 71
3
 72
25
 73
21
 74
0
 42
0.0000001
 43
0.0000001
 44
0.0000000001
 40
0.0
 40
0.0
 40
0.0
 40
0.0
 40
0.0633936179
 40
0.1267269115
 40
0.1899451829
 40
0.2530030312
 40
0.3158680405
 40
0.3785246965
 40
0.440974622
 40
0.5032349315
 40
0.5653384699
 40
0.6273303189
 40
0.6892644049
 40
0.7202382497
 40
0.7512196015
 40
0.7822154704
 40
0.8132327048
 40
0.8753318072
 40
0.93757778
 40
1.0
 40
1.0
 40
1.0
 40
1.0
 10
10.9027651468
 20
6.6513318604
 30
0.0
 10
10.9027648207
 20
6.6538746171
 30
0.0
 10
10.9029887304
 20
6.6589603931
 30
0.0
 10
10.9039829304
 20
6.6665234326
 30
0.0
 10
10.9056392573
 20
6.6739564604
 30
0.0
 10
10.9079354016
 20
6.6811976419
 30
0.0
 10
10.9108663492
 20
6.6881820572
 30
0.0
 10
10.9144081305
 20
6.6948499246
 30
0.0
 10
10.9185367038
 20
6.7011429015
 30
0.0
 10
10.923229493
 20
6.7069993359
 30
0.0
 10
10.9284536289
 20
6.7123623328
 30
0.0
 10
10.9341734368
 20
6.7171731621
 30
0.0
 10
10.9393191951
 20
6.7206764434
 30
0.0
 10
10.9436338862
 20
6.7231454537
 30
0.0
 10
10.9469646978
 20
6.7248246037
 30
0.0
 10
10.9503818583
 20
6.7263246842
 30
0.0
 10
10.9550428317
 20
6.728078879
 30
0.0
 10
10.9610475454
 20
6.7297962169
 30
0.0
 10
10.9684477625
 20
6.7310501173
 30
0.0
 10
10.9734528428
 20
6.7313319575
 30
0.0
 10
10.9759566362
 20
6.7313318604
 30
0.0
  0
SPLINE
  5
237
100
AcDbEntity
  8
0
100
AcDbSpline
 62
9
  6
CONTINUOUS
 70
0
 71
3
 72
28
 73
24
 74
0
 42
0.0000001
 43
0.0000001
 44
0.0000000001
 40
0.0
 40
0.0
 40
0.0
 40
0.0
 40
0.0079356546
 40
0.0165083181
 40
0.0262211005
 40
0.0374167596
 40
0.0503101244
 40
0.0650284612
 40
0.0816414598
 40
0.1001835885
 40
0.1206617604
 40
0.1430669768
 40
0.1673740886
 40
0.1935484752
 40
0.2513094222
 40
0.3159110515
 40
0.3868111175
 40
0.4633869415
 40
0.5449487802
 40
0.6307501831
 40
0.7199998554
 40
0.8118649337
 40
1.0
 40
1.0
 40
1.0
 40
1.0
 10
11.1253183383
 20
6.6913318604
 30
0.0
 10
11.1252086025
 20
6.6913318604
 30
0.0
 10
11.1249791826
 20
6.6913672954
 30
0.0
 10
11.1246466957
 20
6.6915207043
 30
0.0
 10
11.1243208055
 20
6.6917697708
 30
0.0
 10
11.1240002253
 20
6.6921120444
 30
0.0
 10
11.123683907
 20
6.6925468056
 30
0.0
 10
11.1233718146
 20
6.6930735185
 30
0.0
 10
11.1230643134
 20
6.6936913677
 30
0.0
 10
11.1227620958
 20
6.6943992061
 30
0.0
 10
11.1224657842
 20
6.6951955277
 30
0.0
 10
11.1221761703
 20
6.6960785703
 30
0.0
 10
11.1218938955
 20
6.6970462927
 30
0.0
 10
11.1215158244
 20
6.698494726
 30
0.0
 10
11.1210725456
 20
6.700501083
 30
0.0
 10
11.1205956607
 20
6.7031311454
 30
0.0
 10
11.1201629199
 20
6.7060321113
 30
0.0
 10
11.1197786689
 20
6.7091762113
 30
0.0
 10
11.1194468181
 20
6.7125333554
 30
0.0
 10
11.1191706868
 20
6.7160713153
 30
0.0
 10
11.1189530165
 20
6.7197560799
 30
0.0
 10
11.1187420467
 20
6.7248579572
 30
0.0
 10
11.1186800409
 20
6.7287302913
 30
0.0
 10
11.1186800404
 20
6.7313318604
 30
0.0
  0
SPLINE
  5
238
100
AcDbEntity
  8
0
100
AcDbSpline
 62
9
  6
CONTINUOUS
 70
0
 71
3
 72
28
 73
24
 74
0
 42
0.0000001
 43
0.0000001
 44
0.0000000001
 40
0.0
 40
0.0
 40
0.0
 40
0.0
 40
0.0079356622
 40
0.0165083323
 40
0.0262211199
 40
0.0374167832
 40
0.0503101512
 40
0.0650284903
 40
0.0816414906
 40
0.1001836204
 40
0.120661793
 40
0.1430670097
 40
0.1673741214
 40
0.1935485077
 40
0.2513094532
 40
0.3159110803
 40
0.3868111434
 40
0.4633869642
 40
0.5449487992
 40
0.6307501984
 40
0.7199998668
 40
0.8118649411
 40
1.0
 40
1.0
 40
1.0
 40
1.0
 10
10.9693183383
 20
6.6913318604
 30
0.0
 10
10.9694280742
 20
6.6913318604
 30
0.0
 10
10.9696574943
 20
6.6913672954
 30
0.0
 10
10.9699899815
 20
6.6915207043
 30
0.0
 10
10.970315872
 20
6.6917697708
 30
0.0
 10
10.9706364525
 20
6.6921120444
 30
0.0
 10
10.970952771
 20
6.6925468056
 30
0.0
 10
10.9712648637
 20
6.6930735185
 30
0.0
 10
10.9715723651
 20
6.6936913677
 30
0.0
 10
10.9718745829
 20
6.6943992061
 30
0.0
 10
10.9721708946
 20
6.6951955277
 30
0.0
 10
10.9724605087
 20
6.6960785703
 30
0.0
 10
10.9727427836
 20
6.6970462927
 30
0.0
 10
10.9731208549
 20
6.698494726
 30
0.0
 10
10.9735641338
 20
6.7005010829
 30
0.0
 10
10.9740410188
 20
6.7031311454
 30
0.0
 10
10.9744737594
 20
6.7060321113
 30
0.0
 10
10.9748580103
 20
6.7091762113
 30
0.0
 10
10.9751898609
 20
6.7125333554
 30
0.0
 10
10.9754659919
 20
6.7160713153
 30
0.0
 10
10.9756836618
 20
6.7197560799
 30
0.0
 10
10.9758946309
 20
6.7248579572
 30
0.0
 10
10.9759566362
 20
6.7287302913
 30
0.0
 10
10.9759566362
 20
6.7313318604
 30
0.0
  0
SPLINE
  5
239
100
AcDbEntity
  8
0
100
AcDbSpline
 62
9
  6
CONTINUOUS
 70
0
 71
3
 72
32
 73
28
 74
0
 42
0.0000001
 43
0.0000001
 44
0.0000000001
 40
0.0
 40
0.0
 40
0.0
 40
0.0
 40
0.0383047303
 40
0.0760664349
 40
0.1132614304
 40
0.1498785885
 40
0.1859115335
 40
0.221361027
 40
0.2905264532
 40
0.3574913593
 40
0.4224006787
 40
0.4541454872
 40
0.4854444724
 40
0.546786811
 40
0.5768905831
 40
0.6066461488
 40
0.6652000982
 40
0.694056896
 40
0.7226619204
 40
0.7510393122
 40
0.7792131957
 40
0.8350326361
 40
0.8903127048
 40
0.9178123864
 40
0.9452452738
 40
0.972633734
 40
1.0
 40
1.0
 40
1.0
 40
1.0
 10
10.9027651468
 20
5.9575991399
 30
0.0
 10
10.8967234102
 20
5.9595554593
 30
0.0
 10
10.8848044756
 20
5.9636891425
 30
0.0
 10
10.8673281719
 20
5.9705718205
 30
0.0
 10
10.850406278
 20
5.9780564337
 30
0.0
 10
10.8340633763
 20
5.9861027575
 30
0.0
 10
10.8183160705
 20
5.9946703454
 30
0.0
 10
10.7982962965
 20
6.0066361282
 30
0.0
 10
10.7747683499
 20
6.0226841634
 30
0.0
 10
10.7487956241
 20
6.0436262002
 30
0.0
 10
10.7290647066
 20
6.0622863609
 30
0.0
 10
10.7145414521
 20
6.0777553991
 30
0.0
 10
10.7010235287
 20
6.0933344318
 30
0.0
 10
10.688587019
 20
6.1094728867
 30
0.0
 10
10.6772727876
 20
6.1260840057
 30
0.0
 10
10.666856778
 20
6.1427294356
 30
0.0
 10
10.6575108801
 20
6.1597848644
 30
0.0
 10
10.6492631247
 20
6.1771651528
 30
0.0
 10
10.6436607561
 20
6.1902514276
 30
0.0
 10
10.6386077987
 20
6.2034381972
 30
0.0
 10
10.6326159847
 20
6.221082453
 30
0.0
 10
10.6264565533
 20
6.2433612317
 30
0.0
 10
10.6220520609
 20
6.2659383152
 30
0.0
 10
10.619595609
 20
6.2840484831
 30
0.0
 10
10.6182825492
 20
6.2976368182
 30
0.0
 10
10.6174946156
 20
6.3112431337
 30
0.0
 10
10.6173188733
 20
6.3203219216
 30
0.0
 10
10.6173183306
 20
6.3248589968
 30
0.0
  0
ENDSEC
  0
SECTION
  2
OBJECTS
  0
DICTIONARY
  5
C
100
AcDbDictionary
280
0
281
1
  3
ACAD_GROUP
350
D
  3
ACAD_MLINESTYLE
350
17
  3
ACAD_LAYOUT
350
1A
  3
ACAD_PLOTSETTINGS
350
19
  3
ACAD_PLOTSTYLENAME
350
E
  0
DICTIONARY
  5
D
102
{ACAD_REACTORS
330
C
102
}
100
AcDbDictionary
280
0
281
1
  0
ACDBDICTIONARYWDFLT
  5
E
102
{ACAD_REACTORS
330
C
102
}
100
AcDbDictionary
281
1
  3
Normal
350
F
100
AcDbDictionaryWithDefault
340
F
  0
DICTIONARY
  5
17
102
{ACAD_REACTORS
330
C
102
}
100
AcDbDictionary
280
0
281
1
  3
Standard
350
18
  0
DICTIONARY
  5
19
102
{ACAD_REACTORS
330
C
102
}
100
AcDbDictionary
281
1
  0
DICTIONARY
  5
1A
102
{ACAD_REACTORS
330
C
102
}
100
AcDbDictionary
281
1
  3
Model
350
23A
  3
Layout1
350
23B
  0
ACDBPLACEHOLDER
  5
F
102
{ACAD_REACTORS
330
E
102
}
  0
MLINESTYLE
  5
18
102
{ACAD_REACTORS
330
17
102
}
100
AcDbMlineStyle
  2
STANDARD
 70
0
  3

 62
256
 51
90.0
 52
90.0
 71
2
 49
0.5
 62
256
  6
BYLAYER
 49
-0.5
 62
256
  6
BYLAYER
  0
LAYOUT
  5
23A
102
{ACAD_REACTORS
330
1A
102
}
100
AcDbPlotSettings
  1

  2
none_device
  4
ANSI_C_(22.00_x_17.00_Inches)
  6

 40
0.0
 41
0.0
 42
0.0
 43
0.0
 44
558.8
 45
431.8
 46
0.0
 47
0.0
 48
0.0
 49
0.0
140
0.0
141
0.0
142
1.0
143
1.0
 70
1024
 72
0
 73
0
 74
0
  7

 75
0
147
1.0
148
0.0
149
0.0
100
AcDbLayout
  1
Model
 70
0
 71
0
 10
0.0
 20
0.0
 11
22.0
 21
17.0
 12
0.0
 22
0.0
 32
0.0
 14
0.0
 24
0.0
 34
0.0
 15
0.0
 25
0.0
 35
0.0
146
0.0
 13
0.0
 23
0.0
 33
0.0
 16
1.0
 26
0.0
 36
0.0
 17
0.0
 27
1.0
 37
0.0
 76
0
330
205
345
0
346
0
  0
LAYOUT
  5
23B
102
{ACAD_REACTORS
330
1A
102
}
100
AcDbPlotSettings
  1

  2
none_device
  4
ANSI_C_(22.00_x_17.00_Inches)
  6

 40
0.0
 41
0.0
 42
0.0
 43
0.0
 44
558.8
 45
431.8
 46
0.0
 47
0.0
 48
0.0
 49
0.0
140
0.0
141
0.0
142
1.0
143
1.0
 70
0
 72
0
 73
0
 74
0
  7

 75
0
147
1.0
148
0.0
149
0.0
100
AcDbLayout
  1
Layout1
 70
0
 71
1
 10
0.0
 20
0.0
 11
22.0
 21
17.0
 12
0.0
 22
0.0
 32
0.0
 14
0.0
 24
0.0
 34
0.0
 15
0.0
 25
0.0
 35
0.0
146
0.0
 13
0.0
 23
0.0
 33
0.0
 16
1.0
 26
0.0
 36
0.0
 17
0.0
 27
1.0
 37
0.0
 76
0
330
206
345
0
346
0
  0
ENDSEC
  0
EOF
