999
DXF file: E:\BT Custom\CADOUTPUT\_FRONT.dxf
999
Pro/ENGINEER 2018400 by Parametric Technology Corporation
  0
SECTION
  2
HEADER
  9
$ACADVER
  1
AC1018
  9
$DWGCODEPAGE
  3
ANSI_1252
  9
$EXTMAX
 10
22.0
 20
17.0
 30
0.0
  9
$EXTMIN
 10
0.0
 20
0.0
 30
0.0
  9
$LIMMIN
 10
0.0
 20
0.0
  9
$LIMMAX
 10
22.0
 20
17.0
  9
$VIEWCTR
 10
11.0
 20
8.5
  9
$VIEWSIZE
 40
17.0
  9
$CLAYER
  8
0
  9
$LTSCALE
 40
1.21
  9
$CELTYPE
  6
BYLAYER
  9
$DIMSCALE
 40
1.0
  9
$DIMASZ
 40
0.1
  9
$DIMEXO
 40
0.0625
  9
$DIMDLI
 40
0.836
  9
$DIMEXE
 40
0.125
  9
$DIMCEN
 40
0.198
  9
$DIMLFAC
 40
1.0
  9
$DIMBLK
  1
_FILLED
  9
$DIMALT
 70
1
  9
$DIMALTD
 70
2
  9
$DIMALTTD
 70
2
  9
$DIMALTF
 40
25.4
  9
$DIMTXT
 40
0.08
  9
$DIMTOL
 70
1
  9
$DIMLIM
 70
0
  9
$DIMTFAC
 40
1.0
  9
$DIMTP
 40
0.001
  9
$DIMTM
 40
0.001
  9
$DIMGAP
 40
0.09
  9
$DIMDSEP
 70
46
  9
$AUNITS
 70
0
  9
$PDMODE
 70
3
  9
$PDSIZE
 40
0.06
  9
$HANDSEED
  5
352
  9
$TILEMODE
 70
1
  9
$MEASUREMENT
 70
0
  9
$INSUNITS
 70
1
  0
ENDSEC
  0
SECTION
  2
CLASSES
  0
CLASS
  1
ACDBDICTIONARYWDFLT
  2
AcDbDictionaryWithDefault
  3
AutoCAD 2000
 90
0
 91
1
280
0
281
0
  0
CLASS
  1
ACDBPLACEHOLDER
  2
AcDbPlaceHolder
  3
AutoCAD 2000
 90
0
 91
1
280
0
281
0
  0
CLASS
  1
LAYOUT
  2
AcDbLayout
  3
AutoCAD 2000
 90
0
 91
0
280
0
281
0
  0
ENDSEC
  0
SECTION
  2
TABLES
  0
TABLE
  2
VPORT
  5
8
100
AcDbSymbolTable
 70
2
  0
VPORT
  5
1F4
100
AcDbSymbolTableRecord
100
AcDbViewportTableRecord
  2
*ACTIVE
 70
0
 10
0.0
 20
0.0
 11
1.0
 21
1.0
 12
11.0
 22
8.5
 13
0.0
 23
0.0
 14
1.0
 24
1.0
 15
0.0
 25
0.0
 16
0.0
 26
0.0
 36
1.0
 17
0.0
 27
0.0
 37
0.0
 40
17.0
 41
1.2941176471
 42
50.0
 43
0.0
 44
0.0
 50
0.0
 51
0.0
 71
0
 72
100
 73
1
 74
1
 75
0
 76
0
 77
0
 78
0
  0
ENDTAB
  0
TABLE
  2
LTYPE
  5
5
100
AcDbSymbolTable
 70
6
  0
LTYPE
  5
14
100
AcDbSymbolTableRecord
100
AcDbLinetypeTableRecord
  2
BYBLOCK
 70
0
  3

 72
65
 73
0
 40
0.0
  0
LTYPE
  5
15
100
AcDbSymbolTableRecord
100
AcDbLinetypeTableRecord
  2
BYLAYER
 70
0
  3

 72
65
 73
0
 40
0.0
  0
LTYPE
  5
16
100
AcDbSymbolTableRecord
100
AcDbLinetypeTableRecord
  2
CONTINUOUS
 70
64
  3
Solid line
 72
65
 73
0
 40
0.0
  0
LTYPE
  5
1F5
100
AcDbSymbolTableRecord
100
AcDbLinetypeTableRecord
  2
CENTER
 70
64
  3
____ _ ____ _ ____ _ ____ _ ____ _ ____ _ ____
 72
65
 73
4
 40
0.6
 49
0.375
 74
0
 49
-0.075
 74
0
 49
0.075
 74
0
 49
-0.075
 74
0
  0
LTYPE
  5
1F6
100
AcDbSymbolTableRecord
100
AcDbLinetypeTableRecord
  2
HIDDEN
 70
64
  3
- - - - - - - - - - - - - - - - - - - -
 72
65
 73
2
 40
0.2
 49
0.1
 74
0
 49
-0.1
 74
0
  0
LTYPE
  5
1F7
100
AcDbSymbolTableRecord
100
AcDbLinetypeTableRecord
  2
PHANTOM
 70
64
  3
_____ _ _ _____ _ _ _____ _ _ _____
 72
65
 73
6
 40
0.8
 49
0.45
 74
0
 49
-0.05
 74
0
 49
0.1
 74
0
 49
-0.05
 74
0
 49
0.1
 74
0
 49
-0.05
 74
0
  0
LTYPE
  5
1F8
100
AcDbSymbolTableRecord
100
AcDbLinetypeTableRecord
  2
DOT
 70
64
  3
. . . . . . . . . . . . . . . . . . . .
 72
65
 73
2
 40
0.2
 49
0.1
 74
0
 49
-0.1
 74
0
  0
LTYPE
  5
1F9
100
AcDbSymbolTableRecord
100
AcDbLinetypeTableRecord
  2
DASHED
 70
64
  3
- - - - - - - - - - - - - - - - - - - -
 72
65
 73
2
 40
0.2
 49
0.1
 74
0
 49
-0.1
 74
0
  0
ENDTAB
  0
TABLE
  2
LAYER
  5
2
100
AcDbSymbolTable
 70
36
  0
LAYER
  5
10
100
AcDbSymbolTableRecord
100
AcDbLayerTableRecord
  2
0
 70
0
 62
7
  6
CONTINUOUS
370
-3
390
F
  0
LAYER
  5
1FA
100
AcDbSymbolTableRecord
100
AcDbLayerTableRecord
  2
DEFAULT_1
 70
0
 62
7
  6
CENTER
370
-3
390
F
  0
LAYER
  5
1FB
100
AcDbSymbolTableRecord
100
AcDbLayerTableRecord
  2
DEFAULT_2
 70
0
 62
8
  6
HIDDEN
370
-3
390
F
  0
LAYER
  5
1FC
100
AcDbSymbolTableRecord
100
AcDbLayerTableRecord
  2
DEFAULT_3
 70
0
 62
7
  6
PHANTOM
370
-3
390
F
  0
LAYER
  5
1FD
100
AcDbSymbolTableRecord
100
AcDbLayerTableRecord
  2
ALL_FEATURES
 70
0
 62
7
  6
CONTINUOUS
370
-3
390
F
  0
LAYER
  5
1FE
100
AcDbSymbolTableRecord
100
AcDbLayerTableRecord
  2
AXES_FEATURES
 70
0
 62
7
  6
CONTINUOUS
370
-3
390
F
  0
LAYER
  5
1FF
100
AcDbSymbolTableRecord
100
AcDbLayerTableRecord
  2
DEFAULT_COORDINATE_SYSTEM
 70
0
 62
7
  6
CONTINUOUS
370
-3
390
F
  0
LAYER
  5
200
100
AcDbSymbolTableRecord
100
AcDbLayerTableRecord
  2
DEFAULT_DATUM_AXES
 70
0
 62
7
  6
CONTINUOUS
370
-3
390
F
  0
LAYER
  5
201
100
AcDbSymbolTableRecord
100
AcDbLayerTableRecord
  2
DEFAULT_DATUM_PLANES
 70
0
 62
7
  6
CONTINUOUS
370
-3
390
F
  0
LAYER
  5
202
100
AcDbSymbolTableRecord
100
AcDbLayerTableRecord
  2
DIMENSIONS
 70
0
 62
7
  6
CONTINUOUS
370
-3
390
F
  0
ENDTAB
  0
TABLE
  2
STYLE
  5
3
100
AcDbSymbolTable
 70
1
  0
STYLE
  5
11
100
AcDbSymbolTableRecord
100
AcDbTextStyleTableRecord
  2
STANDARD
 70
0
 40
0.0
 41
0.8
 50
0.0
 71
0
 42
0.2
  3
txt
  4

  0
STYLE
  5
203
100
AcDbSymbolTableRecord
100
AcDbTextStyleTableRecord
  2
TEXTSTYLE_1
 70
0
 40
0.0
 41
0.8
 50
0.0
 71
0
 42
0.2
  3
gdt
  4

  0
ENDTAB
  0
TABLE
  2
VIEW
  5
6
100
AcDbSymbolTable
 70
0
  0
ENDTAB
  0
TABLE
  2
UCS
  5
7
100
AcDbSymbolTable
 70
0
  0
ENDTAB
  0
TABLE
  2
APPID
  5
9
100
AcDbSymbolTable
 70
1
  0
APPID
  5
204
100
AcDbSymbolTableRecord
100
AcDbRegAppTableRecord
  2
ACAD
 70
0
  0
ENDTAB
  0
TABLE
  2
BLOCK_RECORD
  5
1
100
AcDbSymbolTable
 70
0
  0
BLOCK_RECORD
  5
205
100
AcDbSymbolTableRecord
100
AcDbBlockTableRecord
  2
*Model_Space
  0
BLOCK_RECORD
  5
206
100
AcDbSymbolTableRecord
100
AcDbBlockTableRecord
  2
*Paper_Space
  0
BLOCK_RECORD
  5
207
100
AcDbSymbolTableRecord
100
AcDbBlockTableRecord
  2
_FILLED
  0
ENDTAB
  0
TABLE
  2
DIMSTYLE
  5
A
100
AcDbSymbolTable
 70
1
100
AcDbDimStyleTable
 71
0
  0
DIMSTYLE
105
208
100
AcDbSymbolTableRecord
100
AcDbDimStyleTableRecord
  2
STANDARD
 70
0
  3

  4

 40
1.0
 41
0.1
 42
0.0625
 43
0.38
 44
0.125
 45
0.0
 46
0.0
 47
0.001
 48
0.001
140
0.08
141
0.09
142
0.0
143
25.4
144
1.0
145
0.0
146
1.0
147
0.09
 71
1.0
 72
0.0
 73
1
 74
1
 75
0
 76
0
 77
0
 78
4
 79
1
170
1
171
2
172
0
173
0
174
0
175
0
176
0
177
0
178
0
270
2
179
3
271
3
272
3
273
2
274
2
275
0
280
0
281
0
282
0
283
1
284
4
285
0
286
0
287
3
288
0
340
11
278
46
341
207
342
207
343
207
344
207
  0
ENDTAB
  0
ENDSEC
  0
SECTION
  2
BLOCKS
  0
BLOCK
  5
20
100
AcDbEntity
  8
0
100
AcDbBlockBegin
  2
*Model_Space
 70
0
 10
0.0
 20
0.0
 30
0.0
  3
*Model_Space
  1

  0
ENDBLK
  5
21
100
AcDbEntity
  8
0
100
AcDbBlockEnd
  0
BLOCK
  5
1C
100
AcDbEntity
  8
0
100
AcDbBlockBegin
  2
*Paper_Space
 70
0
 10
0.0
 20
0.0
 30
0.0
  3
*Paper_Space
  1

  0
ENDBLK
  5
1D
100
AcDbEntity
  8
0
100
AcDbBlockEnd
  0
BLOCK
  5
209
100
AcDbEntity
  8
0
100
AcDbBlockBegin
  2
_FILLED
 70
64
 10
0.0
 20
0.0
  3
_FILLED
  1

  0
SOLID
  5
20A
100
AcDbEntity
  8
0
  6
BYBLOCK
 62
0
100
AcDbTrace
 10
0.0
 20
0.0
 11
-1.0
 21
0.2
 12
-1.0
 22
-0.2
 13
-1.0
 23
-0.2
  0
ENDBLK
  5
20B
100
AcDbEntity
  8
0
  6
BYBLOCK
 62
0
100
AcDbBlockEnd
  0
ENDSEC
  0
SECTION
  2
ENTITIES
  0
LINE
  5
20C
100
AcDbEntity
  8
0
100
AcDbLine
 62
7
  6
CONTINUOUS
 10
7.5626923427
 20
11.7276695021
 11
7.5626923427
 21
6.8076695021
  0
LINE
  5
20D
100
AcDbEntity
  8
0
100
AcDbLine
 62
7
  6
CONTINUOUS
 10
7.6876923427
 20
11.7276695021
 11
7.6876923427
 21
6.8076695021
  0
LINE
  5
20E
100
AcDbEntity
  8
0
100
AcDbLine
 62
7
  6
CONTINUOUS
 10
8.4776923427
 20
5.8926695021
 11
13.3976923427
 21
5.8926695021
  0
LINE
  5
20F
100
AcDbEntity
  8
0
100
AcDbLine
 62
7
  6
CONTINUOUS
 10
8.4776923427
 20
6.0176695021
 11
13.3976923427
 21
6.0176695021
  0
LINE
  5
210
100
AcDbEntity
  8
0
100
AcDbLine
 62
7
  6
CONTINUOUS
 10
8.0626923427
 20
12.2276695021
 11
8.0626923427
 21
12.1826695021
  0
LINE
  5
211
100
AcDbEntity
  8
0
100
AcDbLine
 62
7
  6
CONTINUOUS
 10
8.0626923427
 20
6.3526695021
 11
8.0626923427
 21
6.3076695021
  0
LINE
  5
212
100
AcDbEntity
  8
0
100
AcDbLine
 62
7
  6
CONTINUOUS
 10
7.9776923427
 20
6.3926695021
 11
8.0226923427
 21
6.3926695021
  0
LINE
  5
213
100
AcDbEntity
  8
0
100
AcDbLine
 62
7
  6
CONTINUOUS
 10
13.8526923427
 20
6.3926695021
 11
13.8976923427
 21
6.3926695021
  0
LINE
  5
214
100
AcDbEntity
  8
0
100
AcDbLine
 62
7
  6
CONTINUOUS
 10
8.1876923427
 20
12.2276695021
 11
8.1876923427
 21
12.1826695021
  0
LINE
  5
215
100
AcDbEntity
  8
0
100
AcDbLine
 62
7
  6
CONTINUOUS
 10
8.1876923427
 20
6.3526695021
 11
8.1876923427
 21
6.3076695021
  0
LINE
  5
216
100
AcDbEntity
  8
0
100
AcDbLine
 62
7
  6
CONTINUOUS
 10
10.9522833495
 20
6.4977079316
 11
10.923101336
 21
6.4977079316
  0
LINE
  5
217
100
AcDbEntity
  8
0
100
AcDbLine
 62
7
  6
CONTINUOUS
 10
7.9776923427
 20
6.5176695021
 11
8.0226923427
 21
6.5176695021
  0
LINE
  5
218
100
AcDbEntity
  8
0
100
AcDbLine
 62
7
  6
CONTINUOUS
 10
13.8526923427
 20
6.5176695021
 11
13.8976923427
 21
6.5176695021
  0
LWPOLYLINE
  5
219
100
AcDbEntity
  8
0
100
AcDbPolyline
 62
7
  6
CONTINUOUS
 90
8
 70
0
 10
10.8439353684
 20
6.5996995997
 10
10.8474761035
 20
6.5985448102
 10
10.8529316551
 20
6.5959951986
 10
10.8579426317
 20
6.592655488
 10
10.8623954626
 20
6.5886013705
 10
10.8661892265
 20
6.5839247293
 10
10.8692379358
 20
6.5787315612
 10
10.8714724882
 20
6.5731395799
  0
LINE
  5
21A
100
AcDbEntity
  8
0
100
AcDbLine
 62
7
  6
CONTINUOUS
 10
8.7926701005
 20
8.9274156369
 11
8.7892498991
 21
8.9180187107
  0
LINE
  5
21B
100
AcDbEntity
  8
0
100
AcDbLine
 62
7
  6
CONTINUOUS
 10
9.2238062217
 20
7.9505378264
 11
9.2238062217
 21
7.9431356925
  0
LINE
  5
21C
100
AcDbEntity
  8
0
100
AcDbLine
 62
7
  6
CONTINUOUS
 10
9.2238062217
 20
7.7610716376
 11
9.2238062217
 21
7.7536695021
  0
LINE
  5
21D
100
AcDbEntity
  8
0
100
AcDbLine
 62
7
  6
CONTINUOUS
 10
9.24928665
 20
7.9113919276
 11
9.24928665
 21
7.7928154099
  0
LINE
  5
21E
100
AcDbEntity
  8
0
100
AcDbLine
 62
7
  6
CONTINUOUS
 10
9.2800339772
 20
7.7928154099
 11
9.2800339772
 21
7.8449150521
  0
LINE
  5
21F
100
AcDbEntity
  8
0
100
AcDbLine
 62
7
  6
CONTINUOUS
 10
9.2800339772
 20
7.8577264446
 11
9.2800339772
 21
7.9113919276
  0
LINE
  5
220
100
AcDbEntity
  8
0
100
AcDbLine
 62
7
  6
CONTINUOUS
 10
9.3055144086
 20
7.7536695021
 11
9.3055144086
 21
7.7610716376
  0
LINE
  5
221
100
AcDbEntity
  8
0
100
AcDbLine
 62
7
  6
CONTINUOUS
 10
9.3055144086
 20
7.9431356925
 11
9.3055144086
 21
7.9505378264
  0
LINE
  5
222
100
AcDbEntity
  8
0
100
AcDbLine
 62
7
  6
CONTINUOUS
 10
9.3401051535
 20
7.9505378264
 11
9.3401051535
 21
7.9431356925
  0
LINE
  5
223
100
AcDbEntity
  8
0
100
AcDbLine
 62
7
  6
CONTINUOUS
 10
9.3401051535
 20
7.7610716376
 11
9.3401051535
 21
7.7536695021
  0
LINE
  5
224
100
AcDbEntity
  8
0
100
AcDbLine
 62
7
  6
CONTINUOUS
 10
9.3655855789
 20
7.9113919276
 11
9.3655855789
 21
7.8577264446
  0
LINE
  5
225
100
AcDbEntity
  8
0
100
AcDbLine
 62
7
  6
CONTINUOUS
 10
9.3655855789
 20
7.8449150521
 11
9.3655855789
 21
7.7928154099
  0
LINE
  5
226
100
AcDbEntity
  8
0
100
AcDbLine
 62
7
  6
CONTINUOUS
 10
12.1260660043
 20
7.8859114903
 11
12.1333257904
 21
7.8870502847
  0
LINE
  5
227
100
AcDbEntity
  8
0
100
AcDbLine
 62
7
  6
CONTINUOUS
 10
9.3963329091
 20
7.7928154099
 11
9.3963329091
 21
7.9113919276
  0
LINE
  5
228
100
AcDbEntity
  8
0
100
AcDbLine
 62
7
  6
CONTINUOUS
 10
9.4218133344
 20
7.7536695021
 11
9.4218133344
 21
7.7610716376
  0
LINE
  5
229
100
AcDbEntity
  8
0
100
AcDbLine
 62
7
  6
CONTINUOUS
 10
9.4218133344
 20
7.9431356925
 11
9.4218133344
 21
7.9505378264
  0
LINE
  5
22A
100
AcDbEntity
  8
0
100
AcDbLine
 62
7
  6
CONTINUOUS
 10
9.690425457
 20
7.7610716376
 11
9.690425457
 21
7.7536695021
  0
LINE
  5
22B
100
AcDbEntity
  8
0
100
AcDbLine
 62
7
  6
CONTINUOUS
 10
9.2238062217
 20
7.7536695021
 11
9.3055144086
 21
7.7536695021
  0
LINE
  5
22C
100
AcDbEntity
  8
0
100
AcDbLine
 62
7
  6
CONTINUOUS
 10
9.3401051535
 20
7.7536695021
 11
9.4218133344
 21
7.7536695021
  0
LINE
  5
22D
100
AcDbEntity
  8
0
100
AcDbLine
 62
7
  6
CONTINUOUS
 10
9.690425457
 20
7.7536695021
 11
9.7721336021
 21
7.7536695021
  0
LINE
  5
22E
100
AcDbEntity
  8
0
100
AcDbLine
 62
7
  6
CONTINUOUS
 10
12.3683435669
 20
7.7536695021
 11
12.5239307632
 21
7.7536695021
  0
LINE
  5
22F
100
AcDbEntity
  8
0
100
AcDbLine
 62
7
  6
CONTINUOUS
 10
12.5511193981
 20
7.7536695021
 11
12.6328275909
 21
7.7536695021
  0
LINE
  5
230
100
AcDbEntity
  8
0
100
AcDbLine
 62
7
  6
CONTINUOUS
 10
12.4668489208
 20
7.7664808902
 11
12.454179882
 21
7.7664808902
  0
LINE
  5
231
100
AcDbEntity
  8
0
100
AcDbLine
 62
7
  6
CONTINUOUS
 10
12.5388774147
 20
7.8066232401
 11
12.5316176166
 21
7.8066232401
  0
LINE
  5
232
100
AcDbEntity
  8
0
100
AcDbLine
 62
7
  6
CONTINUOUS
 10
9.2800339772
 20
7.8449150521
 11
9.3655855789
 21
7.8449150521
  0
LINE
  5
233
100
AcDbEntity
  8
0
100
AcDbLine
 62
7
  6
CONTINUOUS
 10
9.3655855789
 20
7.8577264446
 11
9.2800339772
 21
7.8577264446
  0
LINE
  5
234
100
AcDbEntity
  8
0
100
AcDbLine
 62
7
  6
CONTINUOUS
 10
9.6481478824
 20
7.8997193235
 11
9.6554076328
 21
7.8997193235
  0
LINE
  5
235
100
AcDbEntity
  8
0
100
AcDbLine
 62
7
  6
CONTINUOUS
 10
9.8071514263
 20
7.8997193235
 11
9.8144112243
 21
7.8997193235
  0
LINE
  5
236
100
AcDbEntity
  8
0
100
AcDbLine
 62
7
  6
CONTINUOUS
 10
9.6971158161
 20
7.9377264398
 11
9.7159058704
 21
7.9377264398
  0
LINE
  5
237
100
AcDbEntity
  8
0
100
AcDbLine
 62
7
  6
CONTINUOUS
 10
9.7466531887
 20
7.9377264398
 11
9.7614574566
 21
7.9377264398
  0
LINE
  5
238
100
AcDbEntity
  8
0
100
AcDbLine
 62
7
  6
CONTINUOUS
 10
12.6335393181
 20
7.9505378264
 11
12.5511193981
 21
7.9505378264
  0
LINE
  5
239
100
AcDbEntity
  8
0
100
AcDbLine
 62
7
  6
CONTINUOUS
 10
12.4500517597
 20
7.9505378264
 11
12.3683435669
 21
7.9505378264
  0
LINE
  5
23A
100
AcDbEntity
  8
0
100
AcDbLine
 62
7
  6
CONTINUOUS
 10
9.8115642204
 20
7.9505378264
 11
9.6509948387
 21
7.9505378264
  0
LINE
  5
23B
100
AcDbEntity
  8
0
100
AcDbLine
 62
7
  6
CONTINUOUS
 10
9.4218133344
 20
7.9505378264
 11
9.3401051535
 21
7.9505378264
  0
LINE
  5
23C
100
AcDbEntity
  8
0
100
AcDbLine
 62
7
  6
CONTINUOUS
 10
9.3055144086
 20
7.9505378264
 11
9.2238062217
 21
7.9505378264
  0
LINE
  5
23D
100
AcDbEntity
  8
0
100
AcDbLine
 62
7
  6
CONTINUOUS
 10
12.1309058656
 20
7.9536695021
 11
12.1246425261
 21
7.9536695021
  0
LINE
  5
23E
100
AcDbEntity
  8
0
100
AcDbLine
 62
7
  6
CONTINUOUS
 10
9.8144112243
 20
7.8997193235
 11
9.8115642204
 21
7.9505378264
  0
LINE
  5
23F
100
AcDbEntity
  8
0
100
AcDbLine
 62
7
  6
CONTINUOUS
 10
9.7159058704
 20
7.9377264398
 11
9.7159058704
 21
7.7928154099
  0
LINE
  5
240
100
AcDbEntity
  8
0
100
AcDbLine
 62
7
  6
CONTINUOUS
 10
9.7466531887
 20
7.7928154099
 11
9.7466531887
 21
7.9377264398
  0
LINE
  5
241
100
AcDbEntity
  8
0
100
AcDbLine
 62
7
  6
CONTINUOUS
 10
9.7721336021
 20
7.7536695021
 11
9.7721336021
 21
7.7610716376
  0
LINE
  5
242
100
AcDbEntity
  8
0
100
AcDbLine
 62
7
  6
CONTINUOUS
 10
9.6509948387
 20
7.9505378264
 11
9.6481478824
 21
7.8997193235
  0
LINE
  5
243
100
AcDbEntity
  8
0
100
AcDbLine
 62
9
  6
CONTINUOUS
 10
10.7477711899
 20
8.4730355393
 11
10.7974451967
 21
8.4787358064
  0
LINE
  5
244
100
AcDbEntity
  8
0
100
AcDbLine
 62
9
  6
CONTINUOUS
 10
10.7557595395
 20
8.4005032991
 11
10.8054834735
 21
8.4057502397
  0
LINE
  5
245
100
AcDbEntity
  8
0
100
AcDbLine
 62
9
  6
CONTINUOUS
 10
10.8055032471
 20
8.4445003755
 11
10.89524374
 21
8.4513300115
  0
LINE
  5
246
100
AcDbEntity
  8
0
100
AcDbLine
 62
9
  6
CONTINUOUS
 10
10.808389769
 20
8.4053094588
 11
10.8482887577
 21
8.4081503567
  0
LINE
  5
247
100
AcDbEntity
  8
0
100
AcDbLine
 62
9
  6
CONTINUOUS
 10
10.8992293286
 20
8.3965181969
 11
10.8493490477
 21
8.3930602235
  0
LINE
  5
248
100
AcDbEntity
  8
0
100
AcDbLine
 62
9
  6
CONTINUOUS
 10
10.9761553569
 20
8.3965181969
 11
11.0260356378
 21
8.3930602235
  0
LINE
  5
249
100
AcDbEntity
  8
0
100
AcDbLine
 62
9
  6
CONTINUOUS
 10
11.0669949165
 20
8.4053094588
 11
11.0270959278
 21
8.4081503567
  0
LINE
  5
24A
100
AcDbEntity
  8
0
100
AcDbLine
 62
9
  6
CONTINUOUS
 10
10.9801409454
 20
8.4513300115
 11
11.0698814384
 21
8.4445003755
  0
LINE
  5
24B
100
AcDbEntity
  8
0
100
AcDbLine
 62
9
  6
CONTINUOUS
 10
11.119625146
 20
8.4005032991
 11
11.0699012119
 21
8.4057502397
  0
LINE
  5
24C
100
AcDbEntity
  8
0
100
AcDbLine
 62
9
  6
CONTINUOUS
 10
11.1276134956
 20
8.4730355393
 11
11.0779394888
 21
8.4787358064
  0
LINE
  5
24D
100
AcDbEntity
  8
0
100
AcDbLine
 62
7
  6
CONTINUOUS
 10
10.8714724882
 20
6.5731395799
 11
10.8728422415
 21
6.5672755411
  0
LINE
  5
24E
100
AcDbEntity
  8
0
100
AcDbLine
 62
7
  6
CONTINUOUS
 10
10.8728422415
 20
6.5672755411
 11
10.8733161451
 21
6.5612771088
  0
LINE
  5
24F
100
AcDbEntity
  8
0
100
AcDbLine
 62
7
  6
CONTINUOUS
 10
10.8072105673
 20
6.6475200177
 11
10.7996923427
 21
7.6226695021
  0
LINE
  5
250
100
AcDbEntity
  8
0
100
AcDbLine
 62
7
  6
CONTINUOUS
 10
10.8686923427
 20
7.8616695021
 11
10.8733650277
 21
6.5475294541
  0
LINE
  5
251
100
AcDbEntity
  8
0
100
AcDbLine
 62
9
  6
CONTINUOUS
 10
10.5474554564
 20
8.9680377739
 11
10.5871136766
 21
8.9984881528
  0
LINE
  5
252
100
AcDbEntity
  8
0
100
AcDbLine
 62
9
  6
CONTINUOUS
 10
10.5925373267
 20
9.0053905191
 11
10.6641958076
 21
9.0598429031
  0
LINE
  5
253
100
AcDbEntity
  8
0
100
AcDbLine
 62
7
  6
CONTINUOUS
 10
9.0302584412
 20
8.6662579031
 11
9.0397956107
 21
8.6692649611
  0
LINE
  5
254
100
AcDbEntity
  8
0
100
AcDbLine
 62
7
  6
CONTINUOUS
 10
12.8355890747
 20
9.8660740432
 11
12.8451262442
 21
9.8690811012
  0
LINE
  5
255
100
AcDbEntity
  8
0
100
AcDbLine
 62
7
  6
CONTINUOUS
 10
12.8451262442
 20
8.6662579031
 11
12.8355890747
 21
8.6692649611
  0
LINE
  5
256
100
AcDbEntity
  8
0
100
AcDbLine
 62
7
  6
CONTINUOUS
 10
9.0397956107
 20
9.8660740432
 11
9.0302584412
 21
9.8690811012
  0
LINE
  5
257
100
AcDbEntity
  8
0
100
AcDbLine
 62
9
  6
CONTINUOUS
 10
11.2111888779
 20
9.0598429031
 11
11.2828473587
 21
9.0053905191
  0
LINE
  5
258
100
AcDbEntity
  8
0
100
AcDbLine
 62
9
  6
CONTINUOUS
 10
11.3279292291
 20
8.9680377739
 11
11.2882710089
 21
8.9984881528
  0
LINE
  5
259
100
AcDbEntity
  8
0
100
AcDbLine
 62
7
  6
CONTINUOUS
 10
12.1375962605
 20
7.7884025979
 11
12.1313329091
 21
7.794950642
  0
LINE
  5
25A
100
AcDbEntity
  8
0
100
AcDbLine
 62
7
  6
CONTINUOUS
 10
11.0020196578
 20
6.5475294541
 11
11.0066923427
 21
7.8616695021
  0
LINE
  5
25B
100
AcDbEntity
  8
0
100
AcDbLine
 62
7
  6
CONTINUOUS
 10
11.0756923427
 20
7.6226695021
 11
11.0681741182
 21
6.6475200177
  0
LINE
  5
25C
100
AcDbEntity
  8
0
100
AcDbLine
 62
7
  6
CONTINUOUS
 10
11.0020685403
 20
6.5612771088
 11
11.0025424433
 21
6.5672755366
  0
LWPOLYLINE
  5
25D
100
AcDbEntity
  8
0
100
AcDbPolyline
 62
7
  6
CONTINUOUS
 90
9
 70
0
 10
11.0025424433
 20
6.5672755366
 10
11.0039121954
 20
6.573139574
 10
11.0061467471
 20
6.5787315559
 10
11.0091954563
 20
6.5839247254
 10
11.0129892204
 20
6.5886013679
 10
11.0174420516
 20
6.5926554863
 10
11.0224530286
 20
6.5959951977
 10
11.0279085808
 20
6.5985448098
 10
11.0314493171
 20
6.5996995998
  0
LINE
  5
25E
100
AcDbEntity
  8
0
100
AcDbLine
 62
7
  6
CONTINUOUS
 10
12.1333257904
 20
7.8870502847
 11
12.1309058656
 21
7.9536695021
  0
LINE
  5
25F
100
AcDbEntity
  8
0
100
AcDbLine
 62
7
  6
CONTINUOUS
 10
12.3683435669
 20
7.9505378264
 11
12.3683435669
 21
7.9431356925
  0
LINE
  5
260
100
AcDbEntity
  8
0
100
AcDbLine
 62
7
  6
CONTINUOUS
 10
12.3683435669
 20
7.7610716376
 11
12.3683435669
 21
7.7536695021
  0
LINE
  5
261
100
AcDbEntity
  8
0
100
AcDbLine
 62
7
  6
CONTINUOUS
 10
12.393824028
 20
7.9113919276
 11
12.393824028
 21
7.7928154099
  0
LINE
  5
262
100
AcDbEntity
  8
0
100
AcDbLine
 62
7
  6
CONTINUOUS
 10
12.4245713463
 20
7.7855556238
 11
12.4245713463
 21
7.9113919276
  0
LINE
  5
263
100
AcDbEntity
  8
0
100
AcDbLine
 62
7
  6
CONTINUOUS
 10
12.4500517597
 20
7.9431356925
 11
12.4500517597
 21
7.9505378264
  0
LINE
  5
264
100
AcDbEntity
  8
0
100
AcDbLine
 62
7
  6
CONTINUOUS
 10
12.5511193981
 20
7.9505378264
 11
12.5511193981
 21
7.9431356925
  0
LINE
  5
265
100
AcDbEntity
  8
0
100
AcDbLine
 62
7
  6
CONTINUOUS
 10
12.5511193981
 20
7.7610716376
 11
12.5511193981
 21
7.7536695021
  0
LINE
  5
266
100
AcDbEntity
  8
0
100
AcDbLine
 62
7
  6
CONTINUOUS
 10
12.5765998115
 20
7.7866944122
 11
12.5765998115
 21
7.9113919276
  0
LINE
  5
267
100
AcDbEntity
  8
0
100
AcDbLine
 62
7
  6
CONTINUOUS
 10
12.6073471298
 20
7.9247727054
 11
12.6073471298
 21
7.7775840926
  0
LINE
  5
268
100
AcDbEntity
  8
0
100
AcDbLine
 62
7
  6
CONTINUOUS
 10
12.5239307632
 20
7.7536695021
 11
12.5388774147
 21
7.8066232401
  0
LINE
  5
269
100
AcDbEntity
  8
0
100
AcDbLine
 62
7
  6
CONTINUOUS
 10
13.0827145849
 20
8.9274156369
 11
13.0861347864
 21
8.9180187107
  0
LINE
  5
26A
100
AcDbEntity
  8
0
100
AcDbLine
 62
7
  6
CONTINUOUS
 10
13.6876923427
 20
6.3076695021
 11
13.6876923427
 21
6.3526695021
  0
LINE
  5
26B
100
AcDbEntity
  8
0
100
AcDbLine
 62
7
  6
CONTINUOUS
 10
13.6876923427
 20
12.1826695021
 11
13.6876923427
 21
12.2276695021
  0
LINE
  5
26C
100
AcDbEntity
  8
0
100
AcDbLine
 62
7
  6
CONTINUOUS
 10
13.8126923427
 20
6.3076695021
 11
13.8126923427
 21
6.3526695021
  0
LINE
  5
26D
100
AcDbEntity
  8
0
100
AcDbLine
 62
7
  6
CONTINUOUS
 10
13.8126923427
 20
12.1826695021
 11
13.8126923427
 21
12.2276695021
  0
LINE
  5
26E
100
AcDbEntity
  8
0
100
AcDbLine
 62
7
  6
CONTINUOUS
 10
13.8976923427
 20
12.0176695021
 11
13.8526923427
 21
12.0176695021
  0
LINE
  5
26F
100
AcDbEntity
  8
0
100
AcDbLine
 62
7
  6
CONTINUOUS
 10
8.0226923427
 20
12.0176695021
 11
7.9776923427
 21
12.0176695021
  0
LINE
  5
270
100
AcDbEntity
  8
0
100
AcDbLine
 62
7
  6
CONTINUOUS
 10
13.8976923427
 20
12.1426695021
 11
13.8526923427
 21
12.1426695021
  0
LINE
  5
271
100
AcDbEntity
  8
0
100
AcDbLine
 62
7
  6
CONTINUOUS
 10
8.0226923427
 20
12.1426695021
 11
7.9776923427
 21
12.1426695021
  0
LINE
  5
272
100
AcDbEntity
  8
0
100
AcDbLine
 62
7
  6
CONTINUOUS
 10
14.1876923427
 20
6.8076695021
 11
14.1876923427
 21
11.7276695021
  0
LINE
  5
273
100
AcDbEntity
  8
0
100
AcDbLine
 62
7
  6
CONTINUOUS
 10
14.3126923427
 20
6.8076695021
 11
14.3126923427
 21
11.7276695021
  0
LINE
  5
274
100
AcDbEntity
  8
0
100
AcDbLine
 62
7
  6
CONTINUOUS
 10
13.3976923427
 20
12.5176695021
 11
8.4776923427
 21
12.5176695021
  0
LINE
  5
275
100
AcDbEntity
  8
0
100
AcDbLine
 62
7
  6
CONTINUOUS
 10
13.3976923427
 20
12.6426695021
 11
8.4776923427
 21
12.6426695021
  0
ARC
  5
276
100
AcDbEntity
  8
0
100
AcDbCircle
 62
9
  6
CONTINUOUS
 10
-6.9597009845
 20
7.5326734012
 40
17.7984371076
100
AcDbArc
 50
0.3107217502
 51
1.0481609181
  0
ARC
  5
277
100
AcDbEntity
  8
0
100
AcDbCircle
 62
9
  6
CONTINUOUS
 10
2.4809559994
 20
7.8242327486
 40
8.3476825125
100
AcDbArc
 50
3.4644948888
 51
3.9915495901
  0
ARC
  5
278
100
AcDbEntity
  8
0
100
AcDbCircle
 62
9
  6
CONTINUOUS
 10
2.7687435463
 20
7.8328685318
 40
8.15
100
AcDbArc
 50
3.9657112856
 51
4.3520650345
  0
ARC
  5
279
100
AcDbEntity
  8
0
100
AcDbCircle
 62
7
  6
CONTINUOUS
 10
2.7687435463
 20
7.8328685318
 40
8.1
100
AcDbArc
 50
0.2037256205
 51
4.3520650345
  0
ARC
  5
27A
100
AcDbEntity
  8
0
100
AcDbCircle
 62
9
  6
CONTINUOUS
 10
2.7687435463
 20
7.8328685318
 40
8.06
100
AcDbArc
 50
4.0727153233
 51
4.3520650345
  0
ARC
  5
27B
100
AcDbEntity
  8
0
100
AcDbCircle
 62
9
  6
CONTINUOUS
 10
2.780986789
 20
7.7108850644
 40
8.0561192265
100
AcDbArc
 50
1.0481821642
 51
4.3981463654
  0
ARC
  5
27C
100
AcDbEntity
  8
0
100
AcDbCircle
 62
9
  6
CONTINUOUS
 10
2.7999300973
 20
7.5609927952
 40
8.05
100
AcDbArc
 50
6.023641327
 51
6.5462580927
  0
ARC
  5
27D
100
AcDbEntity
  8
0
100
AcDbCircle
 62
7
  6
CONTINUOUS
 10
2.7999300973
 20
7.5609927952
 40
8.0
100
AcDbArc
 50
0.4417312511
 51
6.5462580927
  0
ARC
  5
27E
100
AcDbEntity
  8
0
100
AcDbCircle
 62
9
  6
CONTINUOUS
 10
2.9361876972
 20
7.8378662812
 40
7.9826159651
100
AcDbArc
 50
0.2043013947
 51
4.0130442547
  0
ARC
  5
27F
100
AcDbEntity
  8
0
100
AcDbCircle
 62
9
  6
CONTINUOUS
 10
3.1490039589
 20
7.5820469078
 40
7.7006600845
100
AcDbArc
 50
5.5639932642
 51
6.1404071214
  0
ARC
  5
280
100
AcDbEntity
  8
0
100
AcDbCircle
 62
9
  6
CONTINUOUS
 10
9.7485596636
 20
8.3640624407
 40
1.15
100
AcDbArc
 50
4.3520650345
 51
37.2307480333
  0
ARC
  5
281
100
AcDbEntity
  8
0
100
AcDbCircle
 62
7
  6
CONTINUOUS
 10
9.7485596636
 20
8.3640624407
 40
1.1
100
AcDbArc
 50
4.3520650345
 51
37.2307480333
  0
ARC
  5
282
100
AcDbEntity
  8
0
100
AcDbCircle
 62
9
  6
CONTINUOUS
 10
9.7485596636
 20
8.3640624407
 40
1.06
100
AcDbArc
 50
4.3520650345
 51
37.2307480333
  0
ARC
  5
283
100
AcDbEntity
  8
0
100
AcDbCircle
 62
9
  6
CONTINUOUS
 10
9.7542910533
 20
8.3590301963
 40
1.05
100
AcDbArc
 50
6.5462580927
 51
37.5177789101
  0
ARC
  5
284
100
AcDbEntity
  8
0
100
AcDbCircle
 62
7
  6
CONTINUOUS
 10
9.7542910533
 20
8.3590301963
 40
1.0
100
AcDbArc
 50
6.5462580927
 51
37.5177789101
  0
ARC
  5
285
100
AcDbEntity
  8
0
100
AcDbCircle
 62
7
  6
CONTINUOUS
 10
8.4776923427
 20
6.3076695021
 40
0.415
100
AcDbArc
 50
180.0
 51
270.0
  0
ARC
  5
286
100
AcDbEntity
  8
0
100
AcDbCircle
 62
7
  6
CONTINUOUS
 10
7.9776923427
 20
6.8076695021
 40
0.415
100
AcDbArc
 50
180.0
 51
270.0
  0
ARC
  5
287
100
AcDbEntity
  8
0
100
AcDbCircle
 62
7
  6
CONTINUOUS
 10
8.6544939626
 20
8.5477798181
 40
0.404
100
AcDbArc
 50
29.1575069264
 51
70.0
  0
ARC
  5
288
100
AcDbEntity
  8
0
100
AcDbCircle
 62
7
  6
CONTINUOUS
 10
8.6544939626
 20
8.5477798181
 40
0.394
100
AcDbArc
 50
17.5
 51
70.0
  0
ARC
  5
289
100
AcDbEntity
  8
0
100
AcDbCircle
 62
7
  6
CONTINUOUS
 10
8.4776923427
 20
6.3076695021
 40
0.29
100
AcDbArc
 50
180.0
 51
270.0
  0
ARC
  5
28A
100
AcDbEntity
  8
0
100
AcDbCircle
 62
7
  6
CONTINUOUS
 10
7.9776923427
 20
6.8076695021
 40
0.29
100
AcDbArc
 50
180.0
 51
270.0
  0
ARC
  5
28B
100
AcDbEntity
  8
0
100
AcDbCircle
 62
7
  6
CONTINUOUS
 10
8.0226923427
 20
6.3526695021
 40
0.165
100
AcDbArc
 50
0.0
 51
90.0
  0
ARC
  5
28C
100
AcDbEntity
  8
0
100
AcDbCircle
 62
7
  6
CONTINUOUS
 10
10.8572090813
 20
6.6479054971
 40
0.05
100
AcDbArc
 50
180.4417312511
 51
254.6048647476
  0
ARC
  5
28D
100
AcDbEntity
  8
0
100
AcDbCircle
 62
7
  6
CONTINUOUS
 10
10.9233647116
 20
6.5477072379
 40
0.05
100
AcDbArc
 50
180.2037256205
 51
269.6981924295
  0
ARC
  5
28E
100
AcDbEntity
  8
0
100
AcDbCircle
 62
9
  6
CONTINUOUS
 10
10.9218776157
 20
6.5702397043
 40
0.0485930318
100
AcDbArc
 50
180.2082344477
 51
188.4570735985
  0
ARC
  5
28F
100
AcDbEntity
  8
0
100
AcDbCircle
 62
9
  6
CONTINUOUS
 10
10.9218223092
 20
6.5702330053
 40
0.0485373415
100
AcDbArc
 50
188.458853343
 51
190.4217891597
  0
ARC
  5
290
100
AcDbEntity
  8
0
100
AcDbCircle
 62
7
  6
CONTINUOUS
 10
8.0226923427
 20
6.3526695021
 40
0.04
100
AcDbArc
 50
0.0
 51
90.0
  0
ARC
  5
291
100
AcDbEntity
  8
0
100
AcDbCircle
 62
7
  6
CONTINUOUS
 10
7.9776923427
 20
11.7276695021
 40
0.415
100
AcDbArc
 50
90.0
 51
180.0
  0
ARC
  5
292
100
AcDbEntity
  8
0
100
AcDbCircle
 62
7
  6
CONTINUOUS
 10
8.4776923427
 20
12.2276695021
 40
0.415
100
AcDbArc
 50
90.0
 51
180.0
  0
ARC
  5
293
100
AcDbEntity
  8
0
100
AcDbCircle
 62
7
  6
CONTINUOUS
 10
7.9776923427
 20
11.7276695021
 40
0.29
100
AcDbArc
 50
90.0
 51
180.0
  0
ARC
  5
294
100
AcDbEntity
  8
0
100
AcDbCircle
 62
7
  6
CONTINUOUS
 10
8.4776923427
 20
12.2276695021
 40
0.29
100
AcDbArc
 50
90.0
 51
180.0
  0
ARC
  5
295
100
AcDbEntity
  8
0
100
AcDbCircle
 62
7
  6
CONTINUOUS
 10
8.0226923427
 20
12.1826695021
 40
0.165
100
AcDbArc
 50
270.0
 51
360.0
  0
ARC
  5
296
100
AcDbEntity
  8
0
100
AcDbCircle
 62
7
  6
CONTINUOUS
 10
8.0226923427
 20
12.1826695021
 40
0.04
100
AcDbArc
 50
270.0
 51
360.0
  0
ARC
  5
297
100
AcDbEntity
  8
0
100
AcDbCircle
 62
9
  6
CONTINUOUS
 10
28.8279935841
 20
7.532757698
 40
17.7913446691
100
AcDbArc
 50
178.9516927572
 51
179.6894258566
  0
ARC
  5
298
100
AcDbEntity
  8
0
100
AcDbCircle
 62
9
  6
CONTINUOUS
 10
19.3870773692
 20
7.8247116682
 40
8.3403156903
100
AcDbArc
 50
176.0082170967
 51
176.5357378808
  0
ARC
  5
299
100
AcDbEntity
  8
0
100
AcDbCircle
 62
9
  6
CONTINUOUS
 10
19.1066411391
 20
7.8328685318
 40
8.15
100
AcDbArc
 50
175.6479349655
 51
176.0342887144
  0
ARC
  5
29A
100
AcDbEntity
  8
0
100
AcDbCircle
 62
7
  6
CONTINUOUS
 10
19.1066411391
 20
7.8328685318
 40
8.1
100
AcDbArc
 50
175.6479349655
 51
179.7962743795
  0
ARC
  5
29B
100
AcDbEntity
  8
0
100
AcDbCircle
 62
9
  6
CONTINUOUS
 10
19.1066411391
 20
7.8328685318
 40
8.06
100
AcDbArc
 50
175.6479349655
 51
175.9272846767
  0
ARC
  5
29C
100
AcDbEntity
  8
0
100
AcDbCircle
 62
9
  6
CONTINUOUS
 10
19.0943961415
 20
7.7108851009
 40
8.0561174736
100
AcDbArc
 50
175.6018528243
 51
178.9518179767
  0
ARC
  5
29D
100
AcDbEntity
  8
0
100
AcDbCircle
 62
9
  6
CONTINUOUS
 10
19.0754545882
 20
7.5609927952
 40
8.05
100
AcDbArc
 50
173.4537419073
 51
173.976358673
  0
ARC
  5
29E
100
AcDbEntity
  8
0
100
AcDbCircle
 62
7
  6
CONTINUOUS
 10
19.0754545882
 20
7.5609927952
 40
8.0
100
AcDbArc
 50
173.4537419073
 51
179.5582687489
  0
ARC
  5
29F
100
AcDbEntity
  8
0
100
AcDbCircle
 62
9
  6
CONTINUOUS
 10
18.926447696
 20
7.8383205375
 40
7.9698626447
100
AcDbArc
 50
175.9837990419
 51
179.7986374395
  0
ARC
  5
2A0
100
AcDbEntity
  8
0
100
AcDbCircle
 62
9
  6
CONTINUOUS
 10
18.7156868278
 20
7.5831432151
 40
7.6899102726
100
AcDbArc
 50
173.8591915917
 51
174.43641182
  0
ARC
  5
2A1
100
AcDbEntity
  8
0
100
AcDbCircle
 62
9
  6
CONTINUOUS
 10
12.1268250218
 20
8.3640624407
 40
1.15
100
AcDbArc
 50
142.7692519667
 51
175.6479349655
  0
ARC
  5
2A2
100
AcDbEntity
  8
0
100
AcDbCircle
 62
7
  6
CONTINUOUS
 10
12.1268250218
 20
8.3640624407
 40
1.1
100
AcDbArc
 50
142.7692519667
 51
175.6479349655
  0
ARC
  5
2A3
100
AcDbEntity
  8
0
100
AcDbCircle
 62
9
  6
CONTINUOUS
 10
12.1268250218
 20
8.3640624407
 40
1.06
100
AcDbArc
 50
142.7692519667
 51
175.6479349655
  0
ARC
  5
2A4
100
AcDbEntity
  8
0
100
AcDbCircle
 62
9
  6
CONTINUOUS
 10
12.1210936322
 20
8.3590301963
 40
1.05
100
AcDbArc
 50
142.4822210899
 51
173.4537419073
  0
ARC
  5
2A5
100
AcDbEntity
  8
0
100
AcDbCircle
 62
7
  6
CONTINUOUS
 10
12.1210936322
 20
8.3590301963
 40
1.0
100
AcDbArc
 50
142.4822210899
 51
173.4537419073
  0
ARC
  5
2A6
100
AcDbEntity
  8
0
100
AcDbCircle
 62
7
  6
CONTINUOUS
 10
13.3976923427
 20
6.3076695021
 40
0.415
100
AcDbArc
 50
270.0
 51
360.0
  0
ARC
  5
2A7
100
AcDbEntity
  8
0
100
AcDbCircle
 62
7
  6
CONTINUOUS
 10
13.8976923427
 20
6.8076695021
 40
0.415
100
AcDbArc
 50
270.0
 51
360.0
  0
ARC
  5
2A8
100
AcDbEntity
  8
0
100
AcDbCircle
 62
7
  6
CONTINUOUS
 10
13.2208907228
 20
8.5477798181
 40
0.404
100
AcDbArc
 50
110.0
 51
150.8424930736
  0
ARC
  5
2A9
100
AcDbEntity
  8
0
100
AcDbCircle
 62
7
  6
CONTINUOUS
 10
13.2208907228
 20
8.5477798181
 40
0.394
100
AcDbArc
 50
110.0
 51
162.5
  0
ARC
  5
2AA
100
AcDbEntity
  8
0
100
AcDbCircle
 62
7
  6
CONTINUOUS
 10
13.3976923427
 20
6.3076695021
 40
0.29
100
AcDbArc
 50
270.0
 51
360.0
  0
ARC
  5
2AB
100
AcDbEntity
  8
0
100
AcDbCircle
 62
7
  6
CONTINUOUS
 10
13.8976923427
 20
6.8076695021
 40
0.29
100
AcDbArc
 50
270.0
 51
360.0
  0
ARC
  5
2AC
100
AcDbEntity
  8
0
100
AcDbCircle
 62
7
  6
CONTINUOUS
 10
13.8526923427
 20
6.3526695021
 40
0.165
100
AcDbArc
 50
90.0
 51
180.0
  0
ARC
  5
2AD
100
AcDbEntity
  8
0
100
AcDbCircle
 62
7
  6
CONTINUOUS
 10
11.0181756041
 20
6.6479054971
 40
0.05
100
AcDbArc
 50
285.3951352579
 51
359.5582687489
  0
ARC
  5
2AE
100
AcDbEntity
  8
0
100
AcDbCircle
 62
7
  6
CONTINUOUS
 10
10.9520199739
 20
6.5477072379
 40
0.05
100
AcDbArc
 50
270.3018075705
 51
359.7962743795
  0
ARC
  5
2AF
100
AcDbEntity
  8
0
100
AcDbCircle
 62
9
  6
CONTINUOUS
 10
10.9535071428
 20
6.5702398541
 40
0.0485929593
100
AcDbArc
 50
351.5427391007
 51
359.7915886961
  0
ARC
  5
2B0
100
AcDbEntity
  8
0
100
AcDbCircle
 62
9
  6
CONTINUOUS
 10
10.9535624467
 20
6.5702331552
 40
0.0485372716
100
AcDbArc
 50
349.5780261445
 51
351.5409593738
  0
ARC
  5
2B1
100
AcDbEntity
  8
0
100
AcDbCircle
 62
7
  6
CONTINUOUS
 10
13.8526923427
 20
6.3526695021
 40
0.04
100
AcDbArc
 50
90.0
 51
180.0
  0
ARC
  5
2B2
100
AcDbEntity
  8
0
100
AcDbCircle
 62
9
  6
CONTINUOUS
 10
10.9376923427
 20
9.2676695021
 40
2.7467283131
100
AcDbArc
 50
269.6939694198
 51
270.3060305802
  0
ARC
  5
2B3
100
AcDbEntity
  8
0
100
AcDbCircle
 62
9
  6
CONTINUOUS
 10
10.9376923427
 20
9.2676695021
 40
2.4983805324
100
AcDbArc
 50
269.656364835
 51
270.343635165
  0
ARC
  5
2B4
100
AcDbEntity
  8
0
100
AcDbCircle
 62
7
  6
CONTINUOUS
 10
10.9376923427
 20
9.2676695021
 40
2.0
100
AcDbArc
 50
162.5
 51
195.160747129
  0
ARC
  5
2B5
100
AcDbEntity
  8
0
100
AcDbCircle
 62
7
  6
CONTINUOUS
 10
10.9376923427
 20
9.2676695021
 40
2.0
100
AcDbArc
 50
344.839252871
 51
17.5
  0
ARC
  5
2B6
100
AcDbEntity
  8
0
100
AcDbCircle
 62
7
  6
CONTINUOUS
 10
10.9376923427
 20
9.2676695021
 40
1.99
100
AcDbArc
 50
162.5
 51
197.5
  0
ARC
  5
2B7
100
AcDbEntity
  8
0
100
AcDbCircle
 62
7
  6
CONTINUOUS
 10
10.9376923427
 20
9.2676695021
 40
1.99
100
AcDbArc
 50
342.5
 51
17.5
  0
ARC
  5
2B8
100
AcDbEntity
  8
0
100
AcDbCircle
 62
9
  6
CONTINUOUS
 10
10.9376923427
 20
9.2676695021
 40
0.872
100
AcDbArc
 50
278.5274235499
 51
278.7205689472
  0
ARC
  5
2B9
100
AcDbEntity
  8
0
100
AcDbCircle
 62
9
  6
CONTINUOUS
 10
10.9376923427
 20
9.2676695021
 40
0.872
100
AcDbArc
 50
261.2794310527
 51
261.4725764501
  0
ARC
  5
2BA
100
AcDbEntity
  8
0
100
AcDbCircle
 62
9
  6
CONTINUOUS
 10
10.9376923427
 20
9.2676695021
 40
0.872
100
AcDbArc
 50
267.4719224608
 51
272.5280775392
  0
ARC
  5
2BB
100
AcDbEntity
  8
0
100
AcDbCircle
 62
7
  6
CONTINUOUS
 10
10.9376923427
 20
9.2676695021
 40
0.7
100
AcDbArc
 50
287.7420750793
 51
252.2579249203
  0
ARC
  5
2BC
100
AcDbEntity
  8
0
100
AcDbCircle
 62
9
  6
CONTINUOUS
 10
10.9376923427
 20
9.2676695021
 40
0.66
100
AcDbArc
 50
290.1068679099
 51
249.8931320898
  0
ARC
  5
2BD
100
AcDbEntity
  8
0
100
AcDbCircle
 62
7
  6
CONTINUOUS
 10
10.9376923427
 20
9.2676695021
 40
0.6065
100
AcDbArc
 50
294.3109027826
 51
245.6890972172
  0
ARC
  5
2BE
100
AcDbEntity
  8
0
100
AcDbCircle
 62
7
  6
CONTINUOUS
 10
10.9376923427
 20
9.2676695021
 40
0.492
100
AcDbArc
 50
322.4822210899
 51
217.5177789101
  0
ARC
  5
2BF
100
AcDbEntity
  8
0
100
AcDbCircle
 62
9
  6
CONTINUOUS
 10
10.9376923427
 20
9.2676695021
 40
0.442
100
AcDbArc
 50
322.4822210899
 51
217.5177789101
  0
ARC
  5
2C0
100
AcDbEntity
  8
0
100
AcDbCircle
 62
9
  6
CONTINUOUS
 10
10.9376923427
 20
9.2676695021
 40
0.4335
100
AcDbArc
 50
322.7692519667
 51
217.2307480333
  0
ARC
  5
2C1
100
AcDbEntity
  8
0
100
AcDbCircle
 62
7
  6
CONTINUOUS
 10
13.3976923427
 20
12.2276695021
 40
0.415
100
AcDbArc
 50
0.0
 51
90.0
  0
ARC
  5
2C2
100
AcDbEntity
  8
0
100
AcDbCircle
 62
7
  6
CONTINUOUS
 10
13.8976923427
 20
11.7276695021
 40
0.415
100
AcDbArc
 50
0.0
 51
90.0
  0
ARC
  5
2C3
100
AcDbEntity
  8
0
100
AcDbCircle
 62
7
  6
CONTINUOUS
 10
10.9376923427
 20
9.2676695021
 40
0.3935
100
AcDbArc
 50
322.7692519667
 51
217.2307480333
  0
ARC
  5
2C4
100
AcDbEntity
  8
0
100
AcDbCircle
 62
9
  6
CONTINUOUS
 10
10.9376923427
 20
9.2676695021
 40
0.3435
100
AcDbArc
 50
322.7692519667
 51
217.2307480333
  0
ARC
  5
2C5
100
AcDbEntity
  8
0
100
AcDbCircle
 62
7
  6
CONTINUOUS
 10
13.3976923427
 20
12.2276695021
 40
0.29
100
AcDbArc
 50
0.0
 51
90.0
  0
ARC
  5
2C6
100
AcDbEntity
  8
0
100
AcDbCircle
 62
7
  6
CONTINUOUS
 10
13.8976923427
 20
11.7276695021
 40
0.29
100
AcDbArc
 50
0.0
 51
90.0
  0
ARC
  5
2C7
100
AcDbEntity
  8
0
100
AcDbCircle
 62
7
  6
CONTINUOUS
 10
13.8526923427
 20
12.1826695021
 40
0.165
100
AcDbArc
 50
180.0
 51
270.0
  0
ARC
  5
2C8
100
AcDbEntity
  8
0
100
AcDbCircle
 62
7
  6
CONTINUOUS
 10
13.8526923427
 20
12.1826695021
 40
0.04
100
AcDbArc
 50
180.0
 51
270.0
  0
SPLINE
  5
2C9
100
AcDbEntity
  8
0
100
AcDbSpline
 62
7
  6
CONTINUOUS
 70
0
 71
3
 72
8
 73
4
 74
0
 42
0.0000001
 43
0.0000001
 44
0.0000000001
 40
0.0
 40
0.0
 40
0.0
 40
0.0
 40
1.0
 40
1.0
 40
1.0
 40
1.0
 10
9.4921980563
 20
7.7847811231
 30
0.0
 10
9.4807457342
 20
7.7990787554
 30
0.0
 10
9.475051774
 20
7.8212851602
 30
0.0
 10
9.475051774
 20
7.8514630991
 30
0.0
  0
SPLINE
  5
2CA
100
AcDbEntity
  8
0
100
AcDbSpline
 62
7
  6
CONTINUOUS
 70
0
 71
3
 72
8
 73
4
 74
0
 42
0.0000001
 43
0.0000001
 44
0.0000000001
 40
0.0
 40
0.0
 40
0.0
 40
0.0
 40
1.0
 40
1.0
 40
1.0
 40
1.0
 10
9.5339841499
 20
7.7633492175
 30
0.0
 10
9.5176140442
 20
7.7633492175
 30
0.0
 10
9.5036638632
 20
7.7704666558
 30
0.0
 10
9.4921980563
 20
7.7847811231
 30
0.0
  0
SPLINE
  5
2CB
100
AcDbEntity
  8
0
100
AcDbSpline
 62
7
  6
CONTINUOUS
 70
0
 71
3
 72
8
 73
4
 74
0
 42
0.0000001
 43
0.0000001
 44
0.0000000001
 40
0.0
 40
0.0
 40
0.0
 40
0.0
 40
1.0
 40
1.0
 40
1.0
 40
1.0
 10
9.5774005315
 20
7.7859826696
 30
0.0
 10
9.5657279386
 20
7.7708937007
 30
0.0
 10
9.5513507023
 20
7.7633492175
 30
0.0
 10
9.5339841499
 20
7.7633492175
 30
0.0
  0
SPLINE
  5
2CC
100
AcDbEntity
  8
0
100
AcDbSpline
 62
7
  6
CONTINUOUS
 70
0
 71
3
 72
8
 73
4
 74
0
 42
0.0000001
 43
0.0000001
 44
0.0000000001
 40
0.0
 40
0.0
 40
0.0
 40
0.0
 40
1.0
 40
1.0
 40
1.0
 40
1.0
 10
9.594909419
 20
7.8527442354
 30
0.0
 10
9.594909419
 20
7.8232780415
 30
0.0
 10
9.589073123
 20
7.8010716367
 30
0.0
 10
9.5774005315
 20
7.7859826696
 30
0.0
  0
SPLINE
  5
2CD
100
AcDbEntity
  8
0
100
AcDbSpline
 62
7
  6
CONTINUOUS
 70
0
 71
3
 72
8
 73
4
 74
0
 42
0.0000001
 43
0.0000001
 44
0.0000000001
 40
0.0
 40
0.0
 40
0.0
 40
0.0
 40
1.0
 40
1.0
 40
1.0
 40
1.0
 10
9.5787758635
 20
7.9174796814
 30
0.0
 10
9.5895001783
 20
7.9019969004
 30
0.0
 10
9.594909419
 20
7.8803598899
 30
0.0
 10
9.594909419
 20
7.8527442354
 30
0.0
  0
SPLINE
  5
2CE
100
AcDbEntity
  8
0
100
AcDbSpline
 62
7
  6
CONTINUOUS
 70
0
 71
3
 72
8
 73
4
 74
0
 42
0.0000001
 43
0.0000001
 44
0.0000000001
 40
0.0
 40
0.0
 40
0.0
 40
0.0
 40
1.0
 40
1.0
 40
1.0
 40
1.0
 10
9.5349805965
 20
7.9408581156
 30
0.0
 10
9.5534859314
 20
7.9408581156
 30
0.0
 10
9.5680055036
 20
7.9330289382
 30
0.0
 10
9.5787758635
 20
7.9174796814
 30
0.0
  0
SPLINE
  5
2CF
100
AcDbEntity
  8
0
100
AcDbSpline
 62
7
  6
CONTINUOUS
 70
0
 71
3
 72
8
 73
4
 74
0
 42
0.0000001
 43
0.0000001
 44
0.0000000001
 40
0.0
 40
0.0
 40
0.0
 40
0.0
 40
1.0
 40
1.0
 40
1.0
 40
1.0
 10
9.4917406605
 20
7.9184838514
 30
0.0
 10
9.5028097763
 20
7.9333136338
 30
0.0
 10
9.5173293485
 20
7.9408581156
 30
0.0
 10
9.5349805965
 20
7.9408581156
 30
0.0
  0
SPLINE
  5
2D0
100
AcDbEntity
  8
0
100
AcDbSpline
 62
7
  6
CONTINUOUS
 70
0
 71
3
 72
8
 73
4
 74
0
 42
0.0000001
 43
0.0000001
 44
0.0000000001
 40
0.0
 40
0.0
 40
0.0
 40
0.0
 40
1.0
 40
1.0
 40
1.0
 40
1.0
 10
9.475051774
 20
7.8514630991
 30
0.0
 10
9.475051774
 20
7.8812139887
 30
0.0
 10
9.4806033745
 20
7.9035627383
 30
0.0
 10
9.4917406605
 20
7.9184838514
 30
0.0
  0
SPLINE
  5
2D1
100
AcDbEntity
  8
0
100
AcDbSpline
 62
7
  6
CONTINUOUS
 70
0
 71
3
 72
8
 73
4
 74
0
 42
0.0000001
 43
0.0000001
 44
0.0000000001
 40
0.0
 40
0.0
 40
0.0
 40
0.0
 40
1.0
 40
1.0
 40
1.0
 40
1.0
 10
12.2109703031
 20
7.7847811172
 30
0.0
 10
12.1995179643
 20
7.7990787554
 30
0.0
 10
12.1938240042
 20
7.8212851602
 30
0.0
 10
12.1938240042
 20
7.8514630991
 30
0.0
  0
SPLINE
  5
2D2
100
AcDbEntity
  8
0
100
AcDbSpline
 62
7
  6
CONTINUOUS
 70
0
 71
3
 72
8
 73
4
 74
0
 42
0.0000001
 43
0.0000001
 44
0.0000000001
 40
0.0
 40
0.0
 40
0.0
 40
0.0
 40
1.0
 40
1.0
 40
1.0
 40
1.0
 10
12.2527564039
 20
7.7633492175
 30
0.0
 10
12.2363862982
 20
7.7633492175
 30
0.0
 10
12.2224361172
 20
7.7704666558
 30
0.0
 10
12.2109703031
 20
7.7847811172
 30
0.0
  0
SPLINE
  5
2D3
100
AcDbEntity
  8
0
100
AcDbSpline
 62
7
  6
CONTINUOUS
 70
0
 71
3
 72
8
 73
4
 74
0
 42
0.0000001
 43
0.0000001
 44
0.0000000001
 40
0.0
 40
0.0
 40
0.0
 40
0.0
 40
1.0
 40
1.0
 40
1.0
 40
1.0
 10
12.2961727691
 20
7.7859826639
 30
0.0
 10
12.2845001688
 20
7.7708937007
 30
0.0
 10
12.2701229563
 20
7.7633492175
 30
0.0
 10
12.2527564039
 20
7.7633492175
 30
0.0
  0
SPLINE
  5
2D4
100
AcDbEntity
  8
0
100
AcDbSpline
 62
7
  6
CONTINUOUS
 70
0
 71
3
 72
8
 73
4
 74
0
 42
0.0000001
 43
0.0000001
 44
0.0000000001
 40
0.0
 40
0.0
 40
0.0
 40
0.0
 40
1.0
 40
1.0
 40
1.0
 40
1.0
 10
12.313681673
 20
7.8527442354
 30
0.0
 10
12.313681673
 20
7.8232780415
 30
0.0
 10
12.3078453769
 20
7.8010716367
 30
0.0
 10
12.2961727691
 20
7.7859826639
 30
0.0
  0
SPLINE
  5
2D5
100
AcDbEntity
  8
0
100
AcDbSpline
 62
7
  6
CONTINUOUS
 70
0
 71
3
 72
8
 73
4
 74
0
 42
0.0000001
 43
0.0000001
 44
0.0000000001
 40
0.0
 40
0.0
 40
0.0
 40
0.0
 40
1.0
 40
1.0
 40
1.0
 40
1.0
 10
12.2975481094
 20
7.9174796759
 30
0.0
 10
12.3082724085
 20
7.9019969004
 30
0.0
 10
12.313681673
 20
7.8803598899
 30
0.0
 10
12.313681673
 20
7.8527442354
 30
0.0
  0
SPLINE
  5
2D6
100
AcDbEntity
  8
0
100
AcDbSpline
 62
7
  6
CONTINUOUS
 70
0
 71
3
 72
8
 73
4
 74
0
 42
0.0000001
 43
0.0000001
 44
0.0000000001
 40
0.0
 40
0.0
 40
0.0
 40
0.0
 40
1.0
 40
1.0
 40
1.0
 40
1.0
 10
12.2537528505
 20
7.9408581156
 30
0.0
 10
12.2722581854
 20
7.9408581156
 30
0.0
 10
12.2867777576
 20
7.9330289382
 30
0.0
 10
12.2975481094
 20
7.9174796759
 30
0.0
  0
SPLINE
  5
2D7
100
AcDbEntity
  8
0
100
AcDbSpline
 62
7
  6
CONTINUOUS
 70
0
 71
3
 72
8
 73
4
 74
0
 42
0.0000001
 43
0.0000001
 44
0.0000000001
 40
0.0
 40
0.0
 40
0.0
 40
0.0
 40
1.0
 40
1.0
 40
1.0
 40
1.0
 10
12.2105129145
 20
7.9184838514
 30
0.0
 10
12.2215820303
 20
7.9333136338
 30
0.0
 10
12.2361016025
 20
7.9408581156
 30
0.0
 10
12.2537528505
 20
7.9408581156
 30
0.0
  0
SPLINE
  5
2D8
100
AcDbEntity
  8
0
100
AcDbSpline
 62
7
  6
CONTINUOUS
 70
0
 71
3
 72
8
 73
4
 74
0
 42
0.0000001
 43
0.0000001
 44
0.0000000001
 40
0.0
 40
0.0
 40
0.0
 40
0.0
 40
1.0
 40
1.0
 40
1.0
 40
1.0
 10
12.1938240042
 20
7.8514630991
 30
0.0
 10
12.1938240042
 20
7.8812139887
 30
0.0
 10
12.1993756285
 20
7.9035627383
 30
0.0
 10
12.2105129145
 20
7.9184838514
 30
0.0
  0
SPLINE
  5
2D9
100
AcDbEntity
  8
0
100
AcDbSpline
 62
7
  6
CONTINUOUS
 70
0
 71
3
 72
8
 73
4
 74
0
 42
0.0000001
 43
0.0000001
 44
0.0000000001
 40
0.0
 40
0.0
 40
0.0
 40
0.0
 40
1.0
 40
1.0
 40
1.0
 40
1.0
 10
12.6094472389
 20
7.7687241968
 30
0.0
 10
12.6080589046
 20
7.7701819572
 30
0.0
 10
12.6073471298
 20
7.7731712821
 30
0.0
 10
12.6073471298
 20
7.7775840926
 30
0.0
  0
SPLINE
  5
2DA
100
AcDbEntity
  8
0
100
AcDbSpline
 62
7
  6
CONTINUOUS
 70
0
 71
3
 72
8
 73
4
 74
0
 42
0.0000001
 43
0.0000001
 44
0.0000000001
 40
0.0
 40
0.0
 40
0.0
 40
0.0
 40
1.0
 40
1.0
 40
1.0
 40
1.0
 10
12.6198738327
 20
7.7664808902
 30
0.0
 10
12.614464592
 20
7.7664808902
 30
0.0
 10
12.6109058609
 20
7.7671926338
 30
0.0
 10
12.6094472389
 20
7.7687241968
 30
0.0
  0
SPLINE
  5
2DB
100
AcDbEntity
  8
0
100
AcDbSpline
 62
7
  6
CONTINUOUS
 70
0
 71
3
 72
8
 73
4
 74
0
 42
0.0000001
 43
0.0000001
 44
0.0000000001
 40
0.0
 40
0.0
 40
0.0
 40
0.0
 40
1.0
 40
1.0
 40
1.0
 40
1.0
 10
12.689482378
 20
7.7899684358
 30
0.0
 10
12.6756745567
 20
7.7743100721
 30
0.0
 10
12.6524717083
 20
7.7664808902
 30
0.0
 10
12.6198738327
 20
7.7664808902
 30
0.0
  0
SPLINE
  5
2DC
100
AcDbEntity
  8
0
100
AcDbSpline
 62
7
  6
CONTINUOUS
 70
0
 71
3
 72
8
 73
4
 74
0
 42
0.0000001
 43
0.0000001
 44
0.0000000001
 40
0.0
 40
0.0
 40
0.0
 40
0.0
 40
1.0
 40
1.0
 40
1.0
 40
1.0
 10
12.7102652778
 20
7.8500396091
 30
0.0
 10
12.7102652778
 20
7.8255556244
 30
0.0
 10
12.7032901993
 20
7.8056267995
 30
0.0
 10
12.689482378
 20
7.7899684358
 30
0.0
  0
SPLINE
  5
2DD
100
AcDbEntity
  8
0
100
AcDbSpline
 62
7
  6
CONTINUOUS
 70
0
 71
3
 72
8
 73
4
 74
0
 42
0.0000001
 43
0.0000001
 44
0.0000000001
 40
0.0
 40
0.0
 40
0.0
 40
0.0
 40
1.0
 40
1.0
 40
1.0
 40
1.0
 10
12.6884859448
 20
7.9128154176
 30
0.0
 10
12.7030055275
 20
7.8963029522
 30
0.0
 10
12.7102652778
 20
7.8753776926
 30
0.0
 10
12.7102652778
 20
7.8500396091
 30
0.0
  0
SPLINE
  5
2DE
100
AcDbEntity
  8
0
100
AcDbSpline
 62
7
  6
CONTINUOUS
 70
0
 71
3
 72
8
 73
4
 74
0
 42
0.0000001
 43
0.0000001
 44
0.0000000001
 40
0.0
 40
0.0
 40
0.0
 40
0.0
 40
1.0
 40
1.0
 40
1.0
 40
1.0
 10
12.625425457
 20
7.9377264398
 30
0.0
 10
12.6530410995
 20
7.9377264398
 30
0.0
 10
12.673966383
 20
7.9293278593
 30
0.0
 10
12.6884859448
 20
7.9128154176
 30
0.0
  0
SPLINE
  5
2DF
100
AcDbEntity
  8
0
100
AcDbSpline
 62
7
  6
CONTINUOUS
 70
0
 71
3
 72
8
 73
4
 74
0
 42
0.0000001
 43
0.0000001
 44
0.0000000001
 40
0.0
 40
0.0
 40
0.0
 40
0.0
 40
1.0
 40
1.0
 40
1.0
 40
1.0
 10
12.6103364696
 20
7.9351641673
 30
0.0
 10
12.6123293628
 20
7.936872353
 30
0.0
 10
12.6174539318
 20
7.9377264398
 30
0.0
 10
12.625425457
 20
7.9377264398
 30
0.0
  0
SPLINE
  5
2E0
100
AcDbEntity
  8
0
100
AcDbSpline
 62
7
  6
CONTINUOUS
 70
0
 71
3
 72
8
 73
4
 74
0
 42
0.0000001
 43
0.0000001
 44
0.0000000001
 40
0.0
 40
0.0
 40
0.0
 40
0.0
 40
1.0
 40
1.0
 40
1.0
 40
1.0
 10
12.6073471298
 20
7.9247727054
 30
0.0
 10
12.6073471298
 20
7.9300396103
 30
0.0
 10
12.6083435764
 20
7.9334559816
 30
0.0
 10
12.6103364696
 20
7.9351641673
 30
0.0
  0
SPLINE
  5
2E1
100
AcDbEntity
  8
0
100
AcDbSpline
 62
7
  6
CONTINUOUS
 70
0
 71
3
 72
8
 73
4
 74
0
 42
0.0000001
 43
0.0000001
 44
0.0000000001
 40
0.0
 40
0.0
 40
0.0
 40
0.0
 40
1.0
 40
1.0
 40
1.0
 40
1.0
 10
9.2238062217
 20
7.9431356925
 30
0.0
 10
9.2357635169
 20
7.9425663012
 30
0.0
 10
9.2430233046
 20
7.9397193211
 30
0.0
 10
9.2454995416
 20
7.9344130982
 30
0.0
  0
SPLINE
  5
2E2
100
AcDbEntity
  8
0
100
AcDbSpline
 62
7
  6
CONTINUOUS
 70
0
 71
3
 72
8
 73
4
 74
0
 42
0.0000001
 43
0.0000001
 44
0.0000000001
 40
0.0
 40
0.0
 40
0.0
 40
0.0
 40
1.0
 40
1.0
 40
1.0
 40
1.0
 10
9.2454995416
 20
7.9344130982
 30
0.0
 10
9.2480055108
 20
7.9290431637
 30
0.0
 10
9.24928665
 20
7.9213563341
 30
0.0
 10
9.24928665
 20
7.9113919276
 30
0.0
  0
SPLINE
  5
2E3
100
AcDbEntity
  8
0
100
AcDbSpline
 62
7
  6
CONTINUOUS
 70
0
 71
3
 72
8
 73
4
 74
0
 42
0.0000001
 43
0.0000001
 44
0.0000000001
 40
0.0
 40
0.0
 40
0.0
 40
0.0
 40
1.0
 40
1.0
 40
1.0
 40
1.0
 10
9.24928665
 20
7.7928154099
 30
0.0
 10
9.24928665
 20
7.7791499305
 30
0.0
 10
9.2474361136
 20
7.7704666558
 30
0.0
 10
9.2437350464
 20
7.7667655875
 30
0.0
  0
SPLINE
  5
2E4
100
AcDbEntity
  8
0
100
AcDbSpline
 62
7
  6
CONTINUOUS
 70
0
 71
3
 72
8
 73
4
 74
0
 42
0.0000001
 43
0.0000001
 44
0.0000000001
 40
0.0
 40
0.0
 40
0.0
 40
0.0
 40
1.0
 40
1.0
 40
1.0
 40
1.0
 10
9.2437350464
 20
7.7667655875
 30
0.0
 10
9.2400339796
 20
7.7630645196
 30
0.0
 10
9.233485937
 20
7.7612139861
 30
0.0
 10
9.2238062217
 20
7.7610716376
 30
0.0
  0
SPLINE
  5
2E5
100
AcDbEntity
  8
0
100
AcDbSpline
 62
7
  6
CONTINUOUS
 70
0
 71
3
 72
8
 73
4
 74
0
 42
0.0000001
 43
0.0000001
 44
0.0000000001
 40
0.0
 40
0.0
 40
0.0
 40
0.0
 40
1.0
 40
1.0
 40
1.0
 40
1.0
 10
9.3055144086
 20
7.7610716376
 30
0.0
 10
9.2952652945
 20
7.7612139861
 30
0.0
 10
9.2884325578
 20
7.7636339146
 30
0.0
 10
9.2850161868
 20
7.7681890747
 30
0.0
  0
SPLINE
  5
2E6
100
AcDbEntity
  8
0
100
AcDbSpline
 62
7
  6
CONTINUOUS
 70
0
 71
3
 72
8
 73
4
 74
0
 42
0.0000001
 43
0.0000001
 44
0.0000000001
 40
0.0
 40
0.0
 40
0.0
 40
0.0
 40
1.0
 40
1.0
 40
1.0
 40
1.0
 10
9.2850161868
 20
7.7681890747
 30
0.0
 10
9.2815998151
 20
7.7727442357
 30
0.0
 10
9.2800339772
 20
7.781000464
 30
0.0
 10
9.2800339772
 20
7.7928154099
 30
0.0
  0
SPLINE
  5
2E7
100
AcDbEntity
  8
0
100
AcDbSpline
 62
7
  6
CONTINUOUS
 70
0
 71
3
 72
8
 73
4
 74
0
 42
0.0000001
 43
0.0000001
 44
0.0000000001
 40
0.0
 40
0.0
 40
0.0
 40
0.0
 40
1.0
 40
1.0
 40
1.0
 40
1.0
 10
9.3655855789
 20
7.7928154099
 30
0.0
 10
9.3655855789
 20
7.7812851596
 30
0.0
 10
9.364019741
 20
7.7731712821
 30
0.0
 10
9.3609797452
 20
7.7683638427
 30
0.0
  0
SPLINE
  5
2E8
100
AcDbEntity
  8
0
100
AcDbSpline
 62
7
  6
CONTINUOUS
 70
0
 71
3
 72
8
 73
4
 74
0
 42
0.0000001
 43
0.0000001
 44
0.0000000001
 40
0.0
 40
0.0
 40
0.0
 40
0.0
 40
1.0
 40
1.0
 40
1.0
 40
1.0
 10
9.3609797452
 20
7.7683638427
 30
0.0
 10
9.3578987493
 20
7.763491566
 30
0.0
 10
9.3509236588
 20
7.7610716376
 30
0.0
 10
9.3401051535
 20
7.7610716376
 30
0.0
  0
SPLINE
  5
2E9
100
AcDbEntity
  8
0
100
AcDbSpline
 62
7
  6
CONTINUOUS
 70
0
 71
3
 72
8
 73
4
 74
0
 42
0.0000001
 43
0.0000001
 44
0.0000000001
 40
0.0
 40
0.0
 40
0.0
 40
0.0
 40
1.0
 40
1.0
 40
1.0
 40
1.0
 10
9.4218133344
 20
7.7610716376
 30
0.0
 10
9.411137177
 20
7.7616410326
 30
0.0
 10
9.4041620984
 20
7.7637762639
 30
0.0
 10
9.4010304223
 20
7.7677620292
 30
0.0
  0
SPLINE
  5
2EA
100
AcDbEntity
  8
0
100
AcDbSpline
 62
7
  6
CONTINUOUS
 70
0
 71
3
 72
8
 73
4
 74
0
 42
0.0000001
 43
0.0000001
 44
0.0000000001
 40
0.0
 40
0.0
 40
0.0
 40
0.0
 40
1.0
 40
1.0
 40
1.0
 40
1.0
 10
9.4010304223
 20
7.7677620292
 30
0.0
 10
9.3978987469
 20
7.7717477936
 30
0.0
 10
9.3963329091
 20
7.7800040203
 30
0.0
 10
9.3963329091
 20
7.7928154099
 30
0.0
  0
SPLINE
  5
2EB
100
AcDbEntity
  8
0
100
AcDbSpline
 62
7
  6
CONTINUOUS
 70
0
 71
3
 72
8
 73
4
 74
0
 42
0.0000001
 43
0.0000001
 44
0.0000000001
 40
0.0
 40
0.0
 40
0.0
 40
0.0
 40
1.0
 40
1.0
 40
1.0
 40
1.0
 10
9.3963329091
 20
7.9113919276
 30
0.0
 10
9.3963329091
 20
7.9253420967
 30
0.0
 10
9.3980410948
 20
7.9340253729
 30
0.0
 10
9.4017085539
 20
7.9374771006
 30
0.0
  0
SPLINE
  5
2EC
100
AcDbEntity
  8
0
100
AcDbSpline
 62
7
  6
CONTINUOUS
 70
0
 71
3
 72
8
 73
4
 74
0
 42
0.0000001
 43
0.0000001
 44
0.0000000001
 40
0.0
 40
0.0
 40
0.0
 40
0.0
 40
1.0
 40
1.0
 40
1.0
 40
1.0
 10
9.4017085539
 20
7.9374771006
 30
0.0
 10
9.4053008809
 20
7.9408581156
 30
0.0
 10
9.4119912758
 20
7.942708649
 30
0.0
 10
9.4218133344
 20
7.9431356925
 30
0.0
  0
SPLINE
  5
2ED
100
AcDbEntity
  8
0
100
AcDbSpline
 62
7
  6
CONTINUOUS
 70
0
 71
3
 72
8
 73
4
 74
0
 42
0.0000001
 43
0.0000001
 44
0.0000000001
 40
0.0
 40
0.0
 40
0.0
 40
0.0
 40
1.0
 40
1.0
 40
1.0
 40
1.0
 10
9.3401051535
 20
7.9431356925
 30
0.0
 10
9.3523471489
 20
7.9425663012
 30
0.0
 10
9.359606935
 20
7.9395769733
 30
0.0
 10
9.3619673421
 20
7.9342839301
 30
0.0
  0
SPLINE
  5
2EE
100
AcDbEntity
  8
0
100
AcDbSpline
 62
7
  6
CONTINUOUS
 70
0
 71
3
 72
8
 73
4
 74
0
 42
0.0000001
 43
0.0000001
 44
0.0000000001
 40
0.0
 40
0.0
 40
0.0
 40
0.0
 40
1.0
 40
1.0
 40
1.0
 40
1.0
 10
9.3619673421
 20
7.9342839301
 30
0.0
 10
9.3643044367
 20
7.9290431637
 30
0.0
 10
9.3655855789
 20
7.9213563341
 30
0.0
 10
9.3655855789
 20
7.9113919276
 30
0.0
  0
SPLINE
  5
2EF
100
AcDbEntity
  8
0
100
AcDbSpline
 62
7
  6
CONTINUOUS
 70
0
 71
3
 72
8
 73
4
 74
0
 42
0.0000001
 43
0.0000001
 44
0.0000000001
 40
0.0
 40
0.0
 40
0.0
 40
0.0
 40
1.0
 40
1.0
 40
1.0
 40
1.0
 10
9.2800339772
 20
7.9113919276
 30
0.0
 10
9.2800339772
 20
7.9216410297
 30
0.0
 10
9.2813151195
 20
7.9293278593
 30
0.0
 10
9.2841076133
 20
7.9343400314
 30
0.0
  0
SPLINE
  5
2F0
100
AcDbEntity
  8
0
100
AcDbSpline
 62
7
  6
CONTINUOUS
 70
0
 71
3
 72
8
 73
4
 74
0
 42
0.0000001
 43
0.0000001
 44
0.0000000001
 40
0.0
 40
0.0
 40
0.0
 40
0.0
 40
1.0
 40
1.0
 40
1.0
 40
1.0
 10
9.2841076133
 20
7.9343400314
 30
0.0
 10
9.2868667199
 20
7.9392922777
 30
0.0
 10
9.2939841583
 20
7.9422816056
 30
0.0
 10
9.3055144086
 20
7.9431356925
 30
0.0
  0
SPLINE
  5
2F1
100
AcDbEntity
  8
0
100
AcDbSpline
 62
7
  6
CONTINUOUS
 70
0
 71
3
 72
8
 73
4
 74
0
 42
0.0000001
 43
0.0000001
 44
0.0000000001
 40
0.0
 40
0.0
 40
0.0
 40
0.0
 40
1.0
 40
1.0
 40
1.0
 40
1.0
 10
9.440461029
 20
7.8521748382
 30
0.0
 10
9.440461029
 20
7.8217122096
 30
0.0
 10
9.4495713367
 20
7.7970858711
 30
0.0
 10
9.4678980251
 20
7.7784026372
 30
0.0
  0
SPLINE
  5
2F2
100
AcDbEntity
  8
0
100
AcDbSpline
 62
7
  6
CONTINUOUS
 70
0
 71
3
 72
8
 73
4
 74
0
 42
0.0000001
 43
0.0000001
 44
0.0000000001
 40
0.0
 40
0.0
 40
0.0
 40
0.0
 40
1.0
 40
1.0
 40
1.0
 40
1.0
 10
9.4678980251
 20
7.7784026372
 30
0.0
 10
9.4861549749
 20
7.7597904987
 30
0.0
 10
9.5085037365
 20
7.7505378294
 30
0.0
 10
9.5349805965
 20
7.7505378294
 30
0.0
  0
SPLINE
  5
2F3
100
AcDbEntity
  8
0
100
AcDbSpline
 62
7
  6
CONTINUOUS
 70
0
 71
3
 72
8
 73
4
 74
0
 42
0.0000001
 43
0.0000001
 44
0.0000000001
 40
0.0
 40
0.0
 40
0.0
 40
0.0
 40
1.0
 40
1.0
 40
1.0
 40
1.0
 10
9.5349805965
 20
7.7505378294
 30
0.0
 10
9.5627385988
 20
7.7505378294
 30
0.0
 10
9.585372056
 20
7.7602175447
 30
0.0
 10
9.6030232986
 20
7.7795769818
 30
0.0
  0
SPLINE
  5
2F4
100
AcDbEntity
  8
0
100
AcDbSpline
 62
7
  6
CONTINUOUS
 70
0
 71
3
 72
8
 73
4
 74
0
 42
0.0000001
 43
0.0000001
 44
0.0000000001
 40
0.0
 40
0.0
 40
0.0
 40
0.0
 40
1.0
 40
1.0
 40
1.0
 40
1.0
 10
9.6030232986
 20
7.7795769818
 30
0.0
 10
9.6206745281
 20
7.7989364046
 30
0.0
 10
9.629500164
 20
7.8231356937
 30
0.0
 10
9.629500164
 20
7.8520324904
 30
0.0
  0
SPLINE
  5
2F5
100
AcDbEntity
  8
0
100
AcDbSpline
 62
7
  6
CONTINUOUS
 70
0
 71
3
 72
8
 73
4
 74
0
 42
0.0000001
 43
0.0000001
 44
0.0000000001
 40
0.0
 40
0.0
 40
0.0
 40
0.0
 40
1.0
 40
1.0
 40
1.0
 40
1.0
 10
9.629500164
 20
7.8520324904
 30
0.0
 10
9.629500164
 20
7.8819257277
 30
0.0
 10
9.6203898563
 20
7.9062673706
 30
0.0
 10
9.6021692201
 20
7.9251997517
 30
0.0
  0
SPLINE
  5
2F6
100
AcDbEntity
  8
0
100
AcDbSpline
 62
7
  6
CONTINUOUS
 70
0
 71
3
 72
8
 73
4
 74
0
 42
0.0000001
 43
0.0000001
 44
0.0000000001
 40
0.0
 40
0.0
 40
0.0
 40
0.0
 40
1.0
 40
1.0
 40
1.0
 40
1.0
 10
9.6021692201
 20
7.9251997517
 30
0.0
 10
9.5839485779
 20
7.9441321391
 30
0.0
 10
9.5614574566
 20
7.9536695021
 30
0.0
 10
9.5349805965
 20
7.9536695021
 30
0.0
  0
SPLINE
  5
2F7
100
AcDbEntity
  8
0
100
AcDbSpline
 62
7
  6
CONTINUOUS
 70
0
 71
3
 72
8
 73
4
 74
0
 42
0.0000001
 43
0.0000001
 44
0.0000000001
 40
0.0
 40
0.0
 40
0.0
 40
0.0
 40
1.0
 40
1.0
 40
1.0
 40
1.0
 10
9.5349805965
 20
7.9536695021
 30
0.0
 10
9.5095001831
 20
7.9536695021
 30
0.0
 10
9.4874361172
 20
7.9445591825
 30
0.0
 10
9.4686816825
 20
7.926444111
 30
0.0
  0
SPLINE
  5
2F8
100
AcDbEntity
  8
0
100
AcDbSpline
 62
7
  6
CONTINUOUS
 70
0
 71
3
 72
8
 73
4
 74
0
 42
0.0000001
 43
0.0000001
 44
0.0000000001
 40
0.0
 40
0.0
 40
0.0
 40
0.0
 40
1.0
 40
1.0
 40
1.0
 40
1.0
 10
9.4686816825
 20
7.926444111
 30
0.0
 10
9.4498560324
 20
7.9082602519
 30
0.0
 10
9.440461029
 20
7.8834915656
 30
0.0
 10
9.440461029
 20
7.8521748382
 30
0.0
  0
SPLINE
  5
2F9
100
AcDbEntity
  8
0
100
AcDbSpline
 62
7
  6
CONTINUOUS
 70
0
 71
3
 72
8
 73
4
 74
0
 42
0.0000001
 43
0.0000001
 44
0.0000000001
 40
0.0
 40
0.0
 40
0.0
 40
0.0
 40
1.0
 40
1.0
 40
1.0
 40
1.0
 10
9.6554076328
 20
7.8997193235
 30
0.0
 10
9.6576852455
 20
7.9156623858
 30
0.0
 10
9.6620980396
 20
7.9259114999
 30
0.0
 10
9.6687645121
 20
7.9306425451
 30
0.0
  0
SPLINE
  5
2FA
100
AcDbEntity
  8
0
100
AcDbSpline
 62
7
  6
CONTINUOUS
 70
0
 71
3
 72
8
 73
4
 74
0
 42
0.0000001
 43
0.0000001
 44
0.0000000001
 40
0.0
 40
0.0
 40
0.0
 40
0.0
 40
1.0
 40
1.0
 40
1.0
 40
1.0
 10
9.6687645121
 20
7.9306425451
 30
0.0
 10
9.6753364696
 20
7.9353065151
 30
0.0
 10
9.6848738327
 20
7.9377264398
 30
0.0
 10
9.6971158161
 20
7.9377264398
 30
0.0
  0
SPLINE
  5
2FB
100
AcDbEntity
  8
0
100
AcDbSpline
 62
7
  6
CONTINUOUS
 70
0
 71
3
 72
8
 73
4
 74
0
 42
0.0000001
 43
0.0000001
 44
0.0000000001
 40
0.0
 40
0.0
 40
0.0
 40
0.0
 40
1.0
 40
1.0
 40
1.0
 40
1.0
 10
9.7159058704
 20
7.7928154099
 30
0.0
 10
9.7159058704
 20
7.7807157654
 30
0.0
 10
9.7143400326
 20
7.7724595371
 30
0.0
 10
9.7115253389
 20
7.7680264027
 30
0.0
  0
SPLINE
  5
2FC
100
AcDbEntity
  8
0
100
AcDbSpline
 62
7
  6
CONTINUOUS
 70
0
 71
3
 72
8
 73
4
 74
0
 42
0.0000001
 43
0.0000001
 44
0.0000000001
 40
0.0
 40
0.0
 40
0.0
 40
0.0
 40
1.0
 40
1.0
 40
1.0
 40
1.0
 10
9.7115253389
 20
7.7680264027
 30
0.0
 10
9.7086460724
 20
7.763491566
 30
0.0
 10
9.7015286579
 20
7.7612139861
 30
0.0
 10
9.690425457
 20
7.7610716376
 30
0.0
  0
SPLINE
  5
2FD
100
AcDbEntity
  8
0
100
AcDbSpline
 62
7
  6
CONTINUOUS
 70
0
 71
3
 72
8
 73
4
 74
0
 42
0.0000001
 43
0.0000001
 44
0.0000000001
 40
0.0
 40
0.0
 40
0.0
 40
0.0
 40
1.0
 40
1.0
 40
1.0
 40
1.0
 10
9.7721336021
 20
7.7610716376
 30
0.0
 10
9.7601763382
 20
7.7612139861
 30
0.0
 10
9.753058876
 20
7.7636339146
 30
0.0
 10
9.7504669847
 20
7.7684577447
 30
0.0
  0
SPLINE
  5
2FE
100
AcDbEntity
  8
0
100
AcDbSpline
 62
7
  6
CONTINUOUS
 70
0
 71
3
 72
8
 73
4
 74
0
 42
0.0000001
 43
0.0000001
 44
0.0000000001
 40
0.0
 40
0.0
 40
0.0
 40
0.0
 40
1.0
 40
1.0
 40
1.0
 40
1.0
 10
9.7504669847
 20
7.7684577447
 30
0.0
 10
9.7479343548
 20
7.7731712821
 30
0.0
 10
9.7466531887
 20
7.7812851596
 30
0.0
 10
9.7466531887
 20
7.7928154099
 30
0.0
  0
SPLINE
  5
2FF
100
AcDbEntity
  8
0
100
AcDbSpline
 62
7
  6
CONTINUOUS
 70
0
 71
3
 72
8
 73
4
 74
0
 42
0.0000001
 43
0.0000001
 44
0.0000000001
 40
0.0
 40
0.0
 40
0.0
 40
0.0
 40
1.0
 40
1.0
 40
1.0
 40
1.0
 10
9.7614574566
 20
7.9377264398
 30
0.0
 10
9.7769734993
 20
7.9377264398
 30
0.0
 10
9.7879343166
 20
7.9345947641
 30
0.0
 10
9.7944823732
 20
7.9283314096
 30
0.0
  0
SPLINE
  5
300
100
AcDbEntity
  8
0
100
AcDbSpline
 62
7
  6
CONTINUOUS
 70
0
 71
3
 72
8
 73
4
 74
0
 42
0.0000001
 43
0.0000001
 44
0.0000000001
 40
0.0
 40
0.0
 40
0.0
 40
0.0
 40
1.0
 40
1.0
 40
1.0
 40
1.0
 10
9.7944823732
 20
7.9283314096
 30
0.0
 10
9.8010304107
 20
7.9220680732
 30
0.0
 10
9.8051585331
 20
7.9125307101
 30
0.0
 10
9.8071514263
 20
7.8997193235
 30
0.0
  0
SPLINE
  5
301
100
AcDbEntity
  8
0
100
AcDbSpline
 62
7
  6
CONTINUOUS
 70
0
 71
3
 72
8
 73
4
 74
0
 42
0.0000001
 43
0.0000001
 44
0.0000000001
 40
0.0
 40
0.0
 40
0.0
 40
0.0
 40
1.0
 40
1.0
 40
1.0
 40
1.0
 10
12.1313329091
 20
7.794950642
 30
0.0
 10
12.121795546
 20
7.7852709252
 30
0.0
 10
12.1116887798
 20
7.7777264419
 30
0.0
 10
12.1010126235
 20
7.7726018841
 30
0.0
  0
SPLINE
  5
302
100
AcDbEntity
  8
0
100
AcDbSpline
 62
7
  6
CONTINUOUS
 70
0
 71
3
 72
8
 73
4
 74
0
 42
0.0000001
 43
0.0000001
 44
0.0000000001
 40
0.0
 40
0.0
 40
0.0
 40
0.0
 40
1.0
 40
1.0
 40
1.0
 40
1.0
 10
12.1010126235
 20
7.7726018841
 30
0.0
 10
12.0903364768
 20
7.7674773309
 30
0.0
 10
12.0788062205
 20
7.7649150538
 30
0.0
 10
12.0662795296
 20
7.7649150538
 30
0.0
  0
SPLINE
  5
303
100
AcDbEntity
  8
0
100
AcDbSpline
 62
7
  6
CONTINUOUS
 70
0
 71
3
 72
8
 73
4
 74
0
 42
0.0000001
 43
0.0000001
 44
0.0000000001
 40
0.0
 40
0.0
 40
0.0
 40
0.0
 40
1.0
 40
1.0
 40
1.0
 40
1.0
 10
12.0662795296
 20
7.7649150538
 30
0.0
 10
12.0440731277
 20
7.7649150538
 30
0.0
 10
12.0268489291
 20
7.7727442357
 30
0.0
 10
12.0144204364
 20
7.7886527062
 30
0.0
  0
SPLINE
  5
304
100
AcDbEntity
  8
0
100
AcDbSpline
 62
7
  6
CONTINUOUS
 70
0
 71
3
 72
8
 73
4
 74
0
 42
0.0000001
 43
0.0000001
 44
0.0000000001
 40
0.0
 40
0.0
 40
0.0
 40
0.0
 40
1.0
 40
1.0
 40
1.0
 40
1.0
 10
12.0144204364
 20
7.7886527062
 30
0.0
 10
12.001937895
 20
7.8046303588
 30
0.0
 10
11.9958168974
 20
7.8266944128
 30
0.0
 10
11.9958168974
 20
7.8548794645
 30
0.0
  0
SPLINE
  5
305
100
AcDbEntity
  8
0
100
AcDbSpline
 62
7
  6
CONTINUOUS
 70
0
 71
3
 72
8
 73
4
 74
0
 42
0.0000001
 43
0.0000001
 44
0.0000000001
 40
0.0
 40
0.0
 40
0.0
 40
0.0
 40
1.0
 40
1.0
 40
1.0
 40
1.0
 10
11.9958168974
 20
7.8548794645
 30
0.0
 10
11.9958168974
 20
7.8813563365
 30
0.0
 10
12.0022225907
 20
7.9024239558
 30
0.0
 10
12.0151344652
 20
7.9178325999
 30
0.0
  0
SPLINE
  5
306
100
AcDbEntity
  8
0
100
AcDbSpline
 62
7
  6
CONTINUOUS
 70
0
 71
3
 72
8
 73
4
 74
0
 42
0.0000001
 43
0.0000001
 44
0.0000000001
 40
0.0
 40
0.0
 40
0.0
 40
0.0
 40
1.0
 40
1.0
 40
1.0
 40
1.0
 10
12.0151344652
 20
7.9178325999
 30
0.0
 10
12.0279877176
 20
7.933171286
 30
0.0
 10
12.0437884261
 20
7.9408581156
 30
0.0
 10
12.0624361148
 20
7.9408581156
 30
0.0
  0
SPLINE
  5
307
100
AcDbEntity
  8
0
100
AcDbSpline
 62
7
  6
CONTINUOUS
 70
0
 71
3
 72
8
 73
4
 74
0
 42
0.0000001
 43
0.0000001
 44
0.0000000001
 40
0.0
 40
0.0
 40
0.0
 40
0.0
 40
1.0
 40
1.0
 40
1.0
 40
1.0
 10
12.0624361148
 20
7.9408581156
 30
0.0
 10
12.0773827305
 20
7.9408581156
 30
0.0
 10
12.0900517692
 20
7.9364452976
 30
0.0
 10
12.1005559274
 20
7.9275846539
 30
0.0
  0
SPLINE
  5
308
100
AcDbEntity
  8
0
100
AcDbSpline
 62
7
  6
CONTINUOUS
 70
0
 71
3
 72
8
 73
4
 74
0
 42
0.0000001
 43
0.0000001
 44
0.0000000001
 40
0.0
 40
0.0
 40
0.0
 40
0.0
 40
1.0
 40
1.0
 40
1.0
 40
1.0
 10
12.1005559274
 20
7.9275846539
 30
0.0
 10
12.1109770407
 20
7.9187940615
 30
0.0
 10
12.1195179691
 20
7.9048438805
 30
0.0
 10
12.1260660043
 20
7.8859114903
 30
0.0
  0
SPLINE
  5
309
100
AcDbEntity
  8
0
100
AcDbSpline
 62
7
  6
CONTINUOUS
 70
0
 71
3
 72
8
 73
4
 74
0
 42
0.0000001
 43
0.0000001
 44
0.0000000001
 40
0.0
 40
0.0
 40
0.0
 40
0.0
 40
1.0
 40
1.0
 40
1.0
 40
1.0
 10
12.1246425261
 20
7.9536695021
 30
0.0
 10
12.120372056
 20
7.9465520638
 30
0.0
 10
12.1158169021
 20
7.9431356925
 30
0.0
 10
12.1112617364
 20
7.9431356925
 30
0.0
  0
SPLINE
  5
30A
100
AcDbEntity
  8
0
100
AcDbSpline
 62
7
  6
CONTINUOUS
 70
0
 71
3
 72
8
 73
4
 74
0
 42
0.0000001
 43
0.0000001
 44
0.0000000001
 40
0.0
 40
0.0
 40
0.0
 40
0.0
 40
1.0
 40
1.0
 40
1.0
 40
1.0
 10
12.1112617364
 20
7.9431356925
 30
0.0
 10
12.1091265073
 20
7.9431356925
 30
0.0
 10
12.1031478634
 20
7.9448438782
 30
0.0
 10
12.0931614555
 20
7.9483391218
 30
0.0
  0
SPLINE
  5
30B
100
AcDbEntity
  8
0
100
AcDbSpline
 62
7
  6
CONTINUOUS
 70
0
 71
3
 72
8
 73
4
 74
0
 42
0.0000001
 43
0.0000001
 44
0.0000000001
 40
0.0
 40
0.0
 40
0.0
 40
0.0
 40
1.0
 40
1.0
 40
1.0
 40
1.0
 10
12.0931614555
 20
7.9483391218
 30
0.0
 10
12.0832190385
 20
7.9518189687
 30
0.0
 10
12.0716887822
 20
7.9536695021
 30
0.0
 10
12.0588773956
 20
7.9536695021
 30
0.0
  0
SPLINE
  5
30C
100
AcDbEntity
  8
0
100
AcDbSpline
 62
7
  6
CONTINUOUS
 70
0
 71
3
 72
8
 73
4
 74
0
 42
0.0000001
 43
0.0000001
 44
0.0000000001
 40
0.0
 40
0.0
 40
0.0
 40
0.0
 40
1.0
 40
1.0
 40
1.0
 40
1.0
 10
12.0588773956
 20
7.9536695021
 30
0.0
 10
12.0315464368
 20
7.9536695021
 30
0.0
 10
12.0084859361
 20
7.9441321391
 30
0.0
 10
11.9895891687
 20
7.9251643317
 30
0.0
  0
SPLINE
  5
30D
100
AcDbEntity
  8
0
100
AcDbSpline
 62
7
  6
CONTINUOUS
 70
0
 71
3
 72
8
 73
4
 74
0
 42
0.0000001
 43
0.0000001
 44
0.0000000001
 40
0.0
 40
0.0
 40
0.0
 40
0.0
 40
1.0
 40
1.0
 40
1.0
 40
1.0
 10
11.9895891687
 20
7.9251643317
 30
0.0
 10
11.9706211676
 20
7.9061250228
 30
0.0
 10
11.9612261509
 20
7.8810716409
 30
0.0
 10
11.9612261509
 20
7.8497549135
 30
0.0
  0
SPLINE
  5
30E
100
AcDbEntity
  8
0
100
AcDbSpline
 62
7
  6
CONTINUOUS
 70
0
 71
3
 72
8
 73
4
 74
0
 42
0.0000001
 43
0.0000001
 44
0.0000000001
 40
0.0
 40
0.0
 40
0.0
 40
0.0
 40
1.0
 40
1.0
 40
1.0
 40
1.0
 10
11.9612261509
 20
7.8497549135
 30
0.0
 10
11.9612261509
 20
7.8184381861
 30
0.0
 10
11.9707635169
 20
7.7939541984
 30
0.0
 10
11.9901229476
 20
7.7765876503
 30
0.0
  0
SPLINE
  5
30F
100
AcDbEntity
  8
0
100
AcDbSpline
 62
7
  6
CONTINUOUS
 70
0
 71
3
 72
8
 73
4
 74
0
 42
0.0000001
 43
0.0000001
 44
0.0000000001
 40
0.0
 40
0.0
 40
0.0
 40
0.0
 40
1.0
 40
1.0
 40
1.0
 40
1.0
 10
11.9901229476
 20
7.7765876503
 30
0.0
 10
12.0094823768
 20
7.7592211037
 30
0.0
 10
12.0319734802
 20
7.7505378294
 30
0.0
 10
12.0577386012
 20
7.7505378294
 30
0.0
  0
SPLINE
  5
310
100
AcDbEntity
  8
0
100
AcDbSpline
 62
7
  6
CONTINUOUS
 70
0
 71
3
 72
8
 73
4
 74
0
 42
0.0000001
 43
0.0000001
 44
0.0000000001
 40
0.0
 40
0.0
 40
0.0
 40
0.0
 40
1.0
 40
1.0
 40
1.0
 40
1.0
 10
12.0577386012
 20
7.7505378294
 30
0.0
 10
12.0724005332
 20
7.7505378294
 30
0.0
 10
12.0860660066
 20
7.7533848046
 30
0.0
 10
12.0985664193
 20
7.758853735
 30
0.0
  0
SPLINE
  5
311
100
AcDbEntity
  8
0
100
AcDbSpline
 62
7
  6
CONTINUOUS
 70
0
 71
3
 72
8
 73
4
 74
0
 42
0.0000001
 43
0.0000001
 44
0.0000000001
 40
0.0
 40
0.0
 40
0.0
 40
0.0
 40
1.0
 40
1.0
 40
1.0
 40
1.0
 10
12.0985664193
 20
7.758853735
 30
0.0
 10
12.1111193886
 20
7.7643456589
 30
0.0
 10
12.1242154708
 20
7.7741677228
 30
0.0
 10
12.1375962605
 20
7.7884025979
 30
0.0
  0
SPLINE
  5
312
100
AcDbEntity
  8
0
100
AcDbSpline
 62
7
  6
CONTINUOUS
 70
0
 71
3
 72
8
 73
4
 74
0
 42
0.0000001
 43
0.0000001
 44
0.0000000001
 40
0.0
 40
0.0
 40
0.0
 40
0.0
 40
1.0
 40
1.0
 40
1.0
 40
1.0
 10
12.1592332592
 20
7.8521748382
 30
0.0
 10
12.1592332592
 20
7.8217122096
 30
0.0
 10
12.1683435907
 20
7.7970858711
 30
0.0
 10
12.1866702675
 20
7.7784026491
 30
0.0
  0
SPLINE
  5
313
100
AcDbEntity
  8
0
100
AcDbSpline
 62
7
  6
CONTINUOUS
 70
0
 71
3
 72
8
 73
4
 74
0
 42
0.0000001
 43
0.0000001
 44
0.0000000001
 40
0.0
 40
0.0
 40
0.0
 40
0.0
 40
1.0
 40
1.0
 40
1.0
 40
1.0
 10
12.1866702675
 20
7.7784026491
 30
0.0
 10
12.2049272289
 20
7.7597904987
 30
0.0
 10
12.2272759666
 20
7.7505378294
 30
0.0
 10
12.2537528505
 20
7.7505378294
 30
0.0
  0
SPLINE
  5
314
100
AcDbEntity
  8
0
100
AcDbSpline
 62
7
  6
CONTINUOUS
 70
0
 71
3
 72
8
 73
4
 74
0
 42
0.0000001
 43
0.0000001
 44
0.0000000001
 40
0.0
 40
0.0
 40
0.0
 40
0.0
 40
1.0
 40
1.0
 40
1.0
 40
1.0
 10
12.2537528505
 20
7.7505378294
 30
0.0
 10
12.2815108528
 20
7.7505378294
 30
0.0
 10
12.30414431
 20
7.7602175447
 30
0.0
 10
12.3217955417
 20
7.7795769699
 30
0.0
  0
SPLINE
  5
315
100
AcDbEntity
  8
0
100
AcDbSpline
 62
7
  6
CONTINUOUS
 70
0
 71
3
 72
8
 73
4
 74
0
 42
0.0000001
 43
0.0000001
 44
0.0000000001
 40
0.0
 40
0.0
 40
0.0
 40
0.0
 40
1.0
 40
1.0
 40
1.0
 40
1.0
 10
12.3217955417
 20
7.7795769699
 30
0.0
 10
12.3394467821
 20
7.7989364046
 30
0.0
 10
12.348272418
 20
7.8231356937
 30
0.0
 10
12.348272418
 20
7.8520324904
 30
0.0
  0
SPLINE
  5
316
100
AcDbEntity
  8
0
100
AcDbSpline
 62
7
  6
CONTINUOUS
 70
0
 71
3
 72
8
 73
4
 74
0
 42
0.0000001
 43
0.0000001
 44
0.0000000001
 40
0.0
 40
0.0
 40
0.0
 40
0.0
 40
1.0
 40
1.0
 40
1.0
 40
1.0
 10
12.348272418
 20
7.8520324904
 30
0.0
 10
12.348272418
 20
7.8819257277
 30
0.0
 10
12.3391620865
 20
7.9062673706
 30
0.0
 10
12.3209414502
 20
7.9251997517
 30
0.0
  0
SPLINE
  5
317
100
AcDbEntity
  8
0
100
AcDbSpline
 62
7
  6
CONTINUOUS
 70
0
 71
3
 72
8
 73
4
 74
0
 42
0.0000001
 43
0.0000001
 44
0.0000000001
 40
0.0
 40
0.0
 40
0.0
 40
0.0
 40
1.0
 40
1.0
 40
1.0
 40
1.0
 10
12.3209414502
 20
7.9251997517
 30
0.0
 10
12.302720808
 20
7.9441321391
 30
0.0
 10
12.2802297106
 20
7.9536695021
 30
0.0
 10
12.2537528505
 20
7.9536695021
 30
0.0
  0
SPLINE
  5
318
100
AcDbEntity
  8
0
100
AcDbSpline
 62
7
  6
CONTINUOUS
 70
0
 71
3
 72
8
 73
4
 74
0
 42
0.0000001
 43
0.0000001
 44
0.0000000001
 40
0.0
 40
0.0
 40
0.0
 40
0.0
 40
1.0
 40
1.0
 40
1.0
 40
1.0
 10
12.2537528505
 20
7.9536695021
 30
0.0
 10
12.2282724132
 20
7.9536695021
 30
0.0
 10
12.2062083473
 20
7.9445591825
 30
0.0
 10
12.1874539184
 20
7.9264441051
 30
0.0
  0
SPLINE
  5
319
100
AcDbEntity
  8
0
100
AcDbSpline
 62
7
  6
CONTINUOUS
 70
0
 71
3
 72
8
 73
4
 74
0
 42
0.0000001
 43
0.0000001
 44
0.0000000001
 40
0.0
 40
0.0
 40
0.0
 40
0.0
 40
1.0
 40
1.0
 40
1.0
 40
1.0
 10
12.1874539184
 20
7.9264441051
 30
0.0
 10
12.1686282863
 20
7.9082602519
 30
0.0
 10
12.1592332592
 20
7.8834915656
 30
0.0
 10
12.1592332592
 20
7.8521748382
 30
0.0
  0
SPLINE
  5
31A
100
AcDbEntity
  8
0
100
AcDbSpline
 62
7
  6
CONTINUOUS
 70
0
 71
3
 72
8
 73
4
 74
0
 42
0.0000001
 43
0.0000001
 44
0.0000000001
 40
0.0
 40
0.0
 40
0.0
 40
0.0
 40
1.0
 40
1.0
 40
1.0
 40
1.0
 10
12.5316176166
 20
7.8066232401
 30
0.0
 10
12.5239307632
 20
7.7892566907
 30
0.0
 10
12.5152475109
 20
7.7781534883
 30
0.0
 10
12.5055677688
 20
7.7734559699
 30
0.0
  0
SPLINE
  5
31B
100
AcDbEntity
  8
0
100
AcDbSpline
 62
7
  6
CONTINUOUS
 70
0
 71
3
 72
8
 73
4
 74
0
 42
0.0000001
 43
0.0000001
 44
0.0000000001
 40
0.0
 40
0.0
 40
0.0
 40
0.0
 40
1.0
 40
1.0
 40
1.0
 40
1.0
 10
12.5055677688
 20
7.7734559699
 30
0.0
 10
12.4958880653
 20
7.7687584701
 30
0.0
 10
12.4829343548
 20
7.7664808902
 30
0.0
 10
12.4668489208
 20
7.7664808902
 30
0.0
  0
SPLINE
  5
31C
100
AcDbEntity
  8
0
100
AcDbSpline
 62
7
  6
CONTINUOUS
 70
0
 71
3
 72
8
 73
4
 74
0
 42
0.0000001
 43
0.0000001
 44
0.0000000001
 40
0.0
 40
0.0
 40
0.0
 40
0.0
 40
1.0
 40
1.0
 40
1.0
 40
1.0
 10
12.454179882
 20
7.7664808902
 30
0.0
 10
12.4416531791
 20
7.7664808902
 30
0.0
 10
12.4335393181
 20
7.7673349831
 30
0.0
 10
12.4299677863
 20
7.7690157011
 30
0.0
  0
SPLINE
  5
31D
100
AcDbEntity
  8
0
100
AcDbSpline
 62
7
  6
CONTINUOUS
 70
0
 71
3
 72
8
 73
4
 74
0
 42
0.0000001
 43
0.0000001
 44
0.0000000001
 40
0.0
 40
0.0
 40
0.0
 40
0.0
 40
1.0
 40
1.0
 40
1.0
 40
1.0
 10
12.4299677863
 20
7.7690157011
 30
0.0
 10
12.42627952
 20
7.7707513529
 30
0.0
 10
12.4245713463
 20
7.7763029534
 30
0.0
 10
12.4245713463
 20
7.7855556238
 30
0.0
  0
SPLINE
  5
31E
100
AcDbEntity
  8
0
100
AcDbSpline
 62
7
  6
CONTINUOUS
 70
0
 71
3
 72
8
 73
4
 74
0
 42
0.0000001
 43
0.0000001
 44
0.0000000001
 40
0.0
 40
0.0
 40
0.0
 40
0.0
 40
1.0
 40
1.0
 40
1.0
 40
1.0
 10
12.4245713463
 20
7.9113919276
 30
0.0
 10
12.4245713463
 20
7.9244880098
 30
0.0
 10
12.4257101288
 20
7.9327442306
 30
0.0
 10
12.4281300606
 20
7.9364453085
 30
0.0
  0
SPLINE
  5
31F
100
AcDbEntity
  8
0
100
AcDbSpline
 62
7
  6
CONTINUOUS
 70
0
 71
3
 72
8
 73
4
 74
0
 42
0.0000001
 43
0.0000001
 44
0.0000000001
 40
0.0
 40
0.0
 40
0.0
 40
0.0
 40
1.0
 40
1.0
 40
1.0
 40
1.0
 10
12.4281300606
 20
7.9364453085
 30
0.0
 10
12.4305499782
 20
7.9401463646
 30
0.0
 10
12.4378097763
 20
7.9422816056
 30
0.0
 10
12.4500517597
 20
7.9431356925
 30
0.0
  0
SPLINE
  5
320
100
AcDbEntity
  8
0
100
AcDbSpline
 62
7
  6
CONTINUOUS
 70
0
 71
3
 72
8
 73
4
 74
0
 42
0.0000001
 43
0.0000001
 44
0.0000000001
 40
0.0
 40
0.0
 40
0.0
 40
0.0
 40
1.0
 40
1.0
 40
1.0
 40
1.0
 10
12.3683435669
 20
7.9431356925
 30
0.0
 10
12.3800162067
 20
7.9425663012
 30
0.0
 10
12.3872759571
 20
7.9400040168
 30
0.0
 10
12.3898382391
 20
7.935164166
 30
0.0
  0
SPLINE
  5
321
100
AcDbEntity
  8
0
100
AcDbSpline
 62
7
  6
CONTINUOUS
 70
0
 71
3
 72
8
 73
4
 74
0
 42
0.0000001
 43
0.0000001
 44
0.0000000001
 40
0.0
 40
0.0
 40
0.0
 40
0.0
 40
1.0
 40
1.0
 40
1.0
 40
1.0
 10
12.3898382391
 20
7.935164166
 30
0.0
 10
12.392400526
 20
7.9303243059
 30
0.0
 10
12.393824028
 20
7.9224951285
 30
0.0
 10
12.393824028
 20
7.9113919276
 30
0.0
  0
SPLINE
  5
322
100
AcDbEntity
  8
0
100
AcDbSpline
 62
7
  6
CONTINUOUS
 70
0
 71
3
 72
8
 73
4
 74
0
 42
0.0000001
 43
0.0000001
 44
0.0000000001
 40
0.0
 40
0.0
 40
0.0
 40
0.0
 40
1.0
 40
1.0
 40
1.0
 40
1.0
 10
12.393824028
 20
7.7928154099
 30
0.0
 10
12.393824028
 20
7.7831356931
 30
0.0
 10
12.3928275814
 20
7.7755912098
 30
0.0
 10
12.3910556395
 20
7.7703462799
 30
0.0
  0
SPLINE
  5
323
100
AcDbEntity
  8
0
100
AcDbSpline
 62
7
  6
CONTINUOUS
 70
0
 71
3
 72
8
 73
4
 74
0
 42
0.0000001
 43
0.0000001
 44
0.0000000001
 40
0.0
 40
0.0
 40
0.0
 40
0.0
 40
1.0
 40
1.0
 40
1.0
 40
1.0
 10
12.3910556395
 20
7.7703462799
 30
0.0
 10
12.3892688503
 20
7.7650574024
 30
0.0
 10
12.3817243805
 20
7.7619257297
 30
0.0
 10
12.3683435669
 20
7.7610716376
 30
0.0
  0
SPLINE
  5
324
100
AcDbEntity
  8
0
100
AcDbSpline
 62
7
  6
CONTINUOUS
 70
0
 71
3
 72
8
 73
4
 74
0
 42
0.0000001
 43
0.0000001
 44
0.0000000001
 40
0.0
 40
0.0
 40
0.0
 40
0.0
 40
1.0
 40
1.0
 40
1.0
 40
1.0
 10
12.5511193981
 20
7.9431356925
 30
0.0
 10
12.5606567611
 20
7.942708649
 30
0.0
 10
12.5673471679
 20
7.9410004634
 30
0.0
 10
12.5710482349
 20
7.9378687877
 30
0.0
  0
SPLINE
  5
325
100
AcDbEntity
  8
0
100
AcDbSpline
 62
7
  6
CONTINUOUS
 70
0
 71
3
 72
8
 73
4
 74
0
 42
0.0000001
 43
0.0000001
 44
0.0000000001
 40
0.0
 40
0.0
 40
0.0
 40
0.0
 40
1.0
 40
1.0
 40
1.0
 40
1.0
 10
12.5710482349
 20
7.9378687877
 30
0.0
 10
12.5747493019
 20
7.9347371119
 30
0.0
 10
12.5765998115
 20
7.9259114999
 30
0.0
 10
12.5765998115
 20
7.9113919276
 30
0.0
  0
SPLINE
  5
326
100
AcDbEntity
  8
0
100
AcDbSpline
 62
7
  6
CONTINUOUS
 70
0
 71
3
 72
8
 73
4
 74
0
 42
0.0000001
 43
0.0000001
 44
0.0000000001
 40
0.0
 40
0.0
 40
0.0
 40
0.0
 40
1.0
 40
1.0
 40
1.0
 40
1.0
 10
12.5765998115
 20
7.7866944122
 30
0.0
 10
12.5765998115
 20
7.7772993955
 30
0.0
 10
12.5747493019
 20
7.7707513529
 30
0.0
 10
12.5712263202
 20
7.7671579238
 30
0.0
  0
SPLINE
  5
327
100
AcDbEntity
  8
0
100
AcDbSpline
 62
7
  6
CONTINUOUS
 70
0
 71
3
 72
8
 73
4
 74
0
 42
0.0000001
 43
0.0000001
 44
0.0000000001
 40
0.0
 40
0.0
 40
0.0
 40
0.0
 40
1.0
 40
1.0
 40
1.0
 40
1.0
 10
12.5712263202
 20
7.7671579238
 30
0.0
 10
12.5676318397
 20
7.763491566
 30
0.0
 10
12.5609414329
 20
7.761498684
 30
0.0
 10
12.5511193981
 20
7.7610716376
 30
0.0
  0
SPLINE
  5
328
100
AcDbEntity
  8
0
100
AcDbSpline
 62
7
  6
CONTINUOUS
 70
0
 71
3
 72
8
 73
4
 74
0
 42
0.0000001
 43
0.0000001
 44
0.0000000001
 40
0.0
 40
0.0
 40
0.0
 40
0.0
 40
1.0
 40
1.0
 40
1.0
 40
1.0
 10
12.6328275909
 20
7.7536695021
 30
0.0
 10
12.6701229324
 20
7.7536695021
 30
0.0
 10
12.6980232944
 20
7.7627798225
 30
0.0
 10
12.7168138809
 20
7.7812846192
 30
0.0
  0
SPLINE
  5
329
100
AcDbEntity
  8
0
100
AcDbSpline
 62
7
  6
CONTINUOUS
 70
0
 71
3
 72
8
 73
4
 74
0
 42
0.0000001
 43
0.0000001
 44
0.0000000001
 40
0.0
 40
0.0
 40
0.0
 40
0.0
 40
1.0
 40
1.0
 40
1.0
 40
1.0
 10
12.7168138809
 20
7.7812846192
 30
0.0
 10
12.7354610195
 20
7.7996481496
 30
0.0
 10
12.7448560467
 20
7.8229933459
 30
0.0
 10
12.7448560467
 20
7.8513207454
 30
0.0
  0
SPLINE
  5
32A
100
AcDbEntity
  8
0
100
AcDbSpline
 62
7
  6
CONTINUOUS
 70
0
 71
3
 72
8
 73
4
 74
0
 42
0.0000001
 43
0.0000001
 44
0.0000000001
 40
0.0
 40
0.0
 40
0.0
 40
0.0
 40
1.0
 40
1.0
 40
1.0
 40
1.0
 10
12.7448560467
 20
7.8513207454
 30
0.0
 10
12.7448560467
 20
7.8803598899
 30
0.0
 10
12.7354610195
 20
7.9042744893
 30
0.0
 10
12.716778195
 20
7.9227441972
 30
0.0
  0
SPLINE
  5
32B
100
AcDbEntity
  8
0
100
AcDbSpline
 62
7
  6
CONTINUOUS
 70
0
 71
3
 72
8
 73
4
 74
0
 42
0.0000001
 43
0.0000001
 44
0.0000000001
 40
0.0
 40
0.0
 40
0.0
 40
0.0
 40
1.0
 40
1.0
 40
1.0
 40
1.0
 10
12.716778195
 20
7.9227441972
 30
0.0
 10
12.6980232944
 20
7.941285159
 30
0.0
 10
12.670265316
 20
7.9505378264
 30
0.0
 10
12.6335393181
 20
7.9505378264
 30
0.0
  0
LINE
  5
32C
100
AcDbEntity
  8
0
100
AcDbLine
 62
9
  6
CONTINUOUS
 10
11.0314493171
 20
6.5996995997
 11
11.0315657281
 21
6.6214826314
  0
SPLINE
  5
32D
100
AcDbEntity
  8
0
100
AcDbSpline
 62
9
  6
CONTINUOUS
 70
0
 71
3
 72
15
 73
11
 74
0
 42
0.0000001
 43
0.0000001
 44
0.0000000001
 40
0.0
 40
0.0
 40
0.0
 40
0.0
 40
0.1258974295
 40
0.2515599929
 40
0.3769480926
 40
0.5020338686
 40
0.6268287732
 40
0.7513748165
 40
0.8757327958
 40
1.0
 40
1.0
 40
1.0
 40
1.0
 10
11.0315656406
 20
6.6214829199
 30
0.0
 10
11.0294805776
 20
6.6209195986
 30
0.0
 10
11.0253970142
 20
6.6194570593
 30
0.0
 10
11.0197138203
 20
6.6163160579
 30
0.0
 10
11.0146188118
 20
6.6123099733
 30
0.0
 10
11.0102484909
 20
6.6075441452
 30
0.0
 10
11.0067175602
 20
6.6021440195
 30
0.0
 10
11.0041197512
 20
6.5962510703
 30
0.0
 10
11.0025234976
 20
6.5900228659
 30
0.0
 10
11.0021554187
 20
6.5857505425
 30
0.0
 10
11.0021478511
 20
6.5836187039
 30
0.0
  0
SPLINE
  5
32E
100
AcDbEntity
  8
0
100
AcDbSpline
 62
9
  6
CONTINUOUS
 70
0
 71
3
 72
22
 73
18
 74
0
 42
0.0000001
 43
0.0000001
 44
0.0000000001
 40
0.0
 40
0.0
 40
0.0
 40
0.0
 40
0.1876918435
 40
0.3629815944
 40
0.4447059269
 40
0.5218585943
 40
0.5940356885
 40
0.6608884919
 40
0.7221422155
 40
0.7776013976
 40
0.8271911267
 40
0.8709862756
 40
0.9092852105
 40
0.9427179214
 40
0.9723829238
 40
0.9863323018
 40
1.0
 40
1.0
 40
1.0
 40
1.0
 10
11.032108628
 20
6.7427171378
 30
0.0
 10
11.0300676979
 20
6.7428782984
 30
0.0
 10
11.026127182
 20
6.7432812218
 30
0.0
 10
11.0213311987
 20
6.7440268881
 30
0.0
 10
11.0177595916
 20
6.7447576319
 30
0.0
 10
11.0153089871
 20
6.7453485474
 30
0.0
 10
11.0130394166
 20
6.7459909714
 30
0.0
 10
11.0109656399
 20
6.7466807848
 30
0.0
 10
11.0091009206
 20
6.7474131918
 30
0.0
 10
11.0074570305
 20
6.7481836257
 30
0.0
 10
11.0060438974
 20
6.7489871998
 30
0.0
 10
11.0048696388
 20
6.7498195771
 30
0.0
 10
11.0039406067
 20
6.7506777272
 30
0.0
 10
11.0032625385
 20
6.7515598498
 30
0.0
 10
11.0029081922
 20
6.7523329772
 30
0.0
 10
11.0027727684
 20
6.7529448827
 30
0.0
 10
11.00275113
 20
6.7532466698
 30
0.0
 10
11.0027516562
 20
6.7533957518
 30
0.0
  0
SPLINE
  5
32F
100
AcDbEntity
  8
0
100
AcDbSpline
 62
9
  6
CONTINUOUS
 70
0
 71
3
 72
25
 73
21
 74
0
 42
0.0000001
 43
0.0000001
 44
0.0000000001
 40
0.0
 40
0.0
 40
0.0
 40
0.0
 40
0.2001212024
 40
0.386936511
 40
0.4737422042
 40
0.5553403961
 40
0.6311810205
 40
0.7007588137
 40
0.7636284494
 40
0.8193973549
 40
0.867757082
 40
0.9084892118
 40
0.9259698535
 40
0.9415310557
 40
0.9552064165
 40
0.9670587371
 40
0.9771980445
 40
0.9858188627
 40
0.9932492224
 40
1.0
 40
1.0
 40
1.0
 40
1.0
 10
11.0369102898
 20
7.6291959526
 30
0.0
 10
11.0347772479
 20
7.6292656952
 30
0.0
 10
11.0306542918
 20
7.6294453448
 30
0.0
 10
11.0256131132
 20
7.6297887502
 30
0.0
 10
11.0218402259
 20
7.6301307611
 30
0.0
 10
11.0192502247
 20
7.6304086621
 30
0.0
 10
11.0168481444
 20
7.6307120942
 30
0.0
 10
11.0146508205
 20
7.6310388878
 30
0.0
 10
11.0126736431
 20
7.6313864505
 30
0.0
 10
11.0109301977
 20
7.6317521256
 30
0.0
 10
11.0094325266
 20
7.6321330184
 30
0.0
 10
11.0083476619
 20
7.6324754949
 30
0.0
 10
11.0076143457
 20
7.6327613037
 30
0.0
 10
11.007160187
 20
7.6329668508
 30
0.0
 10
11.0067737069
 20
7.6331742507
 30
0.0
 10
11.0064551933
 20
7.6333833557
 30
0.0
 10
11.0062047508
 20
7.6335943798
 30
0.0
 10
11.006022481
 20
7.6338083123
 30
0.0
 10
11.0059095705
 20
7.6340267729
 30
0.0
 10
11.0058834551
 20
7.6341789621
 30
0.0
 10
11.0058837111
 20
7.634250955
 30
0.0
  0
SPLINE
  5
330
100
AcDbEntity
  8
0
100
AcDbSpline
 62
9
  6
CONTINUOUS
 70
0
 71
3
 72
26
 73
22
 74
0
 42
0.0000001
 43
0.0000001
 44
0.0000000001
 40
0.0
 40
0.0
 40
0.0
 40
0.0
 40
0.201072017
 40
0.3897530508
 40
0.4776717336
 40
0.5604162482
 40
0.6373710884
 40
0.7079648911
 40
0.7716854586
 40
0.8280687248
 40
0.8767274057
 40
0.9173457965
 40
0.9345726134
 40
0.9497199805
 40
0.9627909999
 40
0.973806632
 40
0.9828192654
 40
0.9899521801
 40
0.9928965919
 40
0.9954957323
 40
1.0
 40
1.0
 40
1.0
 40
1.0
 10
11.0396267366
 20
7.8582573261
 30
0.0
 10
11.0373874715
 20
7.8582988629
 30
0.0
 10
11.0330474496
 20
7.8584110967
 30
0.0
 10
11.0277312839
 20
7.8586348435
 30
0.0
 10
11.0237350913
 20
7.8588618831
 30
0.0
 10
11.0209832147
 20
7.8590480513
 30
0.0
 10
11.0184261758
 20
7.8592525694
 30
0.0
 10
11.0160832731
 20
7.8594738572
 30
0.0
 10
11.0139722251
 20
7.8597100154
 30
0.0
 10
11.01210882
 20
7.8599590438
 30
0.0
 10
11.0105070832
 20
7.8602187889
 30
0.0
 10
11.0093435615
 20
7.8604528407
 30
0.0
 10
11.0085544023
 20
7.8606489812
 30
0.0
 10
11.0080678899
 20
7.8607893261
 30
0.0
 10
11.0076541682
 20
7.8609306951
 30
0.0
 10
11.0073134915
 20
7.8610727707
 30
0.0
 10
11.0070461751
 20
7.8612154054
 30
0.0
 10
11.0068734801
 20
7.8613420488
 30
0.0
 10
11.0067773702
 20
7.861446281
 30
0.0
 10
11.0067151997
 20
7.8615395531
 30
0.0
 10
11.0066921666
 20
7.8616193315
 30
0.0
 10
11.0066923449
 20
7.8616695021
 30
0.0
  0
SPLINE
  5
331
100
AcDbEntity
  8
0
100
AcDbSpline
 62
9
  6
CONTINUOUS
 70
0
 71
3
 72
18
 73
14
 74
0
 42
0.0000001
 43
0.0000001
 44
0.0000000001
 40
0.0
 40
0.0
 40
0.0
 40
0.0
 40
0.1794718353
 40
0.3532714356
 40
0.5158619111
 40
0.6620333429
 40
0.7871170127
 40
0.8404711867
 40
0.88711476
 40
0.9266730822
 40
0.9588342879
 40
0.9833380914
 40
1.0
 40
1.0
 40
1.0
 40
1.0
 10
10.8133826282
 20
8.3286828451
 30
0.0
 10
10.8157534903
 20
8.328829043
 30
0.0
 10
10.8204199725
 20
8.3291218846
 30
0.0
 10
10.8272331917
 20
8.3295647626
 30
0.0
 10
10.8336055645
 20
8.3299946934
 30
0.0
 10
10.8393334816
 20
8.3303978653
 30
0.0
 10
10.8436180695
 20
8.3307151895
 30
0.0
 10
10.8465879999
 20
8.3309477982
 30
0.0
 10
10.848428923
 20
8.3310984361
 30
0.0
 10
10.8499896598
 20
8.3312335096
 30
0.0
 10
10.8512577696
 20
8.3313514509
 30
0.0
 10
10.8522230553
 20
8.3314516809
 30
0.0
 10
10.8527641284
 20
8.3315167753
 30
0.0
 10
10.8529822359
 20
8.3315493426
 30
0.0
  0
LINE
  5
332
100
AcDbEntity
  8
0
100
AcDbLine
 62
9
  6
CONTINUOUS
 10
10.8529822359
 20
8.3315493426
 11
10.8533724004
 21
8.3316424573
  0
SPLINE
  5
333
100
AcDbEntity
  8
0
100
AcDbSpline
 62
9
  6
CONTINUOUS
 70
0
 71
3
 72
26
 73
22
 74
0
 42
0.0000001
 43
0.0000001
 44
0.0000000001
 40
0.0
 40
0.0
 40
0.0
 40
0.0
 40
0.2010720281
 40
0.3897530751
 40
0.4776717647
 40
0.560416286
 40
0.6373711325
 40
0.707964941
 40
0.7716855134
 40
0.8280687832
 40
0.8767274661
 40
0.9173458568
 40
0.9345726725
 40
0.9497200375
 40
0.9627910537
 40
0.973806681
 40
0.9828193074
 40
0.9899522123
 40
0.9928966177
 40
0.9954957506
 40
1.0
 40
1.0
 40
1.0
 40
1.0
 10
10.8357579458
 20
7.8582573415
 30
0.0
 10
10.8379972111
 20
7.8582988781
 30
0.0
 10
10.8423372335
 20
7.8584111113
 30
0.0
 10
10.8476533998
 20
7.858634857
 30
0.0
 10
10.8516495929
 20
7.8588618955
 30
0.0
 10
10.8544014699
 20
7.8590480629
 30
0.0
 10
10.8569585093
 20
7.8592525801
 30
0.0
 10
10.8593014124
 20
7.8594738669
 30
0.0
 10
10.8614124606
 20
7.8597100241
 30
0.0
 10
10.8632758661
 20
7.8599590513
 30
0.0
 10
10.8648776033
 20
7.8602187953
 30
0.0
 10
10.8660411252
 20
7.860452846
 30
0.0
 10
10.8668302847
 20
7.8606489857
 30
0.0
 10
10.8673167972
 20
7.86078933
 30
0.0
 10
10.8677305189
 20
7.8609306984
 30
0.0
 10
10.8680711958
 20
7.8610727733
 30
0.0
 10
10.8683385122
 20
7.8612154074
 30
0.0
 10
10.8685112074
 20
7.8613420502
 30
0.0
 10
10.8686073173
 20
7.8614462819
 30
0.0
 10
10.8686694879
 20
7.8615395536
 30
0.0
 10
10.8686925211
 20
7.8616193317
 30
0.0
 10
10.8686923427
 20
7.8616695021
 30
0.0
  0
SPLINE
  5
334
100
AcDbEntity
  8
0
100
AcDbSpline
 62
9
  6
CONTINUOUS
 70
0
 71
3
 72
25
 73
21
 74
0
 42
0.0000001
 43
0.0000001
 44
0.0000000001
 40
0.0
 40
0.0
 40
0.0
 40
0.0
 40
0.2001211594
 40
0.3869364305
 40
0.4737421079
 40
0.5553402863
 40
0.6311809
 40
0.7007586855
 40
0.763628317
 40
0.8193972222
 40
0.8677569535
 40
0.9084890928
 40
0.9259697415
 40
0.9415309525
 40
0.9552063241
 40
0.9670586579
 40
0.9771979812
 40
0.9858188182
 40
0.9932491994
 40
1.0
 40
1.0
 40
1.0
 40
1.0
 10
10.8384743954
 20
7.6291959383
 30
0.0
 10
10.8406074372
 20
7.6292656807
 30
0.0
 10
10.8447303931
 20
7.6294453301
 30
0.0
 10
10.8497715715
 20
7.6297887358
 30
0.0
 10
10.8535444587
 20
7.6301307474
 30
0.0
 10
10.8561344598
 20
7.630408649
 30
0.0
 10
10.8585365401
 20
7.6307120819
 30
0.0
 10
10.860733864
 20
7.6310388764
 30
0.0
 10
10.8627110414
 20
7.6313864402
 30
0.0
 10
10.8644544869
 20
7.6317521164
 30
0.0
 10
10.865952158
 20
7.6321330104
 30
0.0
 10
10.8670370228
 20
7.632475488
 30
0.0
 10
10.8677703391
 20
7.6327612978
 30
0.0
 10
10.8682244979
 20
7.6329668456
 30
0.0
 10
10.8686109781
 20
7.6331742463
 30
0.0
 10
10.8689294918
 20
7.633383352
 30
0.0
 10
10.8691799344
 20
7.6335943769
 30
0.0
 10
10.8693622043
 20
7.6338083102
 30
0.0
 10
10.8694751148
 20
7.6340267715
 30
0.0
 10
10.8695012303
 20
7.6341789612
 30
0.0
 10
10.8695009744
 20
7.6342509543
 30
0.0
  0
SPLINE
  5
335
100
AcDbEntity
  8
0
100
AcDbSpline
 62
9
  6
CONTINUOUS
 70
0
 71
3
 72
22
 73
18
 74
0
 42
0.0000001
 43
0.0000001
 44
0.0000000001
 40
0.0
 40
0.0
 40
0.0
 40
0.0
 40
0.1876944179
 40
0.3629861319
 40
0.4447111456
 40
0.5218642656
 40
0.594041567
 40
0.6608943232
 40
0.7221477436
 40
0.7776063741
 40
0.8271953262
 40
0.8709895149
 40
0.9092873822
 40
0.9427190487
 40
0.9723832383
 40
0.9863323821
 40
1.0
 40
1.0
 40
1.0
 40
1.0
 10
10.843276171
 20
6.7427171196
 30
0.0
 10
10.8453171187
 20
6.742878306
 30
0.0
 10
10.8492576635
 20
6.7432812684
 30
0.0
 10
10.8540536796
 20
6.7440269612
 30
0.0
 10
10.8576253038
 20
6.7447577145
 30
0.0
 10
10.8600759123
 20
6.7453486314
 30
0.0
 10
10.8623454804
 20
6.7459910524
 30
0.0
 10
10.864419248
 20
6.7466808594
 30
0.0
 10
10.8662839514
 20
6.7474132572
 30
0.0
 10
10.8679278188
 20
6.7481836803
 30
0.0
 10
10.8693409223
 20
6.7489872426
 30
0.0
 10
10.8705151448
 20
6.7498196082
 30
0.0
 10
10.8714441345
 20
6.7506777478
 30
0.0
 10
10.872122154
 20
6.7515598632
 30
0.0
 10
10.8724764501
 20
6.752332986
 30
0.0
 10
10.8726118303
 20
6.7529448861
 30
0.0
 10
10.8726334463
 20
6.7532466702
 30
0.0
 10
10.872632909
 20
6.7533957507
 30
0.0
  0
SPLINE
  5
336
100
AcDbEntity
  8
0
100
AcDbSpline
 62
9
  6
CONTINUOUS
 70
0
 71
3
 72
15
 73
11
 74
0
 42
0.0000001
 43
0.0000001
 44
0.0000000001
 40
0.0
 40
0.0
 40
0.0
 40
0.0
 40
0.1258968213
 40
0.251558924
 40
0.3769467581
 40
0.502032485
 40
0.626827547
 40
0.7513739157
 40
0.8757323295
 40
1.0
 40
1.0
 40
1.0
 40
1.0
 10
10.8438189614
 20
6.6214827781
 30
0.0
 10
10.8459040076
 20
6.6209194659
 30
0.0
 10
10.8499875402
 20
6.6194569431
 30
0.0
 10
10.8556706929
 20
6.6163159649
 30
0.0
 10
10.8607656701
 20
6.6123099018
 30
0.0
 10
10.865135972
 20
6.6075440937
 30
0.0
 10
10.8686668988
 20
6.6021439862
 30
0.0
 10
10.8712647208
 20
6.596251053
 30
0.0
 10
10.872861006
 20
6.5900228609
 30
0.0
 10
10.8732291187
 20
6.5857505419
 30
0.0
 10
10.8732367062
 20
6.5836187035
 30
0.0
  0
SPLINE
  5
337
100
AcDbEntity
  8
0
100
AcDbSpline
 62
9
  6
CONTINUOUS
 70
0
 71
3
 72
15
 73
11
 74
0
 42
0.0000001
 43
0.0000001
 44
0.0000000001
 40
0.0
 40
0.0
 40
0.0
 40
0.0
 40
0.1242689543
 40
0.2486283222
 40
0.3731749895
 40
0.4979696524
 40
0.623054432
 40
0.7484411614
 40
0.874102645
 40
1.0
 40
1.0
 40
1.0
 40
1.0
 10
10.8070480045
 20
6.6686051899
 30
0.0
 10
10.8070684959
 20
6.6659489268
 30
0.0
 10
10.8075479099
 20
6.6606275206
 30
0.0
 10
10.8095631192
 20
6.6528740459
 30
0.0
 10
10.8128210578
 20
6.6455409045
 30
0.0
 10
10.8172364309
 20
6.6388229455
 30
0.0
 10
10.8226927739
 20
6.6328950614
 30
0.0
 10
10.8290477784
 20
6.6279123069
 30
0.0
 10
10.8361322584
 20
6.6240048818
 30
0.0
 10
10.8412209056
 20
6.6221845046
 30
0.0
 10
10.8438189955
 20
6.6214829212
 30
0.0
  0
LINE
  5
338
100
AcDbEntity
  8
0
100
AcDbLine
 62
9
  6
CONTINUOUS
 10
10.8432761328
 20
6.7427170573
 11
10.8438189955
 21
6.6214829212
  0
SPLINE
  5
339
100
AcDbEntity
  8
0
100
AcDbSpline
 62
9
  6
CONTINUOUS
 70
0
 71
3
 72
22
 73
18
 74
0
 42
0.0000001
 43
0.0000001
 44
0.0000000001
 40
0.0
 40
0.0
 40
0.0
 40
0.0
 40
0.0137051499
 40
0.0276909464
 40
0.0574225186
 40
0.090910286
 40
0.1292520711
 40
0.1730785667
 40
0.2226890933
 40
0.278159337
 40
0.3394149586
 40
0.4062608359
 40
0.4784223345
 40
0.5555507496
 40
0.637242078
 40
0.8124387233
 40
1.0
 40
1.0
 40
1.0
 40
1.0
 10
10.80658113
 20
6.7291610275
 30
0.0
 10
10.8065796865
 20
6.7293482542
 30
0.0
 10
10.8066051895
 20
6.7297273485
 30
0.0
 10
10.8067715048
 20
6.7304964133
 30
0.0
 10
10.8072109796
 20
6.7314690417
 30
0.0
 10
10.8080553388
 20
6.732580445
 30
0.0
 10
10.8092141228
 20
6.7336630163
 30
0.0
 10
10.8106801049
 20
6.7347144298
 30
0.0
 10
10.8124453117
 20
6.7357308283
 30
0.0
 10
10.8144995734
 20
6.7367067177
 30
0.0
 10
10.8168304603
 20
6.7376359035
 30
0.0
 10
10.8194232303
 20
6.7385125846
 30
0.0
 10
10.8222612736
 20
6.7393306634
 30
0.0
 10
10.8253261012
 20
6.7400848858
 30
0.0
 10
10.8297931691
 20
6.7410201153
 30
0.0
 10
10.835792343
 20
6.741979931
 30
0.0
 10
10.8407224996
 20
6.7425050074
 30
0.0
 10
10.8432760576
 20
6.7427172079
 30
0.0
  0
LINE
  5
33A
100
AcDbEntity
  8
0
100
AcDbLine
 62
9
  6
CONTINUOUS
 10
10.8384743958
 20
7.6291959459
 11
10.8432760576
 21
6.7427172079
  0
SPLINE
  5
33B
100
AcDbEntity
  8
0
100
AcDbSpline
 62
9
  6
CONTINUOUS
 70
0
 71
3
 72
25
 73
21
 74
0
 42
0.0000001
 43
0.0000001
 44
0.0000000001
 40
0.0
 40
0.0
 40
0.0
 40
0.0
 40
0.006795206
 40
0.0142655565
 40
0.0229201143
 40
0.0330871347
 40
0.0449620358
 40
0.0586557445
 40
0.0742317816
 40
0.0917242897
 40
0.1324726982
 40
0.1808405665
 40
0.2366107261
 40
0.2994754691
 40
0.3690426624
 40
0.4448672318
 40
0.5264440468
 40
0.6132230957
 40
0.799969243
 40
1.0
 40
1.0
 40
1.0
 40
1.0
 10
11.0756923427
 20
7.6226695021
 30
0.0
 10
11.0756930418
 20
7.6227601751
 30
0.0
 10
11.0756612253
 20
7.622951863
 30
0.0
 10
11.0755212139
 20
7.6232276263
 30
0.0
 10
11.0752943461
 20
7.6234981089
 30
0.0
 10
11.0749821477
 20
7.6237652802
 30
0.0
 10
11.0745847754
 20
7.6240303703
 30
0.0
 10
11.0741023732
 20
7.6242936502
 30
0.0
 10
11.073535303
 20
7.6245549354
 30
0.0
 10
11.0726195356
 20
7.6249187255
 30
0.0
 10
11.0712642616
 20
7.6253557344
 30
0.0
 10
11.0693927286
 20
7.6258432651
 30
0.0
 10
11.0672137082
 20
7.6263128713
 30
0.0
 10
11.0647422568
 20
7.626760844
 30
0.0
 10
11.0619953637
 20
7.6271837674
 30
0.0
 10
11.0589922797
 20
7.6275782954
 30
0.0
 10
11.0557540675
 20
7.6279416075
 30
0.0
 10
11.0510368096
 20
7.6283916927
 30
0.0
 10
11.044733447
 20
7.6288499699
 30
0.0
 10
11.0395776866
 20
7.6290972533
 30
0.0
 10
11.0369102897
 20
7.6291959459
 30
0.0
  0
LINE
  5
33C
100
AcDbEntity
  8
0
100
AcDbLine
 62
9
  6
CONTINUOUS
 10
11.0321086279
 20
6.7427172085
 11
11.0369102897
 21
7.6291959459
  0
SPLINE
  5
33D
100
AcDbEntity
  8
0
100
AcDbSpline
 62
9
  6
CONTINUOUS
 70
0
 71
3
 72
22
 73
18
 74
0
 42
0.0000001
 43
0.0000001
 44
0.0000000001
 40
0.0
 40
0.0
 40
0.0
 40
0.0
 40
0.0137050968
 40
0.0276908829
 40
0.0574225465
 40
0.090910512
 40
0.1292525528
 40
0.1730793223
 40
0.2226901111
 40
0.2781605825
 40
0.339416379
 40
0.406262365
 40
0.4784238957
 40
0.5555522591
 40
0.6372434491
 40
0.8124395608
 40
1.0
 40
1.0
 40
1.0
 40
1.0
 10
11.0688035555
 20
6.7291610275
 30
0.0
 10
11.0688049946
 20
6.7293482533
 30
0.0
 10
11.0687794826
 20
6.7297273456
 30
0.0
 10
11.0686131494
 20
6.730496406
 30
0.0
 10
11.0681736528
 20
6.731469027
 30
0.0
 10
11.0673292713
 20
6.7325804203
 30
0.0
 10
11.0661704672
 20
6.7336629816
 30
0.0
 10
11.0647044673
 20
6.734714385
 30
0.0
 10
11.0629392453
 20
6.7357307731
 30
0.0
 10
11.0608849714
 20
6.7367066518
 30
0.0
 10
11.0585540759
 20
6.7376358267
 30
0.0
 10
11.0559613011
 20
6.7385124968
 30
0.0
 10
11.0531232569
 20
6.7393305648
 30
0.0
 10
11.0500584328
 20
6.7400847766
 30
0.0
 10
11.0455913774
 20
6.7410199919
 30
0.0
 10
11.0395922293
 20
6.7419797925
 30
0.0
 10
11.0346620964
 20
6.7425048607
 30
0.0
 10
11.0321085526
 20
6.7427170578
 30
0.0
  0
LINE
  5
33E
100
AcDbEntity
  8
0
100
AcDbLine
 62
9
  6
CONTINUOUS
 10
11.03156569
 20
6.6214829212
 11
11.0321085526
 21
6.7427170578
  0
SPLINE
  5
33F
100
AcDbEntity
  8
0
100
AcDbSpline
 62
9
  6
CONTINUOUS
 70
0
 71
3
 72
15
 73
11
 74
0
 42
0.0000001
 43
0.0000001
 44
0.0000000001
 40
0.0
 40
0.0
 40
0.0
 40
0.0
 40
0.1242689576
 40
0.2486283265
 40
0.3731749928
 40
0.4979696533
 40
0.6230544302
 40
0.7484411579
 40
0.8741026416
 40
1.0
 40
1.0
 40
1.0
 40
1.0
 10
11.068336681
 20
6.6686051899
 30
0.0
 10
11.0683161979
 20
6.6659489172
 30
0.0
 10
11.0678368
 20
6.6606274903
 30
0.0
 10
11.0658216126
 20
6.6528739804
 30
0.0
 10
11.0625636919
 20
6.6455407997
 30
0.0
 10
11.0581483307
 20
6.6388227987
 30
0.0
 10
11.0526919917
 20
6.6328948717
 30
0.0
 10
11.0463369822
 20
6.6279120765
 30
0.0
 10
11.0392524881
 20
6.6240046163
 30
0.0
 10
11.0341638262
 20
6.6221842217
 30
0.0
 10
11.0315657281
 20
6.6214826314
 30
0.0
  0
LINE
  5
340
100
AcDbEntity
  8
0
100
AcDbLine
 62
9
  6
CONTINUOUS
 10
10.8438189574
 20
6.6214826315
 11
10.8439353684
 21
6.5996995997
  0
SPLINE
  5
341
100
AcDbEntity
  8
0
100
AcDbSpline
 62
9
  6
CONTINUOUS
 70
0
 71
3
 72
25
 73
21
 74
0
 42
0.0000001
 43
0.0000001
 44
0.0000000001
 40
0.0
 40
0.0
 40
0.0
 40
0.0
 40
0.0067952061
 40
0.0142655573
 40
0.022920116
 40
0.0330871376
 40
0.0449620398
 40
0.0586557496
 40
0.0742317878
 40
0.0917242968
 40
0.132472707
 40
0.1808405767
 40
0.236610737
 40
0.2994754804
 40
0.3690426736
 40
0.4448672425
 40
0.5264440565
 40
0.6132231042
 40
0.7999692477
 40
1.0
 40
1.0
 40
1.0
 40
1.0
 10
10.7996923423
 20
7.6226695021
 30
0.0
 10
10.7996916432
 20
7.6227601751
 30
0.0
 10
10.7997234599
 20
7.622951863
 30
0.0
 10
10.7998634713
 20
7.6232276262
 30
0.0
 10
10.8000903392
 20
7.6234981088
 30
0.0
 10
10.8004025376
 20
7.6237652802
 30
0.0
 10
10.80079991
 20
7.6240303703
 30
0.0
 10
10.8012823123
 20
7.6242936501
 30
0.0
 10
10.8018493826
 20
7.6245549354
 30
0.0
 10
10.80276515
 20
7.6249187254
 30
0.0
 10
10.804120424
 20
7.6253557344
 30
0.0
 10
10.8059919571
 20
7.625843265
 30
0.0
 10
10.8081709776
 20
7.6263128712
 30
0.0
 10
10.8106424291
 20
7.6267608439
 30
0.0
 10
10.8133893221
 20
7.6271837673
 30
0.0
 10
10.8163924061
 20
7.6275782953
 30
0.0
 10
10.8196306183
 20
7.6279416073
 30
0.0
 10
10.8243478762
 20
7.6283916925
 30
0.0
 10
10.8306512387
 20
7.6288499697
 30
0.0
 10
10.8358069991
 20
7.6290972531
 30
0.0
 10
10.8384743959
 20
7.6291959456
 30
0.0
  0
SPLINE
  5
342
100
AcDbEntity
  8
0
100
AcDbSpline
 62
9
  6
CONTINUOUS
 70
0
 71
3
 72
17
 73
13
 74
0
 42
0.0000001
 43
0.0000001
 44
0.0000000001
 40
0.0
 40
0.0
 40
0.0
 40
0.0
 40
0.1257745203
 40
0.2514281217
 40
0.3768791625
 40
0.5020507937
 40
0.6269069737
 40
0.751447236
 40
0.813668915
 40
0.8758295797
 40
0.9379351389
 40
1.0
 40
1.0
 40
1.0
 40
1.0
 10
10.9230214742
 20
6.5209804099
 30
0.0
 10
10.9201373316
 20
6.5209950622
 30
0.0
 10
10.9143622042
 20
6.5215181287
 30
0.0
 10
10.9059743842
 20
6.5237613667
 30
0.0
 10
10.898101357
 20
6.5273957631
 30
0.0
 10
10.8909818188
 20
6.5323139627
 30
0.0
 10
10.8848290733
 20
6.538367556
 30
0.0
 10
10.8806563321
 20
6.5442171019
 30
0.0
 10
10.8779737997
 20
6.54926239
 30
0.0
 10
10.8763014718
 20
6.5532045497
 30
0.0
 10
10.8749816229
 20
6.5572738265
 30
0.0
 10
10.8743431466
 20
6.5600531784
 30
0.0
 10
10.8740857004
 20
6.5614529314
 30
0.0
  0
SPLINE
  5
343
100
AcDbEntity
  8
0
100
AcDbSpline
 62
9
  6
CONTINUOUS
 70
0
 71
3
 72
17
 73
13
 74
0
 42
0.0000001
 43
0.0000001
 44
0.0000000001
 40
0.0
 40
0.0
 40
0.0
 40
0.0
 40
0.1257745175
 40
0.2514281171
 40
0.3768791572
 40
0.5020507889
 40
0.6269069705
 40
0.7514472347
 40
0.8136689144
 40
0.8758295796
 40
0.937935139
 40
1.0
 40
1.0
 40
1.0
 40
1.0
 10
10.9523632103
 20
6.5209805974
 30
0.0
 10
10.9552473457
 20
6.5209952496
 30
0.0
 10
10.9610224585
 20
6.5215183129
 30
0.0
 10
10.9694102593
 20
6.5237615379
 30
0.0
 10
10.9772832717
 20
6.5273959142
 30
0.0
 10
10.9844028012
 20
6.5323140883
 30
0.0
 10
10.9905555451
 20
6.5383676525
 30
0.0
 10
10.9947282912
 20
6.5442171728
 30
0.0
 10
10.9974108313
 20
6.5492624408
 30
0.0
 10
10.9990831667
 20
6.5532045858
 30
0.0
 10
11.0004030249
 20
6.5572738484
 30
0.0
 10
11.0010415084
 20
6.5600531914
 30
0.0
 10
11.0012989585
 20
6.5614529401
 30
0.0
  0
SPLINE
  5
344
100
AcDbEntity
  8
0
100
AcDbSpline
 62
9
  6
CONTINUOUS
 70
0
 71
3
 72
25
 73
21
 74
0
 42
0.0000001
 43
0.0000001
 44
0.0000000001
 40
0.0
 40
0.0
 40
0.0
 40
0.0
 40
0.1799315758
 40
0.3535414078
 40
0.4360699346
 40
0.5147785215
 40
0.589008673
 40
0.6581633827
 40
0.7217250557
 40
0.7792716575
 40
0.8305072942
 40
0.8753095387
 40
0.8953351236
 40
0.9138279589
 40
0.9308634382
 40
0.946558447
 40
0.9610759837
 40
0.9746320605
 40
0.9874993949
 40
1.0
 40
1.0
 40
1.0
 40
1.0
 10
10.9526764527
 20
6.7693339056
 30
0.0
 10
10.9559353827
 20
6.7693246795
 30
0.0
 10
10.962339493
 20
6.7691354428
 30
0.0
 10
10.9702141559
 20
6.7684671856
 30
0.0
 10
10.9762273453
 20
6.7676703796
 30
0.0
 10
10.9804347178
 20
6.7669672109
 30
0.0
 10
10.9843756401
 20
6.7661555457
 30
0.0
 10
10.9880125438
 20
6.7652433327
 30
0.0
 10
10.9913109197
 20
6.7642396653
 30
0.0
 10
10.9942401692
 20
6.7631543053
 30
0.0
 10
10.9967730749
 20
6.7619976374
 30
0.0
 10
10.9985994369
 20
6.7609469117
 30
0.0
 10
10.9998286325
 20
6.7600694617
 30
0.0
 10
11.0006027345
 20
6.7594249482
 30
0.0
 10
11.0012621483
 20
6.7587703591
 30
0.0
 10
11.0018052773
 20
6.758106741
 30
0.0
 10
11.0022305658
 20
6.7574350531
 30
0.0
 10
11.0025358668
 20
6.7567561363
 30
0.0
 10
11.0027193688
 20
6.7560721648
 30
0.0
 10
11.002759535
 20
6.7556115636
 30
0.0
 10
11.0027587298
 20
6.7553851525
 30
0.0
  0
SPLINE
  5
345
100
AcDbEntity
  8
0
100
AcDbSpline
 62
9
  6
CONTINUOUS
 70
0
 71
3
 72
28
 73
24
 74
0
 42
0.0000001
 43
0.0000001
 44
0.0000000001
 40
0.0
 40
0.0
 40
0.0
 40
0.0
 40
0.1924788327
 40
0.3776541658
 40
0.4652866806
 40
0.5484857422
 40
0.6264613455
 40
0.6984750905
 40
0.7638517934
 40
0.8219842713
 40
0.8723461857
 40
0.8944769545
 40
0.91451127
 40
0.9324155494
 40
0.9481664558
 40
0.9617511008
 40
0.9731822534
 40
0.9825070308
 40
0.9898385519
 40
0.9928385437
 40
0.9954657849
 40
0.9978107374
 40
1.0
 40
1.0
 40
1.0
 40
1.0
 10
10.9566320717
 20
7.8663300894
 30
0.0
 10
10.9598873846
 20
7.8663189612
 30
0.0
 10
10.9662744295
 20
7.8662416749
 30
0.0
 10
10.9741406341
 20
7.8660052258
 30
0.0
 10
10.9801555221
 20
7.8657310432
 30
0.0
 10
10.9843568357
 20
7.8654922493
 30
0.0
 10
10.9882913172
 20
7.8652189977
 30
0.0
 10
10.9919210899
 20
7.8649140395
 30
0.0
 10
10.9952112642
 20
7.8645806257
 30
0.0
 10
10.9981302002
 20
7.8642221826
 30
0.0
 10
11.0003153005
 20
7.8638935917
 30
0.0
 10
11.0018554034
 20
7.8636156218
 30
0.0
 10
11.0028508719
 20
7.8634121812
 30
0.0
 10
11.0037351742
 20
7.8632053128
 30
0.0
 10
11.0045063631
 20
7.8629956455
 30
0.0
 10
11.0051627759
 20
7.8627837692
 30
0.0
 10
11.0057036282
 20
7.8625703059
 30
0.0
 10
11.0061282079
 20
7.8623559023
 30
0.0
 10
11.0064032147
 20
7.8621648468
 30
0.0
 10
11.0065566769
 20
7.8620073786
 30
0.0
 10
11.0066343085
 20
7.8618961866
 30
0.0
 10
11.0066817754
 20
7.8617835964
 30
0.0
 10
11.006692478
 20
7.8617065282
 30
0.0
 10
11.0066923463
 20
7.8616695021
 30
0.0
  0
SPLINE
  5
346
100
AcDbEntity
  8
0
100
AcDbSpline
 62
9
  6
CONTINUOUS
 70
0
 71
3
 72
28
 73
24
 74
0
 42
0.0000001
 43
0.0000001
 44
0.0000000001
 40
0.0
 40
0.0
 40
0.0
 40
0.0
 40
0.1924788394
 40
0.3776541767
 40
0.4652866927
 40
0.5484857549
 40
0.6264613583
 40
0.698475103
 40
0.7638518051
 40
0.8219842819
 40
0.8723461947
 40
0.8944769626
 40
0.9145112772
 40
0.9324155556
 40
0.948166461
 40
0.9617511049
 40
0.9731822564
 40
0.9825070327
 40
0.9898385528
 40
0.9928385442
 40
0.9954657851
 40
0.9978107374
 40
1.0
 40
1.0
 40
1.0
 40
1.0
 10
10.9187526138
 20
7.8663300896
 30
0.0
 10
10.9154973009
 20
7.8663189613
 30
0.0
 10
10.9091102563
 20
7.866241675
 30
0.0
 10
10.901244052
 20
7.8660052258
 30
0.0
 10
10.8952291644
 20
7.8657310433
 30
0.0
 10
10.891027851
 20
7.8654922493
 30
0.0
 10
10.8870933698
 20
7.8652189977
 30
0.0
 10
10.8834635973
 20
7.8649140395
 30
0.0
 10
10.8801734233
 20
7.8645806257
 30
0.0
 10
10.8772544875
 20
7.8642221826
 30
0.0
 10
10.8750693875
 20
7.8638935917
 30
0.0
 10
10.8735292847
 20
7.8636156218
 30
0.0
 10
10.8725338163
 20
7.8634121812
 30
0.0
 10
10.8716495142
 20
7.8632053128
 30
0.0
 10
10.8708783254
 20
7.8629956455
 30
0.0
 10
10.8702219127
 20
7.8627837692
 30
0.0
 10
10.8696810605
 20
7.8625703059
 30
0.0
 10
10.8692564809
 20
7.8623559023
 30
0.0
 10
10.8689814741
 20
7.8621648468
 30
0.0
 10
10.868828012
 20
7.8620073786
 30
0.0
 10
10.8687503805
 20
7.8618961866
 30
0.0
 10
10.8687029136
 20
7.8617835964
 30
0.0
 10
10.8686922111
 20
7.8617065282
 30
0.0
 10
10.8686923428
 20
7.8616695021
 30
0.0
  0
SPLINE
  5
347
100
AcDbEntity
  8
0
100
AcDbSpline
 62
9
  6
CONTINUOUS
 70
0
 71
3
 72
25
 73
21
 74
0
 42
0.0000001
 43
0.0000001
 44
0.0000000001
 40
0.0
 40
0.0
 40
0.0
 40
0.0
 40
0.1799312715
 40
0.3535408532
 40
0.4360692898
 40
0.5147778162
 40
0.5890079399
 40
0.6581626566
 40
0.7217243716
 40
0.779271049
 40
0.8305067913
 40
0.8753091647
 40
0.8953348192
 40
0.913827725
 40
0.930863273
 40
0.9465583451
 40
0.9610759353
 40
0.9746320505
 40
0.9874994026
 40
1.0
 40
1.0
 40
1.0
 40
1.0
 10
10.9227082324
 20
6.7693338432
 30
0.0
 10
10.9194493114
 20
6.7693246171
 30
0.0
 10
10.9130452179
 20
6.7691353814
 30
0.0
 10
10.9051705749
 20
6.7684671281
 30
0.0
 10
10.8991573987
 20
6.7676703268
 30
0.0
 10
10.8949500335
 20
6.766967162
 30
0.0
 10
10.8910091162
 20
6.7661555012
 30
0.0
 10
10.887372215
 20
6.765243293
 30
0.0
 10
10.884073839
 20
6.7642396306
 30
0.0
 10
10.8811445869
 20
6.7631542759
 30
0.0
 10
10.878611676
 20
6.7619976131
 30
0.0
 10
10.8767853076
 20
6.7609468921
 30
0.0
 10
10.8755561053
 20
6.7600694459
 30
0.0
 10
10.8747819977
 20
6.7594249349
 30
0.0
 10
10.8741225777
 20
6.7587703483
 30
0.0
 10
10.8735794419
 20
6.7581067326
 30
0.0
 10
10.8731541459
 20
6.7574350472
 30
0.0
 10
10.8728488368
 20
6.7567561328
 30
0.0
 10
10.8726653261
 20
6.7560721635
 30
0.0
 10
10.8726251536
 20
6.7556115632
 30
0.0
 10
10.8726259556
 20
6.7553851525
 30
0.0
  0
SPLINE
  5
348
100
AcDbEntity
  8
0
100
AcDbSpline
 62
9
  6
CONTINUOUS
 70
0
 71
3
 72
18
 73
14
 74
0
 42
0.0000001
 43
0.0000001
 44
0.0000000001
 40
0.0
 40
0.0
 40
0.0
 40
0.0
 40
0.1794707421
 40
0.3532693833
 40
0.5158591424
 40
0.6620301985
 40
0.7871139138
 40
0.840468288
 40
0.887112185
 40
0.9266709602
 40
0.9588327467
 40
0.9833372589
 40
1.0
 40
1.0
 40
1.0
 40
1.0
 10
11.0620020592
 20
8.3286828571
 30
0.0
 10
11.059631214
 20
8.3288290559
 30
0.0
 10
11.0549647638
 20
8.3291218987
 30
0.0
 10
11.0481515882
 20
8.3295647766
 30
0.0
 10
11.0417792489
 20
8.3299947058
 30
0.0
 10
11.0360513513
 20
8.3303978752
 30
0.0
 10
11.0317667692
 20
8.3307151964
 30
0.0
 10
11.0287968341
 20
8.3309478024
 30
0.0
 10
11.0269558997
 20
8.3310984387
 30
0.0
 10
11.0253951463
 20
8.3312335107
 30
0.0
 10
11.0241270145
 20
8.3313514508
 30
0.0
 10
11.0231617015
 20
8.3314516797
 30
0.0
 10
11.0226206082
 20
8.3315167731
 30
0.0
 10
11.0224024897
 20
8.3315493394
 30
0.0
  0
LINE
  5
349
100
AcDbEntity
  8
0
100
AcDbLine
 62
9
  6
CONTINUOUS
 10
11.0224024897
 20
8.3315493394
 11
11.022012264
 21
8.3316424626
  0
LINE
  5
34A
100
AcDbEntity
  8
0
100
AcDbLine
 62
9
  6
CONTINUOUS
 10
10.9187526138
 20
7.866330089
 11
10.9227082328
 21
6.7693339039
  0
LINE
  5
34B
100
AcDbEntity
  8
0
100
AcDbLine
 62
9
  6
CONTINUOUS
 10
10.9526764527
 20
6.7693339039
 11
10.9566320717
 21
7.866330089
  0
LINE
  5
34C
100
AcDbEntity
  8
0
100
AcDbLine
 62
9
  6
CONTINUOUS
 10
10.9227082328
 20
6.7693339039
 11
10.923021474
 21
6.5209803695
  0
LINE
  5
34D
100
AcDbEntity
  8
0
100
AcDbLine
 62
9
  6
CONTINUOUS
 10
10.9523632115
 20
6.5209803695
 11
10.9526764527
 21
6.7693339039
  0
LINE
  5
34E
100
AcDbEntity
  8
0
100
AcDbLine
 62
9
  6
CONTINUOUS
 10
10.923021474
 20
6.5209803695
 11
10.923101336
 21
6.4977079316
  0
LINE
  5
34F
100
AcDbEntity
  8
0
100
AcDbLine
 62
9
  6
CONTINUOUS
 10
10.9522833495
 20
6.4977079316
 11
10.9523632115
 21
6.5209803695
  0
ENDSEC
  0
SECTION
  2
OBJECTS
  0
DICTIONARY
  5
C
100
AcDbDictionary
280
0
281
1
  3
ACAD_GROUP
350
D
  3
ACAD_MLINESTYLE
350
17
  3
ACAD_LAYOUT
350
1A
  3
ACAD_PLOTSETTINGS
350
19
  3
ACAD_PLOTSTYLENAME
350
E
  0
DICTIONARY
  5
D
102
{ACAD_REACTORS
330
C
102
}
100
AcDbDictionary
280
0
281
1
  0
ACDBDICTIONARYWDFLT
  5
E
102
{ACAD_REACTORS
330
C
102
}
100
AcDbDictionary
281
1
  3
Normal
350
F
100
AcDbDictionaryWithDefault
340
F
  0
DICTIONARY
  5
17
102
{ACAD_REACTORS
330
C
102
}
100
AcDbDictionary
280
0
281
1
  3
Standard
350
18
  0
DICTIONARY
  5
19
102
{ACAD_REACTORS
330
C
102
}
100
AcDbDictionary
281
1
  0
DICTIONARY
  5
1A
102
{ACAD_REACTORS
330
C
102
}
100
AcDbDictionary
281
1
  3
Model
350
350
  3
Layout1
350
351
  0
ACDBPLACEHOLDER
  5
F
102
{ACAD_REACTORS
330
E
102
}
  0
MLINESTYLE
  5
18
102
{ACAD_REACTORS
330
17
102
}
100
AcDbMlineStyle
  2
STANDARD
 70
0
  3

 62
256
 51
90.0
 52
90.0
 71
2
 49
0.5
 62
256
  6
BYLAYER
 49
-0.5
 62
256
  6
BYLAYER
  0
LAYOUT
  5
350
102
{ACAD_REACTORS
330
1A
102
}
100
AcDbPlotSettings
  1

  2
none_device
  4
ANSI_C_(22.00_x_17.00_Inches)
  6

 40
0.0
 41
0.0
 42
0.0
 43
0.0
 44
558.8
 45
431.8
 46
0.0
 47
0.0
 48
0.0
 49
0.0
140
0.0
141
0.0
142
1.0
143
1.0
 70
1024
 72
0
 73
0
 74
0
  7

 75
0
147
1.0
148
0.0
149
0.0
100
AcDbLayout
  1
Model
 70
0
 71
0
 10
0.0
 20
0.0
 11
22.0
 21
17.0
 12
0.0
 22
0.0
 32
0.0
 14
0.0
 24
0.0
 34
0.0
 15
0.0
 25
0.0
 35
0.0
146
0.0
 13
0.0
 23
0.0
 33
0.0
 16
1.0
 26
0.0
 36
0.0
 17
0.0
 27
1.0
 37
0.0
 76
0
330
205
345
0
346
0
  0
LAYOUT
  5
351
102
{ACAD_REACTORS
330
1A
102
}
100
AcDbPlotSettings
  1

  2
none_device
  4
ANSI_C_(22.00_x_17.00_Inches)
  6

 40
0.0
 41
0.0
 42
0.0
 43
0.0
 44
558.8
 45
431.8
 46
0.0
 47
0.0
 48
0.0
 49
0.0
140
0.0
141
0.0
142
1.0
143
1.0
 70
0
 72
0
 73
0
 74
0
  7

 75
0
147
1.0
148
0.0
149
0.0
100
AcDbLayout
  1
Layout1
 70
0
 71
1
 10
0.0
 20
0.0
 11
22.0
 21
17.0
 12
0.0
 22
0.0
 32
0.0
 14
0.0
 24
0.0
 34
0.0
 15
0.0
 25
0.0
 35
0.0
146
0.0
 13
0.0
 23
0.0
 33
0.0
 16
1.0
 26
0.0
 36
0.0
 17
0.0
 27
1.0
 37
0.0
 76
0
330
206
345
0
346
0
  0
ENDSEC
  0
EOF
