999
DXF file: E:\BT Custom\CADOUTPUT\_TOP.dxf
999
Pro/ENGINEER 2018400 by Parametric Technology Corporation
  0
SECTION
  2
HEADER
  9
$ACADVER
  1
AC1018
  9
$DWGCODEPAGE
  3
ANSI_1252
  9
$EXTMAX
 10
22.0
 20
17.0
 30
0.0
  9
$EXTMIN
 10
0.0
 20
0.0
 30
0.0
  9
$LIMMIN
 10
0.0
 20
0.0
  9
$LIMMAX
 10
22.0
 20
17.0
  9
$VIEWCTR
 10
11.0
 20
8.5
  9
$VIEWSIZE
 40
17.0
  9
$CLAYER
  8
0
  9
$LTSCALE
 40
1.21
  9
$CELTYPE
  6
BYLAYER
  9
$DIMSCALE
 40
1.0
  9
$DIMASZ
 40
0.1
  9
$DIMEXO
 40
0.0625
  9
$DIMDLI
 40
0.836
  9
$DIMEXE
 40
0.125
  9
$DIMCEN
 40
0.198
  9
$DIMLFAC
 40
1.0
  9
$DIMBLK
  1
_FILLED
  9
$DIMALT
 70
1
  9
$DIMALTD
 70
2
  9
$DIMALTTD
 70
2
  9
$DIMALTF
 40
25.4
  9
$DIMTXT
 40
0.08
  9
$DIMTOL
 70
1
  9
$DIMLIM
 70
0
  9
$DIMTFAC
 40
1.0
  9
$DIMTP
 40
0.001
  9
$DIMTM
 40
0.001
  9
$DIMGAP
 40
0.09
  9
$DIMDSEP
 70
46
  9
$AUNITS
 70
0
  9
$PDMODE
 70
3
  9
$PDSIZE
 40
0.06
  9
$HANDSEED
  5
274
  9
$TILEMODE
 70
1
  9
$MEASUREMENT
 70
0
  9
$INSUNITS
 70
1
  0
ENDSEC
  0
SECTION
  2
CLASSES
  0
CLASS
  1
ACDBDICTIONARYWDFLT
  2
AcDbDictionaryWithDefault
  3
AutoCAD 2000
 90
0
 91
1
280
0
281
0
  0
CLASS
  1
ACDBPLACEHOLDER
  2
AcDbPlaceHolder
  3
AutoCAD 2000
 90
0
 91
1
280
0
281
0
  0
CLASS
  1
LAYOUT
  2
AcDbLayout
  3
AutoCAD 2000
 90
0
 91
0
280
0
281
0
  0
ENDSEC
  0
SECTION
  2
TABLES
  0
TABLE
  2
VPORT
  5
8
100
AcDbSymbolTable
 70
2
  0
VPORT
  5
1F4
100
AcDbSymbolTableRecord
100
AcDbViewportTableRecord
  2
*ACTIVE
 70
0
 10
0.0
 20
0.0
 11
1.0
 21
1.0
 12
11.0
 22
8.5
 13
0.0
 23
0.0
 14
1.0
 24
1.0
 15
0.0
 25
0.0
 16
0.0
 26
0.0
 36
1.0
 17
0.0
 27
0.0
 37
0.0
 40
17.0
 41
1.2941176471
 42
50.0
 43
0.0
 44
0.0
 50
0.0
 51
0.0
 71
0
 72
100
 73
1
 74
1
 75
0
 76
0
 77
0
 78
0
  0
ENDTAB
  0
TABLE
  2
LTYPE
  5
5
100
AcDbSymbolTable
 70
6
  0
LTYPE
  5
14
100
AcDbSymbolTableRecord
100
AcDbLinetypeTableRecord
  2
BYBLOCK
 70
0
  3

 72
65
 73
0
 40
0.0
  0
LTYPE
  5
15
100
AcDbSymbolTableRecord
100
AcDbLinetypeTableRecord
  2
BYLAYER
 70
0
  3

 72
65
 73
0
 40
0.0
  0
LTYPE
  5
16
100
AcDbSymbolTableRecord
100
AcDbLinetypeTableRecord
  2
CONTINUOUS
 70
64
  3
Solid line
 72
65
 73
0
 40
0.0
  0
LTYPE
  5
1F5
100
AcDbSymbolTableRecord
100
AcDbLinetypeTableRecord
  2
CENTER
 70
64
  3
____ _ ____ _ ____ _ ____ _ ____ _ ____ _ ____
 72
65
 73
4
 40
0.6
 49
0.375
 74
0
 49
-0.075
 74
0
 49
0.075
 74
0
 49
-0.075
 74
0
  0
LTYPE
  5
1F6
100
AcDbSymbolTableRecord
100
AcDbLinetypeTableRecord
  2
HIDDEN
 70
64
  3
- - - - - - - - - - - - - - - - - - - -
 72
65
 73
2
 40
0.2
 49
0.1
 74
0
 49
-0.1
 74
0
  0
LTYPE
  5
1F7
100
AcDbSymbolTableRecord
100
AcDbLinetypeTableRecord
  2
PHANTOM
 70
64
  3
_____ _ _ _____ _ _ _____ _ _ _____
 72
65
 73
6
 40
0.8
 49
0.45
 74
0
 49
-0.05
 74
0
 49
0.1
 74
0
 49
-0.05
 74
0
 49
0.1
 74
0
 49
-0.05
 74
0
  0
LTYPE
  5
1F8
100
AcDbSymbolTableRecord
100
AcDbLinetypeTableRecord
  2
DOT
 70
64
  3
. . . . . . . . . . . . . . . . . . . .
 72
65
 73
2
 40
0.2
 49
0.1
 74
0
 49
-0.1
 74
0
  0
LTYPE
  5
1F9
100
AcDbSymbolTableRecord
100
AcDbLinetypeTableRecord
  2
DASHED
 70
64
  3
- - - - - - - - - - - - - - - - - - - -
 72
65
 73
2
 40
0.2
 49
0.1
 74
0
 49
-0.1
 74
0
  0
ENDTAB
  0
TABLE
  2
LAYER
  5
2
100
AcDbSymbolTable
 70
36
  0
LAYER
  5
10
100
AcDbSymbolTableRecord
100
AcDbLayerTableRecord
  2
0
 70
0
 62
7
  6
CONTINUOUS
370
-3
390
F
  0
LAYER
  5
1FA
100
AcDbSymbolTableRecord
100
AcDbLayerTableRecord
  2
DEFAULT_1
 70
0
 62
7
  6
CENTER
370
-3
390
F
  0
LAYER
  5
1FB
100
AcDbSymbolTableRecord
100
AcDbLayerTableRecord
  2
DEFAULT_2
 70
0
 62
8
  6
HIDDEN
370
-3
390
F
  0
LAYER
  5
1FC
100
AcDbSymbolTableRecord
100
AcDbLayerTableRecord
  2
DEFAULT_3
 70
0
 62
7
  6
PHANTOM
370
-3
390
F
  0
LAYER
  5
1FD
100
AcDbSymbolTableRecord
100
AcDbLayerTableRecord
  2
ALL_FEATURES
 70
0
 62
7
  6
CONTINUOUS
370
-3
390
F
  0
LAYER
  5
1FE
100
AcDbSymbolTableRecord
100
AcDbLayerTableRecord
  2
AXES_FEATURES
 70
0
 62
7
  6
CONTINUOUS
370
-3
390
F
  0
LAYER
  5
1FF
100
AcDbSymbolTableRecord
100
AcDbLayerTableRecord
  2
DEFAULT_COORDINATE_SYSTEM
 70
0
 62
7
  6
CONTINUOUS
370
-3
390
F
  0
LAYER
  5
200
100
AcDbSymbolTableRecord
100
AcDbLayerTableRecord
  2
DEFAULT_DATUM_AXES
 70
0
 62
7
  6
CONTINUOUS
370
-3
390
F
  0
LAYER
  5
201
100
AcDbSymbolTableRecord
100
AcDbLayerTableRecord
  2
DEFAULT_DATUM_PLANES
 70
0
 62
7
  6
CONTINUOUS
370
-3
390
F
  0
LAYER
  5
202
100
AcDbSymbolTableRecord
100
AcDbLayerTableRecord
  2
DIMENSIONS
 70
0
 62
7
  6
CONTINUOUS
370
-3
390
F
  0
ENDTAB
  0
TABLE
  2
STYLE
  5
3
100
AcDbSymbolTable
 70
1
  0
STYLE
  5
11
100
AcDbSymbolTableRecord
100
AcDbTextStyleTableRecord
  2
STANDARD
 70
0
 40
0.0
 41
0.8
 50
0.0
 71
0
 42
0.2
  3
txt
  4

  0
STYLE
  5
203
100
AcDbSymbolTableRecord
100
AcDbTextStyleTableRecord
  2
TEXTSTYLE_1
 70
0
 40
0.0
 41
0.8
 50
0.0
 71
0
 42
0.2
  3
gdt
  4

  0
ENDTAB
  0
TABLE
  2
VIEW
  5
6
100
AcDbSymbolTable
 70
0
  0
ENDTAB
  0
TABLE
  2
UCS
  5
7
100
AcDbSymbolTable
 70
0
  0
ENDTAB
  0
TABLE
  2
APPID
  5
9
100
AcDbSymbolTable
 70
1
  0
APPID
  5
204
100
AcDbSymbolTableRecord
100
AcDbRegAppTableRecord
  2
ACAD
 70
0
  0
ENDTAB
  0
TABLE
  2
BLOCK_RECORD
  5
1
100
AcDbSymbolTable
 70
0
  0
BLOCK_RECORD
  5
205
100
AcDbSymbolTableRecord
100
AcDbBlockTableRecord
  2
*Model_Space
  0
BLOCK_RECORD
  5
206
100
AcDbSymbolTableRecord
100
AcDbBlockTableRecord
  2
*Paper_Space
  0
BLOCK_RECORD
  5
207
100
AcDbSymbolTableRecord
100
AcDbBlockTableRecord
  2
_FILLED
  0
ENDTAB
  0
TABLE
  2
DIMSTYLE
  5
A
100
AcDbSymbolTable
 70
1
100
AcDbDimStyleTable
 71
0
  0
DIMSTYLE
105
208
100
AcDbSymbolTableRecord
100
AcDbDimStyleTableRecord
  2
STANDARD
 70
0
  3

  4

 40
1.0
 41
0.1
 42
0.0625
 43
0.38
 44
0.125
 45
0.0
 46
0.0
 47
0.001
 48
0.001
140
0.08
141
0.09
142
0.0
143
25.4
144
1.0
145
0.0
146
1.0
147
0.09
 71
1.0
 72
0.0
 73
1
 74
1
 75
0
 76
0
 77
0
 78
4
 79
1
170
1
171
2
172
0
173
0
174
0
175
0
176
0
177
0
178
0
270
2
179
3
271
3
272
3
273
2
274
2
275
0
280
0
281
0
282
0
283
1
284
4
285
0
286
0
287
3
288
0
340
11
278
46
341
207
342
207
343
207
344
207
  0
ENDTAB
  0
ENDSEC
  0
SECTION
  2
BLOCKS
  0
BLOCK
  5
20
100
AcDbEntity
  8
0
100
AcDbBlockBegin
  2
*Model_Space
 70
0
 10
0.0
 20
0.0
 30
0.0
  3
*Model_Space
  1

  0
ENDBLK
  5
21
100
AcDbEntity
  8
0
100
AcDbBlockEnd
  0
BLOCK
  5
1C
100
AcDbEntity
  8
0
100
AcDbBlockBegin
  2
*Paper_Space
 70
0
 10
0.0
 20
0.0
 30
0.0
  3
*Paper_Space
  1

  0
ENDBLK
  5
1D
100
AcDbEntity
  8
0
100
AcDbBlockEnd
  0
BLOCK
  5
209
100
AcDbEntity
  8
0
100
AcDbBlockBegin
  2
_FILLED
 70
64
 10
0.0
 20
0.0
  3
_FILLED
  1

  0
SOLID
  5
20A
100
AcDbEntity
  8
0
  6
BYBLOCK
 62
0
100
AcDbTrace
 10
0.0
 20
0.0
 11
-1.0
 21
0.2
 12
-1.0
 22
-0.2
 13
-1.0
 23
-0.2
  0
ENDBLK
  5
20B
100
AcDbEntity
  8
0
  6
BYBLOCK
 62
0
100
AcDbBlockEnd
  0
ENDSEC
  0
SECTION
  2
ENTITIES
  0
LINE
  5
20C
100
AcDbEntity
  8
0
100
AcDbLine
 62
7
  6
CONTINUOUS
 10
7.6723183383
 20
8.7823361161
 11
7.6723183383
 21
8.9823361161
  0
LINE
  5
20D
100
AcDbEntity
  8
0
100
AcDbLine
 62
7
  6
CONTINUOUS
 10
7.7973183383
 20
8.7823361161
 11
7.7973183383
 21
8.6693361161
  0
LINE
  5
20E
100
AcDbEntity
  8
0
100
AcDbLine
 62
9
  6
CONTINUOUS
 10
8.0873183383
 20
8.6693361161
 11
8.0873183383
 21
8.9823361161
  0
LINE
  5
20F
100
AcDbEntity
  8
0
100
AcDbLine
 62
9
  6
CONTINUOUS
 10
8.1323183383
 20
8.9823361161
 11
8.1323183383
 21
8.6693361161
  0
LINE
  5
210
100
AcDbEntity
  8
0
100
AcDbLine
 62
7
  6
CONTINUOUS
 10
8.1723183383
 20
8.7823361161
 11
8.1723183383
 21
8.9823361161
  0
LINE
  5
211
100
AcDbEntity
  8
0
100
AcDbLine
 62
7
  6
CONTINUOUS
 10
8.2973183383
 20
8.7823361161
 11
8.2973183383
 21
8.6693361161
  0
LINE
  5
212
100
AcDbEntity
  8
0
100
AcDbLine
 62
9
  6
CONTINUOUS
 10
8.5873183383
 20
8.6693361161
 11
8.5873183383
 21
8.9823361161
  0
LWPOLYLINE
  5
213
100
AcDbEntity
  8
0
100
AcDbPolyline
 62
7
  6
CONTINUOUS
 90
35
 70
0
 10
11.0622411036
 20
5.9823276949
 10
11.0636113366
 20
5.9823464733
 10
11.0673126345
 20
5.982585555
 10
11.0708966549
 20
5.9830825513
 10
11.0743506142
 20
5.9838161987
 10
11.077664347
 20
5.9847658117
 10
11.080830025
 20
5.9859114725
 10
11.0838418848
 20
5.9872341772
 10
11.0866959538
 20
5.9887159345
 10
11.0893898147
 20
5.9903398399
 10
11.0919223772
 20
5.9920901188
 10
11.0942936642
 20
5.9939521434
 10
11.0965046131
 20
5.9959124281
 10
11.0985567819
 20
5.9979584844
 10
11.1004512053
 20
6.000077547
 10
11.1021891843
 20
6.0022569579
 10
11.1037728662
 20
6.0044847868
 10
11.1052051361
 20
6.0067498592
 10
11.1064895
 20
6.0090417494
 10
11.1076299498
 20
6.0113506919
 10
11.1086309116
 20
6.013667592
 10
11.1094946433
 20
6.0159766691
 10
11.1102201807
 20
6.0182453996
 10
11.1108116239
 20
6.0204418953
 10
11.1112770564
 20
6.0225333145
 10
11.1116292699
 20
6.0244928486
 10
11.1118794873
 20
6.0262630229
 10
11.1120427442
 20
6.0277677439
 10
11.1121390049
 20
6.0289331704
 10
11.1121947205
 20
6.0298049901
 10
11.1122291081
 20
6.0304795772
 10
11.112252732
 20
6.031042663
 10
11.1122708132
 20
6.0315532009
 10
11.1122858403
 20
6.0320462377
 10
11.1123112897
 20
6.0330617575
  0
LINE
  5
214
100
AcDbEntity
  8
0
100
AcDbLine
 62
7
  6
CONTINUOUS
 10
11.0622410895
 20
5.9823276047
 11
11.0323955871
 21
5.9823276047
  0
LINE
  5
215
100
AcDbEntity
  8
0
100
AcDbLine
 62
9
  6
CONTINUOUS
 10
11.0623024482
 20
5.9899470208
 11
11.0323342283
 21
5.9899470208
  0
LINE
  5
216
100
AcDbEntity
  8
0
100
AcDbLine
 62
7
  6
CONTINUOUS
 10
11.3908183309
 20
6.2183361161
 11
10.7038183456
 21
6.2183361161
  0
LINE
  5
217
100
AcDbEntity
  8
0
100
AcDbLine
 62
9
  6
CONTINUOUS
 10
11.4408183383
 20
6.2683361161
 11
10.6538183383
 21
6.2683361161
  0
LINE
  5
218
100
AcDbEntity
  8
0
100
AcDbLine
 62
9
  6
CONTINUOUS
 10
11.4408183383
 20
6.2773361161
 11
10.6538183383
 21
6.2773361161
  0
LWPOLYLINE
  5
219
100
AcDbEntity
  8
0
100
AcDbPolyline
 62
7
  6
CONTINUOUS
 90
22
 70
0
 10
10.9536746201
 20
6.082939001
 10
10.9564222581
 20
6.0820217135
 10
10.9590218497
 20
6.0809421056
 10
10.9614701952
 20
6.0797198071
 10
10.9637659493
 20
6.0783730553
 10
10.9659093185
 20
6.0769186447
 10
10.9679017588
 20
6.0753719303
 10
10.9697457387
 20
6.0737468376
 10
10.9714445181
 20
6.0720558967
 10
10.9730019446
 20
6.0703102999
 10
10.9744223059
 20
6.0685199336
 10
10.9757095662
 20
6.0666943512
 10
10.9768672475
 20
6.0648433938
 10
10.9778993683
 20
6.0629760892
 10
10.9788103588
 20
6.0611006321
 10
10.9796049148
 20
6.0592245185
 10
10.9802879381
 20
6.0573545662
 10
10.9808627452
 20
6.05550304
 10
10.9813257528
 20
6.0537166703
 10
10.9816803559
 20
6.0520448553
 10
10.9819361077
 20
6.0505394042
 10
10.9821073385
 20
6.0492547041
  0
LWPOLYLINE
  5
21A
100
AcDbEntity
  8
0
100
AcDbPolyline
 62
7
  6
CONTINUOUS
 90
3
 70
0
 10
10.9489156444
 20
6.0844497199
 10
10.9519672701
 20
6.083428074
 10
10.9536746201
 20
6.082939001
  0
LINE
  5
21B
100
AcDbEntity
  8
0
100
AcDbLine
 62
7
  6
CONTINUOUS
 10
10.6053189485
 20
6.3173361161
 11
11.4893177283
 21
6.3173361161
  0
LINE
  5
21C
100
AcDbEntity
  8
0
100
AcDbLine
 62
9
  6
CONTINUOUS
 10
10.5553183383
 20
6.3673361161
 11
11.5393183383
 21
6.3673361161
  0
LINE
  5
21D
100
AcDbEntity
  8
0
100
AcDbLine
 62
9
  6
CONTINUOUS
 10
11.5393183383
 20
6.4633361161
 11
10.5553183383
 21
6.4633361161
  0
LINE
  5
21E
100
AcDbEntity
  8
0
100
AcDbLine
 62
7
  6
CONTINUOUS
 10
11.4893177283
 20
6.5133361161
 11
10.6053189485
 21
6.5133361161
  0
LINE
  5
21F
100
AcDbEntity
  8
0
100
AcDbLine
 62
9
  6
CONTINUOUS
 10
10.6538183383
 20
6.5533361161
 11
11.4408183383
 21
6.5533361161
  0
LINE
  5
220
100
AcDbEntity
  8
0
100
AcDbLine
 62
9
  6
CONTINUOUS
 10
10.6538183383
 20
6.5623361161
 11
11.4408183383
 21
6.5623361161
  0
LINE
  5
221
100
AcDbEntity
  8
0
100
AcDbLine
 62
7
  6
CONTINUOUS
 10
11.3907779063
 20
6.6123361161
 11
10.7038191142
 21
6.6123361161
  0
LINE
  5
222
100
AcDbEntity
  8
0
100
AcDbLine
 62
7
  6
CONTINUOUS
 10
10.3473183383
 20
8.6693361161
 11
10.3473183383
 21
8.6093361161
  0
LINE
  5
223
100
AcDbEntity
  8
0
100
AcDbLine
 62
7
  6
CONTINUOUS
 10
10.5553183383
 20
6.4633361161
 11
10.5553183383
 21
6.3673361161
  0
LINE
  5
224
100
AcDbEntity
  8
0
100
AcDbLine
 62
7
  6
CONTINUOUS
 10
11.3818183383
 20
6.8083361161
 11
10.7128183383
 21
6.8083361161
  0
LINE
  5
225
100
AcDbEntity
  8
0
100
AcDbLine
 62
7
  6
CONTINUOUS
 10
11.3818183383
 20
6.8883361161
 11
10.7128183383
 21
6.8883361161
  0
LINE
  5
226
100
AcDbEntity
  8
0
100
AcDbLine
 62
7
  6
CONTINUOUS
 10
10.6968183383
 20
6.9193361161
 11
11.3978183383
 21
6.9193361161
  0
LINE
  5
227
100
AcDbEntity
  8
0
100
AcDbLine
 62
7
  6
CONTINUOUS
 10
10.6538183383
 20
6.5623361161
 11
10.6538183383
 21
6.5533361161
  0
LINE
  5
228
100
AcDbEntity
  8
0
100
AcDbLine
 62
7
  6
CONTINUOUS
 10
10.6538183383
 20
6.2773361161
 11
10.6538183383
 21
6.2683361161
  0
LINE
  5
229
100
AcDbEntity
  8
0
100
AcDbLine
 62
7
  6
CONTINUOUS
 10
10.7323183383
 20
6.6123361161
 11
10.7323183383
 21
6.8083361161
  0
LINE
  5
22A
100
AcDbEntity
  8
0
100
AcDbLine
 62
7
  6
CONTINUOUS
 10
10.7943183383
 20
6.9193361161
 11
10.7943183383
 21
6.8883361161
  0
LWPOLYLINE
  5
22B
100
AcDbEntity
  8
0
100
AcDbPolyline
 62
7
  6
CONTINUOUS
 90
28
 70
0
 10
10.9162613036
 20
6.130625288
 10
10.9162948545
 20
6.1297869318
 10
10.9163427829
 20
6.1288501049
 10
10.9164189147
 20
6.1277200233
 10
10.9165408541
 20
6.1263608011
 10
10.9167247448
 20
6.1248004096
 10
10.9169836157
 20
6.1230826009
 10
10.9173270422
 20
6.1212489426
 10
10.917761172
 20
6.1193358948
 10
10.918294291
 20
6.1173565863
 10
10.9189327894
 20
6.1153268499
 10
10.9196789986
 20
6.113268983
 10
10.9205307605
 20
6.1112085832
 10
10.9214896051
 20
6.1091554875
 10
10.9225612458
 20
6.107110276
 10
10.9237510174
 20
6.1050762955
 10
10.9250646096
 20
6.1030577515
 10
10.9265079654
 20
6.1010598719
 10
10.9280871209
 20
6.0990890941
 10
10.9298070608
 20
6.0971542344
 10
10.9316714929
 20
6.0952660958
 10
10.9336834784
 20
6.0934363879
 10
10.9358453378
 20
6.0916777008
 10
10.9381585231
 20
6.0900034985
 10
10.9406234838
 20
6.0884280979
 10
10.9432395416
 20
6.0869666242
 10
10.9460047314
 20
6.0856349685
 10
10.9489156444
 20
6.0844497199
  0
LWPOLYLINE
  5
22C
100
AcDbEntity
  8
0
100
AcDbPolyline
 62
7
  6
CONTINUOUS
 90
33
 70
0
 10
10.9823685845
 20
6.0314710572
 10
10.9823875082
 20
6.0309509881
 10
10.9824126203
 20
6.0303712013
 10
10.9824487219
 20
6.0296870351
 10
10.9825049799
 20
6.0288325136
 10
10.982597214
 20
6.0277328545
 10
10.9827451169
 20
6.026361611
 10
10.9829693165
 20
6.0247355836
 10
10.9832858208
 20
6.0229092925
 10
10.983704868
 20
6.0209434516
 10
10.9842364764
 20
6.0188732977
 10
10.9848872001
 20
6.0167320966
 10
10.9856560695
 20
6.0145612466
 10
10.9865427126
 20
6.0123850125
 10
10.9875574429
 20
6.010198292
 10
10.9887113478
 20
6.0080000591
 10
10.9900171019
 20
6.0057911044
 10
10.9914885911
 20
6.0035748391
 10
10.9931362317
 20
6.0013632573
 10
10.9949649322
 20
5.9991761419
 10
10.9969774779
 20
5.9970342902
 10
10.9991746856
 20
5.9949588929
 10
11.00155746
 20
5.992969652
 10
11.0041267856
 20
5.9910855863
 10
11.0068820234
 20
5.9893266858
 10
11.0098206588
 20
5.9877138592
 10
11.0129380941
 20
5.9862688015
 10
11.016227445
 20
5.9850138304
 10
11.0196793546
 20
5.983971683
 10
11.0232817923
 20
5.9831652901
 10
11.0270198727
 20
5.9826175062
 10
11.0308756988
 20
5.9823507997
 10
11.032395573
 20
5.9823276949
  0
LINE
  5
22D
100
AcDbEntity
  8
0
100
AcDbLine
 62
7
  6
CONTINUOUS
 10
10.9135724387
 20
6.2183361161
 11
10.9145254063
 21
6.1904256624
  0
LINE
  5
22E
100
AcDbEntity
  8
0
100
AcDbLine
 62
7
  6
CONTINUOUS
 10
10.9145254063
 20
6.1904256624
 11
10.9162613036
 21
6.130625288
  0
LINE
  5
22F
100
AcDbEntity
  8
0
100
AcDbLine
 62
7
  6
CONTINUOUS
 10
10.9823393911
 20
6.0324722066
 11
10.9823685845
 21
6.0314710572
  0
LWPOLYLINE
  5
230
100
AcDbEntity
  8
0
100
AcDbPolyline
 62
7
  6
CONTINUOUS
 90
4
 70
0
 10
10.9791365933
 20
6.2183361161
 10
10.9799057151
 20
6.1865401729
 10
10.9806927814
 20
6.1453815137
 10
10.9814791494
 20
6.0954790497
  0
LINE
  5
231
100
AcDbEntity
  8
0
100
AcDbLine
 62
7
  6
CONTINUOUS
 10
10.9823150996
 20
6.0335477884
 11
10.9823393911
 21
6.0324722066
  0
LINE
  5
232
100
AcDbEntity
  8
0
100
AcDbLine
 62
7
  6
CONTINUOUS
 10
10.9822815631
 20
6.0354818975
 11
10.9823150996
 21
6.0335477884
  0
LINE
  5
233
100
AcDbEntity
  8
0
100
AcDbLine
 62
7
  6
CONTINUOUS
 10
10.9814791494
 20
6.0954790497
 11
10.9822815631
 21
6.0354818975
  0
LINE
  5
234
100
AcDbEntity
  8
0
100
AcDbLine
 62
7
  6
CONTINUOUS
 10
11.3003183383
 20
6.9193361161
 11
11.3003183383
 21
6.8883361161
  0
LWPOLYLINE
  5
235
100
AcDbEntity
  8
0
100
AcDbPolyline
 62
7
  6
CONTINUOUS
 90
4
 70
0
 10
11.1131568577
 20
6.0954327733
 10
11.1139432162
 20
6.1453422411
 10
11.1147302798
 20
6.1865082836
 10
11.115499998
 20
6.2183361161
  0
LINE
  5
236
100
AcDbEntity
  8
0
100
AcDbLine
 62
7
  6
CONTINUOUS
 10
11.1123447691
 20
6.0348252194
 11
11.1131568577
 21
6.0954327733
  0
LINE
  5
237
100
AcDbEntity
  8
0
100
AcDbLine
 62
7
  6
CONTINUOUS
 10
11.1123112897
 20
6.0330617575
 11
11.1123447691
 21
6.0348252194
  0
LINE
  5
238
100
AcDbEntity
  8
0
100
AcDbLine
 62
7
  6
CONTINUOUS
 10
11.1801127078
 20
6.1904714971
 11
11.1810642517
 21
6.2183361161
  0
LINE
  5
239
100
AcDbEntity
  8
0
100
AcDbLine
 62
7
  6
CONTINUOUS
 10
11.1125408286
 20
6.0493377096
 11
11.1126999521
 21
6.0505352946
  0
LINE
  5
23A
100
AcDbEntity
  8
0
100
AcDbLine
 62
7
  6
CONTINUOUS
 10
11.3623183383
 20
6.6123361161
 11
11.3623183383
 21
6.8083361161
  0
LINE
  5
23B
100
AcDbEntity
  8
0
100
AcDbLine
 62
7
  6
CONTINUOUS
 10
11.4408183383
 20
6.5623361161
 11
11.4408183383
 21
6.5533361161
  0
LINE
  5
23C
100
AcDbEntity
  8
0
100
AcDbLine
 62
7
  6
CONTINUOUS
 10
11.4408183383
 20
6.2773361161
 11
11.4408183383
 21
6.2683361161
  0
LINE
  5
23D
100
AcDbEntity
  8
0
100
AcDbLine
 62
7
  6
CONTINUOUS
 10
11.5393183383
 20
6.4633361161
 11
11.5393183383
 21
6.3673361161
  0
LWPOLYLINE
  5
23E
100
AcDbEntity
  8
0
100
AcDbPolyline
 62
7
  6
CONTINUOUS
 90
19
 70
0
 10
11.1126999521
 20
6.0505352946
 10
11.1129694839
 20
6.0521138913
 10
11.1133504514
 20
6.0538835185
 10
11.1138479495
 20
6.0557603584
 10
11.1144681435
 20
6.0577032788
 10
11.1152236482
 20
6.0597027648
 10
11.1161260015
 20
6.0617455613
 10
11.1171851951
 20
6.0638154804
 10
11.1184087478
 20
6.0658932241
 10
11.1198021543
 20
6.0679585644
 10
11.1213686438
 20
6.0699905399
 10
11.1231109695
 20
6.0719698333
 10
11.1250347763
 20
6.0738810139
 10
11.1271455007
 20
6.0757073796
 10
11.1294474978
 20
6.0774300864
 10
11.1319436635
 20
6.0790280648
 10
11.1346350344
 20
6.0804779946
 10
11.1375203058
 20
6.0817543047
 10
11.140595292
 20
6.0828292427
  0
LINE
  5
23F
100
AcDbEntity
  8
0
100
AcDbLine
 62
7
  6
CONTINUOUS
 10
11.7473183383
 20
8.6693361161
 11
11.7473183383
 21
8.6093361161
  0
LINE
  5
240
100
AcDbEntity
  8
0
100
AcDbLine
 62
7
  6
CONTINUOUS
 10
11.7073183383
 20
8.5693361161
 11
10.3873183383
 21
8.5693361161
  0
LINE
  5
241
100
AcDbEntity
  8
0
100
AcDbLine
 62
9
  6
CONTINUOUS
 10
10.3473183383
 20
8.6093361161
 11
11.7473183383
 21
8.6093361161
  0
LINE
  5
242
100
AcDbEntity
  8
0
100
AcDbLine
 62
7
  6
CONTINUOUS
 10
14.2973183383
 20
8.6693361161
 11
7.7973183383
 21
8.6693361161
  0
LWPOLYLINE
  5
243
100
AcDbEntity
  8
0
100
AcDbPolyline
 62
7
  6
CONTINUOUS
 90
29
 70
0
 10
11.142773432
 20
6.0834593388
 10
11.1459122222
 20
6.0845210921
 10
11.1488951745
 20
6.0857528329
 10
11.1517191843
 20
6.0871355708
 10
11.1543828093
 20
6.0886515456
 10
11.1568860203
 20
6.0902842711
 10
11.1592299617
 20
6.0920185456
 10
11.161416736
 20
6.0938404391
 10
11.1634492266
 20
6.0957372781
 10
11.1653309243
 20
6.0976976066
 10
11.1670657706
 20
6.0997111338
 10
11.1686580098
 20
6.1017686574
 10
11.1701114767
 20
6.1038610879
 10
11.1714298003
 20
6.1059793543
 10
11.1726170204
 20
6.1081151913
 10
11.1736775038
 20
6.110261148
 10
11.1746158309
 20
6.1124105136
 10
11.1754366348
 20
6.1145570299
 10
11.1761442698
 20
6.1166937554
 10
11.1767384918
 20
6.118795318
 10
11.1772202167
 20
6.1208251615
 10
11.1775958297
 20
6.1227492368
 10
11.1778754401
 20
6.1245321065
 10
11.178074356
 20
6.1261554983
 10
11.1782060491
 20
6.1275708012
 10
11.1782881761
 20
6.1287528514
 10
11.1783393061
 20
6.1297311944
 10
11.1783746597
 20
6.1306053648
 10
11.1801127078
 20
6.1904714971
  0
LINE
  5
244
100
AcDbEntity
  8
0
100
AcDbLine
 62
7
  6
CONTINUOUS
 10
11.140595292
 20
6.0828292427
 11
11.142773432
 21
6.0834593388
  0
LINE
  5
245
100
AcDbEntity
  8
0
100
AcDbLine
 62
7
  6
CONTINUOUS
 10
14.4223183383
 20
8.7823361161
 11
7.6723183383
 21
8.7823361161
  0
LINE
  5
246
100
AcDbEntity
  8
0
100
AcDbLine
 62
7
  6
CONTINUOUS
 10
7.6723183383
 20
8.9823361161
 11
14.4223183383
 21
8.9823361161
  0
LINE
  5
247
100
AcDbEntity
  8
0
100
AcDbLine
 62
9
  6
CONTINUOUS
 10
13.5073183383
 20
8.6693361161
 11
13.5073183383
 21
8.9823361161
  0
LINE
  5
248
100
AcDbEntity
  8
0
100
AcDbLine
 62
7
  6
CONTINUOUS
 10
13.7973183383
 20
8.7823361161
 11
13.7973183383
 21
8.6693361161
  0
LINE
  5
249
100
AcDbEntity
  8
0
100
AcDbLine
 62
7
  6
CONTINUOUS
 10
13.9223183383
 20
8.7823361161
 11
13.9223183383
 21
8.9823361161
  0
LINE
  5
24A
100
AcDbEntity
  8
0
100
AcDbLine
 62
9
  6
CONTINUOUS
 10
13.9623183383
 20
8.9823361161
 11
13.9623183383
 21
8.6693361161
  0
LINE
  5
24B
100
AcDbEntity
  8
0
100
AcDbLine
 62
9
  6
CONTINUOUS
 10
14.0073183383
 20
8.6693361161
 11
14.0073183383
 21
8.9823361161
  0
LINE
  5
24C
100
AcDbEntity
  8
0
100
AcDbLine
 62
7
  6
CONTINUOUS
 10
14.2973183383
 20
8.7823361161
 11
14.2973183383
 21
8.6693361161
  0
LINE
  5
24D
100
AcDbEntity
  8
0
100
AcDbLine
 62
7
  6
CONTINUOUS
 10
14.4223183383
 20
8.7823361161
 11
14.4223183383
 21
8.9823361161
  0
ARC
  5
24E
100
AcDbEntity
  8
0
100
AcDbCircle
 62
9
  6
CONTINUOUS
 10
-2.0259323271
 20
5.8536594857
 40
12.9809229273
100
AcDbArc
 50
1.0291931908
 51
1.6143759345
  0
ARC
  5
24F
100
AcDbEntity
  8
0
100
AcDbCircle
 62
9
  6
CONTINUOUS
 10
24.1205639376
 20
5.853659644
 40
12.9809178591
100
AcDbArc
 50
178.3856241331
 51
178.9708071053
  0
ARC
  5
250
100
AcDbEntity
  8
0
100
AcDbCircle
 62
7
  6
CONTINUOUS
 10
16.8432011508
 20
6.9193361161
 40
5.4453828125
100
AcDbArc
 50
162.3615794038
 51
180.0
  0
ARC
  5
251
100
AcDbEntity
  8
0
100
AcDbCircle
 62
7
  6
CONTINUOUS
 10
5.2514355258
 20
6.9193361161
 40
5.4453828125
100
AcDbArc
 50
0.0
 51
17.6384205962
  0
ARC
  5
252
100
AcDbEntity
  8
0
100
AcDbCircle
 62
9
  6
CONTINUOUS
 10
11.0282599334
 20
6.2445796695
 40
0.0500259017
100
AcDbArc
 50
211.6889688515
 51
270.135914537
  0
ARC
  5
253
100
AcDbEntity
  8
0
100
AcDbCircle
 62
9
  6
CONTINUOUS
 10
11.0663767468
 20
6.244579671
 40
0.0500259017
100
AcDbArc
 50
269.8640813261
 51
328.3110290485
  0
ARC
  5
254
100
AcDbEntity
  8
0
100
AcDbCircle
 62
7
  6
CONTINUOUS
 10
11.4893183383
 20
6.3673361161
 40
0.05
100
AcDbArc
 50
270.0
 51
360.0
  0
ARC
  5
255
100
AcDbEntity
  8
0
100
AcDbCircle
 62
7
  6
CONTINUOUS
 10
10.6053183383
 20
6.3673361161
 40
0.05
100
AcDbArc
 50
180.0
 51
270.0
  0
ARC
  5
256
100
AcDbEntity
  8
0
100
AcDbCircle
 62
7
  6
CONTINUOUS
 10
11.4893183383
 20
6.4633361161
 40
0.05
100
AcDbArc
 50
0.0
 51
90.0
  0
ARC
  5
257
100
AcDbEntity
  8
0
100
AcDbCircle
 62
7
  6
CONTINUOUS
 10
10.6053183383
 20
6.4633361161
 40
0.05
100
AcDbArc
 50
90.0
 51
180.0
  0
ARC
  5
258
100
AcDbEntity
  8
0
100
AcDbCircle
 62
7
  6
CONTINUOUS
 10
11.3908183383
 20
6.5623361161
 40
0.05
100
AcDbArc
 50
0.0
 51
90.0
  0
ARC
  5
259
100
AcDbEntity
  8
0
100
AcDbCircle
 62
7
  6
CONTINUOUS
 10
10.7038183383
 20
6.5623361161
 40
0.05
100
AcDbArc
 50
90.0
 51
180.0
  0
ARC
  5
25A
100
AcDbEntity
  8
0
100
AcDbCircle
 62
7
  6
CONTINUOUS
 10
11.3908183383
 20
6.2683361161
 40
0.05
100
AcDbArc
 50
270.0
 51
360.0
  0
ARC
  5
25B
100
AcDbEntity
  8
0
100
AcDbCircle
 62
7
  6
CONTINUOUS
 10
10.7038183383
 20
6.2683361161
 40
0.05
100
AcDbArc
 50
180.0
 51
270.0
  0
ARC
  5
25C
100
AcDbEntity
  8
0
100
AcDbCircle
 62
7
  6
CONTINUOUS
 10
11.7073183383
 20
8.6093361161
 40
0.04
100
AcDbArc
 50
270.0
 51
360.0
  0
ARC
  5
25D
100
AcDbEntity
  8
0
100
AcDbCircle
 62
7
  6
CONTINUOUS
 10
10.3873183383
 20
8.6093361161
 40
0.04
100
AcDbArc
 50
180.0
 51
270.0
  0
ARC
  5
25E
100
AcDbEntity
  8
0
100
AcDbCircle
 62
7
  6
CONTINUOUS
 10
11.3818183383
 20
6.8483361161
 40
0.04
100
AcDbArc
 50
270.0
 51
90.0
  0
ARC
  5
25F
100
AcDbEntity
  8
0
100
AcDbCircle
 62
7
  6
CONTINUOUS
 10
10.7128183383
 20
6.8483361161
 40
0.04
100
AcDbArc
 50
90.0
 51
270.0
  0
ARC
  5
260
100
AcDbEntity
  8
0
100
AcDbCircle
 62
7
  6
CONTINUOUS
 10
11.4808183383
 20
6.5533361161
 40
0.04
100
AcDbArc
 50
180.0
 51
270.0
  0
ARC
  5
261
100
AcDbEntity
  8
0
100
AcDbCircle
 62
7
  6
CONTINUOUS
 10
10.6138183383
 20
6.5533361161
 40
0.04
100
AcDbArc
 50
270.0
 51
360.0
  0
ARC
  5
262
100
AcDbEntity
  8
0
100
AcDbCircle
 62
7
  6
CONTINUOUS
 10
11.4808183383
 20
6.2773361161
 40
0.04
100
AcDbArc
 50
90.0
 51
180.0
  0
ARC
  5
263
100
AcDbEntity
  8
0
100
AcDbCircle
 62
7
  6
CONTINUOUS
 10
10.6138183383
 20
6.2773361161
 40
0.04
100
AcDbArc
 50
0.0
 51
90.0
  0
SPLINE
  5
264
100
AcDbEntity
  8
0
100
AcDbSpline
 62
9
  6
CONTINUOUS
 70
0
 71
3
 72
21
 73
17
 74
0
 42
0.0000001
 43
0.0000001
 44
0.0000000001
 40
0.0
 40
0.0
 40
0.0
 40
0.0
 40
0.1273004955
 40
0.2542189136
 40
0.3175141813
 40
0.3806092026
 40
0.4434831523
 40
0.5061218554
 40
0.5685204947
 40
0.630683237
 40
0.6926227914
 40
0.7543621301
 40
0.8159300056
 40
0.8773588772
 40
0.9387076568
 40
1.0
 40
1.0
 40
1.0
 40
1.0
 10
11.0623024482
 20
5.9899470148
 30
0.0
 10
11.065547011
 20
5.989938808
 30
0.0
 10
11.0720433788
 20
5.9905311919
 30
0.0
 10
11.079870896
 20
5.9927754131
 30
0.0
 10
11.0857698397
 20
5.9954198076
 30
0.0
 10
11.0899705152
 20
5.9978068346
 30
0.0
 10
11.0939089175
 20
6.0005760614
 30
0.0
 10
11.0975480857
 20
6.0037012971
 30
0.0
 10
11.1008533513
 20
6.0071528098
 30
0.0
 10
11.1037930993
 20
6.010898013
 30
0.0
 10
11.1063393396
 20
6.0149012999
 30
0.0
 10
11.1084678556
 20
6.0191246022
 30
0.0
 10
11.1101581352
 20
6.0235276872
 30
0.0
 10
11.111394305
 20
6.0280690577
 30
0.0
 10
11.1121640612
 20
6.0327047173
 30
0.0
 10
11.1123617399
 20
6.0358306283
 30
0.0
 10
11.1123811797
 20
6.0373926968
 30
0.0
  0
SPLINE
  5
265
100
AcDbEntity
  8
0
100
AcDbSpline
 62
9
  6
CONTINUOUS
 70
0
 71
3
 72
21
 73
17
 74
0
 42
0.0000001
 43
0.0000001
 44
0.0000000001
 40
0.0
 40
0.0
 40
0.0
 40
0.0
 40
0.1273004885
 40
0.2542189021
 40
0.3175141685
 40
0.3806091896
 40
0.4434831403
 40
0.5061218452
 40
0.568520487
 40
0.6306832322
 40
0.6926227895
 40
0.7543621307
 40
0.815930008
 40
0.8773588804
 40
0.9387076593
 40
1.0
 40
1.0
 40
1.0
 40
1.0
 10
11.032334228
 20
5.9899472327
 30
0.0
 10
11.0290896744
 20
5.9899390259
 30
0.0
 10
11.0225933253
 20
5.990531406
 30
0.0
 10
11.0147658284
 20
5.992775613
 30
0.0
 10
11.0088668976
 20
5.9954199913
 30
0.0
 10
11.0046662296
 20
5.9978070042
 30
0.0
 10
11.0007278327
 20
6.0005762151
 30
0.0
 10
10.9970886672
 20
6.0037014335
 30
0.0
 10
10.9937834017
 20
6.0071529279
 30
0.0
 10
10.9908436511
 20
6.0108981123
 30
0.0
 10
10.9882974054
 20
6.0149013803
 30
0.0
 10
10.9861688814
 20
6.0191246639
 30
0.0
 10
10.984478591
 20
6.0235277307
 30
0.0
 10
10.9832424079
 20
6.028069084
 30
0.0
 10
10.9824726361
 20
6.0327047275
 30
0.0
 10
10.9822749455
 20
6.0358306288
 30
0.0
 10
10.9822554993
 20
6.0373926928
 30
0.0
  0
SPLINE
  5
266
100
AcDbEntity
  8
0
100
AcDbSpline
 62
9
  6
CONTINUOUS
 70
0
 71
3
 72
15
 73
11
 74
0
 42
0.0000001
 43
0.0000001
 44
0.0000000001
 40
0.0
 40
0.0
 40
0.0
 40
0.0
 40
0.1231016702
 40
0.2464317858
 40
0.3702435387
 40
0.4947028837
 40
0.6199177818
 40
0.745918904
 40
0.8726505286
 40
1.0
 40
1.0
 40
1.0
 40
1.0
 10
11.1784128632
 20
6.1318381822
 30
0.0
 10
11.1783439853
 20
6.1292860745
 30
0.0
 10
11.1777808517
 20
6.1241784704
 30
0.0
 10
11.1756815497
 20
6.1167577605
 30
0.0
 10
11.1723826572
 20
6.1097540759
 30
0.0
 10
11.1679683324
 20
6.1033479397
 30
0.0
 10
11.1625522698
 20
6.0977008347
 30
0.0
 10
11.1562719931
 20
6.0929555073
 30
0.0
 10
11.1492897365
 20
6.0892315048
 30
0.0
 10
11.1442886108
 20
6.0874939948
 30
0.0
 10
11.1417345482
 20
6.0868214257
 30
0.0
  0
LINE
  5
267
100
AcDbEntity
  8
0
100
AcDbLine
 62
9
  6
CONTINUOUS
 10
11.0622410835
 20
5.9823276807
 11
11.0623024482
 21
5.9899470208
  0
SPLINE
  5
268
100
AcDbEntity
  8
0
100
AcDbSpline
 62
9
  6
CONTINUOUS
 70
0
 71
3
 72
23
 73
19
 74
0
 42
0.0000001
 43
0.0000001
 44
0.0000000001
 40
0.0
 40
0.0
 40
0.0
 40
0.0
 40
0.0648430335
 40
0.1261521788
 40
0.1844802449
 40
0.2404702865
 40
0.2948483891
 40
0.3484055845
 40
0.4019696197
 40
0.4563680412
 40
0.5123898274
 40
0.5707568797
 40
0.6321076453
 40
0.6969917081
 40
0.7658712497
 40
0.839130052
 40
0.9170856168
 40
1.0
 40
1.0
 40
1.0
 40
1.0
 10
11.0088555415
 20
6.2183361161
 30
0.0
 10
11.0096089822
 20
6.2183361071
 30
0.0
 10
11.0110757301
 20
6.2182798298
 30
0.0
 10
11.013204931
 20
6.2180069373
 30
0.0
 10
11.0151969426
 20
6.217546955
 30
0.0
 10
11.0170512591
 20
6.2168986511
 30
0.0
 10
11.0187671516
 20
6.216061161
 30
0.0
 10
11.0203435474
 20
6.2150341919
 30
0.0
 10
11.0217793883
 20
6.2138180745
 30
0.0
 10
11.0230739892
 20
6.2124136949
 30
0.0
 10
11.0242273255
 20
6.2108222296
 30
0.0
 10
11.0252399128
 20
6.2090447073
 30
0.0
 10
11.0261125704
 20
6.2070818004
 30
0.0
 10
11.0268461724
 20
6.20493383
 30
0.0
 10
11.0274415656
 20
6.2026009065
 30
0.0
 10
11.0278994645
 20
6.2000829861
 30
0.0
 10
11.0282204229
 20
6.1973800631
 30
0.0
 10
11.0283396196
 20
6.1955136957
 30
0.0
 10
11.0283786093
 20
6.194551065
 30
0.0
  0
SPLINE
  5
269
100
AcDbEntity
  8
0
100
AcDbSpline
 62
9
  6
CONTINUOUS
 70
0
 71
3
 72
15
 73
11
 74
0
 42
0.0000001
 43
0.0000001
 44
0.0000000001
 40
0.0
 40
0.0
 40
0.0
 40
0.0
 40
0.1231016871
 40
0.2464318083
 40
0.3702435562
 40
0.4947028898
 40
0.6199177752
 40
0.7459188894
 40
0.8726505153
 40
1.0
 40
1.0
 40
1.0
 40
1.0
 10
10.9162238039
 20
6.1318381908
 30
0.0
 10
10.9162926638
 20
6.1292860645
 30
0.0
 10
10.9168557631
 20
6.1241784204
 30
0.0
 10
10.9189550211
 20
6.1167576422
 30
0.0
 10
10.92225388
 20
6.1097538826
 30
0.0
 10
10.9266681847
 20
6.1033476676
 30
0.0
 10
10.9320842431
 20
6.0977004839
 30
0.0
 10
10.938364533
 20
6.0929550832
 30
0.0
 10
10.9453468194
 20
6.0892310185
 30
0.0
 10
10.9503479744
 20
6.0874934782
 30
0.0
 10
10.9529020532
 20
6.0868208974
 30
0.0
  0
LINE
  5
26A
100
AcDbEntity
  8
0
100
AcDbLine
 62
9
  6
CONTINUOUS
 10
11.1416168469
 20
6.0831256991
 11
11.1417345482
 21
6.0868214257
  0
SPLINE
  5
26B
100
AcDbEntity
  8
0
100
AcDbSpline
 62
9
  6
CONTINUOUS
 70
0
 71
3
 72
23
 73
19
 74
0
 42
0.0000001
 43
0.0000001
 44
0.0000000001
 40
0.0
 40
0.0
 40
0.0
 40
0.0
 40
0.0829122174
 40
0.1608661386
 40
0.2341242373
 40
0.3030043763
 40
0.367890583
 40
0.4292438272
 40
0.4876114709
 40
0.5436328308
 40
0.5980312174
 40
0.651595944
 40
0.7051534115
 40
0.7595307251
 40
0.8155203003
 40
0.8738487076
 40
0.9351579194
 40
1.0
 40
1.0
 40
1.0
 40
1.0
 10
11.0662580673
 20
6.194551065
 30
0.0
 10
11.0662970577
 20
6.1955136722
 30
0.0
 10
11.0664162593
 20
6.1973799985
 30
0.0
 10
11.0667372302
 20
6.2000828721
 30
0.0
 10
11.06719514
 20
6.2026007743
 30
0.0
 10
11.0677905388
 20
6.2049337247
 30
0.0
 10
11.0685241233
 20
6.2070817678
 30
0.0
 10
11.0693967351
 20
6.2090447661
 30
0.0
 10
11.0704093303
 20
6.2108223266
 30
0.0
 10
11.0715627006
 20
6.2124137747
 30
0.0
 10
11.0728573321
 20
6.2138181326
 30
0.0
 10
11.0742931753
 20
6.2150342666
 30
0.0
 10
11.0758695725
 20
6.2160612485
 30
0.0
 10
11.0775854983
 20
6.2168986587
 30
0.0
 10
11.0794398351
 20
6.217546874
 30
0.0
 10
11.0814318432
 20
6.2180068719
 30
0.0
 10
11.0835610356
 20
6.2182798115
 30
0.0
 10
11.085027776
 20
6.218336109
 30
0.0
 10
11.085781207
 20
6.2183361161
 30
0.0
  0
SPLINE
  5
26C
100
AcDbEntity
  8
0
100
AcDbSpline
 62
9
  6
CONTINUOUS
 70
0
 71
3
 72
16
 73
12
 74
0
 42
0.0000001
 43
0.0000001
 44
0.0000000001
 40
0.0
 40
0.0
 40
0.0
 40
0.0
 40
0.0326316114
 40
0.0692773709
 40
0.1545899512
 40
0.2558912134
 40
0.3731279734
 40
0.5062347567
 40
0.6551386567
 40
0.819760721
 40
1.0
 40
1.0
 40
1.0
 40
1.0
 10
11.0283786093
 20
6.194551065
 30
0.0
 10
11.028468681
 20
6.192326906
 30
0.0
 10
11.0286464622
 20
6.1876044378
 30
0.0
 10
11.0289989492
 20
6.1770648769
 30
0.0
 10
11.0294289723
 20
6.1618410879
 30
0.0
 10
11.0299219263
 20
6.1411195871
 30
0.0
 10
11.0304132186
 20
6.1171369527
 30
0.0
 10
11.0309025689
 20
6.0899064597
 30
0.0
 10
11.0313894655
 20
6.0594430527
 30
0.0
 10
11.0318735879
 20
6.025764072
 30
0.0
 10
11.0321804396
 20
6.0022411736
 30
0.0
 10
11.0323342283
 20
5.9899470208
 30
0.0
  0
SPLINE
  5
26D
100
AcDbEntity
  8
0
100
AcDbSpline
 62
9
  6
CONTINUOUS
 70
0
 71
3
 72
16
 73
12
 74
0
 42
0.0000001
 43
0.0000001
 44
0.0000000001
 40
0.0
 40
0.0
 40
0.0
 40
0.0
 40
0.1802392784
 40
0.3448613435
 40
0.4937652434
 40
0.6268720259
 40
0.7441087871
 40
0.8454100509
 40
0.9307226224
 40
0.9673683798
 40
1.0
 40
1.0
 40
1.0
 40
1.0
 10
11.0623024482
 20
5.9899470208
 30
0.0
 10
11.062456237
 20
6.0022411735
 30
0.0
 10
11.0627630886
 20
6.025764072
 30
0.0
 10
11.0632472111
 20
6.0594430527
 30
0.0
 10
11.0637341076
 20
6.0899064597
 30
0.0
 10
11.0642234579
 20
6.1171369527
 30
0.0
 10
11.0647147502
 20
6.1411195872
 30
0.0
 10
11.0652077042
 20
6.1618410876
 30
0.0
 10
11.0656377273
 20
6.177064876
 30
0.0
 10
11.0659902144
 20
6.1876044368
 30
0.0
 10
11.0661679956
 20
6.1923269054
 30
0.0
 10
11.0662580673
 20
6.194551065
 30
0.0
  0
LINE
  5
26E
100
AcDbEntity
  8
0
100
AcDbLine
 62
9
  6
CONTINUOUS
 10
11.0323342283
 20
5.9899470208
 11
11.0323956023
 21
5.9823276806
  0
SPLINE
  5
26F
100
AcDbEntity
  8
0
100
AcDbSpline
 62
9
  6
CONTINUOUS
 70
0
 71
3
 72
15
 73
11
 74
0
 42
0.0000001
 43
0.0000001
 44
0.0000000001
 40
0.0
 40
0.0
 40
0.0
 40
0.0
 40
0.127247014
 40
0.253928044
 40
0.3799289751
 40
0.5051871192
 40
0.6297135283
 40
0.7535874919
 40
0.8769436279
 40
1.0
 40
1.0
 40
1.0
 40
1.0
 10
11.1417346236
 20
6.0868208753
 30
0.0
 10
11.1397747973
 20
6.0863024853
 30
0.0
 10
11.1359340951
 20
6.084976996
 30
0.0
 10
11.130549959
 20
6.0821646411
 30
0.0
 10
11.1256721232
 20
6.0785951016
 30
0.0
 10
11.1214163449
 20
6.0743511857
 30
0.0
 10
11.1178819264
 20
6.0695315106
 30
0.0
 10
11.1151523534
 20
6.0642477299
 30
0.0
 10
11.1132917398
 20
6.0586249702
 30
0.0
 10
11.1126597342
 20
6.0547306687
 30
0.0
 10
11.1125003043
 20
6.0527766985
 30
0.0
  0
SPLINE
  5
270
100
AcDbEntity
  8
0
100
AcDbSpline
 62
9
  6
CONTINUOUS
 70
0
 71
3
 72
15
 73
11
 74
0
 42
0.0000001
 43
0.0000001
 44
0.0000000001
 40
0.0
 40
0.0
 40
0.0
 40
0.0
 40
0.127246852
 40
0.2539277479
 40
0.3799286001
 40
0.5051867307
 40
0.6297131889
 40
0.753587249
 40
0.8769435057
 40
1.0
 40
1.0
 40
1.0
 40
1.0
 10
10.9529021665
 20
6.0868215888
 30
0.0
 10
10.9548620382
 20
6.086303186
 30
0.0
 10
10.9587028269
 20
6.084977652
 30
0.0
 10
10.9640870652
 20
6.0821651803
 30
0.0
 10
10.9689649666
 20
6.0785954827
 30
0.0
 10
10.9732207662
 20
6.0743513784
 30
0.0
 10
10.9767551564
 20
6.0695314962
 30
0.0
 10
10.9794846481
 20
6.0642475031
 30
0.0
 10
10.9813451269
 20
6.0586245388
 30
0.0
 10
10.9819770075
 20
6.0547301141
 30
0.0
 10
10.982136367
 20
6.0527760879
 30
0.0
  0
LINE
  5
271
100
AcDbEntity
  8
0
100
AcDbLine
 62
9
  6
CONTINUOUS
 10
10.9529021284
 20
6.0868214255
 11
10.9530198296
 21
6.083125699
  0
ENDSEC
  0
SECTION
  2
OBJECTS
  0
DICTIONARY
  5
C
100
AcDbDictionary
280
0
281
1
  3
ACAD_GROUP
350
D
  3
ACAD_MLINESTYLE
350
17
  3
ACAD_LAYOUT
350
1A
  3
ACAD_PLOTSETTINGS
350
19
  3
ACAD_PLOTSTYLENAME
350
E
  0
DICTIONARY
  5
D
102
{ACAD_REACTORS
330
C
102
}
100
AcDbDictionary
280
0
281
1
  0
ACDBDICTIONARYWDFLT
  5
E
102
{ACAD_REACTORS
330
C
102
}
100
AcDbDictionary
281
1
  3
Normal
350
F
100
AcDbDictionaryWithDefault
340
F
  0
DICTIONARY
  5
17
102
{ACAD_REACTORS
330
C
102
}
100
AcDbDictionary
280
0
281
1
  3
Standard
350
18
  0
DICTIONARY
  5
19
102
{ACAD_REACTORS
330
C
102
}
100
AcDbDictionary
281
1
  0
DICTIONARY
  5
1A
102
{ACAD_REACTORS
330
C
102
}
100
AcDbDictionary
281
1
  3
Model
350
272
  3
Layout1
350
273
  0
ACDBPLACEHOLDER
  5
F
102
{ACAD_REACTORS
330
E
102
}
  0
MLINESTYLE
  5
18
102
{ACAD_REACTORS
330
17
102
}
100
AcDbMlineStyle
  2
STANDARD
 70
0
  3

 62
256
 51
90.0
 52
90.0
 71
2
 49
0.5
 62
256
  6
BYLAYER
 49
-0.5
 62
256
  6
BYLAYER
  0
LAYOUT
  5
272
102
{ACAD_REACTORS
330
1A
102
}
100
AcDbPlotSettings
  1

  2
none_device
  4
ANSI_C_(22.00_x_17.00_Inches)
  6

 40
0.0
 41
0.0
 42
0.0
 43
0.0
 44
558.8
 45
431.8
 46
0.0
 47
0.0
 48
0.0
 49
0.0
140
0.0
141
0.0
142
1.0
143
1.0
 70
1024
 72
0
 73
0
 74
0
  7

 75
0
147
1.0
148
0.0
149
0.0
100
AcDbLayout
  1
Model
 70
0
 71
0
 10
0.0
 20
0.0
 11
22.0
 21
17.0
 12
0.0
 22
0.0
 32
0.0
 14
0.0
 24
0.0
 34
0.0
 15
0.0
 25
0.0
 35
0.0
146
0.0
 13
0.0
 23
0.0
 33
0.0
 16
1.0
 26
0.0
 36
0.0
 17
0.0
 27
1.0
 37
0.0
 76
0
330
205
345
0
346
0
  0
LAYOUT
  5
273
102
{ACAD_REACTORS
330
1A
102
}
100
AcDbPlotSettings
  1

  2
none_device
  4
ANSI_C_(22.00_x_17.00_Inches)
  6

 40
0.0
 41
0.0
 42
0.0
 43
0.0
 44
558.8
 45
431.8
 46
0.0
 47
0.0
 48
0.0
 49
0.0
140
0.0
141
0.0
142
1.0
143
1.0
 70
0
 72
0
 73
0
 74
0
  7

 75
0
147
1.0
148
0.0
149
0.0
100
AcDbLayout
  1
Layout1
 70
0
 71
1
 10
0.0
 20
0.0
 11
22.0
 21
17.0
 12
0.0
 22
0.0
 32
0.0
 14
0.0
 24
0.0
 34
0.0
 15
0.0
 25
0.0
 35
0.0
146
0.0
 13
0.0
 23
0.0
 33
0.0
 16
1.0
 26
0.0
 36
0.0
 17
0.0
 27
1.0
 37
0.0
 76
0
330
206
345
0
346
0
  0
ENDSEC
  0
EOF
