999
DXF file: 4-2944bp_front.dxf
999
Pro/ENGINEER 2019352 by Parametric Technology Corporation
  0
SECTION
  2
HEADER
  9
$ACADVER
  1
AC1032
  9
$DWGCODEPAGE
  3
ANSI_1252
  9
$EXTMAX
 10
11.0
 20
8.5
 30
0.0
  9
$EXTMIN
 10
0.0
 20
0.0
 30
0.0
  9
$LIMMIN
 10
0.0
 20
0.0
  9
$LIMMAX
 10
11.0
 20
8.5
  9
$VIEWCTR
 10
5.5
 20
4.25
  9
$VIEWSIZE
 40
8.5
  9
$CLAYER
  8
0
  9
$LTSCALE
 40
0.605
  9
$CELTYPE
  6
BYLAYER
  9
$DIMSCALE
 40
1.0
  9
$DIMASZ
 40
0.1
  9
$DIMEXO
 40
0.0625
  9
$DIMDLI
 40
0.418
  9
$DIMEXE
 40
0.125
  9
$DIMCEN
 40
0.099
  9
$DIMLFAC
 40
1.0
  9
$DIMBLK
  1
_FILLED
  9
$DIMALT
 70
1
  9
$DIMALTD
 70
2
  9
$DIMALTTD
 70
2
  9
$DIMALTF
 40
25.4
  9
$DIMTXT
 40
0.08
  9
$DIMTOL
 70
1
  9
$DIMLIM
 70
0
  9
$DIMTFAC
 40
1.0
  9
$DIMTP
 40
0.001
  9
$DIMTM
 40
0.001
  9
$DIMGAP
 40
0.09
  9
$DIMDSEP
 70
46
  9
$AUNITS
 70
0
  9
$PDMODE
 70
3
  9
$PDSIZE
 40
0.3125
  9
$HANDSEED
  5
4F9
  9
$TILEMODE
 70
1
  9
$MEASUREMENT
 70
0
  9
$INSUNITS
 70
1
  0
ENDSEC
  0
SECTION
  2
CLASSES
  0
CLASS
  1
ACDBDICTIONARYWDFLT
  2
AcDbDictionaryWithDefault
  3
AutoCAD 2000
 90
0
 91
1
280
0
281
0
  0
CLASS
  1
ACDBPLACEHOLDER
  2
AcDbPlaceHolder
  3
AutoCAD 2000
 90
0
 91
1
280
0
281
0
  0
CLASS
  1
LAYOUT
  2
AcDbLayout
  3
AutoCAD 2000
 90
0
 91
0
280
0
281
0
  0
ENDSEC
  0
SECTION
  2
TABLES
  0
TABLE
  2
VPORT
  5
8
100
AcDbSymbolTable
 70
2
  0
VPORT
  5
1F4
100
AcDbSymbolTableRecord
100
AcDbViewportTableRecord
  2
*ACTIVE
 70
0
 10
0.0
 20
0.0
 11
1.0
 21
1.0
 12
5.5
 22
4.25
 13
0.0
 23
0.0
 14
1.0
 24
1.0
 15
0.0
 25
0.0
 16
0.0
 26
0.0
 36
1.0
 17
0.0
 27
0.0
 37
0.0
 40
8.5
 41
1.2941176471
 42
50.0
 43
0.0
 44
0.0
 50
0.0
 51
0.0
 71
0
 72
100
 73
1
 74
1
 75
0
 76
0
 77
0
 78
0
  0
ENDTAB
  0
TABLE
  2
LTYPE
  5
5
100
AcDbSymbolTable
 70
6
  0
LTYPE
  5
14
100
AcDbSymbolTableRecord
100
AcDbLinetypeTableRecord
  2
BYBLOCK
 70
0
  3

 72
65
 73
0
 40
0.0
  0
LTYPE
  5
15
100
AcDbSymbolTableRecord
100
AcDbLinetypeTableRecord
  2
BYLAYER
 70
0
  3

 72
65
 73
0
 40
0.0
  0
LTYPE
  5
16
100
AcDbSymbolTableRecord
100
AcDbLinetypeTableRecord
  2
CONTINUOUS
 70
64
  3
Solid line
 72
65
 73
0
 40
0.0
  0
LTYPE
  5
1F5
100
AcDbSymbolTableRecord
100
AcDbLinetypeTableRecord
  2
CENTER
 70
64
  3
____ _ ____ _ ____ _ ____ _ ____ _ ____ _ ____
 72
65
 73
4
 40
0.6
 49
0.375
 74
0
 49
-0.075
 74
0
 49
0.075
 74
0
 49
-0.075
 74
0
  0
LTYPE
  5
1F6
100
AcDbSymbolTableRecord
100
AcDbLinetypeTableRecord
  2
HIDDEN
 70
64
  3
- - - - - - - - - - - - - - - - - - - -
 72
65
 73
2
 40
0.2
 49
0.1
 74
0
 49
-0.1
 74
0
  0
LTYPE
  5
1F7
100
AcDbSymbolTableRecord
100
AcDbLinetypeTableRecord
  2
PHANTOM
 70
64
  3
_____ _ _ _____ _ _ _____ _ _ _____
 72
65
 73
6
 40
0.8
 49
0.45
 74
0
 49
-0.05
 74
0
 49
0.1
 74
0
 49
-0.05
 74
0
 49
0.1
 74
0
 49
-0.05
 74
0
  0
LTYPE
  5
1F8
100
AcDbSymbolTableRecord
100
AcDbLinetypeTableRecord
  2
DOT
 70
64
  3
. . . . . . . . . . . . . . . . . . . .
 72
65
 73
2
 40
0.2
 49
0.1
 74
0
 49
-0.1
 74
0
  0
LTYPE
  5
1F9
100
AcDbSymbolTableRecord
100
AcDbLinetypeTableRecord
  2
DASHED
 70
64
  3
- - - - - - - - - - - - - - - - - - - -
 72
65
 73
2
 40
0.2
 49
0.1
 74
0
 49
-0.1
 74
0
  0
ENDTAB
  0
TABLE
  2
LAYER
  5
2
100
AcDbSymbolTable
 70
36
  0
LAYER
  5
10
100
AcDbSymbolTableRecord
100
AcDbLayerTableRecord
  2
0
 70
0
 62
7
  6
CONTINUOUS
370
-3
390
F
  0
LAYER
  5
1FA
100
AcDbSymbolTableRecord
100
AcDbLayerTableRecord
  2
DEFAULT_1
 70
0
 62
7
  6
CENTER
370
-3
390
F
  0
LAYER
  5
1FB
100
AcDbSymbolTableRecord
100
AcDbLayerTableRecord
  2
DEFAULT_2
 70
0
 62
8
  6
HIDDEN
370
-3
390
F
  0
LAYER
  5
1FC
100
AcDbSymbolTableRecord
100
AcDbLayerTableRecord
  2
DEFAULT_3
 70
0
 62
7
  6
PHANTOM
370
-3
390
F
  0
LAYER
  5
1FD
100
AcDbSymbolTableRecord
100
AcDbLayerTableRecord
  2
DEFAULT_COORDINATE_SYSTEM
 70
0
 62
7
  6
CONTINUOUS
370
-3
390
F
  0
LAYER
  5
1FE
100
AcDbSymbolTableRecord
100
AcDbLayerTableRecord
  2
DEFAULT_DATUM_AXES
 70
0
 62
7
  6
CONTINUOUS
370
-3
390
F
  0
LAYER
  5
1FF
100
AcDbSymbolTableRecord
100
AcDbLayerTableRecord
  2
DEFAULT_DATUM_PLANES
 70
0
 62
7
  6
CONTINUOUS
370
-3
390
F
  0
ENDTAB
  0
TABLE
  2
STYLE
  5
3
100
AcDbSymbolTable
 70
1
  0
STYLE
  5
11
100
AcDbSymbolTableRecord
100
AcDbTextStyleTableRecord
  2
STANDARD
 70
0
 40
0.0
 41
0.8
 50
0.0
 71
0
 42
0.2
  3
txt
  4

  0
STYLE
  5
200
100
AcDbSymbolTableRecord
100
AcDbTextStyleTableRecord
  2
TEXTSTYLE_1
 70
0
 40
0.0
 41
0.8
 50
0.0
 71
0
 42
0.2
  3
gdt
  4

  0
ENDTAB
  0
TABLE
  2
VIEW
  5
6
100
AcDbSymbolTable
 70
0
  0
ENDTAB
  0
TABLE
  2
UCS
  5
7
100
AcDbSymbolTable
 70
0
  0
ENDTAB
  0
TABLE
  2
APPID
  5
9
100
AcDbSymbolTable
 70
1
  0
APPID
  5
201
100
AcDbSymbolTableRecord
100
AcDbRegAppTableRecord
  2
ACAD
 70
0
  0
ENDTAB
  0
TABLE
  2
BLOCK_RECORD
  5
1
100
AcDbSymbolTable
 70
0
  0
BLOCK_RECORD
  5
202
100
AcDbSymbolTableRecord
100
AcDbBlockTableRecord
  2
*Model_Space
  0
BLOCK_RECORD
  5
203
100
AcDbSymbolTableRecord
100
AcDbBlockTableRecord
  2
*Paper_Space
  0
BLOCK_RECORD
  5
204
100
AcDbSymbolTableRecord
100
AcDbBlockTableRecord
  2
_FILLED
  0
ENDTAB
  0
TABLE
  2
DIMSTYLE
  5
A
100
AcDbSymbolTable
 70
1
100
AcDbDimStyleTable
 71
0
  0
DIMSTYLE
105
205
100
AcDbSymbolTableRecord
100
AcDbDimStyleTableRecord
  2
STANDARD
 70
0
  3

  4

 40
1.0
 41
0.1
 42
0.0625
 43
0.38
 44
0.125
 45
0.0
 46
0.0
 47
0.001
 48
0.001
140
0.08
141
0.09
142
0.0
143
25.4
144
1.0
145
0.0
146
1.0
147
0.09
 71
1.0
 72
0.0
 73
1
 74
1
 75
0
 76
0
 77
0
 78
4
 79
1
170
1
171
2
172
0
173
0
174
0
175
0
176
0
177
0
178
0
270
2
179
3
271
3
272
3
273
2
274
2
275
0
280
0
281
0
282
0
283
1
284
4
285
0
286
0
287
3
288
0
340
11
278
46
341
204
342
204
343
204
344
204
  0
ENDTAB
  0
ENDSEC
  0
SECTION
  2
BLOCKS
  0
BLOCK
  5
20
100
AcDbEntity
  8
0
100
AcDbBlockBegin
  2
*Model_Space
 70
0
 10
0.0
 20
0.0
 30
0.0
  3
*Model_Space
  1

  0
ENDBLK
  5
21
100
AcDbEntity
  8
0
100
AcDbBlockEnd
  0
BLOCK
  5
1C
100
AcDbEntity
  8
0
100
AcDbBlockBegin
  2
*Paper_Space
 70
0
 10
0.0
 20
0.0
 30
0.0
  3
*Paper_Space
  1

  0
ENDBLK
  5
1D
100
AcDbEntity
  8
0
100
AcDbBlockEnd
  0
BLOCK
  5
206
100
AcDbEntity
  8
0
100
AcDbBlockBegin
  2
_FILLED
 70
64
 10
0.0
 20
0.0
  3
_FILLED
  1

  0
SOLID
  5
207
100
AcDbEntity
  8
0
  6
BYBLOCK
 62
0
100
AcDbTrace
 10
0.0
 20
0.0
 11
-1.0
 21
0.2
 12
-1.0
 22
-0.2
 13
-1.0
 23
-0.2
  0
ENDBLK
  5
208
100
AcDbEntity
  8
0
  6
BYBLOCK
 62
0
100
AcDbBlockEnd
  0
ENDSEC
  0
SECTION
  2
ENTITIES
  0
MTEXT
  5
209
100
AcDbEntity
  8
0
100
AcDbMText
 62
2
  6
CONTINUOUS
  7
STANDARD
 71
3
 72
1
 10
5.1331751882
 20
1.8298753137
 30
0.0
 11
1.0
 21
0.0
 31
0.0
 73
2
 44
0.9
  1
SCALE 0.500
 40
0.08
 41
0.704
  0
LINE
  5
20A
100
AcDbEntity
  8
0
100
AcDbLine
 62
7
  6
CONTINUOUS
 10
0.0
 20
0.0
 11
0.0
 21
8.5
  0
LINE
  5
20B
100
AcDbEntity
  8
0
100
AcDbLine
 62
7
  6
CONTINUOUS
 10
0.0
 20
0.0
 11
11.0
 21
0.0
  0
LINE
  5
20C
100
AcDbEntity
  8
0
100
AcDbLine
 62
7
  6
CONTINUOUS
 10
0.0
 20
8.5
 11
11.0
 21
8.5
  0
LINE
  5
20D
100
AcDbEntity
  8
0
100
AcDbLine
 62
7
  6
CONTINUOUS
 10
11.0
 20
0.0
 11
11.0
 21
8.5
  0
LINE
  5
20E
100
AcDbEntity
  8
0
100
AcDbLine
 62
7
  6
CONTINUOUS
 10
4.43624491
 20
2.7051058657
 11
4.7587441113
 21
2.7051058657
  0
LINE
  5
20F
100
AcDbEntity
  8
0
100
AcDbLine
 62
7
  6
CONTINUOUS
 10
4.43624491
 20
2.7651058657
 11
4.7587441113
 21
2.7651058657
  0
LINE
  5
210
100
AcDbEntity
  8
0
100
AcDbLine
 62
7
  6
CONTINUOUS
 10
4.5731142251
 20
5.661462249
 11
4.5649874723
 21
5.6566750155
  0
LINE
  5
211
100
AcDbEntity
  8
0
100
AcDbLine
 62
7
  6
CONTINUOUS
 10
4.5751459191
 20
5.6471005486
 11
4.5832726836
 21
5.6494941653
  0
LINE
  5
212
100
AcDbEntity
  8
0
100
AcDbLine
 62
7
  6
CONTINUOUS
 10
4.6076529652
 20
5.5681111846
 11
4.5995262008
 21
5.5657175678
  0
LINE
  5
213
100
AcDbEntity
  8
0
100
AcDbLine
 62
7
  6
CONTINUOUS
 10
4.5690508487
 20
5.6423133151
 11
4.5751459191
 21
5.6471005486
  0
LINE
  5
214
100
AcDbEntity
  8
0
100
AcDbLine
 62
7
  6
CONTINUOUS
 10
4.6096846476
 20
5.5537494827
 11
4.6178114121
 21
5.5585367168
  0
LINE
  5
215
100
AcDbEntity
  8
0
100
AcDbLine
 62
7
  6
CONTINUOUS
 10
4.5649874723
 20
5.6566750155
 11
4.5568607078
 21
5.6471005486
  0
LINE
  5
216
100
AcDbEntity
  8
0
100
AcDbLine
 62
7
  6
CONTINUOUS
 10
4.6137480357
 20
5.5728984197
 11
4.6076529652
 21
5.5681111846
  0
LINE
  5
217
100
AcDbEntity
  8
0
100
AcDbLine
 62
7
  6
CONTINUOUS
 10
5.4870519896
 20
3.7013558657
 11
5.4970921042
 21
3.7037494827
  0
LINE
  5
218
100
AcDbEntity
  8
0
100
AcDbLine
 62
7
  6
CONTINUOUS
 10
5.3023140256
 20
3.7013558657
 11
5.3123541402
 21
3.7037494827
  0
LINE
  5
219
100
AcDbEntity
  8
0
100
AcDbLine
 62
7
  6
CONTINUOUS
 10
5.2099450435
 20
3.7013558657
 11
5.2199851524
 21
3.7037494827
  0
LINE
  5
21A
100
AcDbEntity
  8
0
100
AcDbLine
 62
7
  6
CONTINUOUS
 10
4.5649874723
 20
5.6351324582
 11
4.5690508487
 21
5.6423133151
  0
LINE
  5
21B
100
AcDbEntity
  8
0
100
AcDbLine
 62
7
  6
CONTINUOUS
 10
4.6178114121
 20
5.5585367168
 11
4.6259381765
 21
5.5681111846
  0
LINE
  5
21C
100
AcDbEntity
  8
0
100
AcDbLine
 62
7
  6
CONTINUOUS
 10
5.2862498583
 20
3.8138558657
 11
5.2762097551
 21
3.811462249
  0
LINE
  5
21D
100
AcDbEntity
  8
0
100
AcDbLine
 62
7
  6
CONTINUOUS
 10
5.1918728539
 20
3.8138558657
 11
5.1818327464
 21
3.811462249
  0
LINE
  5
21E
100
AcDbEntity
  8
0
100
AcDbLine
 62
7
  6
CONTINUOUS
 10
5.1918728539
 20
3.7013558657
 11
5.2099450435
 21
3.7013558657
  0
LINE
  5
21F
100
AcDbEntity
  8
0
100
AcDbLine
 62
7
  6
CONTINUOUS
 10
5.2862498583
 20
3.7013558657
 11
5.3023140256
 21
3.7013558657
  0
LINE
  5
220
100
AcDbEntity
  8
0
100
AcDbLine
 62
7
  6
CONTINUOUS
 10
5.3505065389
 20
3.7013558657
 11
5.4227953205
 21
3.7013558657
  0
LINE
  5
221
100
AcDbEntity
  8
0
100
AcDbLine
 62
7
  6
CONTINUOUS
 10
5.4388594763
 20
3.7013558657
 11
5.4870519896
 21
3.7013558657
  0
LINE
  5
222
100
AcDbEntity
  8
0
100
AcDbLine
 62
7
  6
CONTINUOUS
 10
5.4870519896
 20
3.7157175678
 11
5.4509076046
 21
3.7157175678
  0
LINE
  5
223
100
AcDbEntity
  8
0
100
AcDbLine
 62
7
  6
CONTINUOUS
 10
5.4227953205
 20
3.7157175678
 11
5.3625546788
 21
3.7157175678
  0
LINE
  5
224
100
AcDbEntity
  8
0
100
AcDbLine
 62
7
  6
CONTINUOUS
 10
5.3023140256
 20
3.7157175678
 11
5.2862498583
 21
3.7157175678
  0
LINE
  5
225
100
AcDbEntity
  8
0
100
AcDbLine
 62
7
  6
CONTINUOUS
 10
5.2099450435
 20
3.7157175678
 11
5.1918728539
 21
3.7157175678
  0
LINE
  5
226
100
AcDbEntity
  8
0
100
AcDbLine
 62
7
  6
CONTINUOUS
 10
5.2380573449
 20
3.7300792699
 11
5.2260092165
 21
3.7300792699
  0
LINE
  5
227
100
AcDbEntity
  8
0
100
AcDbLine
 62
7
  6
CONTINUOUS
 10
5.2260092165
 20
3.7851324582
 11
5.2380573449
 21
3.7851324582
  0
LINE
  5
228
100
AcDbEntity
  8
0
100
AcDbLine
 62
7
  6
CONTINUOUS
 10
5.1918728539
 20
3.7994941653
 11
5.2099450435
 21
3.7994941653
  0
LINE
  5
229
100
AcDbEntity
  8
0
100
AcDbLine
 62
7
  6
CONTINUOUS
 10
5.2862498583
 20
3.7994941653
 11
5.3023140256
 21
3.7994941653
  0
LINE
  5
22A
100
AcDbEntity
  8
0
100
AcDbLine
 62
7
  6
CONTINUOUS
 10
5.4509076046
 20
3.7994941653
 11
5.4870519896
 21
3.7994941653
  0
LINE
  5
22B
100
AcDbEntity
  8
0
100
AcDbLine
 62
7
  6
CONTINUOUS
 10
4.5568607078
 20
5.6471005486
 11
4.5527973314
 21
5.6375260817
  0
LINE
  5
22C
100
AcDbEntity
  8
0
100
AcDbLine
 62
7
  6
CONTINUOUS
 10
4.6178114121
 20
5.5800792699
 11
4.6137480357
 21
5.5728984197
  0
LINE
  5
22D
100
AcDbEntity
  8
0
100
AcDbLine
 62
7
  6
CONTINUOUS
 10
4.694797182
 20
4.9653789429
 11
4.7050381634
 21
4.9702713634
  0
LINE
  5
22E
100
AcDbEntity
  8
0
100
AcDbLine
 62
7
  6
CONTINUOUS
 10
4.170256474
 20
4.7151935823
 11
4.1805034573
 21
4.7200734196
  0
LINE
  5
22F
100
AcDbEntity
  8
0
100
AcDbLine
 62
7
  6
CONTINUOUS
 10
4.7186218238
 20
4.9596591524
 11
4.7291048198
 21
4.9640088965
  0
LINE
  5
230
100
AcDbEntity
  8
0
100
AcDbLine
 62
7
  6
CONTINUOUS
 10
4.1817062906
 20
4.7372690017
 11
4.1921946217
 21
4.7416058657
  0
LINE
  5
231
100
AcDbEntity
  8
0
100
AcDbLine
 62
7
  6
CONTINUOUS
 10
4.742114464
 20
4.9527003154
 11
4.7528107415
 21
4.9564954607
  0
LINE
  5
232
100
AcDbEntity
  8
0
100
AcDbLine
 62
7
  6
CONTINUOUS
 10
4.1942957537
 20
4.7587149305
 11
4.2049966849
 21
4.7624969341
  0
LINE
  5
233
100
AcDbEntity
  8
0
100
AcDbLine
 62
7
  6
CONTINUOUS
 10
5.4132372291
 20
5.2683771411
 11
5.4064362582
 21
5.2659835243
  0
LINE
  5
234
100
AcDbEntity
  8
0
100
AcDbLine
 62
7
  6
CONTINUOUS
 10
4.7652107111
 20
4.9445215053
 11
4.7760909522
 21
4.9477516496
  0
LINE
  5
235
100
AcDbEntity
  8
0
100
AcDbLine
 62
7
  6
CONTINUOUS
 10
4.2079903566
 20
4.7794725867
 11
4.2188745573
 21
4.7826893638
  0
LINE
  5
236
100
AcDbEntity
  8
0
100
AcDbLine
 62
7
  6
CONTINUOUS
 10
5.4870519896
 20
3.8138558657
 11
5.4388594763
 21
3.8138558657
  0
LINE
  5
237
100
AcDbEntity
  8
0
100
AcDbLine
 62
7
  6
CONTINUOUS
 10
5.3625546788
 20
3.8138558657
 11
5.3505065389
 21
3.8138558657
  0
LINE
  5
238
100
AcDbEntity
  8
0
100
AcDbLine
 62
7
  6
CONTINUOUS
 10
5.3023140256
 20
3.8138558657
 11
5.2862498583
 21
3.8138558657
  0
LINE
  5
239
100
AcDbEntity
  8
0
100
AcDbLine
 62
7
  6
CONTINUOUS
 10
5.2099450435
 20
3.8138558657
 11
5.1918728539
 21
3.8138558657
  0
LINE
  5
23A
100
AcDbEntity
  8
0
100
AcDbLine
 62
7
  6
CONTINUOUS
 10
5.1818327464
 20
3.7037494827
 11
5.1918728539
 21
3.7013558657
  0
LINE
  5
23B
100
AcDbEntity
  8
0
100
AcDbLine
 62
7
  6
CONTINUOUS
 10
5.2762097551
 20
3.7037494827
 11
5.2862498583
 21
3.7013558657
  0
LINE
  5
23C
100
AcDbEntity
  8
0
100
AcDbLine
 62
7
  6
CONTINUOUS
 10
5.1918728539
 20
3.7157175678
 11
5.1838407673
 21
3.7181111846
  0
LINE
  5
23D
100
AcDbEntity
  8
0
100
AcDbLine
 62
7
  6
CONTINUOUS
 10
5.2862498583
 20
3.7157175678
 11
5.2782177689
 21
3.7181111846
  0
LINE
  5
23E
100
AcDbEntity
  8
0
100
AcDbLine
 62
7
  6
CONTINUOUS
 10
4.2049966849
 20
4.7624969341
 11
4.2040992563
 21
4.7738110007
  0
LINE
  5
23F
100
AcDbEntity
  8
0
100
AcDbLine
 62
7
  6
CONTINUOUS
 10
4.2505862626
 20
4.1831375816
 11
4.2497027323
 21
4.194452742
  0
LINE
  5
240
100
AcDbEntity
  8
0
100
AcDbLine
 62
7
  6
CONTINUOUS
 10
4.2188745573
 20
4.7826893638
 11
4.2185704911
 21
4.7940348926
  0
LINE
  5
241
100
AcDbEntity
  8
0
100
AcDbLine
 62
7
  6
CONTINUOUS
 10
4.2340803304
 20
4.201738029
 11
4.2337902007
 21
4.2130839227
  0
LINE
  5
242
100
AcDbEntity
  8
0
100
AcDbLine
 62
7
  6
CONTINUOUS
 10
4.2337902007
 20
4.8021278088
 11
4.2340803304
 21
4.8134737025
  0
LINE
  5
243
100
AcDbEntity
  8
0
100
AcDbLine
 62
7
  6
CONTINUOUS
 10
4.2185704911
 20
4.2211768389
 11
4.2188745573
 21
4.2325223677
  0
LINE
  5
244
100
AcDbEntity
  8
0
100
AcDbLine
 62
7
  6
CONTINUOUS
 10
4.2497027323
 20
4.8207589895
 11
4.2505862626
 21
4.8320741499
  0
LINE
  5
245
100
AcDbEntity
  8
0
100
AcDbLine
 62
7
  6
CONTINUOUS
 10
4.2040992563
 20
4.2414007308
 11
4.2049966849
 21
4.2527147974
  0
LINE
  5
246
100
AcDbEntity
  8
0
100
AcDbLine
 62
7
  6
CONTINUOUS
 10
4.2665685371
 20
4.8385318393
 11
4.2680430462
 21
4.8497852523
  0
LINE
  5
247
100
AcDbEntity
  8
0
100
AcDbLine
 62
7
  6
CONTINUOUS
 10
4.1907062906
 20
4.2623542725
 11
4.1921946217
 21
4.2736058657
  0
LINE
  5
248
100
AcDbEntity
  8
0
100
AcDbLine
 62
7
  6
CONTINUOUS
 10
4.3605762634
 20
4.765908003
 11
4.3625538253
 21
4.7770666688
  0
LINE
  5
249
100
AcDbEntity
  8
0
100
AcDbLine
 62
7
  6
CONTINUOUS
 10
4.2843413869
 20
4.8553976441
 11
4.2864028334
 21
4.8665584647
  0
LINE
  5
24A
100
AcDbEntity
  8
0
100
AcDbLine
 62
7
  6
CONTINUOUS
 10
4.178428303
 20
4.2839800318
 11
4.1805034573
 21
4.2951383119
  0
LINE
  5
24B
100
AcDbEntity
  8
0
100
AcDbLine
 62
7
  6
CONTINUOUS
 10
4.3029725677
 20
4.8713101757
 11
4.3056153012
 21
4.8823478131
  0
LINE
  5
24C
100
AcDbEntity
  8
0
100
AcDbLine
 62
7
  6
CONTINUOUS
 10
4.1672989468
 20
4.3062187339
 11
4.1699552365
 21
4.3172531168
  0
LINE
  5
24D
100
AcDbEntity
  8
0
100
AcDbLine
 62
7
  6
CONTINUOUS
 10
4.2739626128
 20
4.355509314
 11
4.2766440037
 21
4.3665200686
  0
LINE
  5
24E
100
AcDbEntity
  8
0
100
AcDbLine
 62
7
  6
CONTINUOUS
 10
4.3789613351
 20
4.7816378004
 11
4.3817040341
 21
4.7926334438
  0
LINE
  5
24F
100
AcDbEntity
  8
0
100
AcDbLine
 62
7
  6
CONTINUOUS
 10
4.3224110126
 20
4.8862258191
 11
4.3256277897
 21
4.8971100198
  0
LINE
  5
250
100
AcDbEntity
  8
0
100
AcDbLine
 62
7
  6
CONTINUOUS
 10
4.1573487268
 20
4.3290094242
 11
4.1605788711
 21
4.3398896654
  0
LINE
  5
251
100
AcDbEntity
  8
0
100
AcDbLine
 62
7
  6
CONTINUOUS
 10
4.264240186
 20
4.3781925546
 11
4.2676748325
 21
4.3889920813
  0
LINE
  5
252
100
AcDbEntity
  8
0
100
AcDbLine
 62
7
  6
CONTINUOUS
 10
4.3983878169
 20
4.7960617107
 11
4.4018825829
 21
4.8068419326
  0
LINE
  5
253
100
AcDbEntity
  8
0
100
AcDbLine
 62
7
  6
CONTINUOUS
 10
4.3426034423
 20
4.9001036915
 11
4.346385446
 21
4.9108046227
  0
LINE
  5
254
100
AcDbEntity
  8
0
100
AcDbLine
 62
7
  6
CONTINUOUS
 10
4.1486049157
 20
4.3522896349
 11
4.152400061
 21
4.3629859124
  0
LINE
  5
255
100
AcDbEntity
  8
0
100
AcDbLine
 62
7
  6
CONTINUOUS
 10
4.2561058679
 20
4.4014925085
 11
4.2602774022
 21
4.4120293427
  0
LINE
  5
256
100
AcDbEntity
  8
0
100
AcDbLine
 62
7
  6
CONTINUOUS
 10
4.4187631328
 20
4.8091109977
 11
4.4229933115
 21
4.8196244253
  0
LINE
  5
257
100
AcDbEntity
  8
0
100
AcDbLine
 62
7
  6
CONTINUOUS
 10
4.3634945107
 20
4.9129057547
 11
4.3678313747
 21
4.9233940859
  0
LINE
  5
258
100
AcDbEntity
  8
0
100
AcDbLine
 62
7
  6
CONTINUOUS
 10
4.1410914799
 20
4.3759955566
 11
4.145441224
 21
4.3864785526
  0
LINE
  5
259
100
AcDbEntity
  8
0
100
AcDbLine
 62
7
  6
CONTINUOUS
 10
4.6259381765
 20
5.5681111846
 11
4.6300015529
 21
5.5776856532
  0
LINE
  5
25A
100
AcDbEntity
  8
0
100
AcDbLine
 62
7
  6
CONTINUOUS
 10
4.3850269568
 20
4.9245969191
 11
4.3899067941
 21
4.9348439024
  0
LINE
  5
25B
100
AcDbEntity
  8
0
100
AcDbLine
 62
7
  6
CONTINUOUS
 10
4.134829013
 20
4.400062213
 11
4.1397214335
 21
4.4103031944
  0
LINE
  5
25C
100
AcDbEntity
  8
0
100
AcDbLine
 62
7
  6
CONTINUOUS
 10
4.2495984221
 20
4.4252981409
 11
4.254486965
 21
4.4355220697
  0
LINE
  5
25D
100
AcDbEntity
  8
0
100
AcDbLine
 62
7
  6
CONTINUOUS
 10
4.4399901851
 20
4.8207234753
 11
4.4449356179
 21
4.8309200075
  0
LINE
  5
25E
100
AcDbEntity
  8
0
100
AcDbLine
 62
7
  6
CONTINUOUS
 10
4.4071417617
 20
4.9351451399
 11
4.4125511971
 21
4.9451226892
  0
LINE
  5
25F
100
AcDbEntity
  8
0
100
AcDbLine
 62
7
  6
CONTINUOUS
 10
4.1298346801
 20
4.4244236391
 11
4.1352563673
 21
4.4343945361
  0
LINE
  5
260
100
AcDbEntity
  8
0
100
AcDbLine
 62
7
  6
CONTINUOUS
 10
4.2447488596
 20
4.4494960071
 11
4.250331115
 21
4.4593583089
  0
LINE
  5
261
100
AcDbEntity
  8
0
100
AcDbLine
 62
7
  6
CONTINUOUS
 10
4.4619678173
 20
4.830843805
 11
4.4676049368
 21
4.8406748505
  0
LINE
  5
262
100
AcDbEntity
  8
0
100
AcDbLine
 62
7
  6
CONTINUOUS
 10
4.4297783103
 20
4.9445215053
 11
4.4357025168
 21
4.9542022727
  0
LINE
  5
263
100
AcDbEntity
  8
0
100
AcDbLine
 62
7
  6
CONTINUOUS
 10
4.1261221702
 20
4.4490130619
 11
4.1320582636
 21
4.4586865449
  0
LINE
  5
264
100
AcDbEntity
  8
0
100
AcDbLine
 62
7
  6
CONTINUOUS
 10
4.2415802908
 20
4.4739707932
 11
4.2478296567
 21
4.4834244696
  0
LINE
  5
265
100
AcDbEntity
  8
0
100
AcDbLine
 62
7
  6
CONTINUOUS
 10
4.4845912958
 20
4.8394237587
 11
4.4908932387
 21
4.8488424682
  0
LINE
  5
266
100
AcDbEntity
  8
0
100
AcDbLine
 62
7
  6
CONTINUOUS
 10
4.4528745573
 20
4.9527003154
 11
4.4592972971
 21
4.9620577666
  0
LINE
  5
267
100
AcDbEntity
  8
0
100
AcDbLine
 62
7
  6
CONTINUOUS
 10
4.1237016592
 20
4.4737630834
 11
4.1301358884
 21
4.4831126382
  0
LINE
  5
268
100
AcDbEntity
  8
0
100
AcDbLine
 62
7
  6
CONTINUOUS
 10
4.2401078153
 20
4.4986058657
 11
4.2469945107
 21
4.5076058657
  0
LINE
  5
269
100
AcDbEntity
  8
0
100
AcDbLine
 62
7
  6
CONTINUOUS
 10
4.4763671976
 20
4.9596591524
 11
4.4832708664
 21
4.9686676394
  0
LINE
  5
26A
100
AcDbEntity
  8
0
100
AcDbLine
 62
7
  6
CONTINUOUS
 10
4.1225797815
 20
4.4986058657
 11
4.1294945107
 21
4.5076058657
  0
LINE
  5
26B
100
AcDbEntity
  8
0
100
AcDbLine
 62
7
  6
CONTINUOUS
 10
4.5077528096
 20
4.846422449
 11
4.5146895443
 21
4.855383938
  0
LINE
  5
26C
100
AcDbEntity
  8
0
100
AcDbLine
 62
7
  6
CONTINUOUS
 10
4.5001918394
 20
4.9653789429
 11
4.5075575147
 21
4.9740137739
  0
LINE
  5
26D
100
AcDbEntity
  8
0
100
AcDbLine
 62
7
  6
CONTINUOUS
 10
4.122759612
 20
4.5234733164
 11
4.1301358884
 21
4.5320990933
  0
LINE
  5
26E
100
AcDbEntity
  8
0
100
AcDbLine
 62
7
  6
CONTINUOUS
 10
4.2403384502
 20
4.5232838274
 11
4.2478296567
 21
4.5317872619
  0
LINE
  5
26F
100
AcDbEntity
  8
0
100
AcDbLine
 62
7
  6
CONTINUOUS
 10
4.5313419835
 20
4.851806524
 11
4.5388804531
 21
4.8602680869
  0
LINE
  5
270
100
AcDbEntity
  8
0
100
AcDbLine
 62
7
  6
CONTINUOUS
 10
4.524283181
 20
4.9698440091
 11
4.5320906741
 21
4.9780815167
  0
LINE
  5
271
100
AcDbEntity
  8
0
100
AcDbLine
 62
7
  6
CONTINUOUS
 10
4.1242406579
 20
4.5482972755
 11
4.1320582636
 21
4.5565251866
  0
LINE
  5
272
100
AcDbEntity
  8
0
100
AcDbLine
 62
7
  6
CONTINUOUS
 10
4.2422710964
 20
4.5478870764
 11
4.250331115
 21
4.5558534226
  0
LINE
  5
273
100
AcDbEntity
  8
0
100
AcDbLine
 62
7
  6
CONTINUOUS
 10
4.5552464042
 20
4.8555503261
 11
4.5633506847
 21
4.8634716398
  0
LINE
  5
274
100
AcDbEntity
  8
0
100
AcDbLine
 62
7
  6
CONTINUOUS
 10
4.5485751899
 20
4.9730421128
 11
4.5568031009
 21
4.9808597185
  0
LINE
  5
275
100
AcDbEntity
  8
0
100
AcDbLine
 62
7
  6
CONTINUOUS
 10
4.1270188597
 20
4.5730097023
 11
4.1352563673
 21
4.5808171954
  0
LINE
  5
276
100
AcDbEntity
  8
0
100
AcDbLine
 62
7
  6
CONTINUOUS
 10
4.2458965439
 20
4.5722983671
 11
4.254486965
 21
4.5796896618
  0
LINE
  5
277
100
AcDbEntity
  8
0
100
AcDbLine
 62
7
  6
CONTINUOUS
 10
4.5730012831
 20
4.974964488
 11
4.58162706
 21
4.9823407644
  0
LINE
  5
278
100
AcDbEntity
  8
0
100
AcDbLine
 62
7
  6
CONTINUOUS
 10
4.1310866025
 20
4.5975428617
 11
4.1397214335
 21
4.604908537
  0
LINE
  5
279
100
AcDbEntity
  8
0
100
AcDbLine
 62
7
  6
CONTINUOUS
 10
4.5793521565
 20
4.8576360144
 11
4.5879836272
 21
4.8649793302
  0
LINE
  5
27A
100
AcDbEntity
  8
0
100
AcDbLine
 62
7
  6
CONTINUOUS
 10
4.5974945107
 20
4.9756058657
 11
4.6064945107
 21
4.9825205949
  0
LINE
  5
27B
100
AcDbEntity
  8
0
100
AcDbLine
 62
7
  6
CONTINUOUS
 10
4.1364327371
 20
4.62182951
 11
4.145441224
 21
4.6287331789
  0
LINE
  5
27C
100
AcDbEntity
  8
0
100
AcDbLine
 62
7
  6
CONTINUOUS
 10
4.2511975158
 20
4.5964013686
 11
4.2602774022
 21
4.6031823888
  0
LINE
  5
27D
100
AcDbEntity
  8
0
100
AcDbLine
 62
7
  6
CONTINUOUS
 10
4.6035443653
 20
4.8580536497
 11
4.6126618933
 21
4.8647839733
  0
LINE
  5
27E
100
AcDbEntity
  8
0
100
AcDbLine
 62
7
  6
CONTINUOUS
 10
4.6219877382
 20
4.974964488
 11
4.631337293
 21
4.9813987172
  0
LINE
  5
27F
100
AcDbEntity
  8
0
100
AcDbLine
 62
7
  6
CONTINUOUS
 10
4.1430426098
 20
4.6458030793
 11
4.152400061
 21
4.6522258191
  0
LINE
  5
280
100
AcDbEntity
  8
0
100
AcDbLine
 62
7
  6
CONTINUOUS
 10
4.2581487506
 20
4.6200812191
 11
4.2676748325
 21
4.6262196502
  0
LINE
  5
281
100
AcDbEntity
  8
0
100
AcDbLine
 62
7
  6
CONTINUOUS
 10
4.6277077438
 20
4.8568012416
 11
4.6372678799
 21
4.8628865
  0
LINE
  5
282
100
AcDbEntity
  8
0
100
AcDbLine
 62
7
  6
CONTINUOUS
 10
4.6464138315
 20
4.9730421128
 11
4.6560873145
 21
4.9789782062
  0
LINE
  5
283
100
AcDbEntity
  8
0
100
AcDbLine
 62
7
  6
CONTINUOUS
 10
4.1508981037
 20
4.6693978596
 11
4.1605788711
 21
4.6753220661
  0
LINE
  5
284
100
AcDbEntity
  8
0
100
AcDbLine
 62
7
  6
CONTINUOUS
 10
4.2667171225
 20
4.6432250733
 11
4.2766440037
 21
4.6486916629
  0
LINE
  5
285
100
AcDbEntity
  8
0
100
AcDbLine
 62
7
  6
CONTINUOUS
 10
4.6707058403
 20
4.9698440091
 11
4.6806767373
 21
4.9752656964
  0
LINE
  5
286
100
AcDbEntity
  8
0
100
AcDbLine
 62
7
  6
CONTINUOUS
 10
4.6517271425
 20
4.8538847586
 11
4.6616843284
 21
4.8592959528
  0
LINE
  5
287
100
AcDbEntity
  8
0
100
AcDbLine
 62
7
  6
CONTINUOUS
 10
4.1599776873
 20
4.6925491793
 11
4.1699552365
 21
4.6979586147
  0
LINE
  5
288
100
AcDbEntity
  8
0
100
AcDbLine
 62
7
  6
CONTINUOUS
 10
5.4155042108
 20
5.2564090574
 11
5.4245721892
 21
5.2611962909
  0
LINE
  5
289
100
AcDbEntity
  8
0
100
AcDbLine
 62
7
  6
CONTINUOUS
 10
4.2768617992
 20
4.6657226402
 11
4.2871421737
 21
4.6704913375
  0
LINE
  5
28A
100
AcDbEntity
  8
0
100
AcDbLine
 62
7
  6
CONTINUOUS
 10
4.675488098
 20
4.849318099
 11
4.6857948831
 21
4.8540294421
  0
LINE
  5
28B
100
AcDbEntity
  8
0
100
AcDbLine
 62
7
  6
CONTINUOUS
 10
4.2885344369
 20
4.6874667087
 11
4.2991193139
 21
4.6915147887
  0
LINE
  5
28C
100
AcDbEntity
  8
0
100
AcDbLine
 62
7
  6
CONTINUOUS
 10
4.6988773786
 20
4.8431230249
 11
4.7094846463
 21
4.8471120653
  0
LINE
  5
28D
100
AcDbEntity
  8
0
100
AcDbLine
 62
7
  6
CONTINUOUS
 10
4.30167941
 20
4.7083536583
 11
4.3125183478
 21
4.7116618301
  0
LINE
  5
28E
100
AcDbEntity
  8
0
100
AcDbLine
 62
7
  6
CONTINUOUS
 10
4.7217835236
 20
4.8353290588
 11
4.7326407256
 21
4.8385767868
  0
LINE
  5
28F
100
AcDbEntity
  8
0
100
AcDbLine
 62
7
  6
CONTINUOUS
 10
4.7474945107
 20
4.0551058657
 11
4.4474945107
 21
4.0551058657
  0
LINE
  5
290
100
AcDbEntity
  8
0
100
AcDbLine
 62
7
  6
CONTINUOUS
 10
4.7474945107
 20
4.1176058657
 11
4.4474945107
 21
4.1176058657
  0
LINE
  5
291
100
AcDbEntity
  8
0
100
AcDbLine
 62
7
  6
CONTINUOUS
 10
5.2199851524
 20
3.811462249
 11
5.2099450435
 21
3.8138558657
  0
LINE
  5
292
100
AcDbEntity
  8
0
100
AcDbLine
 62
7
  6
CONTINUOUS
 10
5.3123541402
 20
3.811462249
 11
5.3023140256
 21
3.8138558657
  0
LINE
  5
293
100
AcDbEntity
  8
0
100
AcDbLine
 62
7
  6
CONTINUOUS
 10
5.4970921042
 20
3.811462249
 11
5.4870519896
 21
3.8138558657
  0
LINE
  5
294
100
AcDbEntity
  8
0
100
AcDbLine
 62
7
  6
CONTINUOUS
 10
5.2099450435
 20
3.7994941653
 11
5.2179771329
 21
3.7971005486
  0
LINE
  5
295
100
AcDbEntity
  8
0
100
AcDbLine
 62
7
  6
CONTINUOUS
 10
5.3023140256
 20
3.7994941653
 11
5.3103461149
 21
3.7971005486
  0
LINE
  5
296
100
AcDbEntity
  8
0
100
AcDbLine
 62
7
  6
CONTINUOUS
 10
5.4870519896
 20
3.7994941653
 11
5.4950840905
 21
3.7971005486
  0
LINE
  5
297
100
AcDbEntity
  8
0
100
AcDbLine
 62
7
  6
CONTINUOUS
 10
5.1738006599
 20
3.7085367168
 11
5.1818327464
 21
3.7037494827
  0
LINE
  5
298
100
AcDbEntity
  8
0
100
AcDbLine
 62
7
  6
CONTINUOUS
 10
4.1605788711
 20
4.3398896654
 11
4.1508981037
 21
4.3458138719
  0
LINE
  5
299
100
AcDbEntity
  8
0
100
AcDbLine
 62
7
  6
CONTINUOUS
 10
4.152400061
 20
4.3629859124
 11
4.1430426098
 21
4.3694086522
  0
LINE
  5
29A
100
AcDbEntity
  8
0
100
AcDbLine
 62
7
  6
CONTINUOUS
 10
4.145441224
 20
4.3864785526
 11
4.1364327371
 21
4.3933822215
  0
LINE
  5
29B
100
AcDbEntity
  8
0
100
AcDbLine
 62
7
  6
CONTINUOUS
 10
4.1397214335
 20
4.4103031944
 11
4.1310866025
 21
4.4176688698
  0
LINE
  5
29C
100
AcDbEntity
  8
0
100
AcDbLine
 62
7
  6
CONTINUOUS
 10
4.1352563673
 20
4.4343945361
 11
4.1270188597
 21
4.4422020292
  0
LINE
  5
29D
100
AcDbEntity
  8
0
100
AcDbLine
 62
7
  6
CONTINUOUS
 10
4.1320582636
 20
4.4586865449
 11
4.1242406579
 21
4.466914456
  0
LINE
  5
29E
100
AcDbEntity
  8
0
100
AcDbLine
 62
7
  6
CONTINUOUS
 10
4.1301358884
 20
4.4831126382
 11
4.122759612
 21
4.4917384151
  0
LINE
  5
29F
100
AcDbEntity
  8
0
100
AcDbLine
 62
7
  6
CONTINUOUS
 10
4.1294945107
 20
4.5076058657
 11
4.1225797815
 21
4.5166058657
  0
LINE
  5
2A0
100
AcDbEntity
  8
0
100
AcDbLine
 62
7
  6
CONTINUOUS
 10
4.1301358884
 20
4.5320990933
 11
4.1237016592
 21
4.541448648
  0
LINE
  5
2A1
100
AcDbEntity
  8
0
100
AcDbLine
 62
7
  6
CONTINUOUS
 10
4.1320582636
 20
4.5565251866
 11
4.1261221702
 21
4.5661986696
  0
LINE
  5
2A2
100
AcDbEntity
  8
0
100
AcDbLine
 62
7
  6
CONTINUOUS
 10
4.1352563673
 20
4.5808171954
 11
4.1298346801
 21
4.5907880924
  0
LINE
  5
2A3
100
AcDbEntity
  8
0
100
AcDbLine
 62
7
  6
CONTINUOUS
 10
4.4125511971
 20
4.0700890423
 11
4.4071417617
 21
4.0800665916
  0
LINE
  5
2A4
100
AcDbEntity
  8
0
100
AcDbLine
 62
7
  6
CONTINUOUS
 10
4.1397214335
 20
4.604908537
 11
4.134829013
 21
4.6151495185
  0
LINE
  5
2A5
100
AcDbEntity
  8
0
100
AcDbLine
 62
7
  6
CONTINUOUS
 10
4.3899067941
 20
4.0803678291
 11
4.3850269568
 21
4.0906148124
  0
LINE
  5
2A6
100
AcDbEntity
  8
0
100
AcDbLine
 62
7
  6
CONTINUOUS
 10
4.145441224
 20
4.6287331789
 11
4.1410914799
 21
4.6392161749
  0
LINE
  5
2A7
100
AcDbEntity
  8
0
100
AcDbLine
 62
7
  6
CONTINUOUS
 10
4.3678313747
 20
4.0918176456
 11
4.3634945107
 21
4.1023059768
  0
LINE
  5
2A8
100
AcDbEntity
  8
0
100
AcDbLine
 62
7
  6
CONTINUOUS
 10
4.152400061
 20
4.6522258191
 11
4.1486049157
 21
4.6629220966
  0
LINE
  5
2A9
100
AcDbEntity
  8
0
100
AcDbLine
 62
7
  6
CONTINUOUS
 10
4.346385446
 20
4.1044071088
 11
4.3426034423
 21
4.1151080399
  0
LINE
  5
2AA
100
AcDbEntity
  8
0
100
AcDbLine
 62
7
  6
CONTINUOUS
 10
4.1605788711
 20
4.6753220661
 11
4.1573487268
 21
4.6862023073
  0
LINE
  5
2AB
100
AcDbEntity
  8
0
100
AcDbLine
 62
7
  6
CONTINUOUS
 10
4.3256277897
 20
4.1181017117
 11
4.3224110126
 21
4.1289859124
  0
LINE
  5
2AC
100
AcDbEntity
  8
0
100
AcDbLine
 62
7
  6
CONTINUOUS
 10
4.1699552365
 20
4.6979586147
 11
4.1672989468
 21
4.7089929976
  0
LINE
  5
2AD
100
AcDbEntity
  8
0
100
AcDbLine
 62
7
  6
CONTINUOUS
 10
4.3056153012
 20
4.1328639184
 11
4.3029725677
 21
4.1439015558
  0
LINE
  5
2AE
100
AcDbEntity
  8
0
100
AcDbLine
 62
7
  6
CONTINUOUS
 10
4.1805034573
 20
4.7200734196
 11
4.178428303
 21
4.7312316997
  0
LINE
  5
2AF
100
AcDbEntity
  8
0
100
AcDbLine
 62
7
  6
CONTINUOUS
 10
4.2864028334
 20
4.1486532668
 11
4.2843413869
 21
4.1598140874
  0
LINE
  5
2B0
100
AcDbEntity
  8
0
100
AcDbLine
 62
7
  6
CONTINUOUS
 10
4.1921946217
 20
4.7416058657
 11
4.1907062906
 21
4.752857459
  0
LINE
  5
2B1
100
AcDbEntity
  8
0
100
AcDbLine
 62
7
  6
CONTINUOUS
 10
4.2680430462
 20
4.1654264792
 11
4.2665685371
 21
4.1766798922
  0
LINE
  5
2B2
100
AcDbEntity
  8
0
100
AcDbLine
 62
7
  6
CONTINUOUS
 10
4.3445232158
 20
4.2549959412
 11
4.343320215
 21
4.2662644532
  0
LINE
  5
2B3
100
AcDbEntity
  8
0
100
AcDbLine
 62
7
  6
CONTINUOUS
 10
4.2991193139
 20
4.6915147887
 11
4.2979791177
 21
4.7027898286
  0
LINE
  5
2B4
100
AcDbEntity
  8
0
100
AcDbLine
 62
7
  6
CONTINUOUS
 10
4.3276981297
 20
4.273050621
 11
4.3272754229
 21
4.2843752796
  0
LINE
  5
2B5
100
AcDbEntity
  8
0
100
AcDbLine
 62
7
  6
CONTINUOUS
 10
4.3125183478
 20
4.7116618301
 11
4.3121587463
 21
4.7229886681
  0
LINE
  5
2B6
100
AcDbEntity
  8
0
100
AcDbLine
 62
7
  6
CONTINUOUS
 10
4.4474945107
 20
4.0551058657
 11
4.4474945107
 21
2.7651058657
  0
LINE
  5
2B7
100
AcDbEntity
  8
0
100
AcDbLine
 62
7
  6
CONTINUOUS
 10
4.4532445107
 20
5.6638558657
 11
4.4532445107
 21
5.5513558657
  0
LINE
  5
2B8
100
AcDbEntity
  8
0
100
AcDbLine
 62
7
  6
CONTINUOUS
 10
4.3121587463
 20
4.2922230634
 11
4.3125183478
 21
4.3035499014
  0
LINE
  5
2B9
100
AcDbEntity
  8
0
100
AcDbLine
 62
7
  6
CONTINUOUS
 10
4.3272754229
 20
4.7308364519
 11
4.3276981297
 21
4.7421611105
  0
LINE
  5
2BA
100
AcDbEntity
  8
0
100
AcDbLine
 62
7
  6
CONTINUOUS
 10
4.2979791177
 20
4.3124219029
 11
4.2991193139
 21
4.3236969428
  0
LINE
  5
2BB
100
AcDbEntity
  8
0
100
AcDbLine
 62
7
  6
CONTINUOUS
 10
4.343320215
 20
4.7489472783
 11
4.3445232158
 21
4.7602157903
  0
LINE
  5
2BC
100
AcDbEntity
  8
0
100
AcDbLine
 62
7
  6
CONTINUOUS
 10
4.5527973314
 20
5.6375260817
 11
4.5507656374
 21
5.6255579913
  0
LINE
  5
2BD
100
AcDbEntity
  8
0
100
AcDbLine
 62
7
  6
CONTINUOUS
 10
4.6300015529
 20
5.5776856532
 11
4.6320332469
 21
5.5896537369
  0
LINE
  5
2BE
100
AcDbEntity
  8
0
100
AcDbLine
 62
7
  6
CONTINUOUS
 10
4.2852268163
 20
4.3335508828
 11
4.2871421737
 21
4.3447203939
  0
LINE
  5
2BF
100
AcDbEntity
  8
0
100
AcDbLine
 62
7
  6
CONTINUOUS
 10
4.5629557783
 20
5.6255579913
 11
4.5649874723
 21
5.6351324582
  0
LINE
  5
2C0
100
AcDbEntity
  8
0
100
AcDbLine
 62
7
  6
CONTINUOUS
 10
4.6198431061
 20
5.5896537369
 11
4.6178114121
 21
5.5800792699
  0
LINE
  5
2C1
100
AcDbEntity
  8
0
100
AcDbLine
 62
7
  6
CONTINUOUS
 10
4.8862043084
 20
4.2967672955
 11
4.8752576438
 21
4.2938352132
  0
LINE
  5
2C2
100
AcDbEntity
  8
0
100
AcDbLine
 62
7
  6
CONTINUOUS
 10
4.4619678173
 20
4.1843679265
 11
4.4510049856
 21
4.1814968824
  0
LINE
  5
2C3
100
AcDbEntity
  8
0
100
AcDbLine
 62
7
  6
CONTINUOUS
 10
4.4071417617
 20
4.0800665916
 11
4.3961073788
 21
4.0774103019
  0
LINE
  5
2C4
100
AcDbEntity
  8
0
100
AcDbLine
 62
7
  6
CONTINUOUS
 10
4.972236458
 20
4.2157266563
 11
4.9611988206
 21
4.2130839227
  0
LINE
  5
2C5
100
AcDbEntity
  8
0
100
AcDbLine
 62
7
  6
CONTINUOUS
 10
4.8709703973
 20
4.2773512471
 11
4.8598475279
 21
4.275181374
  0
LINE
  5
2C6
100
AcDbEntity
  8
0
100
AcDbLine
 62
7
  6
CONTINUOUS
 10
4.4399901851
 20
4.1944882562
 11
4.4288553983
 21
4.1923803912
  0
LINE
  5
2C7
100
AcDbEntity
  8
0
100
AcDbLine
 62
7
  6
CONTINUOUS
 10
4.3850269568
 20
4.0906148124
 11
4.3738686767
 21
4.0885396581
  0
LINE
  5
2C8
100
AcDbEntity
  8
0
100
AcDbLine
 62
7
  6
CONTINUOUS
 10
4.9564471097
 20
4.1965141885
 11
4.945286289
 21
4.194452742
  0
LINE
  5
2C9
100
AcDbEntity
  8
0
100
AcDbLine
 62
7
  6
CONTINUOUS
 10
4.3634945107
 20
4.1023059768
 11
4.3522429174
 21
4.1008176456
  0
LINE
  5
2CA
100
AcDbEntity
  8
0
100
AcDbLine
 62
7
  6
CONTINUOUS
 10
4.9396738972
 20
4.1781544013
 11
4.9284204843
 21
4.1766798922
  0
LINE
  5
2CB
100
AcDbEntity
  8
0
100
AcDbLine
 62
7
  6
CONTINUOUS
 10
4.8544332491
 20
4.2590324667
 11
4.8431871804
 21
4.2576351434
  0
LINE
  5
2CC
100
AcDbEntity
  8
0
100
AcDbLine
 62
7
  6
CONTINUOUS
 10
4.4187631328
 20
4.2061007338
 11
4.4075094531
 21
4.2047660931
  0
LINE
  5
2CD
100
AcDbEntity
  8
0
100
AcDbLine
 62
7
  6
CONTINUOUS
 10
4.3426034423
 20
4.1151080399
 11
4.3312893757
 21
4.1142106114
  0
LINE
  5
2CE
100
AcDbEntity
  8
0
100
AcDbLine
 62
7
  6
CONTINUOUS
 10
4.9219627948
 20
4.1606976177
 11
4.9106476344
 21
4.1598140874
  0
LINE
  5
2CF
100
AcDbEntity
  8
0
100
AcDbLine
 62
7
  6
CONTINUOUS
 10
4.8366716708
 20
4.2418982518
 11
4.8253559955
 21
4.2412801371
  0
LINE
  5
2D0
100
AcDbEntity
  8
0
100
AcDbLine
 62
7
  6
CONTINUOUS
 10
4.3983878169
 20
4.2191500208
 11
4.3870688733
 21
4.2185949643
  0
LINE
  5
2D1
100
AcDbEntity
  8
0
100
AcDbLine
 62
7
  6
CONTINUOUS
 10
4.3224110126
 20
4.1289859124
 11
4.3110654838
 21
4.1286818462
  0
LINE
  5
2D2
100
AcDbEntity
  8
0
100
AcDbLine
 62
7
  6
CONTINUOUS
 10
4.9033623474
 20
4.1441916854
 11
4.8920164537
 21
4.1439015558
  0
LINE
  5
2D3
100
AcDbEntity
  8
0
100
AcDbLine
 62
7
  6
CONTINUOUS
 10
4.4804945107
 20
4.1551058657
 11
4.7144945107
 21
4.1551058657
  0
LINE
  5
2D4
100
AcDbEntity
  8
0
100
AcDbLine
 62
7
  6
CONTINUOUS
 10
4.8177703044
 20
4.2260302547
 11
4.8064389468
 21
4.2261942942
  0
LINE
  5
2D5
100
AcDbEntity
  8
0
100
AcDbLine
 62
7
  6
CONTINUOUS
 10
4.3789613351
 20
4.2335739311
 11
4.3676310675
 21
4.2338011041
  0
LINE
  5
2D6
100
AcDbEntity
  8
0
100
AcDbLine
 62
7
  6
CONTINUOUS
 10
4.3029725677
 20
4.1439015558
 11
4.2916266739
 21
4.1441916854
  0
LINE
  5
2D7
100
AcDbEntity
  8
0
100
AcDbLine
 62
7
  6
CONTINUOUS
 10
4.8839235375
 20
4.1286818462
 11
4.8725780087
 21
4.1289859124
  0
LINE
  5
2D8
100
AcDbEntity
  8
0
100
AcDbLine
 62
7
  6
CONTINUOUS
 10
4.2843413869
 20
4.1598140874
 11
4.2730262265
 21
4.1606976177
  0
LINE
  5
2D9
100
AcDbEntity
  8
0
100
AcDbLine
 62
7
  6
CONTINUOUS
 10
4.8636996456
 20
4.1142106114
 11
4.8523855791
 21
4.1151080399
  0
LINE
  5
2DA
100
AcDbEntity
  8
0
100
AcDbLine
 62
7
  6
CONTINUOUS
 10
4.7978192235
 20
4.2115040937
 11
4.7865261828
 21
4.2124495056
  0
LINE
  5
2DB
100
AcDbEntity
  8
0
100
AcDbLine
 62
7
  6
CONTINUOUS
 10
4.3605762634
 20
4.2493037285
 11
4.3492886656
 21
4.2503120483
  0
LINE
  5
2DC
100
AcDbEntity
  8
0
100
AcDbLine
 62
7
  6
CONTINUOUS
 10
4.2665685371
 20
4.1766798922
 11
4.2553151241
 21
4.1781544013
  0
LINE
  5
2DD
100
AcDbEntity
  8
0
100
AcDbLine
 62
7
  6
CONTINUOUS
 10
4.8427461039
 20
4.1008176456
 11
4.8314945107
 21
4.1023059768
  0
LINE
  5
2DE
100
AcDbEntity
  8
0
100
AcDbLine
 62
7
  6
CONTINUOUS
 10
4.7769135041
 20
4.1983889924
 11
4.7657125967
 21
4.2001112714
  0
LINE
  5
2DF
100
AcDbEntity
  8
0
100
AcDbLine
 62
7
  6
CONTINUOUS
 10
4.343320215
 20
4.2662644532
 11
4.3321290776
 21
4.2680491147
  0
LINE
  5
2E0
100
AcDbEntity
  8
0
100
AcDbLine
 62
7
  6
CONTINUOUS
 10
4.2497027323
 20
4.194452742
 11
4.2385419117
 21
4.1965141885
  0
LINE
  5
2E1
100
AcDbEntity
  8
0
100
AcDbLine
 62
7
  6
CONTINUOUS
 10
4.8211203446
 20
4.0885396581
 11
4.8099620645
 21
4.0906148124
  0
LINE
  5
2E2
100
AcDbEntity
  8
0
100
AcDbLine
 62
7
  6
CONTINUOUS
 10
4.7551527716
 20
4.1867474503
 11
4.7440973748
 21
4.1892383891
  0
LINE
  5
2E3
100
AcDbEntity
  8
0
100
AcDbLine
 62
7
  6
CONTINUOUS
 10
4.3272754229
 20
4.2843752796
 11
4.3162340768
 21
4.2869277782
  0
LINE
  5
2E4
100
AcDbEntity
  8
0
100
AcDbLine
 62
7
  6
CONTINUOUS
 10
4.2337902007
 20
4.2130839227
 11
4.2227525633
 21
4.2157266563
  0
LINE
  5
2E5
100
AcDbEntity
  8
0
100
AcDbLine
 62
7
  6
CONTINUOUS
 10
4.7988816425
 20
4.0774103019
 11
4.7878472596
 21
4.0800665916
  0
LINE
  5
2E6
100
AcDbEntity
  8
0
100
AcDbLine
 62
7
  6
CONTINUOUS
 10
4.2188745573
 20
4.2325223677
 11
4.2079903566
 21
4.2357391448
  0
LINE
  5
2E7
100
AcDbEntity
  8
0
100
AcDbLine
 62
7
  6
CONTINUOUS
 10
4.7760909522
 20
4.0674600819
 11
4.7730369057
 21
4.0683667723
  0
LINE
  5
2E8
100
AcDbEntity
  8
0
100
AcDbLine
 62
7
  6
CONTINUOUS
 10
4.7326407256
 20
4.1766349447
 11
4.7217835236
 21
4.1798826727
  0
LINE
  5
2E9
100
AcDbEntity
  8
0
100
AcDbLine
 62
7
  6
CONTINUOUS
 10
4.3125183478
 20
4.3035499014
 11
4.30167941
 21
4.3068580731
  0
LINE
  5
2EA
100
AcDbEntity
  8
0
100
AcDbLine
 62
7
  6
CONTINUOUS
 10
4.2049966849
 20
4.2527147974
 11
4.1942957537
 21
4.256496801
  0
LINE
  5
2EB
100
AcDbEntity
  8
0
100
AcDbLine
 62
7
  6
CONTINUOUS
 10
4.7094846463
 20
4.1680996662
 11
4.6988773786
 21
4.1720887066
  0
LINE
  5
2EC
100
AcDbEntity
  8
0
100
AcDbLine
 62
7
  6
CONTINUOUS
 10
4.2991193139
 20
4.3236969428
 11
4.2885344369
 21
4.3277450228
  0
LINE
  5
2ED
100
AcDbEntity
  8
0
100
AcDbLine
 62
7
  6
CONTINUOUS
 10
4.1921946217
 20
4.2736058657
 11
4.1817062906
 21
4.2779427298
  0
LINE
  5
2EE
100
AcDbEntity
  8
0
100
AcDbLine
 62
7
  6
CONTINUOUS
 10
4.2871421737
 20
4.3447203939
 11
4.2768617992
 21
4.3494890913
  0
LINE
  5
2EF
100
AcDbEntity
  8
0
100
AcDbLine
 62
7
  6
CONTINUOUS
 10
4.1805034573
 20
4.2951383119
 11
4.170256474
 21
4.3000181492
  0
LINE
  5
2F0
100
AcDbEntity
  8
0
100
AcDbLine
 62
7
  6
CONTINUOUS
 10
4.1699552365
 20
4.3172531168
 11
4.1599776873
 21
4.3226625522
  0
LINE
  5
2F1
100
AcDbEntity
  8
0
100
AcDbLine
 62
7
  6
CONTINUOUS
 10
4.2766440037
 20
4.3665200686
 11
4.2667171225
 21
4.3719866582
  0
LINE
  5
2F2
100
AcDbEntity
  8
0
100
AcDbLine
 62
7
  6
CONTINUOUS
 10
5.2681776657
 20
3.7085367168
 11
5.2762097551
 21
3.7037494827
  0
LINE
  5
2F3
100
AcDbEntity
  8
0
100
AcDbLine
 62
7
  6
CONTINUOUS
 10
5.228017236
 20
3.8066750155
 11
5.2199851524
 21
3.811462249
  0
LINE
  5
2F4
100
AcDbEntity
  8
0
100
AcDbLine
 62
7
  6
CONTINUOUS
 10
5.3203862181
 20
3.8066750155
 11
5.3123541402
 21
3.811462249
  0
LINE
  5
2F5
100
AcDbEntity
  8
0
100
AcDbLine
 62
7
  6
CONTINUOUS
 10
4.2676748325
 20
4.3889920813
 11
4.2581487506
 21
4.3951305124
  0
LINE
  5
2F6
100
AcDbEntity
  8
0
100
AcDbLine
 62
7
  6
CONTINUOUS
 10
4.2602774022
 20
4.4120293427
 11
4.2511975158
 21
4.4188103629
  0
LINE
  5
2F7
100
AcDbEntity
  8
0
100
AcDbLine
 62
7
  6
CONTINUOUS
 10
5.1838407673
 20
3.7181111846
 11
5.1778167032
 21
3.7228984197
  0
LINE
  5
2F8
100
AcDbEntity
  8
0
100
AcDbLine
 62
7
  6
CONTINUOUS
 10
4.254486965
 20
4.4355220697
 11
4.2458965439
 21
4.4429133643
  0
LINE
  5
2F9
100
AcDbEntity
  8
0
100
AcDbLine
 62
7
  6
CONTINUOUS
 10
4.250331115
 20
4.4593583089
 11
4.2422710964
 21
4.4673246551
  0
LINE
  5
2FA
100
AcDbEntity
  8
0
100
AcDbLine
 62
7
  6
CONTINUOUS
 10
4.2478296567
 20
4.4834244696
 11
4.2403384502
 21
4.4919279041
  0
LINE
  5
2FB
100
AcDbEntity
  8
0
100
AcDbLine
 62
7
  6
CONTINUOUS
 10
4.2469945107
 20
4.5076058657
 11
4.2401078153
 21
4.5166058657
  0
LINE
  5
2FC
100
AcDbEntity
  8
0
100
AcDbLine
 62
7
  6
CONTINUOUS
 10
4.4908932387
 20
4.1663692633
 11
4.4845912958
 21
4.1757879728
  0
LINE
  5
2FD
100
AcDbEntity
  8
0
100
AcDbLine
 62
7
  6
CONTINUOUS
 10
4.2478296567
 20
4.5317872619
 11
4.2415802908
 21
4.5412409383
  0
LINE
  5
2FE
100
AcDbEntity
  8
0
100
AcDbLine
 62
7
  6
CONTINUOUS
 10
4.4676049368
 20
4.174536881
 11
4.4619678173
 21
4.1843679265
  0
LINE
  5
2FF
100
AcDbEntity
  8
0
100
AcDbLine
 62
7
  6
CONTINUOUS
 10
4.250331115
 20
4.5558534226
 11
4.2447488596
 21
4.5657157244
  0
LINE
  5
300
100
AcDbEntity
  8
0
100
AcDbLine
 62
7
  6
CONTINUOUS
 10
4.4449356179
 20
4.184291724
 11
4.4399901851
 21
4.1944882562
  0
LINE
  5
301
100
AcDbEntity
  8
0
100
AcDbLine
 62
7
  6
CONTINUOUS
 10
4.254486965
 20
4.5796896618
 11
4.2495984221
 21
4.5899135906
  0
LINE
  5
302
100
AcDbEntity
  8
0
100
AcDbLine
 62
7
  6
CONTINUOUS
 10
4.4229933115
 20
4.1955873062
 11
4.4187631328
 21
4.2061007338
  0
LINE
  5
303
100
AcDbEntity
  8
0
100
AcDbLine
 62
7
  6
CONTINUOUS
 10
4.2602774022
 20
4.6031823888
 11
4.2561058679
 21
4.613719223
  0
LINE
  5
304
100
AcDbEntity
  8
0
100
AcDbLine
 62
7
  6
CONTINUOUS
 10
4.4018825829
 20
4.2083697989
 11
4.3983878169
 21
4.2191500208
  0
LINE
  5
305
100
AcDbEntity
  8
0
100
AcDbLine
 62
7
  6
CONTINUOUS
 10
4.2676748325
 20
4.6262196502
 11
4.264240186
 21
4.6370191769
  0
LINE
  5
306
100
AcDbEntity
  8
0
100
AcDbLine
 62
7
  6
CONTINUOUS
 10
4.3817040341
 20
4.2225782877
 11
4.3789613351
 21
4.2335739311
  0
LINE
  5
307
100
AcDbEntity
  8
0
100
AcDbLine
 62
7
  6
CONTINUOUS
 10
4.2766440037
 20
4.6486916629
 11
4.2739626128
 21
4.6597024175
  0
LINE
  5
308
100
AcDbEntity
  8
0
100
AcDbLine
 62
7
  6
CONTINUOUS
 10
4.3625538253
 20
4.2381450627
 11
4.3605762634
 21
4.2493037285
  0
LINE
  5
309
100
AcDbEntity
  8
0
100
AcDbLine
 62
7
  6
CONTINUOUS
 10
4.2871421737
 20
4.6704913375
 11
4.2852268163
 21
4.6816608487
  0
LINE
  5
30A
100
AcDbEntity
  8
0
100
AcDbLine
 62
7
  6
CONTINUOUS
 10
4.4654346515
 20
5.5513558657
 11
4.4654346515
 21
5.6040154406
  0
LINE
  5
30B
100
AcDbEntity
  8
0
100
AcDbLine
 62
7
  6
CONTINUOUS
 10
4.4654346515
 20
5.6183771411
 11
4.4654346515
 21
5.6638558657
  0
LINE
  5
30C
100
AcDbEntity
  8
0
100
AcDbLine
 62
7
  6
CONTINUOUS
 10
4.4999945107
 20
4.5076058657
 11
4.4999945107
 21
4.1551058657
  0
LINE
  5
30D
100
AcDbEntity
  8
0
100
AcDbLine
 62
7
  6
CONTINUOUS
 10
4.5223219735
 20
5.6638558657
 11
4.5223219735
 21
5.6183771411
  0
LINE
  5
30E
100
AcDbEntity
  8
0
100
AcDbLine
 62
7
  6
CONTINUOUS
 10
4.5223219735
 20
5.6040154406
 11
4.5223219735
 21
5.5513558657
  0
LINE
  5
30F
100
AcDbEntity
  8
0
100
AcDbLine
 62
7
  6
CONTINUOUS
 10
4.5345121144
 20
5.5513558657
 11
4.5345121144
 21
5.6638558657
  0
LINE
  5
310
100
AcDbEntity
  8
0
100
AcDbLine
 62
7
  6
CONTINUOUS
 10
4.5507656374
 20
5.6255579913
 11
4.5507656374
 21
5.5896537369
  0
LINE
  5
311
100
AcDbEntity
  8
0
100
AcDbLine
 62
7
  6
CONTINUOUS
 10
4.5629557783
 20
5.5896537369
 11
4.5629557783
 21
5.6255579913
  0
LINE
  5
312
100
AcDbEntity
  8
0
100
AcDbLine
 62
7
  6
CONTINUOUS
 10
5.4177712183
 20
5.2731643745
 11
5.4132372291
 21
5.2683771411
  0
LINE
  5
313
100
AcDbEntity
  8
0
100
AcDbLine
 62
7
  6
CONTINUOUS
 10
4.6949945107
 20
4.3326058657
 11
4.4999945107
 21
4.3326058657
  0
LINE
  5
314
100
AcDbEntity
  8
0
100
AcDbLine
 62
7
  6
CONTINUOUS
 10
5.5051241821
 20
3.8066750155
 11
5.4970921042
 21
3.811462249
  0
LINE
  5
315
100
AcDbEntity
  8
0
100
AcDbLine
 62
7
  6
CONTINUOUS
 10
5.2782177689
 20
3.7181111846
 11
5.2721937047
 21
3.7228984197
  0
LINE
  5
316
100
AcDbEntity
  8
0
100
AcDbLine
 62
7
  6
CONTINUOUS
 10
5.2179771329
 20
3.7971005486
 11
5.2240011971
 21
3.7923133151
  0
LINE
  5
317
100
AcDbEntity
  8
0
100
AcDbLine
 62
7
  6
CONTINUOUS
 10
5.3103461149
 20
3.7971005486
 11
5.3163701791
 21
3.7923133151
  0
LINE
  5
318
100
AcDbEntity
  8
0
100
AcDbLine
 62
7
  6
CONTINUOUS
 10
5.1657685748
 20
3.7181111846
 11
5.1738006599
 21
3.7085367168
  0
LINE
  5
319
100
AcDbEntity
  8
0
100
AcDbLine
 62
7
  6
CONTINUOUS
 10
4.6198431061
 20
5.6255579913
 11
4.6198431061
 21
5.5896537369
  0
LINE
  5
31A
100
AcDbEntity
  8
0
100
AcDbLine
 62
7
  6
CONTINUOUS
 10
4.6320332469
 20
5.5896537369
 11
4.6320332469
 21
5.6255579913
  0
LINE
  5
31B
100
AcDbEntity
  8
0
100
AcDbLine
 62
7
  6
CONTINUOUS
 10
4.6482867642
 20
5.6638558657
 11
4.6482867642
 21
5.6518877821
  0
LINE
  5
31C
100
AcDbEntity
  8
0
100
AcDbLine
 62
7
  6
CONTINUOUS
 10
4.6807937987
 20
5.6518877821
 11
4.6807937987
 21
5.5513558657
  0
LINE
  5
31D
100
AcDbEntity
  8
0
100
AcDbLine
 62
7
  6
CONTINUOUS
 10
4.6929839395
 20
5.5513558657
 11
4.6929839395
 21
5.6518877821
  0
LINE
  5
31E
100
AcDbEntity
  8
0
100
AcDbLine
 62
7
  6
CONTINUOUS
 10
4.6949945107
 20
4.5076058657
 11
4.6949945107
 21
4.1551058657
  0
LINE
  5
31F
100
AcDbEntity
  8
0
100
AcDbLine
 62
7
  6
CONTINUOUS
 10
4.7254909973
 20
5.6518877821
 11
4.7254909973
 21
5.6638558657
  0
LINE
  5
320
100
AcDbEntity
  8
0
100
AcDbLine
 62
7
  6
CONTINUOUS
 10
4.7474945107
 20
4.0551058657
 11
4.7474945107
 21
2.7651058657
  0
LINE
  5
321
100
AcDbEntity
  8
0
100
AcDbLine
 62
7
  6
CONTINUOUS
 10
5.4950840905
 20
3.7971005486
 11
5.5011081547
 21
3.7923133151
  0
LINE
  5
322
100
AcDbEntity
  8
0
100
AcDbLine
 62
7
  6
CONTINUOUS
 10
5.2601455764
 20
3.7181111846
 11
5.2681776657
 21
3.7085367168
  0
LINE
  5
323
100
AcDbEntity
  8
0
100
AcDbLine
 62
7
  6
CONTINUOUS
 10
5.2360493254
 20
3.7971005486
 11
5.228017236
 21
3.8066750155
  0
LINE
  5
324
100
AcDbEntity
  8
0
100
AcDbLine
 62
7
  6
CONTINUOUS
 10
5.3284183075
 20
3.7971005486
 11
5.3203862181
 21
3.8066750155
  0
LINE
  5
325
100
AcDbEntity
  8
0
100
AcDbLine
 62
7
  6
CONTINUOUS
 10
5.1778167032
 20
3.7228984197
 11
5.1738006599
 21
3.7300792699
  0
LINE
  5
326
100
AcDbEntity
  8
0
100
AcDbLine
 62
7
  6
CONTINUOUS
 10
4.5507656374
 20
5.5896537369
 11
4.5527973314
 21
5.5776856532
  0
LINE
  5
327
100
AcDbEntity
  8
0
100
AcDbLine
 62
7
  6
CONTINUOUS
 10
4.8590341894
 20
4.7513336779
 11
4.8598475279
 21
4.7400303575
  0
LINE
  5
328
100
AcDbEntity
  8
0
100
AcDbLine
 62
7
  6
CONTINUOUS
 10
4.8893440918
 20
4.3135077669
 11
4.8900944378
 21
4.3022000901
  0
LINE
  5
329
100
AcDbEntity
  8
0
100
AcDbLine
 62
7
  6
CONTINUOUS
 10
4.8752260723
 20
4.7327090192
 11
4.8752576438
 21
4.7213765183
  0
LINE
  5
32A
100
AcDbEntity
  8
0
100
AcDbLine
 62
7
  6
CONTINUOUS
 10
4.8752576438
 20
4.2938352132
 11
4.8752260723
 21
4.2825027123
  0
LINE
  5
32B
100
AcDbEntity
  8
0
100
AcDbLine
 62
7
  6
CONTINUOUS
 10
4.8900944378
 20
4.7130116414
 11
4.8893440918
 21
4.7017039646
  0
LINE
  5
32C
100
AcDbEntity
  8
0
100
AcDbLine
 62
7
  6
CONTINUOUS
 10
4.8598475279
 20
4.275181374
 11
4.8590341894
 21
4.2638780536
  0
LINE
  5
32D
100
AcDbEntity
  8
0
100
AcDbLine
 62
7
  6
CONTINUOUS
 10
4.9035684314
 20
4.6923354115
 11
4.9020397437
 21
4.6811064451
  0
LINE
  5
32E
100
AcDbEntity
  8
0
100
AcDbLine
 62
7
  6
CONTINUOUS
 10
4.8431871804
 20
4.2576351434
 11
4.8415959509
 21
4.2464148688
  0
LINE
  5
32F
100
AcDbEntity
  8
0
100
AcDbLine
 62
7
  6
CONTINUOUS
 10
4.9155838433
 20
4.6707788612
 11
4.9132840989
 21
4.6596821163
  0
LINE
  5
330
100
AcDbEntity
  8
0
100
AcDbLine
 62
7
  6
CONTINUOUS
 10
4.8253559955
 20
4.2412801371
 11
4.8229944579
 21
4.2301963782
  0
LINE
  5
331
100
AcDbEntity
  8
0
100
AcDbLine
 62
7
  6
CONTINUOUS
 10
4.9260834147
 20
4.6484447173
 11
4.9230235728
 21
4.6375330749
  0
LINE
  5
332
100
AcDbEntity
  8
0
100
AcDbLine
 62
7
  6
CONTINUOUS
 10
4.8064389468
 20
4.2261942942
 11
4.8033183549
 21
4.21529987
  0
LINE
  5
333
100
AcDbEntity
  8
0
100
AcDbLine
 62
7
  6
CONTINUOUS
 10
4.9350171104
 20
4.6254394122
 11
4.9312117526
 21
4.6147648712
  0
LINE
  5
334
100
AcDbEntity
  8
0
100
AcDbLine
 62
7
  6
CONTINUOUS
 10
4.7865261828
 20
4.2124495056
 11
4.7826614076
 21
4.201796333
  0
LINE
  5
335
100
AcDbEntity
  8
0
100
AcDbLine
 62
7
  6
CONTINUOUS
 10
4.9423423572
 20
4.6018725765
 11
4.9378096177
 21
4.5914860061
  0
LINE
  5
336
100
AcDbEntity
  8
0
100
AcDbLine
 62
7
  6
CONTINUOUS
 10
4.7657125967
 20
4.2001112714
 11
4.7611220556
 21
4.1897501178
  0
LINE
  5
337
100
AcDbEntity
  8
0
100
AcDbLine
 62
7
  6
CONTINUOUS
 10
4.8099620645
 20
4.0906148124
 11
4.8050822272
 21
4.0803678291
  0
LINE
  5
338
100
AcDbEntity
  8
0
100
AcDbLine
 62
7
  6
CONTINUOUS
 10
5.0601600084
 20
4.6151495185
 11
5.0552675878
 21
4.604908537
  0
LINE
  5
339
100
AcDbEntity
  8
0
100
AcDbLine
 62
7
  6
CONTINUOUS
 10
4.9480242469
 20
4.577856517
 11
4.9427857263
 21
4.5678074139
  0
LINE
  5
33A
100
AcDbEntity
  8
0
100
AcDbLine
 62
7
  6
CONTINUOUS
 10
4.7440973748
 20
4.1892383891
 11
4.7388029439
 21
4.1792186299
  0
LINE
  5
33B
100
AcDbEntity
  8
0
100
AcDbLine
 62
7
  6
CONTINUOUS
 10
4.7878472596
 20
4.0800665916
 11
4.7824378242
 21
4.0700890423
  0
LINE
  5
33C
100
AcDbEntity
  8
0
100
AcDbLine
 62
7
  6
CONTINUOUS
 10
5.0651543413
 20
4.5907880924
 11
5.0597326541
 21
4.5808171954
  0
LINE
  5
33D
100
AcDbEntity
  8
0
100
AcDbLine
 62
7
  6
CONTINUOUS
 10
4.9520357028
 20
4.5535056812
 11
4.9461163651
 21
4.5438419338
  0
LINE
  5
33E
100
AcDbEntity
  8
0
100
AcDbLine
 62
7
  6
CONTINUOUS
 10
5.0688668511
 20
4.5661986696
 11
5.0629307577
 21
4.5565251866
  0
LINE
  5
33F
100
AcDbEntity
  8
0
100
AcDbLine
 62
7
  6
CONTINUOUS
 10
4.7217835236
 20
4.1798826727
 11
4.7158104332
 21
4.1702520567
  0
LINE
  5
340
100
AcDbEntity
  8
0
100
AcDbLine
 62
7
  6
CONTINUOUS
 10
5.0712873621
 20
4.541448648
 11
5.0648531329
 21
4.5320990933
  0
LINE
  5
341
100
AcDbEntity
  8
0
100
AcDbLine
 62
7
  6
CONTINUOUS
 10
5.4245721892
 20
5.2611962909
 11
5.4313731601
 21
5.2707707578
  0
LINE
  5
342
100
AcDbEntity
  8
0
100
AcDbLine
 62
7
  6
CONTINUOUS
 10
4.9543576085
 20
4.5289361119
 11
4.9477856619
 21
4.5197037725
  0
LINE
  5
343
100
AcDbEntity
  8
0
100
AcDbLine
 62
7
  6
CONTINUOUS
 10
4.6988773786
 20
4.1720887066
 11
4.6949945107
 21
4.1666978447
  0
LINE
  5
344
100
AcDbEntity
  8
0
100
AcDbLine
 62
7
  6
CONTINUOUS
 10
5.0724092399
 20
4.5166058657
 11
5.0654945107
 21
4.5076058657
  0
LINE
  5
345
100
AcDbEntity
  8
0
100
AcDbLine
 62
7
  6
CONTINUOUS
 10
4.954978899
 20
4.5042648942
 11
4.9477856619
 21
4.495507959
  0
LINE
  5
346
100
AcDbEntity
  8
0
100
AcDbLine
 62
7
  6
CONTINUOUS
 10
5.0722294093
 20
4.4917384151
 11
5.0648531329
 21
4.4831126382
  0
LINE
  5
347
100
AcDbEntity
  8
0
100
AcDbLine
 62
7
  6
CONTINUOUS
 10
4.9538966136
 20
4.4796095977
 11
4.9461163651
 21
4.4713697977
  0
LINE
  5
348
100
AcDbEntity
  8
0
100
AcDbLine
 62
7
  6
CONTINUOUS
 10
5.0707483634
 20
4.466914456
 11
5.0629307577
 21
4.4586865449
  0
LINE
  5
349
100
AcDbEntity
  8
0
100
AcDbLine
 62
7
  6
CONTINUOUS
 10
5.0679701616
 20
4.4422020292
 11
5.0597326541
 21
4.4343945361
  0
LINE
  5
34A
100
AcDbEntity
  8
0
100
AcDbLine
 62
7
  6
CONTINUOUS
 10
4.9511159099
 20
4.4550877163
 11
4.9427857263
 21
4.4474043176
  0
LINE
  5
34B
100
AcDbEntity
  8
0
100
AcDbLine
 62
7
  6
CONTINUOUS
 10
5.0639024188
 20
4.4176688698
 11
5.0552675878
 21
4.4103031944
  0
LINE
  5
34C
100
AcDbEntity
  8
0
100
AcDbLine
 62
7
  6
CONTINUOUS
 10
4.9466500391
 20
4.4308161077
 11
4.9378096177
 21
4.4237257254
  0
LINE
  5
34D
100
AcDbEntity
  8
0
100
AcDbLine
 62
7
  6
CONTINUOUS
 10
5.0585562843
 20
4.3933822215
 11
5.0495477974
 21
4.3864785526
  0
LINE
  5
34E
100
AcDbEntity
  8
0
100
AcDbLine
 62
7
  6
CONTINUOUS
 10
4.9405202833
 20
4.4069104373
 11
4.9312117526
 21
4.4004468603
  0
LINE
  5
34F
100
AcDbEntity
  8
0
100
AcDbLine
 62
7
  6
CONTINUOUS
 10
5.0519464115
 20
4.3694086522
 11
5.0425889603
 21
4.3629859124
  0
LINE
  5
350
100
AcDbEntity
  8
0
100
AcDbLine
 62
7
  6
CONTINUOUS
 10
5.0440909176
 20
4.3458138719
 11
5.0344101503
 21
4.3398896654
  0
LINE
  5
351
100
AcDbEntity
  8
0
100
AcDbLine
 62
7
  6
CONTINUOUS
 10
4.9327558534
 20
4.3834846265
 11
4.9230235728
 21
4.3776786566
  0
LINE
  5
352
100
AcDbEntity
  8
0
100
AcDbLine
 62
7
  6
CONTINUOUS
 10
5.0350113341
 20
4.3226625522
 11
5.0250337848
 21
4.3172531168
  0
LINE
  5
353
100
AcDbEntity
  8
0
100
AcDbLine
 62
7
  6
CONTINUOUS
 10
4.9233937506
 20
4.3606503099
 11
4.9132840989
 21
4.3555296152
  0
LINE
  5
354
100
AcDbEntity
  8
0
100
AcDbLine
 62
7
  6
CONTINUOUS
 10
5.0247325473
 20
4.3000181492
 11
5.014485564
 21
4.2951383119
  0
LINE
  5
355
100
AcDbEntity
  8
0
100
AcDbLine
 62
7
  6
CONTINUOUS
 10
4.9124785895
 20
4.3385163034
 11
4.9020397437
 21
4.3341052864
  0
LINE
  5
356
100
AcDbEntity
  8
0
100
AcDbLine
 62
7
  6
CONTINUOUS
 10
4.4999945107
 20
4.1655617791
 11
4.4972895485
 21
4.1644364971
  0
LINE
  5
357
100
AcDbEntity
  8
0
100
AcDbLine
 62
7
  6
CONTINUOUS
 10
5.0132827308
 20
4.2779427298
 11
5.0027943996
 21
4.2736058657
  0
LINE
  5
358
100
AcDbEntity
  8
0
100
AcDbLine
 62
7
  6
CONTINUOUS
 10
5.0006932676
 20
4.256496801
 11
4.9899923365
 21
4.2527147974
  0
LINE
  5
359
100
AcDbEntity
  8
0
100
AcDbLine
 62
7
  6
CONTINUOUS
 10
4.9000623858
 20
4.3171880857
 11
4.8893440918
 21
4.3135077669
  0
LINE
  5
35A
100
AcDbEntity
  8
0
100
AcDbLine
 62
7
  6
CONTINUOUS
 10
4.4845912958
 20
4.1757879728
 11
4.4738526622
 21
4.1721674313
  0
LINE
  5
35B
100
AcDbEntity
  8
0
100
AcDbLine
 62
7
  6
CONTINUOUS
 10
4.4219521156
 20
4.0683667723
 11
4.4188980691
 21
4.0674600819
  0
LINE
  5
35C
100
AcDbEntity
  8
0
100
AcDbLine
 62
7
  6
CONTINUOUS
 10
4.9869986647
 20
4.2357391448
 11
4.976114464
 21
4.2325223677
  0
LINE
  5
35D
100
AcDbEntity
  8
0
100
AcDbLine
 62
7
  6
CONTINUOUS
 10
5.513156283
 20
3.7971005486
 11
5.5051241821
 21
3.8066750155
  0
LINE
  5
35E
100
AcDbEntity
  8
0
100
AcDbLine
 62
7
  6
CONTINUOUS
 10
4.6682461807
 20
4.8580348189
 11
4.675488098
 21
4.849318099
  0
LINE
  5
35F
100
AcDbEntity
  8
0
100
AcDbLine
 62
7
  6
CONTINUOUS
 10
4.9477856619
 20
4.5197037725
 11
4.954978899
 21
4.5109468373
  0
LINE
  5
360
100
AcDbEntity
  8
0
100
AcDbLine
 62
7
  6
CONTINUOUS
 10
4.6922540932
 20
4.8523186034
 11
4.6988773786
 21
4.8431230249
  0
LINE
  5
361
100
AcDbEntity
  8
0
100
AcDbLine
 62
7
  6
CONTINUOUS
 10
4.9477856619
 20
4.495507959
 11
4.9543576085
 21
4.4862756196
  0
LINE
  5
362
100
AcDbEntity
  8
0
100
AcDbLine
 62
7
  6
CONTINUOUS
 10
4.7158104332
 20
4.8449596748
 11
4.7217835236
 21
4.8353290588
  0
LINE
  5
363
100
AcDbEntity
  8
0
100
AcDbLine
 62
7
  6
CONTINUOUS
 10
4.9461163651
 20
4.4713697977
 11
4.9520357028
 21
4.4617060503
  0
LINE
  5
364
100
AcDbEntity
  8
0
100
AcDbLine
 62
7
  6
CONTINUOUS
 10
5.2721937047
 20
3.7228984197
 11
5.2681776657
 21
3.7300792699
  0
LINE
  5
365
100
AcDbEntity
  8
0
100
AcDbLine
 62
7
  6
CONTINUOUS
 10
5.3163701791
 20
3.7923133151
 11
5.3203862181
 21
3.7851324582
  0
LINE
  5
366
100
AcDbEntity
  8
0
100
AcDbLine
 62
7
  6
CONTINUOUS
 10
4.7388029439
 20
4.8359931016
 11
4.7440973748
 21
4.8259733424
  0
LINE
  5
367
100
AcDbEntity
  8
0
100
AcDbLine
 62
7
  6
CONTINUOUS
 10
4.9427857263
 20
4.4474043176
 11
4.9480242469
 21
4.4373552145
  0
LINE
  5
368
100
AcDbEntity
  8
0
100
AcDbLine
 62
7
  6
CONTINUOUS
 10
4.7611220556
 20
4.8254616137
 11
4.7657125967
 21
4.8151004601
  0
LINE
  5
369
100
AcDbEntity
  8
0
100
AcDbLine
 62
7
  6
CONTINUOUS
 10
4.9378096177
 20
4.4237257254
 11
4.9423423572
 21
4.413339155
  0
LINE
  5
36A
100
AcDbEntity
  8
0
100
AcDbLine
 62
7
  6
CONTINUOUS
 10
5.1617525321
 20
3.7276856532
 11
5.1657685748
 21
3.7181111846
  0
LINE
  5
36B
100
AcDbEntity
  8
0
100
AcDbLine
 62
7
  6
CONTINUOUS
 10
4.7826614076
 20
4.8134153985
 11
4.7865261828
 21
4.8027622259
  0
LINE
  5
36C
100
AcDbEntity
  8
0
100
AcDbLine
 62
7
  6
CONTINUOUS
 10
4.9312117526
 20
4.4004468603
 11
4.9350171104
 21
4.3897723193
  0
LINE
  5
36D
100
AcDbEntity
  8
0
100
AcDbLine
 62
7
  6
CONTINUOUS
 10
4.8033183549
 20
4.7999118615
 11
4.8064389468
 21
4.7890174373
  0
LINE
  5
36E
100
AcDbEntity
  8
0
100
AcDbLine
 62
7
  6
CONTINUOUS
 10
4.9230235728
 20
4.3776786566
 11
4.9260834147
 21
4.3667670142
  0
LINE
  5
36F
100
AcDbEntity
  8
0
100
AcDbLine
 62
7
  6
CONTINUOUS
 10
4.8229944579
 20
4.7850153533
 11
4.8253559955
 21
4.7739315944
  0
LINE
  5
370
100
AcDbEntity
  8
0
100
AcDbLine
 62
7
  6
CONTINUOUS
 10
4.5649874723
 20
5.5800792699
 11
4.5629557783
 21
5.5896537369
  0
LINE
  5
371
100
AcDbEntity
  8
0
100
AcDbLine
 62
7
  6
CONTINUOUS
 10
4.6178114121
 20
5.6351324582
 11
4.6198431061
 21
5.6255579913
  0
LINE
  5
372
100
AcDbEntity
  8
0
100
AcDbLine
 62
7
  6
CONTINUOUS
 10
4.9132840989
 20
4.3555296152
 11
4.9155838433
 21
4.3444328703
  0
LINE
  5
373
100
AcDbEntity
  8
0
100
AcDbLine
 62
7
  6
CONTINUOUS
 10
4.6320332469
 20
5.6255579913
 11
4.6300015529
 21
5.6375260817
  0
LINE
  5
374
100
AcDbEntity
  8
0
100
AcDbLine
 62
7
  6
CONTINUOUS
 10
4.8415959509
 20
4.7687968626
 11
4.8431871804
 21
4.7575765881
  0
LINE
  5
375
100
AcDbEntity
  8
0
100
AcDbLine
 62
7
  6
CONTINUOUS
 10
4.9020397437
 20
4.3341052864
 11
4.9035684314
 21
4.32287632
  0
LINE
  5
376
100
AcDbEntity
  8
0
100
AcDbLine
 62
7
  6
CONTINUOUS
 10
4.9899923365
 20
4.2527147974
 11
4.990889765
 21
4.2414007308
  0
LINE
  5
377
100
AcDbEntity
  8
0
100
AcDbLine
 62
7
  6
CONTINUOUS
 10
4.9444027587
 20
4.8320741499
 11
4.945286289
 21
4.8207589895
  0
LINE
  5
378
100
AcDbEntity
  8
0
100
AcDbLine
 62
7
  6
CONTINUOUS
 10
4.976114464
 20
4.2325223677
 11
4.9764185302
 21
4.2211768389
  0
LINE
  5
379
100
AcDbEntity
  8
0
100
AcDbLine
 62
7
  6
CONTINUOUS
 10
4.960908691
 20
4.8134737025
 11
4.9611988206
 21
4.8021278088
  0
LINE
  5
37A
100
AcDbEntity
  8
0
100
AcDbLine
 62
7
  6
CONTINUOUS
 10
4.9611988206
 20
4.2130839227
 11
4.960908691
 21
4.201738029
  0
LINE
  5
37B
100
AcDbEntity
  8
0
100
AcDbLine
 62
7
  6
CONTINUOUS
 10
4.9764185302
 20
4.7940348926
 11
4.976114464
 21
4.7826893638
  0
LINE
  5
37C
100
AcDbEntity
  8
0
100
AcDbLine
 62
7
  6
CONTINUOUS
 10
4.945286289
 20
4.194452742
 11
4.9444027587
 21
4.1831375816
  0
LINE
  5
37D
100
AcDbEntity
  8
0
100
AcDbLine
 62
7
  6
CONTINUOUS
 10
4.990889765
 20
4.7738110007
 11
4.9899923365
 21
4.7624969341
  0
LINE
  5
37E
100
AcDbEntity
  8
0
100
AcDbLine
 62
7
  6
CONTINUOUS
 10
4.9284204843
 20
4.1766798922
 11
4.9269459751
 21
4.1654264792
  0
LINE
  5
37F
100
AcDbEntity
  8
0
100
AcDbLine
 62
7
  6
CONTINUOUS
 10
5.0042827308
 20
4.752857459
 11
5.0027943996
 21
4.7416058657
  0
LINE
  5
380
100
AcDbEntity
  8
0
100
AcDbLine
 62
7
  6
CONTINUOUS
 10
5.2092081029
 20
5.3138558657
 11
5.1956061612
 21
5.2276856532
  0
LINE
  5
381
100
AcDbEntity
  8
0
100
AcDbLine
 62
7
  6
CONTINUOUS
 10
5.2046741202
 20
5.2013558657
 11
5.2228100446
 21
5.3138558657
  0
LINE
  5
382
100
AcDbEntity
  8
0
100
AcDbLine
 62
7
  6
CONTINUOUS
 10
4.9106476344
 20
4.1598140874
 11
4.9085861879
 21
4.1486532668
  0
LINE
  5
383
100
AcDbEntity
  8
0
100
AcDbLine
 62
7
  6
CONTINUOUS
 10
5.0165607183
 20
4.7312316997
 11
5.014485564
 21
4.7200734196
  0
LINE
  5
384
100
AcDbEntity
  8
0
100
AcDbLine
 62
7
  6
CONTINUOUS
 10
5.1502663564
 20
5.2013558657
 11
5.1684022777
 21
5.2923133151
  0
LINE
  5
385
100
AcDbEntity
  8
0
100
AcDbLine
 62
7
  6
CONTINUOUS
 10
5.1593343154
 20
5.3138558657
 11
5.1411983942
 21
5.2276856532
  0
LINE
  5
386
100
AcDbEntity
  8
0
100
AcDbLine
 62
7
  6
CONTINUOUS
 10
4.8920164537
 20
4.1439015558
 11
4.8893737201
 21
4.1328639184
  0
LINE
  5
387
100
AcDbEntity
  8
0
100
AcDbLine
 62
7
  6
CONTINUOUS
 10
5.0276900745
 20
4.7089929976
 11
5.0250337848
 21
4.6979586147
  0
LINE
  5
388
100
AcDbEntity
  8
0
100
AcDbLine
 62
7
  6
CONTINUOUS
 10
4.8725780087
 20
4.1289859124
 11
4.8693612316
 21
4.1181017117
  0
LINE
  5
389
100
AcDbEntity
  8
0
100
AcDbLine
 62
7
  6
CONTINUOUS
 10
5.0376402945
 20
4.6862023073
 11
5.0344101503
 21
4.6753220661
  0
LINE
  5
38A
100
AcDbEntity
  8
0
100
AcDbLine
 62
7
  6
CONTINUOUS
 10
5.2658828645
 20
5.2396537369
 11
5.2862857771
 21
5.3042813988
  0
LINE
  5
38B
100
AcDbEntity
  8
0
100
AcDbLine
 62
7
  6
CONTINUOUS
 10
5.2545479044
 20
5.2013558657
 11
5.2636158699
 21
5.2300792699
  0
LINE
  5
38C
100
AcDbEntity
  8
0
100
AcDbLine
 62
7
  6
CONTINUOUS
 10
5.2772178116
 20
5.3138558657
 11
5.2409459627
 21
5.2013558657
  0
LINE
  5
38D
100
AcDbEntity
  8
0
100
AcDbLine
 62
7
  6
CONTINUOUS
 10
4.8523855791
 20
4.1151080399
 11
4.8486035754
 21
4.1044071088
  0
LINE
  5
38E
100
AcDbEntity
  8
0
100
AcDbLine
 62
7
  6
CONTINUOUS
 10
5.0463841056
 20
4.6629220966
 11
5.0425889603
 21
4.6522258191
  0
LINE
  5
38F
100
AcDbEntity
  8
0
100
AcDbLine
 62
7
  6
CONTINUOUS
 10
4.8314945107
 20
4.1023059768
 11
4.8271576466
 21
4.0918176456
  0
LINE
  5
390
100
AcDbEntity
  8
0
100
AcDbLine
 62
7
  6
CONTINUOUS
 10
5.0538975415
 20
4.6392161749
 11
5.0495477974
 21
4.6287331789
  0
LINE
  5
391
100
AcDbEntity
  8
0
100
AcDbLine
 62
7
  6
CONTINUOUS
 10
4.7878472596
 20
4.9351451399
 11
4.7988816425
 21
4.9378014296
  0
LINE
  5
392
100
AcDbEntity
  8
0
100
AcDbLine
 62
7
  6
CONTINUOUS
 10
4.2227525633
 20
4.7994850752
 11
4.2337902007
 21
4.8021278088
  0
LINE
  5
393
100
AcDbEntity
  8
0
100
AcDbLine
 62
7
  6
CONTINUOUS
 10
4.3162340768
 20
4.7282839533
 11
4.3272754229
 21
4.7308364519
  0
LINE
  5
394
100
AcDbEntity
  8
0
100
AcDbLine
 62
7
  6
CONTINUOUS
 10
4.7440973748
 20
4.8259733424
 11
4.7551527716
 21
4.8284642812
  0
LINE
  5
395
100
AcDbEntity
  8
0
100
AcDbLine
 62
7
  6
CONTINUOUS
 10
4.8099620645
 20
4.9245969191
 11
4.8211203446
 21
4.9266720734
  0
LINE
  5
396
100
AcDbEntity
  8
0
100
AcDbLine
 62
7
  6
CONTINUOUS
 10
4.2385419117
 20
4.818697543
 11
4.2497027323
 21
4.8207589895
  0
LINE
  5
397
100
AcDbEntity
  8
0
100
AcDbLine
 62
7
  6
CONTINUOUS
 10
4.3321290776
 20
4.7471626168
 11
4.343320215
 21
4.7489472783
  0
LINE
  5
398
100
AcDbEntity
  8
0
100
AcDbLine
 62
7
  6
CONTINUOUS
 10
4.7657125967
 20
4.8151004601
 11
4.7769135041
 21
4.8168227391
  0
LINE
  5
399
100
AcDbEntity
  8
0
100
AcDbLine
 62
7
  6
CONTINUOUS
 10
4.8314945107
 20
4.9129057547
 11
4.8427461039
 21
4.9143940859
  0
LINE
  5
39A
100
AcDbEntity
  8
0
100
AcDbLine
 62
7
  6
CONTINUOUS
 10
4.2553151241
 20
4.8370573302
 11
4.2665685371
 21
4.8385318393
  0
LINE
  5
39B
100
AcDbEntity
  8
0
100
AcDbLine
 62
7
  6
CONTINUOUS
 10
4.3492886656
 20
4.7648996832
 11
4.3605762634
 21
4.765908003
  0
LINE
  5
39C
100
AcDbEntity
  8
0
100
AcDbLine
 62
7
  6
CONTINUOUS
 10
4.7865261828
 20
4.8027622259
 11
4.7978192235
 21
4.8037076378
  0
LINE
  5
39D
100
AcDbEntity
  8
0
100
AcDbLine
 62
7
  6
CONTINUOUS
 10
4.8523855791
 20
4.9001036915
 11
4.8636996456
 21
4.9010011201
  0
LINE
  5
39E
100
AcDbEntity
  8
0
100
AcDbLine
 62
7
  6
CONTINUOUS
 10
4.2730262265
 20
4.8545141138
 11
4.2843413869
 21
4.8553976441
  0
LINE
  5
39F
100
AcDbEntity
  8
0
100
AcDbLine
 62
7
  6
CONTINUOUS
 10
4.8725780087
 20
4.8862258191
 11
4.8839235375
 21
4.8865298853
  0
LINE
  5
3A0
100
AcDbEntity
  8
0
100
AcDbLine
 62
7
  6
CONTINUOUS
 10
4.2916266739
 20
4.8710200461
 11
4.3029725677
 21
4.8713101757
  0
LINE
  5
3A1
100
AcDbEntity
  8
0
100
AcDbLine
 62
7
  6
CONTINUOUS
 10
4.3676310675
 20
4.7814106274
 11
4.3789613351
 21
4.7816378004
  0
LINE
  5
3A2
100
AcDbEntity
  8
0
100
AcDbLine
 62
7
  6
CONTINUOUS
 10
4.8064389468
 20
4.7890174373
 11
4.8177703044
 21
4.7891814768
  0
LINE
  5
3A3
100
AcDbEntity
  8
0
100
AcDbLine
 62
7
  6
CONTINUOUS
 10
4.8920164537
 20
4.8713101757
 11
4.9033623474
 21
4.8710200461
  0
LINE
  5
3A4
100
AcDbEntity
  8
0
100
AcDbLine
 62
7
  6
CONTINUOUS
 10
4.3110654838
 20
4.8865298853
 11
4.3224110126
 21
4.8862258191
  0
LINE
  5
3A5
100
AcDbEntity
  8
0
100
AcDbLine
 62
7
  6
CONTINUOUS
 10
4.3870688733
 20
4.7966167672
 11
4.3983878169
 21
4.7960617107
  0
LINE
  5
3A6
100
AcDbEntity
  8
0
100
AcDbLine
 62
7
  6
CONTINUOUS
 10
4.8253559955
 20
4.7739315944
 11
4.8366716708
 21
4.7733134797
  0
LINE
  5
3A7
100
AcDbEntity
  8
0
100
AcDbLine
 62
7
  6
CONTINUOUS
 10
4.9106476344
 20
4.8553976441
 11
4.9219627948
 21
4.8545141138
  0
LINE
  5
3A8
100
AcDbEntity
  8
0
100
AcDbLine
 62
7
  6
CONTINUOUS
 10
4.3312893757
 20
4.9010011201
 11
4.3426034423
 21
4.9001036915
  0
LINE
  5
3A9
100
AcDbEntity
  8
0
100
AcDbLine
 62
7
  6
CONTINUOUS
 10
4.4075094531
 20
4.8104456384
 11
4.4187631328
 21
4.8091109977
  0
LINE
  5
3AA
100
AcDbEntity
  8
0
100
AcDbLine
 62
7
  6
CONTINUOUS
 10
4.8431871804
 20
4.7575765881
 11
4.8544332491
 21
4.7561792648
  0
LINE
  5
3AB
100
AcDbEntity
  8
0
100
AcDbLine
 62
7
  6
CONTINUOUS
 10
4.9284204843
 20
4.8385318393
 11
4.9396738972
 21
4.8370573302
  0
LINE
  5
3AC
100
AcDbEntity
  8
0
100
AcDbLine
 62
7
  6
CONTINUOUS
 10
4.3522429174
 20
4.9143940859
 11
4.3634945107
 21
4.9129057547
  0
LINE
  5
3AD
100
AcDbEntity
  8
0
100
AcDbLine
 62
7
  6
CONTINUOUS
 10
4.945286289
 20
4.8207589895
 11
4.9564471097
 21
4.818697543
  0
LINE
  5
3AE
100
AcDbEntity
  8
0
100
AcDbLine
 62
7
  6
CONTINUOUS
 10
4.3738686767
 20
4.9266720734
 11
4.3850269568
 21
4.9245969191
  0
LINE
  5
3AF
100
AcDbEntity
  8
0
100
AcDbLine
 62
7
  6
CONTINUOUS
 10
4.4288553983
 20
4.8228313402
 11
4.4399901851
 21
4.8207234753
  0
LINE
  5
3B0
100
AcDbEntity
  8
0
100
AcDbLine
 62
7
  6
CONTINUOUS
 10
4.8598475279
 20
4.7400303575
 11
4.8709703973
 21
4.7378604844
  0
LINE
  5
3B1
100
AcDbEntity
  8
0
100
AcDbLine
 62
7
  6
CONTINUOUS
 10
4.9611988206
 20
4.8021278088
 11
4.972236458
 21
4.7994850752
  0
LINE
  5
3B2
100
AcDbEntity
  8
0
100
AcDbLine
 62
7
  6
CONTINUOUS
 10
4.3961073788
 20
4.9378014296
 11
4.4071417617
 21
4.9351451399
  0
LINE
  5
3B3
100
AcDbEntity
  8
0
100
AcDbLine
 62
7
  6
CONTINUOUS
 10
4.4510049856
 20
4.8337148491
 11
4.4619678173
 21
4.830843805
  0
LINE
  5
3B4
100
AcDbEntity
  8
0
100
AcDbLine
 62
7
  6
CONTINUOUS
 10
4.8752576438
 20
4.7213765183
 11
4.8862043084
 21
4.718444436
  0
LINE
  5
3B5
100
AcDbEntity
  8
0
100
AcDbLine
 62
7
  6
CONTINUOUS
 10
4.976114464
 20
4.7826893638
 11
4.9869986647
 21
4.7794725867
  0
LINE
  5
3B6
100
AcDbEntity
  8
0
100
AcDbLine
 62
7
  6
CONTINUOUS
 10
4.4188980691
 20
4.9477516496
 11
4.4297783103
 21
4.9445215053
  0
LINE
  5
3B7
100
AcDbEntity
  8
0
100
AcDbLine
 62
7
  6
CONTINUOUS
 10
4.4738526622
 20
4.8430443002
 11
4.4845912958
 21
4.8394237587
  0
LINE
  5
3B8
100
AcDbEntity
  8
0
100
AcDbLine
 62
7
  6
CONTINUOUS
 10
4.8893440918
 20
4.7017039646
 11
4.9000623858
 21
4.6980236458
  0
LINE
  5
3B9
100
AcDbEntity
  8
0
100
AcDbLine
 62
7
  6
CONTINUOUS
 10
4.9899923365
 20
4.7624969341
 11
5.0006932676
 21
4.7587149305
  0
LINE
  5
3BA
100
AcDbEntity
  8
0
100
AcDbLine
 62
7
  6
CONTINUOUS
 10
4.4421782798
 20
4.9564954607
 11
4.4528745573
 21
4.9527003154
  0
LINE
  5
3BB
100
AcDbEntity
  8
0
100
AcDbLine
 62
7
  6
CONTINUOUS
 10
5.0027943996
 20
4.7416058657
 11
5.0132827308
 21
4.7372690017
  0
LINE
  5
3BC
100
AcDbEntity
  8
0
100
AcDbLine
 62
7
  6
CONTINUOUS
 10
4.4658842015
 20
4.9640088965
 11
4.4763671976
 21
4.9596591524
  0
LINE
  5
3BD
100
AcDbEntity
  8
0
100
AcDbLine
 62
7
  6
CONTINUOUS
 10
4.4972895485
 20
4.8507752344
 11
4.5077528096
 21
4.846422449
  0
LINE
  5
3BE
100
AcDbEntity
  8
0
100
AcDbLine
 62
7
  6
CONTINUOUS
 10
4.9020397437
 20
4.6811064451
 11
4.9124785895
 21
4.6766954281
  0
LINE
  5
3BF
100
AcDbEntity
  8
0
100
AcDbLine
 62
7
  6
CONTINUOUS
 10
5.014485564
 20
4.7200734196
 11
5.0247325473
 21
4.7151935823
  0
LINE
  5
3C0
100
AcDbEntity
  8
0
100
AcDbLine
 62
7
  6
CONTINUOUS
 10
4.4899508579
 20
4.9702713634
 11
4.5001918394
 21
4.9653789429
  0
LINE
  5
3C1
100
AcDbEntity
  8
0
100
AcDbLine
 62
7
  6
CONTINUOUS
 10
4.5212039571
 20
4.8568708102
 11
4.5313419835
 21
4.851806524
  0
LINE
  5
3C2
100
AcDbEntity
  8
0
100
AcDbLine
 62
7
  6
CONTINUOUS
 10
4.9132840989
 20
4.6596821163
 11
4.9233937506
 21
4.6545614216
  0
LINE
  5
3C3
100
AcDbEntity
  8
0
100
AcDbLine
 62
7
  6
CONTINUOUS
 10
5.0250337848
 20
4.6979586147
 11
5.0350113341
 21
4.6925491793
  0
LINE
  5
3C4
100
AcDbEntity
  8
0
100
AcDbLine
 62
7
  6
CONTINUOUS
 10
4.514312284
 20
4.9752656964
 11
4.524283181
 21
4.9698440091
  0
LINE
  5
3C5
100
AcDbEntity
  8
0
100
AcDbLine
 62
7
  6
CONTINUOUS
 10
4.545481925
 20
4.8613019796
 11
4.5552464042
 21
4.8555503261
  0
LINE
  5
3C6
100
AcDbEntity
  8
0
100
AcDbLine
 62
7
  6
CONTINUOUS
 10
4.9230235728
 20
4.6375330749
 11
4.9327558534
 21
4.631727105
  0
LINE
  5
3C7
100
AcDbEntity
  8
0
100
AcDbLine
 62
7
  6
CONTINUOUS
 10
5.0344101503
 20
4.6753220661
 11
5.0440909176
 21
4.6693978596
  0
LINE
  5
3C8
100
AcDbEntity
  8
0
100
AcDbLine
 62
7
  6
CONTINUOUS
 10
4.5389017068
 20
4.9789782062
 11
4.5485751899
 21
4.9730421128
  0
LINE
  5
3C9
100
AcDbEntity
  8
0
100
AcDbLine
 62
7
  6
CONTINUOUS
 10
4.5700077565
 20
4.8640476258
 11
4.5793521565
 21
4.8576360144
  0
LINE
  5
3CA
100
AcDbEntity
  8
0
100
AcDbLine
 62
7
  6
CONTINUOUS
 10
5.0425889603
 20
4.6522258191
 11
5.0519464115
 21
4.6458030793
  0
LINE
  5
3CB
100
AcDbEntity
  8
0
100
AcDbLine
 62
7
  6
CONTINUOUS
 10
4.5636517284
 20
4.9813987172
 11
4.5730012831
 21
4.974964488
  0
LINE
  5
3CC
100
AcDbEntity
  8
0
100
AcDbLine
 62
7
  6
CONTINUOUS
 10
4.9312117526
 20
4.6147648712
 11
4.9405202833
 21
4.6083012942
  0
LINE
  5
3CD
100
AcDbEntity
  8
0
100
AcDbLine
 62
7
  6
CONTINUOUS
 10
5.0495477974
 20
4.6287331789
 11
5.0585562843
 21
4.62182951
  0
LINE
  5
3CE
100
AcDbEntity
  8
0
100
AcDbLine
 62
7
  6
CONTINUOUS
 10
4.5884945107
 20
4.9825205949
 11
4.5974945107
 21
4.9756058657
  0
LINE
  5
3CF
100
AcDbEntity
  8
0
100
AcDbLine
 62
7
  6
CONTINUOUS
 10
4.5946645749
 20
4.8650946648
 11
4.6035443653
 21
4.8580536497
  0
LINE
  5
3D0
100
AcDbEntity
  8
0
100
AcDbLine
 62
7
  6
CONTINUOUS
 10
4.9378096177
 20
4.5914860061
 11
4.9466500391
 21
4.5843956238
  0
LINE
  5
3D1
100
AcDbEntity
  8
0
100
AcDbLine
 62
7
  6
CONTINUOUS
 10
5.0552675878
 20
4.604908537
 11
5.0639024188
 21
4.5975428617
  0
LINE
  5
3D2
100
AcDbEntity
  8
0
100
AcDbLine
 62
7
  6
CONTINUOUS
 10
4.6133619613
 20
4.9823407644
 11
4.6219877382
 21
4.974964488
  0
LINE
  5
3D3
100
AcDbEntity
  8
0
100
AcDbLine
 62
7
  6
CONTINUOUS
 10
4.6193348792
 20
4.8644381069
 11
4.6277077438
 21
4.8568012416
  0
LINE
  5
3D4
100
AcDbEntity
  8
0
100
AcDbLine
 62
7
  6
CONTINUOUS
 10
4.9427857263
 20
4.5678074139
 11
4.9511159099
 21
4.5601240152
  0
LINE
  5
3D5
100
AcDbEntity
  8
0
100
AcDbLine
 62
7
  6
CONTINUOUS
 10
5.0597326541
 20
4.5808171954
 11
5.0679701616
 21
4.5730097023
  0
LINE
  5
3D6
100
AcDbEntity
  8
0
100
AcDbLine
 62
7
  6
CONTINUOUS
 10
4.6381859204
 20
4.9808597185
 11
4.6464138315
 21
4.9730421128
  0
LINE
  5
3D7
100
AcDbEntity
  8
0
100
AcDbLine
 62
7
  6
CONTINUOUS
 10
4.6439011042
 20
4.8620810808
 11
4.6517271425
 21
4.8538847586
  0
LINE
  5
3D8
100
AcDbEntity
  8
0
100
AcDbLine
 62
7
  6
CONTINUOUS
 10
5.0629307577
 20
4.5565251866
 11
5.0707483634
 21
4.5482972755
  0
LINE
  5
3D9
100
AcDbEntity
  8
0
100
AcDbLine
 62
7
  6
CONTINUOUS
 10
4.6628983472
 20
4.9780815167
 11
4.6707058403
 21
4.9698440091
  0
LINE
  5
3DA
100
AcDbEntity
  8
0
100
AcDbLine
 62
7
  6
CONTINUOUS
 10
4.9461163651
 20
4.5438419338
 11
4.9538966136
 21
4.5356021338
  0
LINE
  5
3DB
100
AcDbEntity
  8
0
100
AcDbLine
 62
7
  6
CONTINUOUS
 10
5.0648531329
 20
4.5320990933
 11
5.0722294093
 21
4.5234733164
  0
LINE
  5
3DC
100
AcDbEntity
  8
0
100
AcDbLine
 62
7
  6
CONTINUOUS
 10
4.6874315066
 20
4.9740137739
 11
4.694797182
 21
4.9653789429
  0
LINE
  5
3DD
100
AcDbEntity
  8
0
100
AcDbLine
 62
7
  6
CONTINUOUS
 10
5.0654945107
 20
4.5076058657
 11
5.0724092399
 21
4.4986058657
  0
LINE
  5
3DE
100
AcDbEntity
  8
0
100
AcDbLine
 62
7
  6
CONTINUOUS
 10
4.7117181549
 20
4.9686676394
 11
4.7186218238
 21
4.9596591524
  0
LINE
  5
3DF
100
AcDbEntity
  8
0
100
AcDbLine
 62
7
  6
CONTINUOUS
 10
5.0648531329
 20
4.4831126382
 11
5.0712873621
 21
4.4737630834
  0
LINE
  5
3E0
100
AcDbEntity
  8
0
100
AcDbLine
 62
7
  6
CONTINUOUS
 10
4.7356917242
 20
4.9620577666
 11
4.742114464
 21
4.9527003154
  0
LINE
  5
3E1
100
AcDbEntity
  8
0
100
AcDbLine
 62
7
  6
CONTINUOUS
 10
5.0629307577
 20
4.4586865449
 11
5.0688668511
 21
4.4490130619
  0
LINE
  5
3E2
100
AcDbEntity
  8
0
100
AcDbLine
 62
7
  6
CONTINUOUS
 10
4.7592865045
 20
4.9542022727
 11
4.7652107111
 21
4.9445215053
  0
LINE
  5
3E3
100
AcDbEntity
  8
0
100
AcDbLine
 62
7
  6
CONTINUOUS
 10
5.5011081547
 20
3.7923133151
 11
5.5051241821
 21
3.7851324582
  0
LINE
  5
3E4
100
AcDbEntity
  8
0
100
AcDbLine
 62
7
  6
CONTINUOUS
 10
5.0597326541
 20
4.4343945361
 11
5.0651543413
 21
4.4244236391
  0
LINE
  5
3E5
100
AcDbEntity
  8
0
100
AcDbLine
 62
7
  6
CONTINUOUS
 10
4.7824378242
 20
4.9451226892
 11
4.7878472596
 21
4.9351451399
  0
LINE
  5
3E6
100
AcDbEntity
  8
0
100
AcDbLine
 62
7
  6
CONTINUOUS
 10
5.0552675878
 20
4.4103031944
 11
5.0601600084
 21
4.400062213
  0
LINE
  5
3E7
100
AcDbEntity
  8
0
100
AcDbLine
 62
7
  6
CONTINUOUS
 10
4.8050822272
 20
4.9348439024
 11
4.8099620645
 21
4.9245969191
  0
LINE
  5
3E8
100
AcDbEntity
  8
0
100
AcDbLine
 62
7
  6
CONTINUOUS
 10
4.5527973314
 20
5.5776856532
 11
4.5568607078
 21
5.5681111846
  0
LINE
  5
3E9
100
AcDbEntity
  8
0
100
AcDbLine
 62
7
  6
CONTINUOUS
 10
5.2561295374
 20
3.7276856532
 11
5.2601455764
 21
3.7181111846
  0
LINE
  5
3EA
100
AcDbEntity
  8
0
100
AcDbLine
 62
7
  6
CONTINUOUS
 10
5.3324343464
 20
3.7875260817
 11
5.3284183075
 21
3.7971005486
  0
LINE
  5
3EB
100
AcDbEntity
  8
0
100
AcDbLine
 62
7
  6
CONTINUOUS
 10
5.0495477974
 20
4.3864785526
 11
5.0538975415
 21
4.3759955566
  0
LINE
  5
3EC
100
AcDbEntity
  8
0
100
AcDbLine
 62
7
  6
CONTINUOUS
 10
4.8271576466
 20
4.9233940859
 11
4.8314945107
 21
4.9129057547
  0
LINE
  5
3ED
100
AcDbEntity
  8
0
100
AcDbLine
 62
7
  6
CONTINUOUS
 10
5.0425889603
 20
4.3629859124
 11
5.0463841056
 21
4.3522896349
  0
LINE
  5
3EE
100
AcDbEntity
  8
0
100
AcDbLine
 62
7
  6
CONTINUOUS
 10
4.8486035754
 20
4.9108046227
 11
4.8523855791
 21
4.9001036915
  0
LINE
  5
3EF
100
AcDbEntity
  8
0
100
AcDbLine
 62
7
  6
CONTINUOUS
 10
5.0344101503
 20
4.3398896654
 11
5.0376402945
 21
4.3290094242
  0
LINE
  5
3F0
100
AcDbEntity
  8
0
100
AcDbLine
 62
7
  6
CONTINUOUS
 10
4.8693612316
 20
4.8971100198
 11
4.8725780087
 21
4.8862258191
  0
LINE
  5
3F1
100
AcDbEntity
  8
0
100
AcDbLine
 62
7
  6
CONTINUOUS
 10
5.2240011971
 20
3.7923133151
 11
5.2260092165
 21
3.7851324582
  0
LINE
  5
3F2
100
AcDbEntity
  8
0
100
AcDbLine
 62
7
  6
CONTINUOUS
 10
5.0250337848
 20
4.3172531168
 11
5.0276900745
 21
4.3062187339
  0
LINE
  5
3F3
100
AcDbEntity
  8
0
100
AcDbLine
 62
7
  6
CONTINUOUS
 10
4.8893737201
 20
4.8823478131
 11
4.8920164537
 21
4.8713101757
  0
LINE
  5
3F4
100
AcDbEntity
  8
0
100
AcDbLine
 62
7
  6
CONTINUOUS
 10
5.1738006599
 20
3.7300792699
 11
5.171792639
 21
3.7396537369
  0
LINE
  5
3F5
100
AcDbEntity
  8
0
100
AcDbLine
 62
7
  6
CONTINUOUS
 10
5.014485564
 20
4.2951383119
 11
5.0165607183
 21
4.2839800318
  0
LINE
  5
3F6
100
AcDbEntity
  8
0
100
AcDbLine
 62
7
  6
CONTINUOUS
 10
4.9085861879
 20
4.8665584647
 11
4.9106476344
 21
4.8553976441
  0
LINE
  5
3F7
100
AcDbEntity
  8
0
100
AcDbLine
 62
7
  6
CONTINUOUS
 10
5.1597445107
 20
3.7396537369
 11
5.1617525321
 21
3.7276856532
  0
LINE
  5
3F8
100
AcDbEntity
  8
0
100
AcDbLine
 62
7
  6
CONTINUOUS
 10
5.0027943996
 20
4.2736058657
 11
5.0042827308
 21
4.2623542725
  0
LINE
  5
3F9
100
AcDbEntity
  8
0
100
AcDbLine
 62
7
  6
CONTINUOUS
 10
4.9269459751
 20
4.8497852523
 11
4.9284204843
 21
4.8385318393
  0
LINE
  5
3FA
100
AcDbEntity
  8
0
100
AcDbLine
 62
7
  6
CONTINUOUS
 10
5.1597445107
 20
3.7755579913
 11
5.1597445107
 21
3.7396537369
  0
LINE
  5
3FB
100
AcDbEntity
  8
0
100
AcDbLine
 62
7
  6
CONTINUOUS
 10
5.171792639
 20
3.7396537369
 11
5.171792639
 21
3.7755579913
  0
LINE
  5
3FC
100
AcDbEntity
  8
0
100
AcDbLine
 62
7
  6
CONTINUOUS
 10
5.4200382
 20
5.2803452247
 11
5.4177712183
 21
5.2731643745
  0
LINE
  5
3FD
100
AcDbEntity
  8
0
100
AcDbLine
 62
7
  6
CONTINUOUS
 10
5.4313731601
 20
5.2707707578
 11
5.4336401417
 21
5.277951608
  0
LINE
  5
3FE
100
AcDbEntity
  8
0
100
AcDbLine
 62
7
  6
CONTINUOUS
 10
5.5424556757
 20
5.3138558657
 11
5.5084508213
 21
5.2133239511
  0
LINE
  5
3FF
100
AcDbEntity
  8
0
100
AcDbLine
 62
7
  6
CONTINUOUS
 10
5.5175187739
 20
5.2013558657
 11
5.5492566466
 21
5.2899196984
  0
LINE
  5
400
100
AcDbEntity
  8
0
100
AcDbLine
 62
7
  6
CONTINUOUS
 10
4.5690508487
 20
5.5728984197
 11
4.5649874723
 21
5.5800792699
  0
LINE
  5
401
100
AcDbEntity
  8
0
100
AcDbLine
 62
7
  6
CONTINUOUS
 10
4.6137480357
 20
5.6423133151
 11
4.6178114121
 21
5.6351324582
  0
LINE
  5
402
100
AcDbEntity
  8
0
100
AcDbLine
 62
7
  6
CONTINUOUS
 10
4.6300015529
 20
5.6375260817
 11
4.6259381765
 21
5.6471005486
  0
LINE
  5
403
100
AcDbEntity
  8
0
100
AcDbLine
 62
7
  6
CONTINUOUS
 10
5.5171723105
 20
3.7875260817
 11
5.513156283
 21
3.7971005486
  0
LINE
  5
404
100
AcDbEntity
  8
0
100
AcDbLine
 62
7
  6
CONTINUOUS
 10
5.2681776657
 20
3.7300792699
 11
5.2661696405
 21
3.7396537369
  0
LINE
  5
405
100
AcDbEntity
  8
0
100
AcDbLine
 62
7
  6
CONTINUOUS
 10
5.3203862181
 20
3.7851324582
 11
5.3223942433
 21
3.7755579913
  0
LINE
  5
406
100
AcDbEntity
  8
0
100
AcDbLine
 62
7
  6
CONTINUOUS
 10
5.2380573449
 20
3.7851324582
 11
5.2360493254
 21
3.7971005486
  0
LINE
  5
407
100
AcDbEntity
  8
0
100
AcDbLine
 62
7
  6
CONTINUOUS
 10
5.2541215179
 20
3.7396537369
 11
5.2561295374
 21
3.7276856532
  0
LINE
  5
408
100
AcDbEntity
  8
0
100
AcDbLine
 62
7
  6
CONTINUOUS
 10
5.3344423716
 20
3.7755579913
 11
5.3324343464
 21
3.7875260817
  0
LINE
  5
409
100
AcDbEntity
  8
0
100
AcDbLine
 62
7
  6
CONTINUOUS
 10
5.2541215179
 20
3.7755579913
 11
5.2541215179
 21
3.7396537369
  0
LINE
  5
40A
100
AcDbEntity
  8
0
100
AcDbLine
 62
7
  6
CONTINUOUS
 10
5.2661696405
 20
3.7396537369
 11
5.2661696405
 21
3.7755579913
  0
LINE
  5
40B
100
AcDbEntity
  8
0
100
AcDbLine
 62
7
  6
CONTINUOUS
 10
5.3223942433
 20
3.7755579913
 11
5.3223942433
 21
3.7396537369
  0
LINE
  5
40C
100
AcDbEntity
  8
0
100
AcDbLine
 62
7
  6
CONTINUOUS
 10
5.3344423716
 20
3.7396537369
 11
5.3344423716
 21
3.7755579913
  0
LINE
  5
40D
100
AcDbEntity
  8
0
100
AcDbLine
 62
7
  6
CONTINUOUS
 10
5.3497615096
 20
5.3138558657
 11
5.3497615096
 21
5.2013558657
  0
LINE
  5
40E
100
AcDbEntity
  8
0
100
AcDbLine
 62
7
  6
CONTINUOUS
 10
5.3505065389
 20
3.8138558657
 11
5.3505065389
 21
3.7013558657
  0
LINE
  5
40F
100
AcDbEntity
  8
0
100
AcDbLine
 62
7
  6
CONTINUOUS
 10
5.3625546788
 20
3.7157175678
 11
5.3625546788
 21
3.8138558657
  0
LINE
  5
410
100
AcDbEntity
  8
0
100
AcDbLine
 62
7
  6
CONTINUOUS
 10
5.3633634514
 20
5.2013558657
 11
5.3633634514
 21
5.2516218239
  0
LINE
  5
411
100
AcDbEntity
  8
0
100
AcDbLine
 62
7
  6
CONTINUOUS
 10
5.3633634514
 20
5.2659835243
 11
5.3633634514
 21
5.3018877821
  0
LINE
  5
412
100
AcDbEntity
  8
0
100
AcDbLine
 62
7
  6
CONTINUOUS
 10
5.1617525321
 20
3.7875260817
 11
5.1597445107
 21
3.7755579913
  0
LINE
  5
413
100
AcDbEntity
  8
0
100
AcDbLine
 62
7
  6
CONTINUOUS
 10
5.2360493254
 20
3.7181111846
 11
5.2380573449
 21
3.7300792699
  0
LINE
  5
414
100
AcDbEntity
  8
0
100
AcDbLine
 62
7
  6
CONTINUOUS
 10
5.2561295374
 20
3.7875260817
 11
5.2541215179
 21
3.7755579913
  0
LINE
  5
415
100
AcDbEntity
  8
0
100
AcDbLine
 62
7
  6
CONTINUOUS
 10
5.171792639
 20
3.7755579913
 11
5.1738006599
 21
3.7851324582
  0
LINE
  5
416
100
AcDbEntity
  8
0
100
AcDbLine
 62
7
  6
CONTINUOUS
 10
5.2661696405
 20
3.7755579913
 11
5.2681776657
 21
3.7851324582
  0
LINE
  5
417
100
AcDbEntity
  8
0
100
AcDbLine
 62
7
  6
CONTINUOUS
 10
5.2260092165
 20
3.7300792699
 11
5.2240011971
 21
3.7228984197
  0
LINE
  5
418
100
AcDbEntity
  8
0
100
AcDbLine
 62
7
  6
CONTINUOUS
 10
5.1657685748
 20
3.7971005486
 11
5.1617525321
 21
3.7875260817
  0
LINE
  5
419
100
AcDbEntity
  8
0
100
AcDbLine
 62
7
  6
CONTINUOUS
 10
5.1838407673
 20
3.7971005486
 11
5.1918728539
 21
3.7994941653
  0
LINE
  5
41A
100
AcDbEntity
  8
0
100
AcDbLine
 62
7
  6
CONTINUOUS
 10
5.2782177689
 20
3.7971005486
 11
5.2862498583
 21
3.7994941653
  0
LINE
  5
41B
100
AcDbEntity
  8
0
100
AcDbLine
 62
7
  6
CONTINUOUS
 10
5.1321304335
 20
5.2013558657
 11
5.1502663564
 21
5.2013558657
  0
LINE
  5
41C
100
AcDbEntity
  8
0
100
AcDbLine
 62
7
  6
CONTINUOUS
 10
5.1865382021
 20
5.2013558657
 11
5.2046741202
 21
5.2013558657
  0
LINE
  5
41D
100
AcDbEntity
  8
0
100
AcDbLine
 62
7
  6
CONTINUOUS
 10
5.2409459627
 20
5.2013558657
 11
5.2545479044
 21
5.2013558657
  0
LINE
  5
41E
100
AcDbEntity
  8
0
100
AcDbLine
 62
7
  6
CONTINUOUS
 10
5.3180236369
 20
5.2013558657
 11
5.3316255786
 21
5.2013558657
  0
LINE
  5
41F
100
AcDbEntity
  8
0
100
AcDbLine
 62
7
  6
CONTINUOUS
 10
5.3497615096
 20
5.2013558657
 11
5.3633634514
 21
5.2013558657
  0
LINE
  5
420
100
AcDbEntity
  8
0
100
AcDbLine
 62
7
  6
CONTINUOUS
 10
5.4200382
 20
5.2013558657
 11
5.4359071234
 21
5.2013558657
  0
LINE
  5
421
100
AcDbEntity
  8
0
100
AcDbLine
 62
7
  6
CONTINUOUS
 10
5.4540430544
 20
5.2013558657
 11
5.4676449961
 21
5.2013558657
  0
LINE
  5
422
100
AcDbEntity
  8
0
100
AcDbLine
 62
7
  6
CONTINUOUS
 10
5.4993828688
 20
5.2013558657
 11
5.5175187739
 21
5.2013558657
  0
LINE
  5
423
100
AcDbEntity
  8
0
100
AcDbLine
 62
7
  6
CONTINUOUS
 10
5.5492566466
 20
5.2013558657
 11
5.5628585883
 21
5.2013558657
  0
LINE
  5
424
100
AcDbEntity
  8
0
100
AcDbLine
 62
7
  6
CONTINUOUS
 10
4.5568607078
 20
5.5681111846
 11
4.5649874723
 21
5.5585367168
  0
LINE
  5
425
100
AcDbEntity
  8
0
100
AcDbLine
 62
7
  6
CONTINUOUS
 10
5.1956061612
 20
5.2276856532
 11
5.1774702367
 21
5.3138558657
  0
LINE
  5
426
100
AcDbEntity
  8
0
100
AcDbLine
 62
7
  6
CONTINUOUS
 10
5.5051241821
 20
3.7851324582
 11
5.5071322189
 21
3.7755579913
  0
LINE
  5
427
100
AcDbEntity
  8
0
100
AcDbLine
 62
7
  6
CONTINUOUS
 10
5.1684022777
 20
5.2923133151
 11
5.1865382021
 21
5.2013558657
  0
LINE
  5
428
100
AcDbEntity
  8
0
100
AcDbLine
 62
7
  6
CONTINUOUS
 10
5.5191803472
 20
3.7755579913
 11
5.5171723105
 21
3.7875260817
  0
LINE
  5
429
100
AcDbEntity
  8
0
100
AcDbLine
 62
7
  6
CONTINUOUS
 10
5.1139945107
 20
5.3138558657
 11
5.1321304335
 21
5.2013558657
  0
LINE
  5
42A
100
AcDbEntity
  8
0
100
AcDbLine
 62
7
  6
CONTINUOUS
 10
5.1411983942
 20
5.2276856532
 11
5.1275964524
 21
5.3138558657
  0
LINE
  5
42B
100
AcDbEntity
  8
0
100
AcDbLine
 62
7
  6
CONTINUOUS
 10
5.4200382
 20
5.2875260817
 11
5.4200382
 21
5.2803452247
  0
LINE
  5
42C
100
AcDbEntity
  8
0
100
AcDbLine
 62
7
  6
CONTINUOUS
 10
5.4227953205
 20
3.7013558657
 11
5.4227953205
 21
3.7157175678
  0
LINE
  5
42D
100
AcDbEntity
  8
0
100
AcDbLine
 62
7
  6
CONTINUOUS
 10
5.4336401417
 20
5.277951608
 11
5.4336401417
 21
5.2875260817
  0
LINE
  5
42E
100
AcDbEntity
  8
0
100
AcDbLine
 62
7
  6
CONTINUOUS
 10
5.4388594763
 20
3.8138558657
 11
5.4388594763
 21
3.7013558657
  0
LINE
  5
42F
100
AcDbEntity
  8
0
100
AcDbLine
 62
7
  6
CONTINUOUS
 10
5.4509076046
 20
3.7157175678
 11
5.4509076046
 21
3.7994941653
  0
LINE
  5
430
100
AcDbEntity
  8
0
100
AcDbLine
 62
7
  6
CONTINUOUS
 10
5.4540430544
 20
5.3138558657
 11
5.4540430544
 21
5.2013558657
  0
LINE
  5
431
100
AcDbEntity
  8
0
100
AcDbLine
 62
7
  6
CONTINUOUS
 10
5.4676449961
 20
5.2013558657
 11
5.4676449961
 21
5.2899196984
  0
LINE
  5
432
100
AcDbEntity
  8
0
100
AcDbLine
 62
7
  6
CONTINUOUS
 10
5.5071322189
 20
3.7755579913
 11
5.5071322189
 21
3.7396537369
  0
LINE
  5
433
100
AcDbEntity
  8
0
100
AcDbLine
 62
7
  6
CONTINUOUS
 10
5.5191803472
 20
3.7396537369
 11
5.5191803472
 21
3.7755579913
  0
LINE
  5
434
100
AcDbEntity
  8
0
100
AcDbLine
 62
7
  6
CONTINUOUS
 10
5.5492566466
 20
5.2899196984
 11
5.5492566466
 21
5.2013558657
  0
LINE
  5
435
100
AcDbEntity
  8
0
100
AcDbLine
 62
7
  6
CONTINUOUS
 10
5.5628585883
 20
5.2013558657
 11
5.5628585883
 21
5.3138558657
  0
LINE
  5
436
100
AcDbEntity
  8
0
100
AcDbLine
 62
7
  6
CONTINUOUS
 10
5.3324343464
 20
3.7276856532
 11
5.3344423716
 21
3.7396537369
  0
LINE
  5
437
100
AcDbEntity
  8
0
100
AcDbLine
 62
7
  6
CONTINUOUS
 10
5.3223942433
 20
3.7396537369
 11
5.3203862181
 21
3.7300792699
  0
LINE
  5
438
100
AcDbEntity
  8
0
100
AcDbLine
 62
7
  6
CONTINUOUS
 10
5.2601455764
 20
3.7971005486
 11
5.2561295374
 21
3.7875260817
  0
LINE
  5
439
100
AcDbEntity
  8
0
100
AcDbLine
 62
7
  6
CONTINUOUS
 10
5.3284183075
 20
3.7181111846
 11
5.3324343464
 21
3.7276856532
  0
LINE
  5
43A
100
AcDbEntity
  8
0
100
AcDbLine
 62
7
  6
CONTINUOUS
 10
5.1738006599
 20
3.7851324582
 11
5.1778167032
 21
3.7923133151
  0
LINE
  5
43B
100
AcDbEntity
  8
0
100
AcDbLine
 62
7
  6
CONTINUOUS
 10
5.2681776657
 20
3.7851324582
 11
5.2721937047
 21
3.7923133151
  0
LINE
  5
43C
100
AcDbEntity
  8
0
100
AcDbLine
 62
7
  6
CONTINUOUS
 10
5.1738006599
 20
3.8066750155
 11
5.1657685748
 21
3.7971005486
  0
LINE
  5
43D
100
AcDbEntity
  8
0
100
AcDbLine
 62
7
  6
CONTINUOUS
 10
5.2681776657
 20
3.8066750155
 11
5.2601455764
 21
3.7971005486
  0
LINE
  5
43E
100
AcDbEntity
  8
0
100
AcDbLine
 62
7
  6
CONTINUOUS
 10
5.228017236
 20
3.7085367168
 11
5.2360493254
 21
3.7181111846
  0
LINE
  5
43F
100
AcDbEntity
  8
0
100
AcDbLine
 62
7
  6
CONTINUOUS
 10
5.1778167032
 20
3.7923133151
 11
5.1838407673
 21
3.7971005486
  0
LINE
  5
440
100
AcDbEntity
  8
0
100
AcDbLine
 62
7
  6
CONTINUOUS
 10
5.2721937047
 20
3.7923133151
 11
5.2782177689
 21
3.7971005486
  0
LINE
  5
441
100
AcDbEntity
  8
0
100
AcDbLine
 62
7
  6
CONTINUOUS
 10
5.2240011971
 20
3.7228984197
 11
5.2179771329
 21
3.7181111846
  0
LINE
  5
442
100
AcDbEntity
  8
0
100
AcDbLine
 62
7
  6
CONTINUOUS
 10
5.1818327464
 20
3.811462249
 11
5.1738006599
 21
3.8066750155
  0
LINE
  5
443
100
AcDbEntity
  8
0
100
AcDbLine
 62
7
  6
CONTINUOUS
 10
5.2762097551
 20
3.811462249
 11
5.2681776657
 21
3.8066750155
  0
LINE
  5
444
100
AcDbEntity
  8
0
100
AcDbLine
 62
7
  6
CONTINUOUS
 10
5.2199851524
 20
3.7037494827
 11
5.228017236
 21
3.7085367168
  0
LINE
  5
445
100
AcDbEntity
  8
0
100
AcDbLine
 62
7
  6
CONTINUOUS
 10
5.2179771329
 20
3.7181111846
 11
5.2099450435
 21
3.7157175678
  0
LINE
  5
446
100
AcDbEntity
  8
0
100
AcDbLine
 62
7
  6
CONTINUOUS
 10
5.3103461149
 20
3.7181111846
 11
5.3023140256
 21
3.7157175678
  0
LINE
  5
447
100
AcDbEntity
  8
0
100
AcDbLine
 62
7
  6
CONTINUOUS
 10
5.4950840905
 20
3.7181111846
 11
5.4870519896
 21
3.7157175678
  0
LINE
  5
448
100
AcDbEntity
  8
0
100
AcDbLine
 62
7
  6
CONTINUOUS
 10
5.2636158699
 20
5.2300792699
 11
5.3089556714
 21
5.2300792699
  0
LINE
  5
449
100
AcDbEntity
  8
0
100
AcDbLine
 62
7
  6
CONTINUOUS
 10
5.3066886897
 20
5.2396537369
 11
5.2658828645
 21
5.2396537369
  0
LINE
  5
44A
100
AcDbEntity
  8
0
100
AcDbLine
 62
7
  6
CONTINUOUS
 10
5.3633634514
 20
5.2516218239
 11
5.401902269
 21
5.2516218239
  0
LINE
  5
44B
100
AcDbEntity
  8
0
100
AcDbLine
 62
7
  6
CONTINUOUS
 10
5.4064362582
 20
5.2659835243
 11
5.3633634514
 21
5.2659835243
  0
LINE
  5
44C
100
AcDbEntity
  8
0
100
AcDbLine
 62
7
  6
CONTINUOUS
 10
5.3633634514
 20
5.3018877821
 11
5.4064362582
 21
5.3018877821
  0
LINE
  5
44D
100
AcDbEntity
  8
0
100
AcDbLine
 62
7
  6
CONTINUOUS
 10
5.5628585883
 20
5.3138558657
 11
5.5424556757
 21
5.3138558657
  0
LINE
  5
44E
100
AcDbEntity
  8
0
100
AcDbLine
 62
7
  6
CONTINUOUS
 10
5.474445967
 20
5.3138558657
 11
5.4540430544
 21
5.3138558657
  0
LINE
  5
44F
100
AcDbEntity
  8
0
100
AcDbLine
 62
7
  6
CONTINUOUS
 10
5.4041692766
 20
5.3138558657
 11
5.3497615096
 21
5.3138558657
  0
LINE
  5
450
100
AcDbEntity
  8
0
100
AcDbLine
 62
7
  6
CONTINUOUS
 10
5.2953537296
 20
5.3138558657
 11
5.2772178116
 21
5.3138558657
  0
LINE
  5
451
100
AcDbEntity
  8
0
100
AcDbLine
 62
7
  6
CONTINUOUS
 10
5.2228100446
 20
5.3138558657
 11
5.2092081029
 21
5.3138558657
  0
LINE
  5
452
100
AcDbEntity
  8
0
100
AcDbLine
 62
7
  6
CONTINUOUS
 10
5.1774702367
 20
5.3138558657
 11
5.1593343154
 21
5.3138558657
  0
LINE
  5
453
100
AcDbEntity
  8
0
100
AcDbLine
 62
7
  6
CONTINUOUS
 10
5.1275964524
 20
5.3138558657
 11
5.1139945107
 21
5.3138558657
  0
LINE
  5
454
100
AcDbEntity
  8
0
100
AcDbLine
 62
7
  6
CONTINUOUS
 10
4.5649874723
 20
5.5585367168
 11
4.5731142251
 21
5.5537494827
  0
LINE
  5
455
100
AcDbEntity
  8
0
100
AcDbLine
 62
7
  6
CONTINUOUS
 10
4.5751459191
 20
5.5681111846
 11
4.5690508487
 21
5.5728984197
  0
LINE
  5
456
100
AcDbEntity
  8
0
100
AcDbLine
 62
7
  6
CONTINUOUS
 10
4.6259381765
 20
5.6471005486
 11
4.6178114121
 21
5.6566750155
  0
LINE
  5
457
100
AcDbEntity
  8
0
100
AcDbLine
 62
7
  6
CONTINUOUS
 10
5.3316255786
 20
5.2013558657
 11
5.2953537296
 21
5.3138558657
  0
LINE
  5
458
100
AcDbEntity
  8
0
100
AcDbLine
 62
7
  6
CONTINUOUS
 10
5.3089556714
 20
5.2300792699
 11
5.3180236369
 21
5.2013558657
  0
LINE
  5
459
100
AcDbEntity
  8
0
100
AcDbLine
 62
7
  6
CONTINUOUS
 10
5.2862857771
 20
5.3042813988
 11
5.3066886897
 21
5.2396537369
  0
LINE
  5
45A
100
AcDbEntity
  8
0
100
AcDbLine
 62
7
  6
CONTINUOUS
 10
5.5171723105
 20
3.7276856532
 11
5.5191803472
 21
3.7396537369
  0
LINE
  5
45B
100
AcDbEntity
  8
0
100
AcDbLine
 62
7
  6
CONTINUOUS
 10
5.5071322189
 20
3.7396537369
 11
5.5051241821
 21
3.7300792699
  0
LINE
  5
45C
100
AcDbEntity
  8
0
100
AcDbLine
 62
7
  6
CONTINUOUS
 10
5.513156283
 20
3.7181111846
 11
5.5171723105
 21
3.7276856532
  0
LINE
  5
45D
100
AcDbEntity
  8
0
100
AcDbLine
 62
7
  6
CONTINUOUS
 10
5.3203862181
 20
3.7300792699
 11
5.3163701791
 21
3.7228984197
  0
LINE
  5
45E
100
AcDbEntity
  8
0
100
AcDbLine
 62
7
  6
CONTINUOUS
 10
5.3203862181
 20
3.7085367168
 11
5.3284183075
 21
3.7181111846
  0
LINE
  5
45F
100
AcDbEntity
  8
0
100
AcDbLine
 62
7
  6
CONTINUOUS
 10
5.3163701791
 20
3.7228984197
 11
5.3103461149
 21
3.7181111846
  0
LINE
  5
460
100
AcDbEntity
  8
0
100
AcDbLine
 62
7
  6
CONTINUOUS
 10
5.5011081547
 20
3.7228984197
 11
5.4950840905
 21
3.7181111846
  0
LINE
  5
461
100
AcDbEntity
  8
0
100
AcDbLine
 62
7
  6
CONTINUOUS
 10
5.3123541402
 20
3.7037494827
 11
5.3203862181
 21
3.7085367168
  0
LINE
  5
462
100
AcDbEntity
  8
0
100
AcDbLine
 62
7
  6
CONTINUOUS
 10
5.4970921042
 20
3.7037494827
 11
5.5051241821
 21
3.7085367168
  0
LINE
  5
463
100
AcDbEntity
  8
0
100
AcDbLine
 62
7
  6
CONTINUOUS
 10
4.5995262008
 20
5.5513558657
 11
4.6096846476
 21
5.5537494827
  0
LINE
  5
464
100
AcDbEntity
  8
0
100
AcDbLine
 62
7
  6
CONTINUOUS
 10
5.4155042108
 20
5.311462249
 11
5.4041692766
 21
5.3138558657
  0
LINE
  5
465
100
AcDbEntity
  8
0
100
AcDbLine
 62
7
  6
CONTINUOUS
 10
4.5731142251
 20
5.5537494827
 11
4.5832726836
 21
5.5513558657
  0
LINE
  5
466
100
AcDbEntity
  8
0
100
AcDbLine
 62
7
  6
CONTINUOUS
 10
4.5832726836
 20
5.5657175678
 11
4.5751459191
 21
5.5681111846
  0
LINE
  5
467
100
AcDbEntity
  8
0
100
AcDbLine
 62
7
  6
CONTINUOUS
 10
5.4064362582
 20
5.3018877821
 11
5.4132372291
 21
5.2994941653
  0
LINE
  5
468
100
AcDbEntity
  8
0
100
AcDbLine
 62
7
  6
CONTINUOUS
 10
4.6178114121
 20
5.6566750155
 11
4.6096846476
 21
5.661462249
  0
LINE
  5
469
100
AcDbEntity
  8
0
100
AcDbLine
 62
7
  6
CONTINUOUS
 10
4.6076529652
 20
5.6471005486
 11
4.6137480357
 21
5.6423133151
  0
LINE
  5
46A
100
AcDbEntity
  8
0
100
AcDbLine
 62
7
  6
CONTINUOUS
 10
5.4359071234
 20
5.2013558657
 11
5.4155042108
 21
5.2564090574
  0
LINE
  5
46B
100
AcDbEntity
  8
0
100
AcDbLine
 62
7
  6
CONTINUOUS
 10
5.401902269
 20
5.2516218239
 11
5.4200382
 21
5.2013558657
  0
LINE
  5
46C
100
AcDbEntity
  8
0
100
AcDbLine
 62
7
  6
CONTINUOUS
 10
5.4676449961
 20
5.2899196984
 11
5.4993828688
 21
5.2013558657
  0
LINE
  5
46D
100
AcDbEntity
  8
0
100
AcDbLine
 62
7
  6
CONTINUOUS
 10
5.5084508213
 20
5.2133239511
 11
5.474445967
 21
5.3138558657
  0
LINE
  5
46E
100
AcDbEntity
  8
0
100
AcDbLine
 62
7
  6
CONTINUOUS
 10
5.4177712183
 20
5.2947069319
 11
5.4200382
 21
5.2875260817
  0
LINE
  5
46F
100
AcDbEntity
  8
0
100
AcDbLine
 62
7
  6
CONTINUOUS
 10
5.4336401417
 20
5.2875260817
 11
5.4313731601
 21
5.2947069319
  0
LINE
  5
470
100
AcDbEntity
  8
0
100
AcDbLine
 62
7
  6
CONTINUOUS
 10
5.5051241821
 20
3.7300792699
 11
5.5011081547
 21
3.7228984197
  0
LINE
  5
471
100
AcDbEntity
  8
0
100
AcDbLine
 62
7
  6
CONTINUOUS
 10
5.5051241821
 20
3.7085367168
 11
5.513156283
 21
3.7181111846
  0
LINE
  5
472
100
AcDbEntity
  8
0
100
AcDbLine
 62
7
  6
CONTINUOUS
 10
4.5832726836
 20
5.6638558657
 11
4.5731142251
 21
5.661462249
  0
LINE
  5
473
100
AcDbEntity
  8
0
100
AcDbLine
 62
7
  6
CONTINUOUS
 10
4.4532445107
 20
5.5513558657
 11
4.4654346515
 21
5.5513558657
  0
LINE
  5
474
100
AcDbEntity
  8
0
100
AcDbLine
 62
7
  6
CONTINUOUS
 10
4.5223219735
 20
5.5513558657
 11
4.5345121144
 21
5.5513558657
  0
LINE
  5
475
100
AcDbEntity
  8
0
100
AcDbLine
 62
7
  6
CONTINUOUS
 10
4.5832726836
 20
5.5513558657
 11
4.5995262008
 21
5.5513558657
  0
LINE
  5
476
100
AcDbEntity
  8
0
100
AcDbLine
 62
7
  6
CONTINUOUS
 10
4.6807937987
 20
5.5513558657
 11
4.6929839395
 21
5.5513558657
  0
LINE
  5
477
100
AcDbEntity
  8
0
100
AcDbLine
 62
7
  6
CONTINUOUS
 10
4.5995262008
 20
5.5657175678
 11
4.5832726836
 21
5.5657175678
  0
LINE
  5
478
100
AcDbEntity
  8
0
100
AcDbLine
 62
7
  6
CONTINUOUS
 10
4.4654346515
 20
5.6040154406
 11
4.5223219735
 21
5.6040154406
  0
LINE
  5
479
100
AcDbEntity
  8
0
100
AcDbLine
 62
7
  6
CONTINUOUS
 10
4.5223219735
 20
5.6183771411
 11
4.4654346515
 21
5.6183771411
  0
LINE
  5
47A
100
AcDbEntity
  8
0
100
AcDbLine
 62
7
  6
CONTINUOUS
 10
4.5832726836
 20
5.6494941653
 11
4.5995262008
 21
5.6494941653
  0
LINE
  5
47B
100
AcDbEntity
  8
0
100
AcDbLine
 62
7
  6
CONTINUOUS
 10
4.6482867642
 20
5.6518877821
 11
4.6807937987
 21
5.6518877821
  0
LINE
  5
47C
100
AcDbEntity
  8
0
100
AcDbLine
 62
7
  6
CONTINUOUS
 10
4.6929839395
 20
5.6518877821
 11
4.7254909973
 21
5.6518877821
  0
LINE
  5
47D
100
AcDbEntity
  8
0
100
AcDbLine
 62
7
  6
CONTINUOUS
 10
4.7254909973
 20
5.6638558657
 11
4.6482867642
 21
5.6638558657
  0
LINE
  5
47E
100
AcDbEntity
  8
0
100
AcDbLine
 62
7
  6
CONTINUOUS
 10
4.5995262008
 20
5.6638558657
 11
4.5832726836
 21
5.6638558657
  0
LINE
  5
47F
100
AcDbEntity
  8
0
100
AcDbLine
 62
7
  6
CONTINUOUS
 10
4.5345121144
 20
5.6638558657
 11
4.5223219735
 21
5.6638558657
  0
LINE
  5
480
100
AcDbEntity
  8
0
100
AcDbLine
 62
7
  6
CONTINUOUS
 10
4.4654346515
 20
5.6638558657
 11
4.4532445107
 21
5.6638558657
  0
LINE
  5
481
100
AcDbEntity
  8
0
100
AcDbLine
 62
7
  6
CONTINUOUS
 10
4.6096846476
 20
5.661462249
 11
4.5995262008
 21
5.6638558657
  0
LINE
  5
482
100
AcDbEntity
  8
0
100
AcDbLine
 62
7
  6
CONTINUOUS
 10
4.5995262008
 20
5.6494941653
 11
4.6076529652
 21
5.6471005486
  0
LINE
  5
483
100
AcDbEntity
  8
0
100
AcDbLine
 62
7
  6
CONTINUOUS
 10
5.4245721892
 20
5.3042813988
 11
5.4155042108
 21
5.311462249
  0
LINE
  5
484
100
AcDbEntity
  8
0
100
AcDbLine
 62
7
  6
CONTINUOUS
 10
5.4132372291
 20
5.2994941653
 11
5.4177712183
 21
5.2947069319
  0
LINE
  5
485
100
AcDbEntity
  8
0
100
AcDbLine
 62
7
  6
CONTINUOUS
 10
5.4313731601
 20
5.2947069319
 11
5.4245721892
 21
5.3042813988
  0
ARC
  5
486
100
AcDbEntity
  8
0
100
AcDbCircle
 62
7
  6
CONTINUOUS
 10
4.4362445107
 20
2.7351058657
 40
0.03
100
AcDbArc
 50
90.0
 51
270.0
  0
ARC
  5
487
100
AcDbEntity
  8
0
100
AcDbCircle
 62
7
  6
CONTINUOUS
 10
4.4426876925
 20
4.1551058657
 40
0.0378068182
100
AcDbArc
 50
277.3044455606
 51
360.0
  0
ARC
  5
488
100
AcDbEntity
  8
0
100
AcDbCircle
 62
7
  6
CONTINUOUS
 10
4.4474945107
 20
4.0863558657
 40
0.03125
100
AcDbArc
 50
90.0
 51
270.0
  0
ARC
  5
489
100
AcDbEntity
  8
0
100
AcDbCircle
 62
7
  6
CONTINUOUS
 10
4.7587445107
 20
2.7351058657
 40
0.03
100
AcDbArc
 50
270.0
 51
90.0
  0
ARC
  5
48A
100
AcDbEntity
  8
0
100
AcDbCircle
 62
7
  6
CONTINUOUS
 10
4.5974945107
 20
4.5076058657
 40
1.625
100
AcDbArc
 50
275.2966012839
 51
264.7033987165
  0
ARC
  5
48B
100
AcDbEntity
  8
0
100
AcDbCircle
 62
7
  6
CONTINUOUS
 10
4.5974945107
 20
4.5076058657
 40
1.6057758422
100
AcDbArc
 50
275.3601705932
 51
264.6398294014
  0
ARC
  5
48C
100
AcDbEntity
  8
0
100
AcDbCircle
 62
7
  6
CONTINUOUS
 10
4.5974945107
 20
4.5076058657
 40
1.5711090757
100
AcDbArc
 50
275.4788020592
 51
264.5211979187
  0
ARC
  5
48D
100
AcDbEntity
  8
0
100
AcDbCircle
 62
7
  6
CONTINUOUS
 10
4.5974945107
 20
4.5076058657
 40
1.5414217449
100
AcDbArc
 50
275.5845275643
 51
264.4154722628
  0
ARC
  5
48E
100
AcDbEntity
  8
0
100
AcDbCircle
 62
7
  6
CONTINUOUS
 10
4.5974945107
 20
4.5076058657
 40
0.475
100
AcDbArc
 50
226.922895853
 51
248.6327084254
  0
ARC
  5
48F
100
AcDbEntity
  8
0
100
AcDbCircle
 62
7
  6
CONTINUOUS
 10
4.5974945107
 20
4.5076058657
 40
0.475
100
AcDbArc
 50
166.923235362
 51
226.9143307903
  0
ARC
  5
490
100
AcDbEntity
  8
0
100
AcDbCircle
 62
7
  6
CONTINUOUS
 10
4.5974945107
 20
4.5076058657
 40
0.475
100
AcDbArc
 50
106.9231044007
 51
166.9143307903
  0
ARC
  5
491
100
AcDbEntity
  8
0
100
AcDbCircle
 62
7
  6
CONTINUOUS
 10
4.5974945107
 20
4.5076058657
 40
0.475
100
AcDbArc
 50
291.3672915746
 51
313.077104147
  0
ARC
  5
492
100
AcDbEntity
  8
0
100
AcDbCircle
 62
7
  6
CONTINUOUS
 10
4.5974945107
 20
4.5076058657
 40
0.475
100
AcDbArc
 50
313.0856692097
 51
13.076764638
  0
ARC
  5
493
100
AcDbEntity
  8
0
100
AcDbCircle
 62
7
  6
CONTINUOUS
 10
4.5974945107
 20
4.5076058657
 40
0.475
100
AcDbArc
 50
13.0856692097
 51
73.0768955993
  0
ARC
  5
494
100
AcDbEntity
  8
0
100
AcDbCircle
 62
7
  6
CONTINUOUS
 10
4.5974945107
 20
4.5076058657
 40
0.475
100
AcDbArc
 50
73.0856692097
 51
106.9143307903
  0
ARC
  5
495
100
AcDbEntity
  8
0
100
AcDbCircle
 62
7
  6
CONTINUOUS
 10
4.5974945107
 20
4.5076058657
 40
0.41625
100
AcDbArc
 50
290.6638245405
 51
249.3361754595
  0
ARC
  5
496
100
AcDbEntity
  8
0
100
AcDbCircle
 62
7
  6
CONTINUOUS
 10
4.5974945107
 20
4.5076058657
 40
0.382862128
100
AcDbArc
 50
288.0757424753
 51
251.9242575247
  0
ARC
  5
497
100
AcDbEntity
  8
0
100
AcDbCircle
 62
7
  6
CONTINUOUS
 10
4.5974945107
 20
4.5076058657
 40
0.3685530399
100
AcDbArc
 50
286.953917626
 51
253.0460824167
  0
ARC
  5
498
100
AcDbEntity
  8
0
100
AcDbCircle
 62
7
  6
CONTINUOUS
 10
4.5974945107
 20
4.5076058657
 40
0.3575
100
AcDbArc
 50
177.4865196799
 51
178.5574363641
  0
ARC
  5
499
100
AcDbEntity
  8
0
100
AcDbCircle
 62
7
  6
CONTINUOUS
 10
4.5974945107
 20
4.5076058657
 40
0.3575
100
AcDbArc
 50
173.5304757238
 51
174.6013924081
  0
ARC
  5
49A
100
AcDbEntity
  8
0
100
AcDbCircle
 62
7
  6
CONTINUOUS
 10
4.5974945107
 20
4.5076058657
 40
0.3575
100
AcDbArc
 50
169.5744317678
 51
170.645348452
  0
ARC
  5
49B
100
AcDbEntity
  8
0
100
AcDbCircle
 62
7
  6
CONTINUOUS
 10
4.5974945107
 20
4.5076058657
 40
0.3575
100
AcDbArc
 50
165.6183878117
 51
166.689304496
  0
ARC
  5
49C
100
AcDbEntity
  8
0
100
AcDbCircle
 62
7
  6
CONTINUOUS
 10
4.5974945107
 20
4.5076058657
 40
0.3575
100
AcDbArc
 50
161.6623438557
 51
162.7332605399
  0
ARC
  5
49D
100
AcDbEntity
  8
0
100
AcDbCircle
 62
7
  6
CONTINUOUS
 10
4.5974945107
 20
4.5076058657
 40
0.3575
100
AcDbArc
 50
157.7062998996
 51
158.7772165839
  0
ARC
  5
49E
100
AcDbEntity
  8
0
100
AcDbCircle
 62
7
  6
CONTINUOUS
 10
4.5974945107
 20
4.5076058657
 40
0.3575
100
AcDbArc
 50
153.7502559436
 51
154.8211726278
  0
ARC
  5
49F
100
AcDbEntity
  8
0
100
AcDbCircle
 62
7
  6
CONTINUOUS
 10
4.5974945107
 20
4.5076058657
 40
0.3575
100
AcDbArc
 50
149.7942119875
 51
150.8651286718
  0
ARC
  5
4A0
100
AcDbEntity
  8
0
100
AcDbCircle
 62
7
  6
CONTINUOUS
 10
4.5974945107
 20
4.5076058657
 40
0.3575
100
AcDbArc
 50
145.8381680315
 51
146.9090847157
  0
ARC
  5
4A1
100
AcDbEntity
  8
0
100
AcDbCircle
 62
7
  6
CONTINUOUS
 10
4.5974945107
 20
4.5076058657
 40
0.3575
100
AcDbArc
 50
141.8821240755
 51
142.9530407597
  0
ARC
  5
4A2
100
AcDbEntity
  8
0
100
AcDbCircle
 62
7
  6
CONTINUOUS
 10
4.5974945107
 20
4.5076058657
 40
0.3575
100
AcDbArc
 50
137.9260801194
 51
138.9969968037
  0
ARC
  5
4A3
100
AcDbEntity
  8
0
100
AcDbCircle
 62
7
  6
CONTINUOUS
 10
4.5974945107
 20
4.5076058657
 40
0.3575
100
AcDbArc
 50
133.9700361634
 51
135.0409528476
  0
ARC
  5
4A4
100
AcDbEntity
  8
0
100
AcDbCircle
 62
7
  6
CONTINUOUS
 10
4.5974945107
 20
4.5076058657
 40
0.3575
100
AcDbArc
 50
130.0139922073
 51
131.0849088916
  0
ARC
  5
4A5
100
AcDbEntity
  8
0
100
AcDbCircle
 62
7
  6
CONTINUOUS
 10
4.5974945107
 20
4.5076058657
 40
0.3575
100
AcDbArc
 50
126.0579482513
 51
127.1288649355
  0
ARC
  5
4A6
100
AcDbEntity
  8
0
100
AcDbCircle
 62
7
  6
CONTINUOUS
 10
4.5974945107
 20
4.5076058657
 40
0.3575
100
AcDbArc
 50
122.1019042952
 51
123.1728209795
  0
ARC
  5
4A7
100
AcDbEntity
  8
0
100
AcDbCircle
 62
7
  6
CONTINUOUS
 10
4.5974945107
 20
4.5076058657
 40
0.3575
100
AcDbArc
 50
118.1458603392
 51
119.2167770234
  0
ARC
  5
4A8
100
AcDbEntity
  8
0
100
AcDbCircle
 62
7
  6
CONTINUOUS
 10
4.5974945107
 20
4.5076058657
 40
0.3575
100
AcDbArc
 50
114.1898163832
 51
115.2607330674
  0
ARC
  5
4A9
100
AcDbEntity
  8
0
100
AcDbCircle
 62
7
  6
CONTINUOUS
 10
4.5974945107
 20
4.5076058657
 40
0.3575
100
AcDbArc
 50
110.2337724271
 51
111.3046891114
  0
ARC
  5
4AA
100
AcDbEntity
  8
0
100
AcDbCircle
 62
7
  6
CONTINUOUS
 10
4.5974945107
 20
4.5076058657
 40
0.3575
100
AcDbArc
 50
106.2777284711
 51
107.3486451553
  0
ARC
  5
4AB
100
AcDbEntity
  8
0
100
AcDbCircle
 62
7
  6
CONTINUOUS
 10
4.5974945107
 20
4.5076058657
 40
0.3575
100
AcDbArc
 50
102.321684515
 51
103.3926011993
  0
ARC
  5
4AC
100
AcDbEntity
  8
0
100
AcDbCircle
 62
7
  6
CONTINUOUS
 10
4.5974945107
 20
4.5076058657
 40
0.3575
100
AcDbArc
 50
98.365640559
 51
99.4365572432
  0
ARC
  5
4AD
100
AcDbEntity
  8
0
100
AcDbCircle
 62
7
  6
CONTINUOUS
 10
4.5974945107
 20
4.5076058657
 40
0.3575
100
AcDbArc
 50
94.4095966029
 51
95.4805132872
  0
ARC
  5
4AE
100
AcDbEntity
  8
0
100
AcDbCircle
 62
7
  6
CONTINUOUS
 10
4.5974945107
 20
4.5076058657
 40
0.3575
100
AcDbArc
 50
90.4535526469
 51
91.5244693311
  0
ARC
  5
4AF
100
AcDbEntity
  8
0
100
AcDbCircle
 62
7
  6
CONTINUOUS
 10
4.5974945107
 20
4.5076058657
 40
0.3575
100
AcDbArc
 50
86.4975086908
 51
87.5684253751
  0
ARC
  5
4B0
100
AcDbEntity
  8
0
100
AcDbCircle
 62
7
  6
CONTINUOUS
 10
4.5974945107
 20
4.5076058657
 40
0.3575
100
AcDbArc
 50
82.5414647348
 51
83.612381419
  0
ARC
  5
4B1
100
AcDbEntity
  8
0
100
AcDbCircle
 62
7
  6
CONTINUOUS
 10
4.5974945107
 20
4.5076058657
 40
0.3575
100
AcDbArc
 50
78.5854207788
 51
79.656337463
  0
ARC
  5
4B2
100
AcDbEntity
  8
0
100
AcDbCircle
 62
7
  6
CONTINUOUS
 10
4.5974945107
 20
4.5076058657
 40
0.3575
100
AcDbArc
 50
74.6293768227
 51
75.700293507
  0
ARC
  5
4B3
100
AcDbEntity
  8
0
100
AcDbCircle
 62
7
  6
CONTINUOUS
 10
4.5974945107
 20
4.5076058657
 40
0.3575
100
AcDbArc
 50
70.6733328667
 51
71.7442495509
  0
ARC
  5
4B4
100
AcDbEntity
  8
0
100
AcDbCircle
 62
7
  6
CONTINUOUS
 10
4.5974945107
 20
4.5076058657
 40
0.3575
100
AcDbArc
 50
66.7172889106
 51
67.7882055949
  0
ARC
  5
4B5
100
AcDbEntity
  8
0
100
AcDbCircle
 62
7
  6
CONTINUOUS
 10
4.5974945107
 20
4.5076058657
 40
0.3575
100
AcDbArc
 50
62.7612449546
 51
63.8321616388
  0
ARC
  5
4B6
100
AcDbEntity
  8
0
100
AcDbCircle
 62
7
  6
CONTINUOUS
 10
4.5974945107
 20
4.5076058657
 40
0.3575
100
AcDbArc
 50
58.8052009985
 51
59.8761176828
  0
ARC
  5
4B7
100
AcDbEntity
  8
0
100
AcDbCircle
 62
7
  6
CONTINUOUS
 10
4.5974945107
 20
4.5076058657
 40
0.3575
100
AcDbArc
 50
54.8491570425
 51
55.9200737267
  0
ARC
  5
4B8
100
AcDbEntity
  8
0
100
AcDbCircle
 62
7
  6
CONTINUOUS
 10
4.5974945107
 20
4.5076058657
 40
0.3575
100
AcDbArc
 50
50.8931130864
 51
51.9640297707
  0
ARC
  5
4B9
100
AcDbEntity
  8
0
100
AcDbCircle
 62
7
  6
CONTINUOUS
 10
4.5974945107
 20
4.5076058657
 40
0.3575
100
AcDbArc
 50
46.9370691304
 51
48.0079858147
  0
ARC
  5
4BA
100
AcDbEntity
  8
0
100
AcDbCircle
 62
7
  6
CONTINUOUS
 10
4.5974945107
 20
4.5076058657
 40
0.3575
100
AcDbArc
 50
42.9810251744
 51
44.0519418586
  0
ARC
  5
4BB
100
AcDbEntity
  8
0
100
AcDbCircle
 62
7
  6
CONTINUOUS
 10
4.5974945107
 20
4.5076058657
 40
0.3575
100
AcDbArc
 50
39.0249812183
 51
40.0958979026
  0
ARC
  5
4BC
100
AcDbEntity
  8
0
100
AcDbCircle
 62
7
  6
CONTINUOUS
 10
4.5974945107
 20
4.5076058657
 40
0.3575
100
AcDbArc
 50
35.0689372623
 51
36.1398539465
  0
ARC
  5
4BD
100
AcDbEntity
  8
0
100
AcDbCircle
 62
7
  6
CONTINUOUS
 10
4.5974945107
 20
4.5076058657
 40
0.3575
100
AcDbArc
 50
31.1128933062
 51
32.1838099905
  0
ARC
  5
4BE
100
AcDbEntity
  8
0
100
AcDbCircle
 62
7
  6
CONTINUOUS
 10
4.5974945107
 20
4.5076058657
 40
0.3575
100
AcDbArc
 50
27.1568493502
 51
28.2277660344
  0
ARC
  5
4BF
100
AcDbEntity
  8
0
100
AcDbCircle
 62
7
  6
CONTINUOUS
 10
4.5974945107
 20
4.5076058657
 40
0.3575
100
AcDbArc
 50
23.2008053941
 51
24.2717220784
  0
ARC
  5
4C0
100
AcDbEntity
  8
0
100
AcDbCircle
 62
7
  6
CONTINUOUS
 10
4.5974945107
 20
4.5076058657
 40
0.3575
100
AcDbArc
 50
19.2447614381
 51
20.3156781223
  0
ARC
  5
4C1
100
AcDbEntity
  8
0
100
AcDbCircle
 62
7
  6
CONTINUOUS
 10
4.5974945107
 20
4.5076058657
 40
0.3575
100
AcDbArc
 50
15.2887174821
 51
16.3596341663
  0
ARC
  5
4C2
100
AcDbEntity
  8
0
100
AcDbCircle
 62
7
  6
CONTINUOUS
 10
4.5974945107
 20
4.5076058657
 40
0.3575
100
AcDbArc
 50
11.332673526
 51
12.4035902103
  0
ARC
  5
4C3
100
AcDbEntity
  8
0
100
AcDbCircle
 62
7
  6
CONTINUOUS
 10
4.5974945107
 20
4.5076058657
 40
0.3575
100
AcDbArc
 50
7.37662957
 51
8.4475462542
  0
ARC
  5
4C4
100
AcDbEntity
  8
0
100
AcDbCircle
 62
7
  6
CONTINUOUS
 10
4.5974945107
 20
4.5076058657
 40
0.3575
100
AcDbArc
 50
3.4205856139
 51
4.4915022982
  0
ARC
  5
4C5
100
AcDbEntity
  8
0
100
AcDbCircle
 62
7
  6
CONTINUOUS
 10
4.5974945107
 20
4.5076058657
 40
0.3575
100
AcDbArc
 50
359.4645416579
 51
0.5354583421
  0
ARC
  5
4C6
100
AcDbEntity
  8
0
100
AcDbCircle
 62
7
  6
CONTINUOUS
 10
4.5974945107
 20
4.5076058657
 40
0.3575
100
AcDbArc
 50
355.5084977018
 51
356.5794143861
  0
ARC
  5
4C7
100
AcDbEntity
  8
0
100
AcDbCircle
 62
7
  6
CONTINUOUS
 10
4.5974945107
 20
4.5076058657
 40
0.3575
100
AcDbArc
 50
351.5524537458
 51
352.62337043
  0
ARC
  5
4C8
100
AcDbEntity
  8
0
100
AcDbCircle
 62
7
  6
CONTINUOUS
 10
4.5974945107
 20
4.5076058657
 40
0.3575
100
AcDbArc
 50
347.5964097897
 51
348.667326474
  0
ARC
  5
4C9
100
AcDbEntity
  8
0
100
AcDbCircle
 62
7
  6
CONTINUOUS
 10
4.5974945107
 20
4.5076058657
 40
0.3575
100
AcDbArc
 50
343.6403658337
 51
344.7112825179
  0
ARC
  5
4CA
100
AcDbEntity
  8
0
100
AcDbCircle
 62
7
  6
CONTINUOUS
 10
4.5974945107
 20
4.5076058657
 40
0.3575
100
AcDbArc
 50
339.6843218777
 51
340.7552385619
  0
ARC
  5
4CB
100
AcDbEntity
  8
0
100
AcDbCircle
 62
7
  6
CONTINUOUS
 10
4.5974945107
 20
4.5076058657
 40
0.3575
100
AcDbArc
 50
335.7282779216
 51
336.7991946059
  0
ARC
  5
4CC
100
AcDbEntity
  8
0
100
AcDbCircle
 62
7
  6
CONTINUOUS
 10
4.5974945107
 20
4.5076058657
 40
0.3575
100
AcDbArc
 50
331.7722339656
 51
332.8431506498
  0
ARC
  5
4CD
100
AcDbEntity
  8
0
100
AcDbCircle
 62
7
  6
CONTINUOUS
 10
4.5974945107
 20
4.5076058657
 40
0.3575
100
AcDbArc
 50
327.8161900095
 51
328.8871066938
  0
ARC
  5
4CE
100
AcDbEntity
  8
0
100
AcDbCircle
 62
7
  6
CONTINUOUS
 10
4.5974945107
 20
4.5076058657
 40
0.3575
100
AcDbArc
 50
323.8601460535
 51
324.9310627377
  0
ARC
  5
4CF
100
AcDbEntity
  8
0
100
AcDbCircle
 62
7
  6
CONTINUOUS
 10
4.5974945107
 20
4.5076058657
 40
0.3575
100
AcDbArc
 50
319.9041020974
 51
320.9750187817
  0
ARC
  5
4D0
100
AcDbEntity
  8
0
100
AcDbCircle
 62
7
  6
CONTINUOUS
 10
4.5974945107
 20
4.5076058657
 40
0.3575
100
AcDbArc
 50
315.9480581414
 51
317.0189748256
  0
ARC
  5
4D1
100
AcDbEntity
  8
0
100
AcDbCircle
 62
7
  6
CONTINUOUS
 10
4.5974945107
 20
4.5076058657
 40
0.3575
100
AcDbArc
 50
311.9920141853
 51
313.0629308696
  0
ARC
  5
4D2
100
AcDbEntity
  8
0
100
AcDbCircle
 62
7
  6
CONTINUOUS
 10
4.5974945107
 20
4.5076058657
 40
0.3575
100
AcDbArc
 50
308.0359702293
 51
309.1068869136
  0
ARC
  5
4D3
100
AcDbEntity
  8
0
100
AcDbCircle
 62
7
  6
CONTINUOUS
 10
4.5974945107
 20
4.5076058657
 40
0.3575
100
AcDbArc
 50
304.0799262733
 51
305.1508429575
  0
ARC
  5
4D4
100
AcDbEntity
  8
0
100
AcDbCircle
 62
7
  6
CONTINUOUS
 10
4.5974945107
 20
4.5076058657
 40
0.3575
100
AcDbArc
 50
300.1238823172
 51
301.1947990015
  0
ARC
  5
4D5
100
AcDbEntity
  8
0
100
AcDbCircle
 62
7
  6
CONTINUOUS
 10
4.5974945107
 20
4.5076058657
 40
0.3575
100
AcDbArc
 50
296.1678383612
 51
297.2387550454
  0
ARC
  5
4D6
100
AcDbEntity
  8
0
100
AcDbCircle
 62
7
  6
CONTINUOUS
 10
4.5974945107
 20
4.5076058657
 40
0.3575
100
AcDbArc
 50
292.2117944051
 51
293.2827110894
  0
ARC
  5
4D7
100
AcDbEntity
  8
0
100
AcDbCircle
 62
7
  6
CONTINUOUS
 10
4.5974945107
 20
4.5076058657
 40
0.3575
100
AcDbArc
 50
288.2557504491
 51
289.3266671333
  0
ARC
  5
4D8
100
AcDbEntity
  8
0
100
AcDbCircle
 62
7
  6
CONTINUOUS
 10
4.5974945107
 20
4.5076058657
 40
0.3575
100
AcDbArc
 50
252.6513548447
 51
253.7222715289
  0
ARC
  5
4D9
100
AcDbEntity
  8
0
100
AcDbCircle
 62
7
  6
CONTINUOUS
 10
4.5974945107
 20
4.5076058657
 40
0.3575
100
AcDbArc
 50
248.6953108886
 51
249.7662275729
  0
ARC
  5
4DA
100
AcDbEntity
  8
0
100
AcDbCircle
 62
7
  6
CONTINUOUS
 10
4.5974945107
 20
4.5076058657
 40
0.3575
100
AcDbArc
 50
244.7392669326
 51
245.8101836168
  0
ARC
  5
4DB
100
AcDbEntity
  8
0
100
AcDbCircle
 62
7
  6
CONTINUOUS
 10
4.5974945107
 20
4.5076058657
 40
0.3575
100
AcDbArc
 50
240.7832229766
 51
241.8541396608
  0
ARC
  5
4DC
100
AcDbEntity
  8
0
100
AcDbCircle
 62
7
  6
CONTINUOUS
 10
4.5974945107
 20
4.5076058657
 40
0.3575
100
AcDbArc
 50
236.8271790205
 51
237.8980957048
  0
ARC
  5
4DD
100
AcDbEntity
  8
0
100
AcDbCircle
 62
7
  6
CONTINUOUS
 10
4.5974945107
 20
4.5076058657
 40
0.3575
100
AcDbArc
 50
232.8711350645
 51
233.9420517487
  0
ARC
  5
4DE
100
AcDbEntity
  8
0
100
AcDbCircle
 62
7
  6
CONTINUOUS
 10
4.5974945107
 20
4.5076058657
 40
0.3575
100
AcDbArc
 50
228.9150911084
 51
229.9860077927
  0
ARC
  5
4DF
100
AcDbEntity
  8
0
100
AcDbCircle
 62
7
  6
CONTINUOUS
 10
4.5974945107
 20
4.5076058657
 40
0.3575
100
AcDbArc
 50
224.9590471524
 51
226.0299638366
  0
ARC
  5
4E0
100
AcDbEntity
  8
0
100
AcDbCircle
 62
7
  6
CONTINUOUS
 10
4.5974945107
 20
4.5076058657
 40
0.3575
100
AcDbArc
 50
221.0030031963
 51
222.0739198806
  0
ARC
  5
4E1
100
AcDbEntity
  8
0
100
AcDbCircle
 62
7
  6
CONTINUOUS
 10
4.5974945107
 20
4.5076058657
 40
0.3575
100
AcDbArc
 50
217.0469592403
 51
218.1178759245
  0
ARC
  5
4E2
100
AcDbEntity
  8
0
100
AcDbCircle
 62
7
  6
CONTINUOUS
 10
4.5974945107
 20
4.5076058657
 40
0.3575
100
AcDbArc
 50
213.0909152843
 51
214.1618319685
  0
ARC
  5
4E3
100
AcDbEntity
  8
0
100
AcDbCircle
 62
7
  6
CONTINUOUS
 10
4.5974945107
 20
4.5076058657
 40
0.3575
100
AcDbArc
 50
209.1348713282
 51
210.2057880125
  0
ARC
  5
4E4
100
AcDbEntity
  8
0
100
AcDbCircle
 62
7
  6
CONTINUOUS
 10
4.5974945107
 20
4.5076058657
 40
0.3575
100
AcDbArc
 50
205.1788273722
 51
206.2497440564
  0
ARC
  5
4E5
100
AcDbEntity
  8
0
100
AcDbCircle
 62
7
  6
CONTINUOUS
 10
4.5974945107
 20
4.5076058657
 40
0.3575
100
AcDbArc
 50
201.2227834161
 51
202.2937001004
  0
ARC
  5
4E6
100
AcDbEntity
  8
0
100
AcDbCircle
 62
7
  6
CONTINUOUS
 10
4.5974945107
 20
4.5076058657
 40
0.3575
100
AcDbArc
 50
197.2667394601
 51
198.3376561443
  0
ARC
  5
4E7
100
AcDbEntity
  8
0
100
AcDbCircle
 62
7
  6
CONTINUOUS
 10
4.5974945107
 20
4.5076058657
 40
0.3575
100
AcDbArc
 50
193.310695504
 51
194.3816121883
  0
ARC
  5
4E8
100
AcDbEntity
  8
0
100
AcDbCircle
 62
7
  6
CONTINUOUS
 10
4.5974945107
 20
4.5076058657
 40
0.3575
100
AcDbArc
 50
189.354651548
 51
190.4255682322
  0
ARC
  5
4E9
100
AcDbEntity
  8
0
100
AcDbCircle
 62
7
  6
CONTINUOUS
 10
4.5974945107
 20
4.5076058657
 40
0.3575
100
AcDbArc
 50
185.3986075919
 51
186.4695242762
  0
ARC
  5
4EA
100
AcDbEntity
  8
0
100
AcDbCircle
 62
7
  6
CONTINUOUS
 10
4.5974945107
 20
4.5076058657
 40
0.3575
100
AcDbArc
 50
181.4425636359
 51
182.5134803201
  0
ARC
  5
4EB
100
AcDbEntity
  8
0
100
AcDbCircle
 62
7
  6
CONTINUOUS
 10
4.5974945107
 20
4.5076058657
 40
0.3457531755
100
AcDbArc
 50
286.3799784886
 51
253.6200215114
  0
ARC
  5
4EC
100
AcDbEntity
  8
0
100
AcDbCircle
 62
7
  6
CONTINUOUS
 10
4.5974945107
 20
4.5076058657
 40
0.2416529628
100
AcDbArc
 50
293.7963985557
 51
246.2036014443
  0
ARC
  5
4ED
100
AcDbEntity
  8
0
100
AcDbCircle
 62
7
  6
CONTINUOUS
 10
4.5974945107
 20
4.5076058657
 40
0.2291609373
100
AcDbArc
 50
295.181700434
 51
244.8182995667
  0
ARC
  5
4EE
100
AcDbEntity
  8
0
100
AcDbCircle
 62
7
  6
CONTINUOUS
 10
4.5974945107
 20
4.5076058657
 40
0.215
100
AcDbArc
 50
296.9718892179
 51
243.0281107926
  0
ARC
  5
4EF
100
AcDbEntity
  8
0
100
AcDbCircle
 62
7
  6
CONTINUOUS
 10
4.5974945107
 20
4.5076058657
 40
0.2
100
AcDbArc
 50
299.180600484
 51
240.819399516
  0
ARC
  5
4F0
100
AcDbEntity
  8
0
100
AcDbCircle
 62
7
  6
CONTINUOUS
 10
4.5974945107
 20
4.5076058657
 40
0.185
100
AcDbArc
 50
301.8098979054
 51
238.1901020942
  0
ARC
  5
4F1
100
AcDbEntity
  8
0
100
AcDbCircle
 62
7
  6
CONTINUOUS
 10
4.5974945107
 20
4.5076058657
 40
0.18375
100
AcDbArc
 50
302.0518630844
 51
237.9481369156
  0
ARC
  5
4F2
100
AcDbEntity
  8
0
100
AcDbCircle
 62
7
  6
CONTINUOUS
 10
4.5974945107
 20
4.5076058657
 40
0.15375
100
AcDbArc
 50
309.362901647
 51
230.6370983531
  0
ARC
  5
4F3
100
AcDbEntity
  8
0
100
AcDbCircle
 62
7
  6
CONTINUOUS
 10
4.5974945107
 20
4.5076058657
 40
0.1075
100
AcDbArc
 50
335.1115998317
 51
204.8884001872
  0
ARC
  5
4F4
100
AcDbEntity
  8
0
100
AcDbCircle
 62
7
  6
CONTINUOUS
 10
4.5974945107
 20
4.5076058657
 40
0.0975
100
AcDbArc
 50
0.0
 51
180.0
  0
ARC
  5
4F5
100
AcDbEntity
  8
0
100
AcDbCircle
 62
7
  6
CONTINUOUS
 10
4.7523013288
 20
4.1551058657
 40
0.0378068182
100
AcDbArc
 50
180.0
 51
262.6955544394
  0
ARC
  5
4F6
100
AcDbEntity
  8
0
100
AcDbCircle
 62
7
  6
CONTINUOUS
 10
4.7474945107
 20
4.0863558657
 40
0.03125
100
AcDbArc
 50
270.0
 51
90.0
  0
ENDSEC
  0
SECTION
  2
OBJECTS
  0
DICTIONARY
  5
C
100
AcDbDictionary
280
0
281
1
  3
ACAD_GROUP
350
D
  3
ACAD_MLINESTYLE
350
17
  3
ACAD_LAYOUT
350
1A
  3
ACAD_PLOTSETTINGS
350
19
  3
ACAD_PLOTSTYLENAME
350
E
  0
DICTIONARY
  5
D
102
{ACAD_REACTORS
330
C
102
}
100
AcDbDictionary
280
0
281
1
  0
ACDBDICTIONARYWDFLT
  5
E
102
{ACAD_REACTORS
330
C
102
}
100
AcDbDictionary
281
1
  3
Normal
350
F
100
AcDbDictionaryWithDefault
340
F
  0
DICTIONARY
  5
17
102
{ACAD_REACTORS
330
C
102
}
100
AcDbDictionary
280
0
281
1
  3
Standard
350
18
  0
DICTIONARY
  5
19
102
{ACAD_REACTORS
330
C
102
}
100
AcDbDictionary
281
1
  0
DICTIONARY
  5
1A
102
{ACAD_REACTORS
330
C
102
}
100
AcDbDictionary
281
1
  3
Model
350
4F7
  3
Layout1
350
4F8
  0
ACDBPLACEHOLDER
  5
F
102
{ACAD_REACTORS
330
E
102
}
  0
MLINESTYLE
  5
18
102
{ACAD_REACTORS
330
17
102
}
100
AcDbMlineStyle
  2
STANDARD
 70
0
  3

 62
256
 51
90.0
 52
90.0
 71
2
 49
0.5
 62
256
  6
BYLAYER
 49
-0.5
 62
256
  6
BYLAYER
  0
LAYOUT
  5
4F7
102
{ACAD_REACTORS
330
1A
102
}
100
AcDbPlotSettings
  1

  2
none_device
  4
ANSI_A_(11.00_x_8.50_Inches)
  6

 40
0.0
 41
0.0
 42
0.0
 43
0.0
 44
279.4
 45
215.9
 46
0.0
 47
0.0
 48
0.0
 49
0.0
140
0.0
141
0.0
142
1.0
143
1.0
 70
1024
 72
0
 73
0
 74
0
  7

 75
0
147
1.0
148
0.0
149
0.0
100
AcDbLayout
  1
Model
 70
0
 71
0
 10
0.0
 20
0.0
 11
11.0
 21
8.5
 12
0.0
 22
0.0
 32
0.0
 14
0.0
 24
0.0
 34
0.0
 15
0.0
 25
0.0
 35
0.0
146
0.0
 13
0.0
 23
0.0
 33
0.0
 16
1.0
 26
0.0
 36
0.0
 17
0.0
 27
1.0
 37
0.0
 76
0
330
202
345
0
346
0
  0
LAYOUT
  5
4F8
102
{ACAD_REACTORS
330
1A
102
}
100
AcDbPlotSettings
  1

  2
none_device
  4
ANSI_A_(11.00_x_8.50_Inches)
  6

 40
0.0
 41
0.0
 42
0.0
 43
0.0
 44
279.4
 45
215.9
 46
0.0
 47
0.0
 48
0.0
 49
0.0
140
0.0
141
0.0
142
1.0
143
1.0
 70
0
 72
0
 73
0
 74
0
  7

 75
0
147
1.0
148
0.0
149
0.0
100
AcDbLayout
  1
Layout1
 70
0
 71
1
 10
0.0
 20
0.0
 11
11.0
 21
8.5
 12
0.0
 22
0.0
 32
0.0
 14
0.0
 24
0.0
 34
0.0
 15
0.0
 25
0.0
 35
0.0
146
0.0
 13
0.0
 23
0.0
 33
0.0
 16
1.0
 26
0.0
 36
0.0
 17
0.0
 27
1.0
 37
0.0
 76
0
330
203
345
0
346
0
  0
ENDSEC
  0
EOF
