999
DXF file: E:\BT Custom\CADOUTPUT\_TOP.dxf
999
Pro/ENGINEER 2018400 by Parametric Technology Corporation
  0
SECTION
  2
HEADER
  9
$ACADVER
  1
AC1018
  9
$DWGCODEPAGE
  3
ANSI_1252
  9
$EXTMAX
 10
22.0
 20
17.0
 30
0.0
  9
$EXTMIN
 10
0.0
 20
0.0
 30
0.0
  9
$LIMMIN
 10
0.0
 20
0.0
  9
$LIMMAX
 10
22.0
 20
17.0
  9
$VIEWCTR
 10
11.0
 20
8.5
  9
$VIEWSIZE
 40
17.0
  9
$CLAYER
  8
0
  9
$LTSCALE
 40
1.21
  9
$CELTYPE
  6
BYLAYER
  9
$DIMSCALE
 40
1.0
  9
$DIMASZ
 40
0.1
  9
$DIMEXO
 40
0.0625
  9
$DIMDLI
 40
0.836
  9
$DIMEXE
 40
0.125
  9
$DIMCEN
 40
0.198
  9
$DIMLFAC
 40
1.0
  9
$DIMBLK
  1
_FILLED
  9
$DIMALT
 70
1
  9
$DIMALTD
 70
2
  9
$DIMALTTD
 70
2
  9
$DIMALTF
 40
25.4
  9
$DIMTXT
 40
0.08
  9
$DIMTOL
 70
1
  9
$DIMLIM
 70
0
  9
$DIMTFAC
 40
1.0
  9
$DIMTP
 40
0.001
  9
$DIMTM
 40
0.001
  9
$DIMGAP
 40
0.09
  9
$DIMDSEP
 70
46
  9
$AUNITS
 70
0
  9
$PDMODE
 70
3
  9
$PDSIZE
 40
0.06
  9
$HANDSEED
  5
3D5
  9
$TILEMODE
 70
1
  9
$MEASUREMENT
 70
0
  9
$INSUNITS
 70
1
  0
ENDSEC
  0
SECTION
  2
CLASSES
  0
CLASS
  1
ACDBDICTIONARYWDFLT
  2
AcDbDictionaryWithDefault
  3
AutoCAD 2000
 90
0
 91
1
280
0
281
0
  0
CLASS
  1
ACDBPLACEHOLDER
  2
AcDbPlaceHolder
  3
AutoCAD 2000
 90
0
 91
1
280
0
281
0
  0
CLASS
  1
LAYOUT
  2
AcDbLayout
  3
AutoCAD 2000
 90
0
 91
0
280
0
281
0
  0
ENDSEC
  0
SECTION
  2
TABLES
  0
TABLE
  2
VPORT
  5
8
100
AcDbSymbolTable
 70
2
  0
VPORT
  5
1F4
100
AcDbSymbolTableRecord
100
AcDbViewportTableRecord
  2
*ACTIVE
 70
0
 10
0.0
 20
0.0
 11
1.0
 21
1.0
 12
11.0
 22
8.5
 13
0.0
 23
0.0
 14
1.0
 24
1.0
 15
0.0
 25
0.0
 16
0.0
 26
0.0
 36
1.0
 17
0.0
 27
0.0
 37
0.0
 40
17.0
 41
1.2941176471
 42
50.0
 43
0.0
 44
0.0
 50
0.0
 51
0.0
 71
0
 72
100
 73
1
 74
1
 75
0
 76
0
 77
0
 78
0
  0
ENDTAB
  0
TABLE
  2
LTYPE
  5
5
100
AcDbSymbolTable
 70
6
  0
LTYPE
  5
14
100
AcDbSymbolTableRecord
100
AcDbLinetypeTableRecord
  2
BYBLOCK
 70
0
  3

 72
65
 73
0
 40
0.0
  0
LTYPE
  5
15
100
AcDbSymbolTableRecord
100
AcDbLinetypeTableRecord
  2
BYLAYER
 70
0
  3

 72
65
 73
0
 40
0.0
  0
LTYPE
  5
16
100
AcDbSymbolTableRecord
100
AcDbLinetypeTableRecord
  2
CONTINUOUS
 70
64
  3
Solid line
 72
65
 73
0
 40
0.0
  0
LTYPE
  5
1F5
100
AcDbSymbolTableRecord
100
AcDbLinetypeTableRecord
  2
CENTER
 70
64
  3
____ _ ____ _ ____ _ ____ _ ____ _ ____ _ ____
 72
65
 73
4
 40
0.6
 49
0.375
 74
0
 49
-0.075
 74
0
 49
0.075
 74
0
 49
-0.075
 74
0
  0
LTYPE
  5
1F6
100
AcDbSymbolTableRecord
100
AcDbLinetypeTableRecord
  2
HIDDEN
 70
64
  3
- - - - - - - - - - - - - - - - - - - -
 72
65
 73
2
 40
0.2
 49
0.1
 74
0
 49
-0.1
 74
0
  0
LTYPE
  5
1F7
100
AcDbSymbolTableRecord
100
AcDbLinetypeTableRecord
  2
PHANTOM
 70
64
  3
_____ _ _ _____ _ _ _____ _ _ _____
 72
65
 73
6
 40
0.8
 49
0.45
 74
0
 49
-0.05
 74
0
 49
0.1
 74
0
 49
-0.05
 74
0
 49
0.1
 74
0
 49
-0.05
 74
0
  0
LTYPE
  5
1F8
100
AcDbSymbolTableRecord
100
AcDbLinetypeTableRecord
  2
DOT
 70
64
  3
. . . . . . . . . . . . . . . . . . . .
 72
65
 73
2
 40
0.2
 49
0.1
 74
0
 49
-0.1
 74
0
  0
LTYPE
  5
1F9
100
AcDbSymbolTableRecord
100
AcDbLinetypeTableRecord
  2
DASHED
 70
64
  3
- - - - - - - - - - - - - - - - - - - -
 72
65
 73
2
 40
0.2
 49
0.1
 74
0
 49
-0.1
 74
0
  0
ENDTAB
  0
TABLE
  2
LAYER
  5
2
100
AcDbSymbolTable
 70
36
  0
LAYER
  5
10
100
AcDbSymbolTableRecord
100
AcDbLayerTableRecord
  2
0
 70
0
 62
7
  6
CONTINUOUS
370
-3
390
F
  0
LAYER
  5
1FA
100
AcDbSymbolTableRecord
100
AcDbLayerTableRecord
  2
DEFAULT_1
 70
0
 62
7
  6
CENTER
370
-3
390
F
  0
LAYER
  5
1FB
100
AcDbSymbolTableRecord
100
AcDbLayerTableRecord
  2
DEFAULT_2
 70
0
 62
8
  6
HIDDEN
370
-3
390
F
  0
LAYER
  5
1FC
100
AcDbSymbolTableRecord
100
AcDbLayerTableRecord
  2
DEFAULT_3
 70
0
 62
7
  6
PHANTOM
370
-3
390
F
  0
LAYER
  5
1FD
100
AcDbSymbolTableRecord
100
AcDbLayerTableRecord
  2
ALL_FEATURES
 70
0
 62
7
  6
CONTINUOUS
370
-3
390
F
  0
LAYER
  5
1FE
100
AcDbSymbolTableRecord
100
AcDbLayerTableRecord
  2
AXES_FEATURES
 70
0
 62
7
  6
CONTINUOUS
370
-3
390
F
  0
LAYER
  5
1FF
100
AcDbSymbolTableRecord
100
AcDbLayerTableRecord
  2
DEFAULT_COORDINATE_SYSTEM
 70
0
 62
7
  6
CONTINUOUS
370
-3
390
F
  0
LAYER
  5
200
100
AcDbSymbolTableRecord
100
AcDbLayerTableRecord
  2
DEFAULT_DATUM_AXES
 70
0
 62
7
  6
CONTINUOUS
370
-3
390
F
  0
LAYER
  5
201
100
AcDbSymbolTableRecord
100
AcDbLayerTableRecord
  2
DEFAULT_DATUM_PLANES
 70
0
 62
7
  6
CONTINUOUS
370
-3
390
F
  0
LAYER
  5
202
100
AcDbSymbolTableRecord
100
AcDbLayerTableRecord
  2
DIMENSIONS
 70
0
 62
7
  6
CONTINUOUS
370
-3
390
F
  0
ENDTAB
  0
TABLE
  2
STYLE
  5
3
100
AcDbSymbolTable
 70
1
  0
STYLE
  5
11
100
AcDbSymbolTableRecord
100
AcDbTextStyleTableRecord
  2
STANDARD
 70
0
 40
0.0
 41
0.8
 50
0.0
 71
0
 42
0.2
  3
txt
  4

  0
STYLE
  5
203
100
AcDbSymbolTableRecord
100
AcDbTextStyleTableRecord
  2
TEXTSTYLE_1
 70
0
 40
0.0
 41
0.8
 50
0.0
 71
0
 42
0.2
  3
gdt
  4

  0
ENDTAB
  0
TABLE
  2
VIEW
  5
6
100
AcDbSymbolTable
 70
0
  0
ENDTAB
  0
TABLE
  2
UCS
  5
7
100
AcDbSymbolTable
 70
0
  0
ENDTAB
  0
TABLE
  2
APPID
  5
9
100
AcDbSymbolTable
 70
1
  0
APPID
  5
204
100
AcDbSymbolTableRecord
100
AcDbRegAppTableRecord
  2
ACAD
 70
0
  0
ENDTAB
  0
TABLE
  2
BLOCK_RECORD
  5
1
100
AcDbSymbolTable
 70
0
  0
BLOCK_RECORD
  5
205
100
AcDbSymbolTableRecord
100
AcDbBlockTableRecord
  2
*Model_Space
  0
BLOCK_RECORD
  5
206
100
AcDbSymbolTableRecord
100
AcDbBlockTableRecord
  2
*Paper_Space
  0
BLOCK_RECORD
  5
207
100
AcDbSymbolTableRecord
100
AcDbBlockTableRecord
  2
_FILLED
  0
ENDTAB
  0
TABLE
  2
DIMSTYLE
  5
A
100
AcDbSymbolTable
 70
1
100
AcDbDimStyleTable
 71
0
  0
DIMSTYLE
105
208
100
AcDbSymbolTableRecord
100
AcDbDimStyleTableRecord
  2
STANDARD
 70
0
  3

  4

 40
1.0
 41
0.1
 42
0.0625
 43
0.38
 44
0.125
 45
0.0
 46
0.0
 47
0.001
 48
0.001
140
0.08
141
0.09
142
0.0
143
25.4
144
1.0
145
0.0
146
1.0
147
0.09
 71
1.0
 72
0.0
 73
1
 74
1
 75
0
 76
0
 77
0
 78
4
 79
1
170
1
171
2
172
0
173
0
174
0
175
0
176
0
177
0
178
0
270
2
179
3
271
3
272
3
273
2
274
2
275
0
280
0
281
0
282
0
283
1
284
4
285
0
286
0
287
3
288
0
340
11
278
46
341
207
342
207
343
207
344
207
  0
ENDTAB
  0
ENDSEC
  0
SECTION
  2
BLOCKS
  0
BLOCK
  5
20
100
AcDbEntity
  8
0
100
AcDbBlockBegin
  2
*Model_Space
 70
0
 10
0.0
 20
0.0
 30
0.0
  3
*Model_Space
  1

  0
ENDBLK
  5
21
100
AcDbEntity
  8
0
100
AcDbBlockEnd
  0
BLOCK
  5
1C
100
AcDbEntity
  8
0
100
AcDbBlockBegin
  2
*Paper_Space
 70
0
 10
0.0
 20
0.0
 30
0.0
  3
*Paper_Space
  1

  0
ENDBLK
  5
1D
100
AcDbEntity
  8
0
100
AcDbBlockEnd
  0
BLOCK
  5
209
100
AcDbEntity
  8
0
100
AcDbBlockBegin
  2
_FILLED
 70
64
 10
0.0
 20
0.0
  3
_FILLED
  1

  0
SOLID
  5
20A
100
AcDbEntity
  8
0
  6
BYBLOCK
 62
0
100
AcDbTrace
 10
0.0
 20
0.0
 11
-1.0
 21
0.2
 12
-1.0
 22
-0.2
 13
-1.0
 23
-0.2
  0
ENDBLK
  5
20B
100
AcDbEntity
  8
0
  6
BYBLOCK
 62
0
100
AcDbBlockEnd
  0
ENDSEC
  0
SECTION
  2
ENTITIES
  0
LWPOLYLINE
  5
20C
100
AcDbEntity
  8
0
100
AcDbPolyline
 62
7
  6
CONTINUOUS
 90
11
 70
0
 10
11.159280916
 20
5.3370643471
 10
11.1628988822
 20
5.3374288803
 10
11.1710661172
 20
5.338619255
 10
11.1789520373
 20
5.3402594895
 10
11.1866046844
 20
5.3423267621
 10
11.1940616916
 20
5.3448121831
 10
11.2013474339
 20
5.3477161249
 10
11.2084598338
 20
5.3510378111
 10
11.2153678141
 20
5.3547621013
 10
11.2220075716
 20
5.358841164
 10
11.2287621899
 20
5.3635396763
  0
LWPOLYLINE
  5
20D
100
AcDbEntity
  8
0
100
AcDbPolyline
 62
7
  6
CONTINUOUS
 90
12
 70
0
 10
11.0473183383
 20
5.298791415
 10
11.0562319803
 20
5.2989294391
 10
11.0656370015
 20
5.2993745467
 10
11.0750005057
 20
5.3001244213
 10
11.0843213909
 20
5.301177476
 10
11.0935979565
 20
5.3025332436
 10
11.102827104
 20
5.3041921263
 10
11.1119928444
 20
5.3061518182
 10
11.1210670579
 20
5.3084048283
 10
11.130021398
 20
5.3109409283
 10
11.1388281078
 20
5.3137473678
 10
11.1440032919
 20
5.3155451793
  0
LWPOLYLINE
  5
20E
100
AcDbEntity
  8
0
100
AcDbPolyline
 62
7
  6
CONTINUOUS
 90
4
 70
0
 10
10.9353584043
 20
5.3370641411
 10
10.9374282852
 20
5.3366334795
 10
10.939386334
 20
5.335690765
 10
10.9397488716
 20
5.3354020143
  0
LWPOLYLINE
  5
20F
100
AcDbEntity
  8
0
100
AcDbPolyline
 62
7
  6
CONTINUOUS
 90
12
 70
0
 10
10.9506333753
 20
5.315545209
 10
10.9558109596
 20
5.3137465947
 10
10.964619097
 20
5.3109398113
 10
10.9735740553
 20
5.3084036744
 10
10.9826482341
 20
5.306150816
 10
10.9918134547
 20
5.3041913675
 10
11.0010417814
 20
5.3025327439
 10
11.0103173962
 20
5.3011771993
 10
11.0196373474
 20
5.3001243045
 10
11.029000085
 20
5.2993745186
 10
11.0384046622
 20
5.2989294396
 10
11.0473183383
 20
5.298791415
  0
LWPOLYLINE
  5
210
100
AcDbEntity
  8
0
100
AcDbPolyline
 62
7
  6
CONTINUOUS
 90
11
 70
0
 10
10.8658746162
 20
5.3635395409
 10
10.8726275551
 20
5.35884215
 10
10.8792671711
 20
5.3547630637
 10
10.8861751198
 20
5.3510386781
 10
10.8932875817
 20
5.3477168553
 10
10.9005734757
 20
5.3448127563
 10
10.9080307079
 20
5.3423271768
 10
10.915683639
 20
5.3402597587
 10
10.9235698834
 20
5.3386194036
 10
10.9317374615
 20
5.3374289418
 10
10.9353557481
 20
5.3370643679
  0
LWPOLYLINE
  5
211
100
AcDbEntity
  8
0
100
AcDbPolyline
 62
7
  6
CONTINUOUS
 90
4
 70
0
 10
10.8037835856
 20
5.4886973045
 10
10.8093737379
 20
5.4837249471
 10
10.8159106445
 20
5.4786115573
 10
10.8199274217
 20
5.4758958687
  0
LINE
  5
212
100
AcDbEntity
  8
0
100
AcDbLine
 62
7
  6
CONTINUOUS
 10
9.7623183383
 20
8.9116947126
 11
9.7623183383
 21
8.7616947126
  0
LWPOLYLINE
  5
213
100
AcDbEntity
  8
0
100
AcDbPolyline
 62
7
  6
CONTINUOUS
 90
20
 70
0
 10
10.0461184724
 20
8.4709836571
 10
10.0514762168
 20
8.4129098561
 10
10.0583252793
 20
8.355798194
 10
10.0666397825
 20
8.299574672
 10
10.0764012322
 20
8.2441648766
 10
10.0875979016
 20
8.1894981059
 10
10.1002256349
 20
8.1355029795
 10
10.114284611
 20
8.0821203989
 10
10.1297779979
 20
8.0293028833
 10
10.1467147838
 20
7.9770017698
 10
10.165111864
 20
7.9251627289
 10
10.1849923503
 20
7.873732876
 10
10.2063839806
 20
7.8226645653
 10
10.2293195429
 20
7.771913446
 10
10.253839399
 20
7.7214330997
 10
10.2799898211
 20
7.6711795089
 10
10.3078176873
 20
7.6211203049
 10
10.3373695541
 20
7.5712335057
 10
10.3687150638
 20
7.5214689777
 10
10.4019660563
 20
7.4717290637
  0
LWPOLYLINE
  5
214
100
AcDbEntity
  8
0
100
AcDbPolyline
 62
7
  6
CONTINUOUS
 90
34
 70
0
 10
10.1010228427
 20
8.5074790263
 10
10.103526855
 20
8.4708720471
 10
10.1087083957
 20
8.4127169117
 10
10.1152783077
 20
8.3555409406
 10
10.1232148534
 20
8.2992568862
 10
10.1325042695
 20
8.243777179
 10
10.1431402361
 20
8.1890182301
 10
10.1551240415
 20
8.1348988481
 10
10.1684478613
 20
8.0814038526
 10
10.1830879519
 20
8.0285765929
 10
10.1990529033
 20
7.9763421123
 10
10.2164713268
 20
7.924305079
 10
10.2354248605
 20
7.8723175695
 10
10.25550445
 20
7.821473503
 10
10.2761077869
 20
7.7730019652
 10
10.2969782911
 20
7.7270810411
 10
10.3180499433
 20
7.683466782
 10
10.3392833183
 20
7.6419202456
 10
10.360659577
 20
7.6022151438
 10
10.382133006
 20
7.5642152023
 10
10.4036321108
 20
7.5278515123
 10
10.425091338
 20
7.49305787
 10
10.4464511822
 20
7.4597699211
 10
10.4676510242
 20
7.4279351776
 10
10.4886287973
 20
7.3975112591
 10
10.509326192
 20
7.3684568991
 10
10.5296879205
 20
7.3407325499
 10
10.5496602157
 20
7.3143017593
 10
10.5691904282
 20
7.2891308781
 10
10.5882263612
 20
7.265188962
 10
10.6067093394
 20
7.2424550187
 10
10.624578612
 20
7.2209104299
 10
10.6417850644
 20
7.2005205692
 10
10.6578931952
 20
7.1816947126
  0
LINE
  5
215
100
AcDbEntity
  8
0
100
AcDbLine
 62
7
  6
CONTINUOUS
 10
10.0424640146
 20
8.5266551141
 11
10.0461184722
 21
8.4709836596
  0
LINE
  5
216
100
AcDbEntity
  8
0
100
AcDbLine
 62
7
  6
CONTINUOUS
 10
11.424304056
 20
6.4011532755
 11
11.4244193375
 21
6.4011532987
  0
LINE
  5
217
100
AcDbEntity
  8
0
100
AcDbLine
 62
9
  6
CONTINUOUS
 10
11.3598929896
 20
6.4011532578
 11
10.7347453618
 21
6.4011532578
  0
LINE
  5
218
100
AcDbEntity
  8
0
100
AcDbLine
 62
7
  6
CONTINUOUS
 10
10.6702173384
 20
6.4011532987
 11
10.6703326002
 21
6.4011532754
  0
LWPOLYLINE
  5
219
100
AcDbEntity
  8
0
100
AcDbPolyline
 62
7
  6
CONTINUOUS
 90
18
 70
0
 10
10.3750087197
 20
8.4192697885
 10
10.3782281554
 20
8.381785177
 10
10.3837537868
 20
8.3264737668
 10
10.3901589322
 20
8.2717382058
 10
10.3974476737
 20
8.2175522158
 10
10.40562446
 20
8.1638899256
 10
10.4146940121
 20
8.110728012
 10
10.4246619217
 20
8.0580427512
 10
10.435534834
 20
8.0058102246
 10
10.4473185841
 20
7.9540148807
 10
10.4600148559
 20
7.9026597412
 10
10.4736239367
 20
7.8517503213
 10
10.4881452403
 20
7.8012922811
 10
10.503582251
 20
7.7512744643
 10
10.5199501836
 20
7.701650694
 10
10.5372670157
 20
7.6523740015
 10
10.5555515236
 20
7.6034006818
 10
10.5700816906
 20
7.5664200394
  0
LINE
  5
21A
100
AcDbEntity
  8
0
100
AcDbLine
 62
7
  6
CONTINUOUS
 10
10.3723109136
 20
8.4552638312
 11
10.3750087197
 21
8.4192697885
  0
LWPOLYLINE
  5
21B
100
AcDbEntity
  8
0
100
AcDbPolyline
 62
7
  6
CONTINUOUS
 90
27
 70
0
 10
10.2137355524
 20
8.4806869687
 10
10.2143503727
 20
8.4718772265
 10
10.2190712087
 20
8.4144791155
 10
10.2249674769
 20
8.357872792
 10
10.2320265568
 20
8.3020345805
 10
10.2402370995
 20
8.2469374878
 10
10.2495910393
 20
8.1925435118
 10
10.2600838335
 20
8.1388096038
 10
10.2717132824
 20
8.085696206
 10
10.2844791606
 20
8.0331677754
 10
10.2983860109
 20
7.9811815998
 10
10.3134491889
 20
7.92967136
 10
10.3296883906
 20
7.8785763816
 10
10.3471115832
 20
7.8278863073
 10
10.3657254792
 20
7.7775966101
 10
10.3855879824
 20
7.7275782588
 10
10.406799622
 20
7.6776364489
 10
10.4294765845
 20
7.6275896854
 10
10.453708075
 20
7.577353642
 10
10.479185644
 20
7.5276169409
 10
10.5053065322
 20
7.4794422526
 10
10.5313759409
 20
7.433823431
 10
10.556696408
 20
7.3915661978
 10
10.5810380703
 20
7.3526114615
 10
10.6044023072
 20
7.3165679198
 10
10.6268086115
 20
7.2830732209
 10
10.6470847215
 20
7.2535169311
  0
LINE
  5
21C
100
AcDbEntity
  8
0
100
AcDbLine
 62
7
  6
CONTINUOUS
 10
11.4410184643
 20
6.7554841769
 11
11.42314279
 21
6.7554840827
  0
LINE
  5
21D
100
AcDbEntity
  8
0
100
AcDbLine
 62
9
  6
CONTINUOUS
 10
11.3276569694
 20
6.7554841069
 11
10.7669910252
 21
6.7554841096
  0
LINE
  5
21E
100
AcDbEntity
  8
0
100
AcDbLine
 62
7
  6
CONTINUOUS
 10
10.0129646025
 20
8.5867041278
 11
10.0303104295
 21
8.5408800736
  0
LWPOLYLINE
  5
21F
100
AcDbEntity
  8
0
100
AcDbPolyline
 62
7
  6
CONTINUOUS
 90
25
 70
0
 10
10.7120583392
 20
5.7806844768
 10
10.7158403057
 20
5.7565365
 10
10.71952026
 20
5.734242924
 10
10.7230980317
 20
5.7136595239
 10
10.7265770532
 20
5.6946452317
 10
10.7299624891
 20
5.6770692734
 10
10.7332607334
 20
5.6608114121
 10
10.7364830172
 20
5.645747491
 10
10.7396437022
 20
5.6317613347
 10
10.7427606377
 20
5.6187395938
 10
10.7458502283
 20
5.6065927222
 10
10.7489268825
 20
5.59525243
 10
10.7520114182
 20
5.5846393154
 10
10.7551343436
 20
5.5746564155
 10
10.7583216435
 20
5.5652378623
 10
10.7616032712
 20
5.5563132208
 10
10.7650136233
 20
5.5478154406
 10
10.7685985962
 20
5.5396708928
 10
10.772396241
 20
5.5318421359
 10
10.7764728134
 20
5.524251939
 10
10.7809111992
 20
5.5168268374
 10
10.7858031137
 20
5.5095185113
 10
10.7912503802
 20
5.5023054676
 10
10.7973611129
 20
5.4952018101
 10
10.8037837647
 20
5.4886971356
  0
LWPOLYLINE
  5
220
100
AcDbEntity
  8
0
100
AcDbPolyline
 62
7
  6
CONTINUOUS
 90
3
 70
0
 10
10.7071331419
 20
5.814112482
 10
10.7075231069
 20
5.8113554793
 10
10.7120583392
 20
5.7806844768
  0
LWPOLYLINE
  5
221
100
AcDbEntity
  8
0
100
AcDbPolyline
 62
7
  6
CONTINUOUS
 90
4
 70
0
 10
10.7839232051
 20
5.7522628773
 10
10.7857401565
 20
5.7354324507
 10
10.7875418719
 20
5.7191924524
 10
10.7893105872
 20
5.7037781473
  0
LWPOLYLINE
  5
222
100
AcDbEntity
  8
0
100
AcDbPolyline
 62
7
  6
CONTINUOUS
 90
4
 70
0
 10
10.7668175649
 20
5.9163690362
 10
10.7681501461
 20
5.9039878391
 10
10.7702647786
 20
5.8840359222
 10
10.7723379721
 20
5.8641731209
  0
LWPOLYLINE
  5
223
100
AcDbEntity
  8
0
100
AcDbPolyline
 62
7
  6
CONTINUOUS
 90
3
 70
0
 10
10.7802128791
 20
5.7876430155
 10
10.7820834678
 20
5.769669373
 10
10.7839232051
 20
5.7522628773
  0
LWPOLYLINE
  5
224
100
AcDbEntity
  8
0
100
AcDbPolyline
 62
7
  6
CONTINUOUS
 90
3
 70
0
 10
10.7723379721
 20
5.8641731209
 10
10.7763575174
 20
5.82513658
 10
10.7802128791
 20
5.7876430155
  0
LWPOLYLINE
  5
225
100
AcDbEntity
  8
0
100
AcDbPolyline
 62
7
  6
CONTINUOUS
 90
30
 70
0
 10
10.932519065
 20
5.4073259857
 10
10.9330425279
 20
5.3997938153
 10
10.9335559495
 20
5.3927568632
 10
10.9340596631
 20
5.386192497
 10
10.9345540251
 20
5.3800784746
 10
10.9350394749
 20
5.3743930115
 10
10.9355164356
 20
5.3691149611
 10
10.9359853639
 20
5.3642235548
 10
10.9364467906
 20
5.3596986163
 10
10.9369012438
 20
5.3555205529
 10
10.9373491275
 20
5.351671047
 10
10.9377904637
 20
5.3481341353
 10
10.9382252674
 20
5.344893783
 10
10.938653657
 20
5.3419335201
 10
10.9390759509
 20
5.3392362932
 10
10.9394930832
 20
5.3367824126
 10
10.9399070438
 20
5.3345484153
 10
10.9403203941
 20
5.3325115115
 10
10.9407364024
 20
5.3306496772
 10
10.9411595529
 20
5.3289407561
 10
10.9415961075
 20
5.3273622891
 10
10.9420543733
 20
5.3258930034
 10
10.942546836
 20
5.3245092685
 10
10.9430937665
 20
5.323182068
 10
10.9437287174
 20
5.3218762979
 10
10.9445079504
 20
5.3205520896
 10
10.945524623
 20
5.3191739479
 10
10.9469223387
 20
5.3177403075
 10
10.9488781318
 20
5.3163501231
 10
10.9506344902
 20
5.3155449705
  0
LWPOLYLINE
  5
226
100
AcDbEntity
  8
0
100
AcDbPolyline
 62
7
  6
CONTINUOUS
 90
3
 70
0
 10
10.9317392894
 20
5.4188175321
 10
10.9321118768
 20
5.4134061757
 10
10.932519065
 20
5.4073259857
  0
LWPOLYLINE
  5
227
100
AcDbEntity
  8
0
100
AcDbPolyline
 62
7
  6
CONTINUOUS
 90
13
 70
0
 10
10.6870102522
 20
6.051001783
 10
10.6883318537
 20
6.028063211
 10
10.6897374743
 20
6.0051258141
 10
10.6912022933
 20
5.9827035647
 10
10.6927251169
 20
5.960881064
 10
10.6943059201
 20
5.9397338964
 10
10.6959449171
 20
5.9193329847
 10
10.6976424775
 20
5.8997371313
 10
10.6994013832
 20
5.8809571076
 10
10.7012268723
 20
5.8629822371
 10
10.7031248414
 20
5.8458104064
 10
10.7051009495
 20
5.8294469404
 10
10.7071331596
 20
5.8141123549
  0
LWPOLYLINE
  5
228
100
AcDbEntity
  8
0
100
AcDbPolyline
 62
7
  6
CONTINUOUS
 90
5
 70
0
 10
10.6702173384
 20
6.4011532987
 10
10.6715237244
 20
6.3748066159
 10
10.6728392346
 20
6.3474739856
 10
10.6741361255
 20
6.3198416735
 10
10.6754159637
 20
6.292044125
  0
LWPOLYLINE
  5
229
100
AcDbEntity
  8
0
100
AcDbPolyline
 62
7
  6
CONTINUOUS
 90
4
 70
0
 10
10.6660681119
 20
6.4869415781
 10
10.6674574017
 20
6.4578729276
 10
10.6688482013
 20
6.4291066391
 10
10.6702173056
 20
6.4011532956
  0
LINE
  5
22A
100
AcDbEntity
  8
0
100
AcDbLine
 62
7
  6
CONTINUOUS
 10
10.6632830483
 20
6.5460439478
 11
10.6660681119
 21
6.4869415781
  0
LINE
  5
22B
100
AcDbEntity
  8
0
100
AcDbLine
 62
7
  6
CONTINUOUS
 10
10.6603923958
 20
6.6081998426
 11
10.6632830483
 21
6.5460439478
  0
LWPOLYLINE
  5
22C
100
AcDbEntity
  8
0
100
AcDbPolyline
 62
7
  6
CONTINUOUS
 90
7
 70
0
 10
10.6791914768
 20
6.2089554241
 10
10.6804471605
 20
6.1817379298
 10
10.6817122551
 20
6.1548383482
 10
10.6829939267
 20
6.1282649458
 10
10.6843004208
 20
6.1020280618
 10
10.6856423913
 20
6.0761390342
 10
10.6870102548
 20
6.0510017361
  0
LWPOLYLINE
  5
22D
100
AcDbEntity
  8
0
100
AcDbPolyline
 62
7
  6
CONTINUOUS
 90
3
 70
0
 10
10.656083561
 20
6.7017632885
 10
10.6575026881
 20
6.6708718855
 10
10.6603923958
 20
6.6081998426
  0
LINE
  5
22E
100
AcDbEntity
  8
0
100
AcDbLine
 62
7
  6
CONTINUOUS
 10
10.6536176244
 20
6.7554969873
 11
10.656083561
 21
6.7017632885
  0
LINE
  5
22F
100
AcDbEntity
  8
0
100
AcDbLine
 62
7
  6
CONTINUOUS
 10
10.6754159637
 20
6.292044125
 11
10.6791914768
 21
6.2089554241
  0
LINE
  5
230
100
AcDbEntity
  8
0
100
AcDbLine
 62
9
  6
CONTINUOUS
 10
10.6737902045
 20
6.7019476335
 11
10.6714937623
 21
6.7554840827
  0
LINE
  5
231
100
AcDbEntity
  8
0
100
AcDbLine
 62
7
  6
CONTINUOUS
 10
10.6536175509
 20
6.9842550274
 11
10.6536175509
 21
6.9567900363
  0
LINE
  5
232
100
AcDbEntity
  8
0
100
AcDbLine
 62
7
  6
CONTINUOUS
 10
10.6536175509
 20
6.784099389
 11
10.6536175509
 21
6.7554969865
  0
LINE
  5
233
100
AcDbEntity
  8
0
100
AcDbLine
 62
7
  6
CONTINUOUS
 10
10.6598183383
 20
7.1626178165
 11
10.6598183383
 21
7.1516947126
  0
LINE
  5
234
100
AcDbEntity
  8
0
100
AcDbLine
 62
7
  6
CONTINUOUS
 10
12.3323183383
 20
8.7616947126
 11
12.2473198831
 21
8.7116947126
  0
LINE
  5
235
100
AcDbEntity
  8
0
100
AcDbLine
 62
7
  6
CONTINUOUS
 10
10.6536175509
 20
6.9842550274
 11
11.4410191257
 21
6.9842550274
  0
LINE
  5
236
100
AcDbEntity
  8
0
100
AcDbLine
 62
7
  6
CONTINUOUS
 10
10.7422002575
 20
7.0704447126
 11
11.3524364191
 21
7.0704447126
  0
LINE
  5
237
100
AcDbEntity
  8
0
100
AcDbLine
 62
7
  6
CONTINUOUS
 10
11.3848183383
 20
7.1016947126
 11
10.7098183383
 21
7.1016947126
  0
LINE
  5
238
100
AcDbEntity
  8
0
100
AcDbLine
 62
9
  6
CONTINUOUS
 10
11.4348183383
 20
7.1516947126
 11
10.6598183383
 21
7.1516947126
  0
LINE
  5
239
100
AcDbEntity
  8
0
100
AcDbLine
 62
7
  6
CONTINUOUS
 10
10.6598183383
 20
7.1626178165
 11
11.4348183383
 21
7.1626178165
  0
LINE
  5
23A
100
AcDbEntity
  8
0
100
AcDbLine
 62
7
  6
CONTINUOUS
 10
11.4572239673
 20
7.1816947126
 11
11.4380305746
 21
7.1816947126
  0
LINE
  5
23B
100
AcDbEntity
  8
0
100
AcDbLine
 62
7
  6
CONTINUOUS
 10
11.4367433487
 20
7.1816947126
 11
11.3984586428
 21
7.1816947126
  0
LINE
  5
23C
100
AcDbEntity
  8
0
100
AcDbLine
 62
7
  6
CONTINUOUS
 10
11.3953338089
 20
7.1816947126
 11
11.3349570795
 21
7.1816947126
  0
LINE
  5
23D
100
AcDbEntity
  8
0
100
AcDbLine
 62
7
  6
CONTINUOUS
 10
11.330537897
 20
7.1816947126
 11
11.2518534113
 21
7.1816947126
  0
LINE
  5
23E
100
AcDbEntity
  8
0
100
AcDbLine
 62
7
  6
CONTINUOUS
 10
11.2464410402
 20
7.1816947126
 11
11.1548110159
 21
7.1816947126
  0
LINE
  5
23F
100
AcDbEntity
  8
0
100
AcDbLine
 62
7
  6
CONTINUOUS
 10
11.1487743004
 20
7.1816947126
 11
11.0504431722
 21
7.1816947126
  0
LINE
  5
240
100
AcDbEntity
  8
0
100
AcDbLine
 62
7
  6
CONTINUOUS
 10
11.0441935044
 20
7.1816947126
 11
10.9458623762
 21
7.1816947126
  0
LINE
  5
241
100
AcDbEntity
  8
0
100
AcDbLine
 62
7
  6
CONTINUOUS
 10
10.9398256606
 20
7.1816947126
 11
10.8481956363
 21
7.1816947126
  0
LINE
  5
242
100
AcDbEntity
  8
0
100
AcDbLine
 62
7
  6
CONTINUOUS
 10
10.8427832653
 20
7.1816947126
 11
10.7640987796
 21
7.1816947126
  0
LINE
  5
243
100
AcDbEntity
  8
0
100
AcDbLine
 62
7
  6
CONTINUOUS
 10
10.7596795971
 20
7.1816947126
 11
10.6993028677
 21
7.1816947126
  0
LINE
  5
244
100
AcDbEntity
  8
0
100
AcDbLine
 62
7
  6
CONTINUOUS
 10
10.6961780338
 20
7.1816947126
 11
10.6578933279
 21
7.1816947126
  0
LINE
  5
245
100
AcDbEntity
  8
0
100
AcDbLine
 62
7
  6
CONTINUOUS
 10
10.6566061019
 20
7.1816947126
 11
10.6374127093
 21
7.1816947126
  0
LWPOLYLINE
  5
246
100
AcDbEntity
  8
0
100
AcDbPolyline
 62
7
  6
CONTINUOUS
 90
6
 70
0
 10
10.4371866491
 20
7.4220059762
 10
10.4742748209
 20
7.3725126575
 10
10.5130736246
 20
7.3234875666
 10
10.5534003697
 20
7.2751501263
 10
10.5950547329
 20
7.2276904756
 10
10.6374127273
 20
7.1816947126
  0
LINE
  5
247
100
AcDbEntity
  8
0
100
AcDbLine
 62
7
  6
CONTINUOUS
 10
10.4019660563
 20
7.4717290637
 11
10.4371866488
 21
7.4220059766
  0
LINE
  5
248
100
AcDbEntity
  8
0
100
AcDbLine
 62
7
  6
CONTINUOUS
 10
10.6470847215
 20
7.2535169311
 11
10.6626750778
 21
7.2312803822
  0
LWPOLYLINE
  5
249
100
AcDbEntity
  8
0
100
AcDbPolyline
 62
7
  6
CONTINUOUS
 90
34
 70
0
 10
10.8000954942
 20
5.6129009624
 10
10.8023427369
 20
5.5946956664
 10
10.8045151197
 20
5.5777448716
 10
10.8066148042
 20
5.5619617408
 10
10.8086446367
 20
5.5472624806
 10
10.810607781
 20
5.5335705213
 10
10.8125077227
 20
5.5208147185
 10
10.8143489454
 20
5.5089259321
 10
10.816136238
 20
5.4978397113
 10
10.8178752227
 20
5.4874938783
 10
10.8195714491
 20
5.4778326722
 10
10.821229856
 20
5.4688094819
 10
10.8228524162
 20
5.4603974872
 10
10.8244423165
 20
5.4525649118
 10
10.8260034386
 20
5.4452798738
 10
10.827540196
 20
5.4385089811
 10
10.8290583004
 20
5.4322155846
 10
10.8305632502
 20
5.4263661686
 10
10.8320523876
 20
5.4209570964
 10
10.8335179744
 20
5.4159946091
 10
10.8349625455
 20
5.411443706
 10
10.8364084146
 20
5.4072145323
 10
10.8378817085
 20
5.4032244475
 10
10.8394100895
 20
5.3994049066
 10
10.8410249525
 20
5.395696168
 10
10.8427661508
 20
5.3920393039
 10
10.8446776984
 20
5.3883895488
 10
10.8468071427
 20
5.3847180173
 10
10.8492124896
 20
5.3810013132
 10
10.8519596868
 20
5.3772300939
 10
10.85511134
 20
5.3734243704
 10
10.8587089703
 20
5.3696448133
 10
10.8627585578
 20
5.3659877617
 10
10.8658749215
 20
5.3635393315
  0
LINE
  5
24A
100
AcDbEntity
  8
0
100
AcDbLine
 62
7
  6
CONTINUOUS
 10
10.7893105665
 20
5.7037783244
 11
10.7935698771
 21
5.6680861624
  0
LINE
  5
24B
100
AcDbEntity
  8
0
100
AcDbLine
 62
7
  6
CONTINUOUS
 10
10.7935698771
 20
5.6680861624
 11
10.7982643139
 21
5.6282471941
  0
LINE
  5
24C
100
AcDbEntity
  8
0
100
AcDbLine
 62
7
  6
CONTINUOUS
 10
10.7982643139
 20
5.6282471941
 11
10.8000954942
 21
5.6129009624
  0
LINE
  5
24D
100
AcDbEntity
  8
0
100
AcDbLine
 62
9
  6
CONTINUOUS
 10
10.9295134159
 20
5.6067107673
 11
10.9295199591
 21
5.6065236455
  0
LINE
  5
24E
100
AcDbEntity
  8
0
100
AcDbLine
 62
9
  6
CONTINUOUS
 10
10.923505485
 20
5.9290878714
 11
10.9235058429
 21
5.9290503825
  0
LINE
  5
24F
100
AcDbEntity
  8
0
100
AcDbLine
 62
9
  6
CONTINUOUS
 10
10.9203531985
 20
5.9303261205
 11
10.9203532211
 21
5.9302888832
  0
LINE
  5
250
100
AcDbEntity
  8
0
100
AcDbLine
 62
7
  6
CONTINUOUS
 10
10.8473183383
 20
7.0704447126
 11
10.8473183383
 21
7.1016947126
  0
LINE
  5
251
100
AcDbEntity
  8
0
100
AcDbLine
 62
7
  6
CONTINUOUS
 10
11.0473183383
 20
8.4552638312
 11
11.0473183383
 21
7.2312803822
  0
LINE
  5
252
100
AcDbEntity
  8
0
100
AcDbLine
 62
9
  6
CONTINUOUS
 10
11.0473183383
 20
5.298791415
 11
11.0473183383
 21
6.7554840827
  0
LINE
  5
253
100
AcDbEntity
  8
0
100
AcDbLine
 62
7
  6
CONTINUOUS
 10
11.2473183383
 20
7.0704447126
 11
11.2473183383
 21
7.1016947126
  0
LINE
  5
254
100
AcDbEntity
  8
0
100
AcDbLine
 62
9
  6
CONTINUOUS
 10
11.1742835752
 20
5.930288882
 11
11.1742835978
 21
5.9303261299
  0
LINE
  5
255
100
AcDbEntity
  8
0
100
AcDbLine
 62
9
  6
CONTINUOUS
 10
11.1711309659
 20
5.9290503844
 11
11.1711313238
 21
5.9290878839
  0
LINE
  5
256
100
AcDbEntity
  8
0
100
AcDbLine
 62
9
  6
CONTINUOUS
 10
11.1651167958
 20
5.6065236535
 11
11.1651233396
 21
5.6067107912
  0
LINE
  5
257
100
AcDbEntity
  8
0
100
AcDbLine
 62
7
  6
CONTINUOUS
 10
11.1621176359
 20
5.4073260424
 11
11.1628974151
 21
5.4188175725
  0
LINE
  5
258
100
AcDbEntity
  8
0
100
AcDbLine
 62
7
  6
CONTINUOUS
 10
11.1628974176
 20
5.4188176087
 11
11.1628964506
 21
5.4188038687
  0
LINE
  5
259
100
AcDbEntity
  8
0
100
AcDbLine
 62
7
  6
CONTINUOUS
 10
11.4348183383
 20
7.1626178165
 11
11.4348183383
 21
7.1516947126
  0
LINE
  5
25A
100
AcDbEntity
  8
0
100
AcDbLine
 62
7
  6
CONTINUOUS
 10
11.4410191257
 20
6.9842550274
 11
11.4410191257
 21
6.9567900363
  0
LINE
  5
25B
100
AcDbEntity
  8
0
100
AcDbLine
 62
7
  6
CONTINUOUS
 10
11.4410191257
 20
6.784099389
 11
11.4410191257
 21
6.7554841769
  0
LINE
  5
25C
100
AcDbEntity
  8
0
100
AcDbLine
 62
9
  6
CONTINUOUS
 10
11.4208463662
 20
6.7019476343
 11
11.42314279
 21
6.7554840827
  0
LWPOLYLINE
  5
25D
100
AcDbEntity
  8
0
100
AcDbPolyline
 62
7
  6
CONTINUOUS
 90
6
 70
0
 10
11.4166981217
 20
6.2364762695
 10
11.4192206623
 20
6.2920440506
 10
11.4205005126
 20
6.3198416135
 10
11.4217974158
 20
6.3474739413
 10
11.4231129385
 20
6.3748065892
 10
11.4244193375
 20
6.4011532987
  0
LINE
  5
25E
100
AcDbEntity
  8
0
100
AcDbLine
 62
7
  6
CONTINUOUS
 10
11.4385531157
 20
6.7017632889
 11
11.441018465
 21
6.7554841913
  0
LINE
  5
25F
100
AcDbEntity
  8
0
100
AcDbLine
 62
7
  6
CONTINUOUS
 10
11.4342442812
 20
6.6081998454
 11
11.4385531157
 21
6.7017632889
  0
LINE
  5
260
100
AcDbEntity
  8
0
100
AcDbLine
 62
7
  6
CONTINUOUS
 10
11.4313536287
 20
6.5460439499
 11
11.4342442812
 21
6.6081998454
  0
LWPOLYLINE
  5
261
100
AcDbEntity
  8
0
100
AcDbPolyline
 62
7
  6
CONTINUOUS
 90
5
 70
0
 10
11.4244193715
 20
6.4011532956
 10
11.425788476
 20
6.4291066437
 10
11.4271792755
 20
6.4578729317
 10
11.4285685652
 20
6.4869415811
 10
11.4313536287
 20
6.5460439499
  0
LWPOLYLINE
  5
262
100
AcDbEntity
  8
0
100
AcDbPolyline
 62
7
  6
CONTINUOUS
 90
8
 70
0
 10
11.4076262785
 20
6.0510014887
 10
11.4089941509
 20
6.0761388127
 10
11.4103361307
 20
6.1020278644
 10
11.4116426344
 20
6.1282647708
 10
11.4129243159
 20
6.1548381938
 10
11.4141894208
 20
6.1817377942
 10
11.4154451151
 20
6.2089553056
 10
11.4166981217
 20
6.2364762695
  0
LINE
  5
263
100
AcDbEntity
  8
0
100
AcDbLine
 62
7
  6
CONTINUOUS
 10
11.7223257629
 20
8.4552638312
 11
11.7196277625
 21
8.419267369
  0
LWPOLYLINE
  5
264
100
AcDbEntity
  8
0
100
AcDbPolyline
 62
7
  6
CONTINUOUS
 90
5
 70
0
 10
11.3202681272
 20
5.844507422
 10
11.322298964
 20
5.864174118
 10
11.3243721651
 20
5.8840369509
 10
11.3264868047
 20
5.9039888867
 10
11.3278194024
 20
5.9163702017
  0
LWPOLYLINE
  5
265
100
AcDbEntity
  8
0
100
AcDbPolyline
 62
7
  6
CONTINUOUS
 90
5
 70
0
 10
11.3088966992
 20
5.7354329046
 10
11.3107136674
 20
5.7522634449
 10
11.3125534168
 20
5.7696700198
 10
11.3144240164
 20
5.7876437354
 10
11.3202681272
 20
5.844507422
  0
LINE
  5
266
100
AcDbEntity
  8
0
100
AcDbLine
 62
7
  6
CONTINUOUS
 10
11.3070949592
 20
5.719192736
 11
11.3088966992
 21
5.7354329046
  0
LINE
  5
267
100
AcDbEntity
  8
0
100
AcDbLine
 62
7
  6
CONTINUOUS
 10
11.2963707636
 20
5.6282330077
 11
11.3010668275
 21
5.6680856165
  0
LINE
  5
268
100
AcDbEntity
  8
0
100
AcDbLine
 62
7
  6
CONTINUOUS
 10
11.304926819
 20
5.7003938166
 11
11.3070949592
 21
5.719192736
  0
LINE
  5
269
100
AcDbEntity
  8
0
100
AcDbLine
 62
7
  6
CONTINUOUS
 10
11.3010668275
 20
5.6680856165
 11
11.304926819
 21
5.7003938166
  0
LWPOLYLINE
  5
26A
100
AcDbEntity
  8
0
100
AcDbPolyline
 62
7
  6
CONTINUOUS
 90
13
 70
0
 10
11.3875033155
 20
5.8141119623
 10
11.3895355248
 20
5.8294465335
 10
11.3915116337
 20
5.8458099913
 10
11.393409605
 20
5.8629818195
 10
11.3952350975
 20
5.8809566931
 10
11.3969940074
 20
5.8997367249
 10
11.3986915729
 20
5.9193325912
 10
11.4003305759
 20
5.9397335201
 10
11.4019113856
 20
5.9608807088
 10
11.4034342164
 20
5.9827032337
 10
11.4048990429
 20
6.0051255097
 10
11.4063046715
 20
6.0280629349
 10
11.4076262812
 20
6.0510015356
  0
LINE
  5
26B
100
AcDbEntity
  8
0
100
AcDbLine
 62
7
  6
CONTINUOUS
 10
11.3864273539
 20
5.8066186371
 11
11.3875033332
 21
5.8141120894
  0
LINE
  5
26C
100
AcDbEntity
  8
0
100
AcDbLine
 62
7
  6
CONTINUOUS
 10
12.0826159327
 20
8.5891976053
 11
12.0643262471
 21
8.5408800736
  0
LWPOLYLINE
  5
26D
100
AcDbEntity
  8
0
100
AcDbPolyline
 62
7
  6
CONTINUOUS
 90
18
 70
0
 10
11.5245582486
 20
7.5664281674
 10
11.5387493595
 20
7.6025276859
 10
11.5571033474
 20
7.6516393565
 10
11.5744838057
 20
7.7010558005
 10
11.5909096003
 20
7.7508208705
 10
11.6063988158
 20
7.8009817124
 10
11.6209668048
 20
7.851584814
 10
11.6346171884
 20
7.9026417328
 10
11.647349442
 20
7.9541469944
 10
11.6591639071
 20
8.0060952742
 10
11.6700623038
 20
8.0584836883
 10
11.6800504674
 20
8.1113277599
 10
11.6891350517
 20
8.1646514011
 10
11.6973216616
 20
8.2184783179
 10
11.7046150387
 20
8.2728318005
 10
11.7110196679
 20
8.3277377112
 10
11.7165396854
 20
8.3832223248
 10
11.7196277625
 20
8.419267369
  0
LWPOLYLINE
  5
26E
100
AcDbEntity
  8
0
100
AcDbPolyline
 62
7
  6
CONTINUOUS
 90
27
 70
0
 10
11.4475540567
 20
7.2535199631
 10
11.467703563
 20
7.2828897137
 10
11.4900923219
 20
7.3163524525
 10
11.5134386329
 20
7.3523603972
 10
11.5377593355
 20
7.3912708802
 10
11.5630536116
 20
7.4334699392
 10
11.589095113
 20
7.4790205117
 10
11.6151945592
 20
7.5271307457
 10
11.6406636613
 20
7.5768210047
 10
11.6649045043
 20
7.6270432521
 10
11.6876047485
 20
7.677107193
 10
11.7088459269
 20
7.7270848326
 10
11.728738413
 20
7.7771462438
 10
11.7473780282
 20
7.8274743199
 10
11.7648216741
 20
7.8781936381
 10
11.781078803
 20
7.9293151928
 10
11.7961590431
 20
7.9808543681
 10
11.8100817241
 20
8.0328708899
 10
11.8228618082
 20
8.0854296092
 10
11.8345039171
 20
8.1385733896
 10
11.8450079552
 20
8.1923383018
 10
11.8543717519
 20
8.2467641172
 10
11.8625907383
 20
8.301893846
 10
11.8696568308
 20
8.357765499
 10
11.8755586688
 20
8.4144061538
 10
11.8802836134
 20
8.4718395642
 10
11.880901124
 20
8.4806869661
  0
LINE
  5
26F
100
AcDbEntity
  8
0
100
AcDbLine
 62
7
  6
CONTINUOUS
 10
11.4475540567
 20
7.2535199631
 11
11.4319615987
 21
7.2312803822
  0
LWPOLYLINE
  5
270
100
AcDbEntity
  8
0
100
AcDbPolyline
 62
7
  6
CONTINUOUS
 90
34
 70
0
 10
11.4367434813
 20
7.1816947126
 10
11.4528516122
 20
7.2005205692
 10
11.4700580646
 20
7.2209104299
 10
11.4879273372
 20
7.2424550187
 10
11.5064103154
 20
7.265188962
 10
11.5254462483
 20
7.2891308781
 10
11.5449764608
 20
7.3143017593
 10
11.5649487561
 20
7.3407325499
 10
11.5853104846
 20
7.3684568991
 10
11.6060078793
 20
7.3975112591
 10
11.6269856524
 20
7.4279351776
 10
11.6481854944
 20
7.4597699211
 10
11.6695453385
 20
7.49305787
 10
11.6910045658
 20
7.5278515123
 10
11.7125036706
 20
7.5642152023
 10
11.7339770996
 20
7.6022151438
 10
11.7553533583
 20
7.6419202456
 10
11.7765867332
 20
7.683466782
 10
11.7976583854
 20
7.7270810411
 10
11.8185288897
 20
7.7730019652
 10
11.8391322266
 20
7.821473503
 10
11.859211816
 20
7.8723175695
 10
11.8781653498
 20
7.924305079
 10
11.8955837733
 20
7.9763421123
 10
11.9115487246
 20
8.0285765929
 10
11.9261888153
 20
8.0814038526
 10
11.9395126351
 20
8.1348988481
 10
11.9514964405
 20
8.1890182301
 10
11.9621324071
 20
8.243777179
 10
11.9714218232
 20
8.2992568862
 10
11.9793583688
 20
8.3555409406
 10
11.9859282809
 20
8.4127169117
 10
11.9911098216
 20
8.4708720471
 10
11.9936138339
 20
8.5074790263
  0
LWPOLYLINE
  5
271
100
AcDbEntity
  8
0
100
AcDbPolyline
 62
7
  6
CONTINUOUS
 90
26
 70
0
 10
11.4572239492
 20
7.1816947126
 10
11.4995819437
 20
7.2276904756
 10
11.5412363069
 20
7.2751501263
 10
11.5815630519
 20
7.3234875666
 10
11.6203618557
 20
7.3725126575
 10
11.6574500275
 20
7.4220059762
 10
11.6926706203
 20
7.4717290637
 10
11.7259216128
 20
7.5214689777
 10
11.7572671224
 20
7.5712335057
 10
11.7868189892
 20
7.6211203049
 10
11.8146468554
 20
7.6711795089
 10
11.8407972776
 20
7.7214330997
 10
11.8653171337
 20
7.771913446
 10
11.888252696
 20
7.8226645653
 10
11.9096443263
 20
7.873732876
 10
11.9295248126
 20
7.9251627289
 10
11.9479218928
 20
7.9770017698
 10
11.9648586786
 20
8.0293028833
 10
11.9803520656
 20
8.0821203989
 10
11.9944110417
 20
8.1355029795
 10
12.007038775
 20
8.1894981059
 10
12.0182354444
 20
8.2441648766
 10
12.0279968941
 20
8.299574672
 10
12.0363113972
 20
8.355798194
 10
12.0431604597
 20
8.4129098561
 10
12.0485182041
 20
8.4709836571
  0
LINE
  5
272
100
AcDbEntity
  8
0
100
AcDbLine
 62
7
  6
CONTINUOUS
 10
9.7623183383
 20
8.7616947126
 11
9.8473167935
 21
8.7116947126
  0
LINE
  5
273
100
AcDbEntity
  8
0
100
AcDbLine
 62
7
  6
CONTINUOUS
 10
12.0485182042
 20
8.4709836583
 11
12.0521726619
 21
8.5266551141
  0
LINE
  5
274
100
AcDbEntity
  8
0
100
AcDbLine
 62
9
  6
CONTINUOUS
 10
12.0643262471
 20
8.5408800736
 11
10.0303104295
 21
8.5408800736
  0
LINE
  5
275
100
AcDbEntity
  8
0
100
AcDbLine
 62
7
  6
CONTINUOUS
 10
11.7592551158
 20
8.7116947126
 11
11.7598049517
 21
8.7094592113
  0
LINE
  5
276
100
AcDbEntity
  8
0
100
AcDbLine
 62
7
  6
CONTINUOUS
 10
12.3323183383
 20
8.9116947126
 11
12.3323183383
 21
8.7616947126
  0
LINE
  5
277
100
AcDbEntity
  8
0
100
AcDbLine
 62
7
  6
CONTINUOUS
 10
12.2473198831
 20
8.7116947126
 11
9.8473167935
 21
8.7116947126
  0
LINE
  5
278
100
AcDbEntity
  8
0
100
AcDbLine
 62
7
  6
CONTINUOUS
 10
12.3323183383
 20
8.7616947126
 11
9.7623183383
 21
8.7616947126
  0
LINE
  5
279
100
AcDbEntity
  8
0
100
AcDbLine
 62
7
  6
CONTINUOUS
 10
13.8041570779
 20
8.9116947126
 11
8.2904795986
 21
8.9116947126
  0
LWPOLYLINE
  5
27A
100
AcDbEntity
  8
0
100
AcDbPolyline
 62
7
  6
CONTINUOUS
 90
26
 70
0
 10
11.2908523259
 20
5.4886964856
 10
11.2972750829
 20
5.4952011915
 10
11.3033859012
 20
5.5023048825
 10
11.3088332387
 20
5.5095179652
 10
11.313725211
 20
5.5168263317
 10
11.318163642
 20
5.5242514702
 10
11.3222402474
 20
5.5318416961
 10
11.3260379133
 20
5.5396704699
 10
11.3296228975
 20
5.5478150225
 10
11.3330332537
 20
5.556312797
 10
11.3363148797
 20
5.5652374238
 10
11.3395021745
 20
5.5746559568
 10
11.3426250925
 20
5.5846388335
 10
11.3457096189
 20
5.5952519218
 10
11.348786264
 20
5.6065921911
 10
11.3518758453
 20
5.6187390411
 10
11.3549927721
 20
5.6317607631
 10
11.358153449
 20
5.6457469047
 10
11.3613757263
 20
5.6608108168
 10
11.3646739656
 20
5.6770686761
 10
11.3680593986
 20
5.6946446409
 10
11.3715384194
 20
5.7136589491
 10
11.3751161928
 20
5.7342423757
 10
11.3787961515
 20
5.7565359903
 10
11.3825781252
 20
5.7806840185
 10
11.3864274305
 20
5.8066191675
  0
LWPOLYLINE
  5
27B
100
AcDbEntity
  8
0
100
AcDbPolyline
 62
7
  6
CONTINUOUS
 90
4
 70
0
 10
11.1548877983
 20
5.3354020109
 10
11.1552502156
 20
5.3356906752
 10
11.1572082942
 20
5.3366334328
 10
11.1592782598
 20
5.3370641202
  0
LWPOLYLINE
  5
27C
100
AcDbEntity
  8
0
100
AcDbPolyline
 62
7
  6
CONTINUOUS
 90
35
 70
0
 10
11.2287618844
 20
5.3635394669
 10
11.2318781363
 20
5.3659878153
 10
11.2359276642
 20
5.3696448103
 10
11.2395252485
 20
5.3734243081
 10
11.2426768688
 20
5.3772299741
 10
11.2454240437
 20
5.3810011395
 10
11.2478293746
 20
5.3847177913
 10
11.2499588058
 20
5.388389269
 10
11.2518703412
 20
5.3920389655
 10
11.2536115263
 20
5.3956957634
 10
11.2552263749
 20
5.3994044261
 10
11.2567547427
 20
5.4032238866
 10
11.2582280266
 20
5.4072138923
 10
11.2596738937
 20
5.4114430037
 10
11.2611184801
 20
5.415993897
 10
11.2625841043
 20
5.4209564554
 10
11.2640732843
 20
5.426365633
 10
11.2655782675
 20
5.4322151363
 10
11.2670963984
 20
5.4385086056
 10
11.2686331786
 20
5.4452795657
 10
11.2701943198
 20
5.4525646632
 10
11.2717842356
 20
5.4603972871
 10
11.2734068073
 20
5.4688093148
 10
11.2750652216
 20
5.477832518
 10
11.2767614517
 20
5.4874937167
 10
11.2785004384
 20
5.4978395316
 10
11.2802877314
 20
5.5089257213
 10
11.2821289522
 20
5.52081446
 10
11.2840288896
 20
5.5335701946
 10
11.2859920269
 20
5.5472620603
 10
11.2880218492
 20
5.561961197
 10
11.2901215202
 20
5.5777441686
 10
11.2922938857
 20
5.5946947625
 10
11.2945411072
 20
5.612899809
 10
11.296370462
 20
5.6282305547
  0
LWPOLYLINE
  5
27D
100
AcDbEntity
  8
0
100
AcDbPolyline
 62
7
  6
CONTINUOUS
 90
4
 70
0
 10
11.2747092756
 20
5.475895865
 10
11.2787256474
 20
5.4786112303
 10
11.2852625271
 20
5.4837245198
 10
11.290852505
 20
5.4886966545
  0
LINE
  5
27E
100
AcDbEntity
  8
0
100
AcDbLine
 62
9
  6
CONTINUOUS
 10
14.0212377081
 20
9.0376947126
 11
8.0733989685
 21
9.0376947126
  0
LINE
  5
27F
100
AcDbEntity
  8
0
100
AcDbLine
 62
9
  6
CONTINUOUS
 10
14.2382345161
 20
9.1636946986
 11
7.8564021604
 21
9.1636946986
  0
LINE
  5
280
100
AcDbEntity
  8
0
100
AcDbLine
 62
9
  6
CONTINUOUS
 10
14.4552392802
 20
9.2896974648
 11
7.6393973963
 21
9.2896974648
  0
LWPOLYLINE
  5
281
100
AcDbEntity
  8
0
100
AcDbPolyline
 62
7
  6
CONTINUOUS
 90
30
 70
0
 10
11.144002177
 20
5.3155449408
 10
11.1457584809
 20
5.3163500653
 10
11.1477142541
 20
5.3177402191
 10
11.1491119675
 20
5.3191738363
 10
11.1501286438
 20
5.3205519609
 10
11.1509078812
 20
5.3218761546
 10
11.1515428355
 20
5.3231819096
 10
11.1520897683
 20
5.3245090932
 10
11.1525822325
 20
5.325892809
 10
11.1530404993
 20
5.3273620735
 10
11.1534770547
 20
5.3289405176
 10
11.1539002064
 20
5.3306494166
 10
11.1543162168
 20
5.3325112323
 10
11.1547295704
 20
5.3345481235
 10
11.1551435359
 20
5.3367821169
 10
11.1555606745
 20
5.3392360057
 10
11.1559829762
 20
5.3419332543
 10
11.1564113742
 20
5.3448935479
 10
11.1568461863
 20
5.3481339377
 10
11.1572875306
 20
5.3516708915
 10
11.1577354219
 20
5.3555204406
 10
11.158189882
 20
5.3596985472
 10
11.1586513152
 20
5.3642235291
 10
11.1591202494
 20
5.369114977
 10
11.1595972151
 20
5.3743930645
 10
11.1600826692
 20
5.3800785575
 10
11.1605770345
 20
5.3861925992
 10
11.1610807505
 20
5.3927569704
 10
11.1615941732
 20
5.3997939088
 10
11.1621176359
 20
5.4073260424
  0
LINE
  5
282
100
AcDbEntity
  8
0
100
AcDbLine
 62
7
  6
CONTINUOUS
 10
14.6723183383
 20
9.4156947126
 11
7.4223183383
 21
9.4156947126
  0
LINE
  5
283
100
AcDbEntity
  8
0
100
AcDbLine
 62
7
  6
CONTINUOUS
 10
14.9223183383
 20
9.6656947126
 11
7.1723183383
 21
9.6656947126
  0
ARC
  5
284
100
AcDbEntity
  8
0
100
AcDbCircle
 62
9
  6
CONTINUOUS
 10
2.223462996
 20
6.9002041654
 40
9.1573596073
100
AcDbArc
 50
353.8324425361
 51
354.3363693848
  0
ARC
  5
285
100
AcDbEntity
  8
0
100
AcDbCircle
 62
9
  6
CONTINUOUS
 10
6.870820848
 20
5.7647445304
 40
4.2972093913
100
AcDbArc
 50
357.8924209376
 51
358.0121933314
  0
ARC
  5
286
100
AcDbEntity
  8
0
100
AcDbCircle
 62
9
  6
CONTINUOUS
 10
7.5318351829
 20
5.8030430314
 40
3.6468986944
100
AcDbArc
 50
357.0986381225
 51
357.2328365919
  0
ARC
  5
287
100
AcDbEntity
  8
0
100
AcDbCircle
 62
9
  6
CONTINUOUS
 10
8.5762423993
 20
5.5827530527
 40
2.5918189945
100
AcDbArc
 50
356.2118854033
 51
356.3671174401
  0
ARC
  5
288
100
AcDbEntity
  8
0
100
AcDbCircle
 62
9
  6
CONTINUOUS
 10
9.3012066065
 20
6.4302979738
 40
2.0412435096
100
AcDbArc
 50
336.3607863198
 51
336.5641107063
  0
ARC
  5
289
100
AcDbEntity
  8
0
100
AcDbCircle
 62
9
  6
CONTINUOUS
 10
9.2690963375
 20
5.8660301597
 40
2.04117346
100
AcDbArc
 50
353.3101680529
 51
354.8473526467
  0
ARC
  5
28A
100
AcDbEntity
  8
0
100
AcDbCircle
 62
9
  6
CONTINUOUS
 10
9.4101432408
 20
6.431274959
 40
1.9388049389
100
AcDbArc
 50
335.289370213
 51
335.5091324342
  0
ARC
  5
28B
100
AcDbEntity
  8
0
100
AcDbCircle
 62
9
  6
CONTINUOUS
 10
10.3894187079
 20
7.1151321048
 40
1.421220012
100
AcDbArc
 50
303.521321885
 51
304.0256477884
  0
ARC
  5
28C
100
AcDbEntity
  8
0
100
AcDbCircle
 62
9
  6
CONTINUOUS
 10
10.141471146
 20
5.7830825232
 40
1.1648994739
100
AcDbArc
 50
355.4389803222
 51
355.6030804679
  0
ARC
  5
28D
100
AcDbEntity
  8
0
100
AcDbCircle
 62
9
  6
CONTINUOUS
 10
10.2242393787
 20
5.7776368377
 40
1.0819609204
100
AcDbArc
 50
355.143620602
 51
355.3779039413
  0
ARC
  5
28E
100
AcDbEntity
  8
0
100
AcDbCircle
 62
9
  6
CONTINUOUS
 10
10.4089979233
 20
5.7655698974
 40
0.8810196534
100
AcDbArc
 50
352.8983972855
 51
353.2318951254
  0
ARC
  5
28F
100
AcDbEntity
  8
0
100
AcDbCircle
 62
9
  6
CONTINUOUS
 10
10.5962992473
 20
5.7303501785
 40
0.6909016935
100
AcDbArc
 50
353.5676757431
 51
353.8764770147
  0
ARC
  5
290
100
AcDbEntity
  8
0
100
AcDbCircle
 62
9
  6
CONTINUOUS
 10
10.8088482926
 20
5.7280910315
 40
0.4952562797
100
AcDbArc
 50
354.742928262
 51
355.1292645017
  0
ARC
  5
291
100
AcDbEntity
  8
0
100
AcDbCircle
 62
7
  6
CONTINUOUS
 10
10.2906709422
 20
6.8663103664
 40
0.3740545571
100
AcDbArc
 50
11.333001216
 51
13.9980554528
  0
ARC
  5
292
100
AcDbEntity
  8
0
100
AcDbCircle
 62
7
  6
CONTINUOUS
 10
10.2906709426
 20
6.8745790587
 40
0.3740545566
100
AcDbArc
 50
346.0019445482
 51
348.6669993496
  0
ARC
  5
293
100
AcDbEntity
  8
0
100
AcDbCircle
 62
7
  6
CONTINUOUS
 10
10.6444862623
 20
7.0822557363
 40
0.0984251969
100
AcDbArc
 50
275.3232072833
 51
353.1078974207
  0
ARC
  5
294
100
AcDbEntity
  8
0
100
AcDbCircle
 62
7
  6
CONTINUOUS
 10
10.7008616454
 20
6.8704447126
 40
0.0984251969
100
AcDbArc
 50
118.6854020141
 51
241.3145979859
  0
ARC
  5
295
100
AcDbEntity
  8
0
100
AcDbCircle
 62
7
  6
CONTINUOUS
 10
10.7272340908
 20
6.8704447126
 40
0.0984251969
100
AcDbArc
 50
120.950950256
 51
239.049049744
  0
ARC
  5
296
100
AcDbEntity
  8
0
100
AcDbCircle
 62
7
  6
CONTINUOUS
 10
10.8023364613
 20
6.8704447126
 40
0.0984251969
100
AcDbArc
 50
129.9594919651
 51
230.0405080349
  0
ARC
  5
297
100
AcDbEntity
  8
0
100
AcDbCircle
 62
9
  6
CONTINUOUS
 10
10.8796063598
 20
5.7149349018
 40
0.0910071599
100
AcDbArc
 50
193.1441665258
 51
195.6080300883
  0
ARC
  5
298
100
AcDbEntity
  8
0
100
AcDbCircle
 62
9
  6
CONTINUOUS
 10
10.8779060955
 20
5.7047194307
 40
0.088083838
100
AcDbArc
 50
186.9223933197
 51
194.467362551
  0
ARC
  5
299
100
AcDbEntity
  8
0
100
AcDbCircle
 62
9
  6
CONTINUOUS
 10
10.8752150507
 20
5.7139286594
 40
0.0865020794
100
AcDbArc
 50
186.738850007
 51
193.1565611844
  0
ARC
  5
29A
100
AcDbEntity
  8
0
100
AcDbCircle
 62
9
  6
CONTINUOUS
 10
10.7856199086
 20
5.8250251724
 40
0.0792417779
100
AcDbArc
 50
187.9156709708
 51
193.3668199403
  0
ARC
  5
29B
100
AcDbEntity
  8
0
100
AcDbCircle
 62
7
  6
CONTINUOUS
 10
10.7098183383
 20
7.1516947126
 40
0.05
100
AcDbArc
 50
180.0
 51
270.0
  0
ARC
  5
29C
100
AcDbEntity
  8
0
100
AcDbCircle
 62
7
  6
CONTINUOUS
 10
8.8306761096
 20
9.2375814929
 40
3.3203866882
100
AcDbArc
 50
321.7443862971
 51
322.1294608726
  0
ARC
  5
29D
100
AcDbEntity
  8
0
100
AcDbCircle
 62
7
  6
CONTINUOUS
 10
10.7242556827
 20
9.1820850151
 40
2.7809514155
100
AcDbArc
 50
269.8867522701
 51
270.2161187489
  0
ARC
  5
29E
100
AcDbEntity
  8
0
100
AcDbCircle
 62
7
  6
CONTINUOUS
 10
9.6069189943
 20
8.7283647126
 40
2.4068193439
100
AcDbArc
 50
319.4172131634
 51
320.0120555035
  0
ARC
  5
29F
100
AcDbEntity
  8
0
100
AcDbCircle
 62
7
  6
CONTINUOUS
 10
10.5968300317
 20
8.6871058633
 40
0.571891955
100
AcDbArc
 50
359.9588083524
 51
2.4642311903
  0
ARC
  5
2A0
100
AcDbEntity
  8
0
100
AcDbCircle
 62
7
  6
CONTINUOUS
 10
7.8564859863
 20
9.4137056619
 40
0.2500109774
100
AcDbArc
 50
209.7364395186
 51
269.9807893772
  0
ARC
  5
2A1
100
AcDbEntity
  8
0
100
AcDbCircle
 62
7
  6
CONTINUOUS
 10
7.4223183383
 20
9.6656947126
 40
0.25
100
AcDbArc
 50
180.0
 51
270.0
  0
ARC
  5
2A2
100
AcDbEntity
  8
0
100
AcDbCircle
 62
7
  6
CONTINUOUS
 10
7.4223183383
 20
9.1656947126
 40
0.25
100
AcDbArc
 50
29.7364395186
 51
90.0
  0
ARC
  5
2A3
100
AcDbEntity
  8
0
100
AcDbCircle
 62
7
  6
CONTINUOUS
 10
7.8563183383
 20
8.9136947126
 40
0.25
100
AcDbArc
 50
29.7357131076
 51
89.9807893772
  0
ARC
  5
2A4
100
AcDbEntity
  8
0
100
AcDbCircle
 62
7
  6
CONTINUOUS
 10
8.2904795986
 20
9.1616947126
 40
0.25
100
AcDbArc
 50
209.7357131076
 51
270.0
  0
ARC
  5
2A5
100
AcDbEntity
  8
0
100
AcDbCircle
 62
7
  6
CONTINUOUS
 10
10.2174143421
 20
8.6117047126
 40
0.20006
100
AcDbArc
 50
200.73321
 51
209.5198006798
  0
ARC
  5
2A6
100
AcDbEntity
  8
0
100
AcDbCircle
 62
7
  6
CONTINUOUS
 10
10.0136564602
 20
8.6866947217
 40
0.1000000048
100
AcDbArc
 50
165.5224886693
 51
288.1897126427
  0
ARC
  5
2A7
100
AcDbEntity
  8
0
100
AcDbCircle
 62
7
  6
CONTINUOUS
 10
10.2560445601
 20
8.6866947169
 40
0.1000000022
100
AcDbArc
 50
165.5224813186
 51
304.788080858
  0
ARC
  5
2A8
100
AcDbEntity
  8
0
100
AcDbCircle
 62
7
  6
CONTINUOUS
 10
10.6352510858
 20
8.686694718
 40
0.1000000021
100
AcDbArc
 50
211.3809648186
 51
316.8913521814
  0
ARC
  5
2A9
100
AcDbEntity
  8
0
100
AcDbCircle
 62
7
  6
CONTINUOUS
 10
10.3700907166
 20
8.6866947162
 40
0.1000000012
100
AcDbArc
 50
165.5224836428
 51
309.5284644598
  0
ARC
  5
2AA
100
AcDbEntity
  8
0
100
AcDbCircle
 62
7
  6
CONTINUOUS
 10
10.4973183405
 20
8.6866947155
 40
0.1000000001
100
AcDbArc
 50
202.2470718425
 51
313.6286299976
  0
ARC
  5
2AB
100
AcDbEntity
  8
0
100
AcDbCircle
 62
7
  6
CONTINUOUS
 10
10.7812042548
 20
8.6866947142
 40
0.0999999994
100
AcDbArc
 50
216.2146487152
 51
319.088194086
  0
ARC
  5
2AC
100
AcDbEntity
  8
0
100
AcDbCircle
 62
7
  6
CONTINUOUS
 10
10.0760759847
 20
8.686694712
 40
0.0999999986
100
AcDbArc
 50
165.5224897508
 51
294.0094650109
  0
ARC
  5
2AD
100
AcDbEntity
  8
0
100
AcDbCircle
 62
7
  6
CONTINUOUS
 10
9.9713559756
 20
8.6866947116
 40
0.0999999982
100
AcDbArc
 50
165.5224877318
 51
282.2429060348
  0
ARC
  5
2AE
100
AcDbEntity
  8
0
100
AcDbCircle
 62
7
  6
CONTINUOUS
 10
10.1573996426
 20
8.6866947128
 40
0.0999999982
100
AcDbArc
 50
165.5224899746
 51
299.5444563055
  0
ARC
  5
2AF
100
AcDbEntity
  8
0
100
AcDbCircle
 62
7
  6
CONTINUOUS
 10
10.9323370296
 20
8.6866947128
 40
0.0999999977
100
AcDbArc
 50
218.8164170481
 51
320.0864588011
  0
ARC
  5
2B0
100
AcDbEntity
  8
0
100
AcDbCircle
 62
7
  6
CONTINUOUS
 10
9.9499978691
 20
8.6866947003
 40
0.0999999861
100
AcDbArc
 50
165.5224876513
 51
276.1167046005
  0
ARC
  5
2B1
100
AcDbEntity
  8
0
100
AcDbCircle
 62
9
  6
CONTINUOUS
 10
19.8711492332
 20
6.9001971427
 40
9.1573343832
100
AcDbArc
 50
185.6636021792
 51
186.1675378546
  0
ARC
  5
2B2
100
AcDbEntity
  8
0
100
AcDbCircle
 62
9
  6
CONTINUOUS
 10
14.8492020746
 20
5.8172208165
 40
3.9336497075
100
AcDbArc
 50
182.7720372775
 51
182.8964529736
  0
ARC
  5
2B3
100
AcDbEntity
  8
0
100
AcDbCircle
 62
9
  6
CONTINUOUS
 10
14.8471235684
 20
5.7241348297
 40
3.9252606598
100
AcDbArc
 50
181.508732336
 51
181.6371296054
  0
ARC
  5
2B4
100
AcDbEntity
  8
0
100
AcDbCircle
 62
9
  6
CONTINUOUS
 10
14.8334443615
 20
5.7507860519
 40
3.9065886034
100
AcDbArc
 50
181.9818032933
 51
182.1135520091
  0
ARC
  5
2B5
100
AcDbEntity
  8
0
100
AcDbCircle
 62
9
  6
CONTINUOUS
 10
13.5665205354
 20
5.5858732294
 40
2.6400462256
100
AcDbArc
 50
183.6342831704
 51
183.7866729286
  0
ARC
  5
2B6
100
AcDbEntity
  8
0
100
AcDbCircle
 62
9
  6
CONTINUOUS
 10
12.9056001463
 20
5.8743336325
 40
2.1216556836
100
AcDbArc
 50
185.1818028134
 51
186.6606377522
  0
ARC
  5
2B7
100
AcDbEntity
  8
0
100
AcDbCircle
 62
9
  6
CONTINUOUS
 10
12.7945421479
 20
6.4307783468
 40
2.0424548198
100
AcDbArc
 50
203.4358469782
 51
203.6390500721
  0
ARC
  5
2B8
100
AcDbEntity
  8
0
100
AcDbCircle
 62
9
  6
CONTINUOUS
 10
12.685497558
 20
6.4317307349
 40
1.9399075741
100
AcDbArc
 50
204.4908250019
 51
204.7104615403
  0
ARC
  5
2B9
100
AcDbEntity
  8
0
100
AcDbCircle
 62
9
  6
CONTINUOUS
 10
11.7054366602
 20
7.1154538758
 40
1.4216089709
100
AcDbArc
 50
235.9743097906
 51
236.4784958454
  0
ARC
  5
2BA
100
AcDbEntity
  8
0
100
AcDbCircle
 62
9
  6
CONTINUOUS
 10
12.0013475505
 20
5.7868565235
 40
1.2132289603
100
AcDbArc
 50
184.4001700168
 51
184.55773387
  0
ARC
  5
2BB
100
AcDbEntity
  8
0
100
AcDbCircle
 62
9
  6
CONTINUOUS
 10
11.7787312514
 20
5.770037213
 40
0.9899805336
100
AcDbArc
 50
184.6111975435
 51
184.8672469319
  0
ARC
  5
2BC
100
AcDbEntity
  8
0
100
AcDbCircle
 62
9
  6
CONTINUOUS
 10
11.6680826689
 20
5.7634341023
 40
0.8633341096
100
AcDbArc
 50
186.7646589724
 51
187.1049869584
  0
ARC
  5
2BD
100
AcDbEntity
  8
0
100
AcDbCircle
 62
9
  6
CONTINUOUS
 10
11.4403675808
 20
5.7239725816
 40
0.6325822187
100
AcDbArc
 50
186.1092598611
 51
186.4465324725
  0
ARC
  5
2BE
100
AcDbEntity
  8
0
100
AcDbCircle
 62
9
  6
CONTINUOUS
 10
11.2540518936
 20
5.7252788444
 40
0.4633955673
100
AcDbArc
 50
184.8574401162
 51
185.2703409585
  0
ARC
  5
2BF
100
AcDbEntity
  8
0
100
AcDbCircle
 62
7
  6
CONTINUOUS
 10
11.8039657381
 20
6.8745790597
 40
0.3740545608
100
AcDbArc
 50
191.3330032645
 51
193.9980554478
  0
ARC
  5
2C0
100
AcDbEntity
  8
0
100
AcDbCircle
 62
7
  6
CONTINUOUS
 10
11.8039657369
 20
6.8663103658
 40
0.3740545596
100
AcDbArc
 50
166.0019445496
 51
168.6669971699
  0
ARC
  5
2C1
100
AcDbEntity
  8
0
100
AcDbCircle
 62
7
  6
CONTINUOUS
 10
11.4501504142
 20
7.0822557363
 40
0.0984251969
100
AcDbArc
 50
186.8921025794
 51
264.6767927167
  0
ARC
  5
2C2
100
AcDbEntity
  8
0
100
AcDbCircle
 62
7
  6
CONTINUOUS
 10
11.2923002152
 20
6.8704447126
 40
0.0984251969
100
AcDbArc
 50
309.9594919651
 51
50.0405080349
  0
ARC
  5
2C3
100
AcDbEntity
  8
0
100
AcDbCircle
 62
7
  6
CONTINUOUS
 10
11.3674025858
 20
6.8704447126
 40
0.0984251969
100
AcDbArc
 50
300.950950256
 51
59.049049744
  0
ARC
  5
2C4
100
AcDbEntity
  8
0
100
AcDbCircle
 62
7
  6
CONTINUOUS
 10
11.3937750312
 20
6.8704447126
 40
0.0984251969
100
AcDbArc
 50
298.6854020141
 51
61.3145979859
  0
ARC
  5
2C5
100
AcDbEntity
  8
0
100
AcDbCircle
 62
9
  6
CONTINUOUS
 10
11.2150292767
 20
5.7149353011
 40
0.0910083619
100
AcDbArc
 50
344.3918164478
 51
346.8557833491
  0
ARC
  5
2C6
100
AcDbEntity
  8
0
100
AcDbCircle
 62
9
  6
CONTINUOUS
 10
11.2167305066
 20
5.7047195822
 40
0.0880840381
100
AcDbArc
 50
345.5324552942
 51
353.077553657
  0
ARC
  5
2C7
100
AcDbEntity
  8
0
100
AcDbCircle
 62
9
  6
CONTINUOUS
 10
11.2194219298
 20
5.7139287444
 40
0.0865019012
100
AcDbArc
 50
346.8433863251
 51
353.2611002513
  0
ARC
  5
2C8
100
AcDbEntity
  8
0
100
AcDbCircle
 62
9
  6
CONTINUOUS
 10
11.3090168688
 20
5.8250247315
 40
0.0792414717
100
AcDbArc
 50
346.6331640095
 51
352.0843335111
  0
ARC
  5
2C9
100
AcDbEntity
  8
0
100
AcDbCircle
 62
7
  6
CONTINUOUS
 10
11.3848183383
 20
7.1516947126
 40
0.05
100
AcDbArc
 50
270.0
 51
360.0
  0
ARC
  5
2CA
100
AcDbEntity
  8
0
100
AcDbCircle
 62
7
  6
CONTINUOUS
 10
13.3505110529
 20
9.3053557198
 40
3.4303148483
100
AcDbArc
 50
217.8767094434
 51
218.2494436174
  0
ARC
  5
2CB
100
AcDbEntity
  8
0
100
AcDbCircle
 62
7
  6
CONTINUOUS
 10
11.3704374231
 20
9.2260014921
 40
2.8248678456
100
AcDbArc
 50
269.7861305542
 51
270.1103508945
  0
ARC
  5
2CC
100
AcDbEntity
  8
0
100
AcDbCircle
 62
7
  6
CONTINUOUS
 10
12.4877176822
 20
8.7283647126
 40
2.4068193439
100
AcDbArc
 50
219.9879444965
 51
220.5827868366
  0
ARC
  5
2CD
100
AcDbEntity
  8
0
100
AcDbCircle
 62
7
  6
CONTINUOUS
 10
12.7184510333
 20
8.6870714247
 40
1.7116666435
100
AcDbArc
 50
179.1757395376
 51
180.0126099398
  0
ARC
  5
2CE
100
AcDbEntity
  8
0
100
AcDbCircle
 62
7
  6
CONTINUOUS
 10
14.2381506903
 20
9.4137056619
 40
0.2500109774
100
AcDbArc
 50
270.0192106228
 51
330.2635604814
  0
ARC
  5
2CF
100
AcDbEntity
  8
0
100
AcDbCircle
 62
7
  6
CONTINUOUS
 10
14.6723183383
 20
9.6656947126
 40
0.25
100
AcDbArc
 50
270.0
 51
360.0
  0
ARC
  5
2D0
100
AcDbEntity
  8
0
100
AcDbCircle
 62
7
  6
CONTINUOUS
 10
14.6723183383
 20
9.1656947126
 40
0.25
100
AcDbArc
 50
90.0
 51
150.2635604814
  0
ARC
  5
2D1
100
AcDbEntity
  8
0
100
AcDbCircle
 62
7
  6
CONTINUOUS
 10
14.2383183383
 20
8.9136947126
 40
0.25
100
AcDbArc
 50
90.0192106228
 51
150.2642868924
  0
ARC
  5
2D2
100
AcDbEntity
  8
0
100
AcDbCircle
 62
7
  6
CONTINUOUS
 10
13.8041570779
 20
9.1616947126
 40
0.25
100
AcDbArc
 50
270.0
 51
330.2642868924
  0
ARC
  5
2D3
100
AcDbEntity
  8
0
100
AcDbCircle
 62
7
  6
CONTINUOUS
 10
11.8772223345
 20
8.6117047126
 40
0.20006
100
AcDbArc
 50
330.4801993153
 51
339.26679
  0
ARC
  5
2D4
100
AcDbEntity
  8
0
100
AcDbCircle
 62
7
  6
CONTINUOUS
 10
11.3872370327
 20
8.686694718
 40
0.1000000021
100
AcDbArc
 50
221.8564251631
 51
325.8512332635
  0
ARC
  5
2D5
100
AcDbEntity
  8
0
100
AcDbCircle
 62
7
  6
CONTINUOUS
 10
11.5295265983
 20
8.6866947167
 40
0.1000000018
100
AcDbArc
 50
224.6305684052
 51
332.3779989179
  0
ARC
  5
2D6
100
AcDbEntity
  8
0
100
AcDbCircle
 62
7
  6
CONTINUOUS
 10
11.8899672245
 20
8.6866947164
 40
0.1000000012
100
AcDbArc
 50
237.7755456772
 51
14.4774925286
  0
ARC
  5
2D7
100
AcDbEntity
  8
0
100
AcDbCircle
 62
7
  6
CONTINUOUS
 10
12.1473183383
 20
8.6866947126
 40
0.1
100
AcDbArc
 50
267.0076900978
 51
14.4775121859
  0
ARC
  5
2D8
100
AcDbEntity
  8
0
100
AcDbCircle
 62
7
  6
CONTINUOUS
 10
11.6624305321
 20
8.6866947134
 40
0.1
100
AcDbArc
 50
228.331928757
 51
346.8417192786
  0
ARC
  5
2D9
100
AcDbEntity
  8
0
100
AcDbCircle
 62
7
  6
CONTINUOUS
 10
11.2383313339
 20
8.6866947134
 40
0.0999999996
100
AcDbArc
 50
220.2562581146
 51
322.2614367797
  0
ARC
  5
2DA
100
AcDbEntity
  8
0
100
AcDbCircle
 62
7
  6
CONTINUOUS
 10
11.0857077841
 20
8.6866947148
 40
0.099999999
100
AcDbArc
 50
219.8442513548
 51
320.4930856283
  0
ARC
  5
2DB
100
AcDbEntity
  8
0
100
AcDbCircle
 62
7
  6
CONTINUOUS
 10
11.9801712477
 20
8.686694712
 40
0.0999999964
100
AcDbArc
 50
243.204890634
 51
14.477512315
  0
ARC
  5
2DC
100
AcDbEntity
  8
0
100
AcDbCircle
 62
7
  6
CONTINUOUS
 10
11.7833620093
 20
8.6866947103
 40
0.0999999959
100
AcDbArc
 50
232.7961830375
 51
14.4775125069
  0
ARC
  5
2DD
100
AcDbEntity
  8
0
100
AcDbCircle
 62
7
  6
CONTINUOUS
 10
12.0522183607
 20
8.6866947133
 40
0.0999999809
100
AcDbArc
 50
248.8592176673
 51
14.4775145254
  0
ARC
  5
2DE
100
AcDbEntity
  8
0
100
AcDbCircle
 62
7
  6
CONTINUOUS
 10
12.1047062035
 20
8.6866947134
 40
0.1000000003
100
AcDbArc
 50
254.7517955359
 51
14.4775122034
  0
ARC
  5
2DF
100
AcDbEntity
  8
0
100
AcDbCircle
 62
7
  6
CONTINUOUS
 10
12.1366132222
 20
8.6866946255
 40
0.0999999124
100
AcDbArc
 50
260.8367825686
 51
14.4775130271
  0
SPLINE
  5
2E0
100
AcDbEntity
  8
0
100
AcDbSpline
 62
9
  6
CONTINUOUS
 70
0
 71
3
 72
43
 73
39
 74
0
 42
0.0000001
 43
0.0000001
 44
0.0000000001
 40
0.0
 40
0.0
 40
0.0
 40
0.0
 40
0.0027539749
 40
0.0058372099
 40
0.0092749491
 40
0.0130849968
 40
0.0172800432
 40
0.0218692927
 40
0.0268595124
 40
0.0322558747
 40
0.0380623884
 40
0.0442821121
 40
0.0509173867
 40
0.0579700527
 40
0.0654415533
 40
0.0733329801
 40
0.0903783366
 40
0.109110887
 40
0.1295328127
 40
0.151645294
 40
0.1754486144
 40
0.2009421784
 40
0.2281246514
 40
0.2569935053
 40
0.287545321
 40
0.3197757121
 40
0.353679562
 40
0.3892521201
 40
0.426488938
 40
0.5059259635
 40
0.5481077563
 40
0.5919183012
 40
0.6373492273
 40
0.6843948562
 40
0.7330474812
 40
0.7832952983
 40
0.8885272768
 40
1.0
 40
1.0
 40
1.0
 40
1.0
 10
11.2287622075
 20
5.3635396946
 30
0.0
 10
11.2289805678
 20
5.3637011453
 30
0.0
 10
11.2294204166
 20
5.364074805
 30
0.0
 10
11.2300544635
 20
5.3647354691
 30
0.0
 10
11.2306983871
 20
5.3655260894
 30
0.0
 10
11.2313521342
 20
5.3664465644
 30
0.0
 10
11.2320157088
 20
5.3674969223
 30
0.0
 10
11.2326889248
 20
5.3686770703
 30
0.0
 10
11.2333715727
 20
5.3699868973
 30
0.0
 10
11.2340634275
 20
5.3714262683
 30
0.0
 10
11.2347642726
 20
5.3729950424
 30
0.0
 10
11.235473891
 20
5.374693068
 30
0.0
 10
11.2361920566
 20
5.376520188
 30
0.0
 10
11.2369186002
 20
5.3784762207
 30
0.0
 10
11.2376534192
 20
5.3805609679
 30
0.0
 10
11.2386703653
 20
5.3835906771
 30
0.0
 10
11.2399561004
 20
5.387700924
 30
0.0
 10
11.2414931636
 20
5.393025642
 30
0.0
 10
11.2430596533
 20
5.3988607738
 30
0.0
 10
11.244654729
 20
5.4052050187
 30
0.0
 10
11.2462777778
 20
5.4120571721
 30
0.0
 10
11.2479283783
 20
5.4194159874
 30
0.0
 10
11.2496063015
 20
5.4272801133
 30
0.0
 10
11.2513108098
 20
5.435648185
 30
0.0
 10
11.2530409296
 20
5.4445186934
 30
0.0
 10
11.2547955738
 20
5.4538899792
 30
0.0
 10
11.256573579
 20
5.4637603305
 30
0.0
 10
11.2583735885
 20
5.4741281211
 30
0.0
 10
11.2608546922
 20
5.4889345205
 30
0.0
 10
11.2633138897
 20
5.5044051193
 30
0.0
 10
11.2657590112
 20
5.5205335864
 30
0.0
 10
11.2676418972
 20
5.5333555593
 30
0.0
 10
11.2695353695
 20
5.5466605936
 30
0.0
 10
11.2714366684
 20
5.5604466645
 30
0.0
 10
11.2733433228
 20
5.5747113512
 30
0.0
 10
11.2759298043
 20
5.5946736998
 30
0.0
 10
11.2791575712
 20
5.620799084
 30
0.0
 10
11.2816215084
 20
5.6420256666
 30
0.0
 10
11.2828516277
 20
5.6529487636
 30
0.0
  0
SPLINE
  5
2E1
100
AcDbEntity
  8
0
100
AcDbSpline
 62
9
  6
CONTINUOUS
 70
0
 71
3
 72
45
 73
41
 74
0
 42
0.0000001
 43
0.0000001
 44
0.0000000001
 40
0.0
 40
0.0
 40
0.0
 40
0.0
 40
0.0006831117
 40
0.0014229384
 40
0.0022331413
 40
0.0031241609
 40
0.0041038556
 40
0.005178137
 40
0.0063514858
 40
0.0076273372
 40
0.0104961849
 40
0.0138006293
 40
0.0175504422
 40
0.0217522038
 40
0.0264105086
 40
0.0315286913
 40
0.0371092796
 40
0.0431541898
 40
0.0496648918
 40
0.0566425075
 40
0.0640878642
 40
0.072001592
 40
0.0892358295
 40
0.1083478736
 40
0.1293388987
 40
0.152209302
 40
0.1769588195
 40
0.2035864102
 40
0.2320904122
 40
0.262468154
 40
0.294716551
 40
0.3288321664
 40
0.3648118327
 40
0.4026539415
 40
0.4839107499
 40
0.5725465799
 40
0.6685135304
 40
0.7717914203
 40
0.8823077242
 40
1.0
 40
1.0
 40
1.0
 40
1.0
 10
11.144008333
 20
5.3155470016
 30
0.0
 10
11.1440709468
 20
5.315569772
 30
0.0
 10
11.1441973362
 20
5.3156287899
 30
0.0
 10
11.1443794427
 20
5.3157493853
 30
0.0
 10
11.1445605994
 20
5.3159046592
 30
0.0
 10
11.1447409495
 20
5.3160944931
 30
0.0
 10
11.144920688
 20
5.3163189005
 30
0.0
 10
11.1450999082
 20
5.3165779239
 30
0.0
 10
11.1452786849
 20
5.3168716082
 30
0.0
 10
11.1455262536
 20
5.3173275889
 30
0.0
 10
11.1458313104
 20
5.3179877767
 30
0.0
 10
11.1461831191
 20
5.3188898222
 30
0.0
 10
11.1465335487
 20
5.3199305684
 30
0.0
 10
11.1468825434
 20
5.3211101142
 30
0.0
 10
11.1472300028
 20
5.3224286014
 30
0.0
 10
11.1475758616
 20
5.3238860661
 30
0.0
 10
11.1479201162
 20
5.3254825212
 30
0.0
 10
11.148262768
 20
5.3272179628
 30
0.0
 10
11.1486038274
 20
5.3290923725
 30
0.0
 10
11.1489433103
 20
5.331105715
 30
0.0
 10
11.1492812717
 20
5.3332579373
 30
0.0
 10
11.1497431393
 20
5.336403158
 30
0.0
 10
11.150312718
 20
5.3406824107
 30
0.0
 10
11.1509733605
 20
5.3462356381
 30
0.0
 10
11.151629177
 20
5.3523425995
 30
0.0
 10
11.1522810303
 20
5.3590026536
 30
0.0
 10
11.1529299187
 20
5.3662151319
 30
0.0
 10
11.1535766516
 20
5.3739792964
 30
0.0
 10
11.1542220369
 20
5.3822942659
 30
0.0
 10
11.1548665271
 20
5.3911590513
 30
0.0
 10
11.1555105836
 20
5.4005725359
 30
0.0
 10
11.1561545581
 20
5.4105335982
 30
0.0
 10
11.1567988272
 20
5.4210412881
 30
0.0
 10
11.1576792865
 20
5.436140863
 30
0.0
 10
11.1587752226
 20
5.4563721855
 30
0.0
 10
11.160062628
 20
5.4822702284
 30
0.0
 10
11.1613490073
 20
5.5103185334
 30
0.0
 10
11.1626296408
 20
5.5405032149
 30
0.0
 10
11.1639013261
 20
5.5728089488
 30
0.0
 10
11.1647131741
 20
5.5950519283
 30
0.0
 10
11.1651167958
 20
5.6065236535
 30
0.0
  0
SPLINE
  5
2E2
100
AcDbEntity
  8
0
100
AcDbSpline
 62
7
  6
CONTINUOUS
 70
0
 71
3
 72
54
 73
50
 74
0
 42
0.0000001
 43
0.0000001
 44
0.0000000001
 40
0.0
 40
0.0
 40
0.0
 40
0.0
 40
0.0201023921
 40
0.0407683854
 40
0.0620472025
 40
0.0839661085
 40
0.1065345827
 40
0.1297477617
 40
0.1535891441
 40
0.1657397916
 40
0.1780375481
 40
0.2030539082
 40
0.2286156677
 40
0.2547067485
 40
0.2679560385
 40
0.2813442822
 40
0.2948806326
 40
0.3085802335
 40
0.3224656313
 40
0.3365679481
 40
0.3509270868
 40
0.3655900297
 40
0.3806065769
 40
0.3882640804
 40
0.3960265277
 40
0.4038974261
 40
0.4118790166
 40
0.4281724823
 40
0.4449016303
 40
0.4620421522
 40
0.4795595226
 40
0.4974143942
 40
0.5155667977
 40
0.5339788579
 40
0.552616096
 40
0.5714476587
 40
0.5904465433
 40
0.6095892871
 40
0.6288547901
 40
0.6482248957
 40
0.6872133523
 40
0.7068027483
 40
0.7264376267
 40
0.7657962303
 40
0.8052007222
 40
0.8445685593
 40
0.8838186492
 40
0.922867667
 40
1.0
 40
1.0
 40
1.0
 40
1.0
 10
11.7223257629
 20
8.4552638312
 30
0.0
 10
11.7224253044
 20
8.4570248571
 30
0.0
 10
11.722452598
 20
8.4606079805
 30
0.0
 10
11.7220116417
 20
8.4660404233
 30
0.0
 10
11.7211029773
 20
8.4715758127
 30
0.0
 10
11.7197360838
 20
8.4771874563
 30
0.0
 10
11.7179160567
 20
8.4828472377
 30
0.0
 10
11.7156430729
 20
8.4885226615
 30
0.0
 10
11.7133806142
 20
8.4932040322
 30
0.0
 10
11.711337692
 20
8.4969169859
 30
0.0
 10
11.7091081452
 20
8.5006416675
 30
0.0
 10
11.7060063565
 20
8.5052114321
 30
0.0
 10
11.7017837872
 20
8.5104580252
 30
0.0
 10
11.6978233534
 20
8.5145635787
 30
0.0
 10
11.6943639672
 20
8.5176385423
 30
0.0
 10
11.6916014524
 20
8.5198313084
 30
0.0
 10
11.6886785907
 20
8.5218756073
 30
0.0
 10
11.6855894722
 20
8.5237454522
 30
0.0
 10
11.6823292965
 20
8.5254114154
 30
0.0
 10
11.6788954429
 20
8.526841259
 30
0.0
 10
11.6752888843
 20
8.5280012609
 30
0.0
 10
11.6715159796
 20
8.528858629
 30
0.0
 10
11.6682641367
 20
8.5292943351
 30
0.0
 10
11.6655986701
 20
8.5294707659
 30
0.0
 10
11.6635548533
 20
8.5295148707
 30
0.0
 10
11.6614826684
 20
8.5294695423
 30
0.0
 10
11.6586671695
 20
8.5292891218
 30
0.0
 10
11.6550934389
 20
8.5288408962
 30
0.0
 10
11.6507740631
 20
8.52797812
 30
0.0
 10
11.6464150161
 20
8.5268152451
 30
0.0
 10
11.6420331141
 20
8.5253844885
 30
0.0
 10
11.637640465
 20
8.5237188462
 30
0.0
 10
11.6332453757
 20
8.5218499427
 30
0.0
 10
11.6288530414
 20
8.5198067713
 30
0.0
 10
11.6244663976
 20
8.5176151335
 30
0.0
 10
11.6200867506
 20
8.5152976613
 30
0.0
 10
11.6157143288
 20
8.5128739613
 30
0.0
 10
11.6113488675
 20
8.5103607017
 30
0.0
 10
11.6069894976
 20
8.5077726003
 30
0.0
 10
11.6011718635
 20
8.5042306351
 30
0.0
 10
11.5953787239
 20
8.5005946352
 30
0.0
 10
11.5895975044
 20
8.4968969779
 30
0.0
 10
11.5838045175
 20
8.4931575168
 30
0.0
 10
11.5765711837
 20
8.4884437092
 30
0.0
 10
11.5678968784
 20
8.4827699051
 30
0.0
 10
11.5592225935
 20
8.4771134622
 30
0.0
 10
11.5505527762
 20
8.4715073182
 30
0.0
 10
11.5390574695
 20
8.4641688924
 30
0.0
 10
11.5304032606
 20
8.4587801696
 30
0.0
 10
11.5246206656
 20
8.4552638312
 30
0.0
  0
SPLINE
  5
2E3
100
AcDbEntity
  8
0
100
AcDbSpline
 62
7
  6
CONTINUOUS
 70
0
 71
3
 72
52
 73
48
 74
0
 42
0.0000001
 43
0.0000001
 44
0.0000000001
 40
0.0
 40
0.0
 40
0.0
 40
0.0
 40
0.0203052024
 40
0.0416856339
 40
0.0641018345
 40
0.087509561
 40
0.1118625138
 40
0.1371142651
 40
0.1632197009
 40
0.1765802419
 40
0.1901388001
 40
0.2178298862
 40
0.2462630878
 40
0.2754154174
 40
0.2902616965
 40
0.3052883573
 40
0.3358904635
 40
0.3514914883
 40
0.3673036578
 40
0.3833402723
 40
0.3996148267
 40
0.4161385897
 40
0.4244975798
 40
0.4329206246
 40
0.4414070038
 40
0.4499553362
 40
0.4672263211
 40
0.484714295
 40
0.5023922555
 40
0.5202312065
 40
0.5382025802
 40
0.5562797939
 40
0.5744390076
 40
0.5926591973
 40
0.6109217987
 40
0.6292106807
 40
0.6475116056
 40
0.6840975514
 40
0.7205891179
 40
0.7387739918
 40
0.7569056812
 40
0.792973749
 40
0.8287231036
 40
0.8640820019
 40
0.8989748939
 40
0.9333201977
 40
1.0
 40
1.0
 40
1.0
 40
1.0
 10
11.5246206656
 20
8.4552638312
 30
0.0
 10
11.5239238046
 20
8.4570508284
 30
0.0
 10
11.5223684215
 20
8.4606716215
 30
0.0
 10
11.5196584723
 20
8.4660896684
 30
0.0
 10
11.5165245169
 20
8.4716135239
 30
0.0
 10
11.5129773055
 20
8.4772164957
 30
0.0
 10
11.5090227693
 20
8.4828699497
 30
0.0
 10
11.5046617334
 20
8.4885411327
 30
0.0
 10
11.5007150746
 20
8.4932130715
 30
0.0
 10
11.4973467115
 20
8.4969207254
 30
0.0
 10
11.4937822579
 20
8.5006503824
 30
0.0
 10
11.4890435976
 20
8.5052244411
 30
0.0
 10
11.4829233779
 20
8.510469599
 30
0.0
 10
11.4774369633
 20
8.5145687333
 30
0.0
 10
11.4727819379
 20
8.5176404926
 30
0.0
 10
11.467882712
 20
8.5205806566
 30
0.0
 10
11.4627144721
 20
8.5232045358
 30
0.0
 10
11.4572842051
 20
8.5254097637
 30
0.0
 10
11.4530325355
 20
8.5268386567
 30
0.0
 10
11.4486333429
 20
8.5279980402
 30
0.0
 10
11.4440966646
 20
8.5288555393
 30
0.0
 10
11.4402295929
 20
8.5292932944
 30
0.0
 10
11.4370878469
 20
8.5294705028
 30
0.0
 10
11.4347007755
 20
8.5295148669
 30
0.0
 10
11.4322958504
 20
8.5294698369
 30
0.0
 10
11.4290596336
 20
8.529290464
 30
0.0
 10
11.4249894275
 20
8.5288457848
 30
0.0
 10
11.4201083306
 20
8.527984998
 30
0.0
 10
11.415235247
 20
8.5268235143
 30
0.0
 10
11.4103870751
 20
8.5253935696
 30
0.0
 10
11.4055751908
 20
8.5237282805
 30
0.0
 10
11.4008065674
 20
8.5218594127
 30
0.0
 10
11.39608476
 20
8.5198160821
 30
0.0
 10
11.391410962
 20
8.5176241818
 30
0.0
 10
11.3867847722
 20
8.5153064259
 30
0.0
 10
11.382204854
 20
8.512882438
 30
0.0
 10
11.3761586987
 20
8.5095315034
 30
0.0
 10
11.3687139472
 20
8.5051604052
 30
0.0
 10
11.3613897699
 20
8.5006122944
 30
0.0
 10
11.355597311
 20
8.4969042814
 30
0.0
 10
11.3498667047
 20
8.4931742101
 30
0.0
 10
11.3427894005
 20
8.4884721311
 30
0.0
 10
11.334404506
 20
8.4827983715
 30
0.0
 10
11.3261418452
 20
8.477142377
 30
0.0
 10
11.3180053076
 20
8.4715370504
 30
0.0
 10
11.3074403319
 20
8.4642416791
 30
0.0
 10
11.2995839787
 20
8.4588243699
 30
0.0
 10
11.2943882034
 20
8.4552638312
 30
0.0
  0
SPLINE
  5
2E4
100
AcDbEntity
  8
0
100
AcDbSpline
 62
7
  6
CONTINUOUS
 70
0
 71
3
 72
51
 73
47
 74
0
 42
0.0000001
 43
0.0000001
 44
0.0000000001
 40
0.0
 40
0.0
 40
0.0
 40
0.0
 40
0.0233648968
 40
0.0478889353
 40
0.0734866998
 40
0.1000798941
 40
0.1275971833
 40
0.155974017
 40
0.1851524744
 40
0.2000265538
 40
0.2150824549
 40
0.2457175035
 40
0.2770171856
 40
0.3089441482
 40
0.3251355924
 40
0.341474259
 40
0.3579577775
 40
0.3745841459
 40
0.3913512719
 40
0.4082563477
 40
0.4252950376
 40
0.4424604644
 40
0.4597422392
 40
0.4771257701
 40
0.4945921416
 40
0.512118935
 40
0.5296827718
 40
0.5472613387
 40
0.5823746533
 40
0.5998872565
 40
0.6173496443
 40
0.6347511153
 40
0.6520821652
 40
0.6693343487
 40
0.6864999538
 40
0.7205396479
 40
0.7541442993
 40
0.7707659318
 40
0.7872578871
 40
0.819824454
 40
0.8517856798
 40
0.883077145
 40
0.913627778
 40
0.9433587041
 40
0.9721821386
 40
1.0
 40
1.0
 40
1.0
 40
1.0
 10
11.2943882034
 20
8.4552638312
 30
0.0
 10
11.2929421327
 20
8.4570493827
 30
0.0
 10
11.2899207508
 20
8.4606627742
 30
0.0
 10
11.285133576
 20
8.4660773837
 30
0.0
 10
11.2799920483
 20
8.4715991487
 30
0.0
 10
11.2745083693
 20
8.4772011627
 30
0.0
 10
11.2686898302
 20
8.4828543686
 30
0.0
 10
11.2625384478
 20
8.488525859
 30
0.0
 10
11.2571663772
 20
8.4932044531
 30
0.0
 10
11.2526935975
 20
8.4969171415
 30
0.0
 10
11.2480461645
 20
8.5006423052
 30
0.0
 10
11.2420060931
 20
8.505211059
 30
0.0
 10
11.234407366
 20
8.5104565043
 30
0.0
 10
11.2277576057
 20
8.5145611192
 30
0.0
 10
11.2222141432
 20
8.517637013
 30
0.0
 10
11.2179202471
 20
8.5198289972
 30
0.0
 10
11.2135062104
 20
8.5218723102
 30
0.0
 10
11.2089694726
 20
8.523740963
 30
0.0
 10
11.2043095356
 20
8.5254056937
 30
0.0
 10
11.1995291314
 20
8.5268345589
 30
0.0
 10
11.1946356261
 20
8.5279942888
 30
0.0
 10
11.1896422603
 20
8.5288525216
 30
0.0
 10
11.1845688379
 20
8.5293812089
 30
0.0
 10
11.1794412126
 20
8.5295598011
 30
0.0
 10
11.1742895895
 20
8.529379535
 30
0.0
 10
11.1691447061
 20
8.5288494279
 30
0.0
 10
11.164033651
 20
8.5279900837
 30
0.0
 10
11.1572968013
 20
8.526443636
 30
0.0
 10
11.1507014258
 20
8.5243600392
 30
0.0
 10
11.14427478
 20
8.5218667445
 30
0.0
 10
11.1395454429
 20
8.5198233707
 30
0.0
 10
11.1349033573
 20
8.517631431
 30
0.0
 10
11.1303461729
 20
8.5153135712
 30
0.0
 10
11.1258711131
 20
8.5128894992
 30
0.0
 10
11.1200266523
 20
8.50954751
 30
0.0
 10
11.1129142328
 20
8.5051879754
 30
0.0
 10
11.105993383
 20
8.5006284645
 30
0.0
 10
11.1005869292
 20
8.4969111341
 30
0.0
 10
11.0953073771
 20
8.4931901881
 30
0.0
 10
11.0888660399
 20
8.4885001397
 30
0.0
 10
11.0813418802
 20
8.4828272577
 30
0.0
 10
11.0740535577
 20
8.4771724791
 30
0.0
 10
11.0670041429
 20
8.4715687061
 30
0.0
 10
11.060201761
 20
8.4660450158
 30
0.0
 10
11.0536592629
 20
8.4606282549
 30
0.0
 10
11.0494012835
 20
8.4570371644
 30
0.0
 10
11.0473183383
 20
8.4552638312
 30
0.0
  0
SPLINE
  5
2E5
100
AcDbEntity
  8
0
100
AcDbSpline
 62
7
  6
CONTINUOUS
 70
0
 71
3
 72
51
 73
47
 74
0
 42
0.0000001
 43
0.0000001
 44
0.0000000001
 40
0.0
 40
0.0
 40
0.0
 40
0.0
 40
0.0278177996
 40
0.0566412153
 40
0.0863721606
 40
0.1169227952
 40
0.1482142367
 40
0.1801754187
 40
0.2127419385
 40
0.2292338766
 40
0.2458554891
 40
0.2794601088
 40
0.313499748
 40
0.3306653335
 40
0.3479175155
 40
0.3652485311
 40
0.3826499909
 40
0.4001123782
 40
0.4176249702
 40
0.4527382567
 40
0.4703168309
 40
0.4878806605
 40
0.5054074465
 40
0.5228738128
 40
0.5402573528
 40
0.5575391394
 40
0.5747045761
 40
0.591743262
 40
0.6086483486
 40
0.6254154955
 40
0.6420418765
 40
0.6585253975
 40
0.6748640767
 40
0.6910555541
 40
0.7229825389
 40
0.7542822734
 40
0.7849173523
 40
0.7999732731
 40
0.8148473681
 40
0.8440258692
 40
0.8724027428
 40
0.8999200537
 40
0.9265132471
 40
0.9521109959
 40
0.976635051
 40
1.0
 40
1.0
 40
1.0
 40
1.0
 10
11.0473183383
 20
8.4552638312
 30
0.0
 10
11.0452353976
 20
8.4570371604
 30
0.0
 10
11.0409774245
 20
8.4606282461
 30
0.0
 10
11.034434931
 20
8.466045003
 30
0.0
 10
11.027632549
 20
8.4715686935
 30
0.0
 10
11.0205831347
 20
8.4771724667
 30
0.0
 10
11.0132948161
 20
8.4828272398
 30
0.0
 10
11.0057706682
 20
8.4885001188
 30
0.0
 10
10.9993293289
 20
8.4931901459
 30
0.0
 10
10.9940498038
 20
8.4969111158
 30
0.0
 10
10.9886433371
 20
8.5006284158
 30
0.0
 10
10.9817225067
 20
8.5051879364
 30
0.0
 10
10.9746100932
 20
8.5095474613
 30
0.0
 10
10.9687656421
 20
8.5128894521
 30
0.0
 10
10.964290594
 20
8.5153135346
 30
0.0
 10
10.9597334066
 20
8.5176313784
 30
0.0
 10
10.9550913304
 20
8.5198233268
 30
0.0
 10
10.9503619977
 20
8.5218667056
 30
0.0
 10
10.9439353569
 20
8.5243600025
 30
0.0
 10
10.9373399861
 20
8.5264436029
 30
0.0
 10
10.9306031412
 20
8.5279900592
 30
0.0
 10
10.9254920875
 20
8.5288494074
 30
0.0
 10
10.9203472074
 20
8.5293795262
 30
0.0
 10
10.9151955848
 20
8.529559801
 30
0.0
 10
10.9100679578
 20
8.5293812176
 30
0.0
 10
10.904994531
 20
8.5288525421
 30
0.0
 10
10.9000011627
 20
8.5279943132
 30
0.0
 10
10.8951076542
 20
8.5268345901
 30
0.0
 10
10.8903272458
 20
8.5254057291
 30
0.0
 10
10.8856673035
 20
8.5237410004
 30
0.0
 10
10.8811305612
 20
8.5218723491
 30
0.0
 10
10.8767165193
 20
8.5198290411
 30
0.0
 10
10.8724226134
 20
8.5176370653
 30
0.0
 10
10.8668791538
 20
8.5145611525
 30
0.0
 10
10.8602293689
 20
8.5104565578
 30
0.0
 10
10.8526306397
 20
8.5052110971
 30
0.0
 10
10.8465905472
 20
8.5006423539
 30
0.0
 10
10.8419431303
 20
8.4969171599
 30
0.0
 10
10.8374703211
 20
8.4932044951
 30
0.0
 10
10.8320982552
 20
8.48852588
 30
0.0
 10
10.8259468619
 20
8.4828543866
 30
0.0
 10
10.8201283198
 20
8.4772011752
 30
0.0
 10
10.81464464
 20
8.4715991612
 30
0.0
 10
10.809503112
 20
8.4660773965
 30
0.0
 10
10.8047159338
 20
8.4606627831
 30
0.0
 10
10.8016945471
 20
8.4570493867
 30
0.0
 10
10.8002484731
 20
8.4552638312
 30
0.0
  0
SPLINE
  5
2E6
100
AcDbEntity
  8
0
100
AcDbSpline
 62
7
  6
CONTINUOUS
 70
0
 71
3
 72
52
 73
48
 74
0
 42
0.0000001
 43
0.0000001
 44
0.0000000001
 40
0.0
 40
0.0
 40
0.0
 40
0.0
 40
0.0666797907
 40
0.1010250836
 40
0.1359179641
 40
0.1712768515
 40
0.207026195
 40
0.2430942565
 40
0.2612259447
 40
0.2794108123
 40
0.3159023617
 40
0.3524882958
 40
0.3707892227
 40
0.38907811
 40
0.4073407053
 40
0.425560893
 40
0.4437201006
 40
0.4617972993
 40
0.4797686525
 40
0.4976075899
 40
0.5152855473
 40
0.5327735056
 40
0.5500444766
 40
0.5585927958
 40
0.567079176
 40
0.5755022176
 40
0.5838612134
 40
0.6003849783
 40
0.6166595325
 40
0.6326961341
 40
0.6485083047
 40
0.6641093394
 40
0.6947114496
 40
0.7097381149
 40
0.7245844143
 40
0.753736756
 40
0.7821699946
 40
0.809861097
 40
0.8234196693
 40
0.8367802163
 40
0.8628856829
 40
0.8881374605
 40
0.9124904238
 40
0.9358981408
 40
0.9583143204
 40
0.9796947578
 40
1.0
 40
1.0
 40
1.0
 40
1.0
 10
10.8002484731
 20
8.4552638312
 30
0.0
 10
10.7950526988
 20
8.4588243693
 30
0.0
 10
10.7871963473
 20
8.4642416773
 30
0.0
 10
10.7766313742
 20
8.4715370467
 30
0.0
 10
10.7684948391
 20
8.4771423715
 30
0.0
 10
10.7602321807
 20
8.4827983638
 30
0.0
 10
10.7518472889
 20
8.4884721228
 30
0.0
 10
10.7447699838
 20
8.4931741973
 30
0.0
 10
10.7390393834
 20
8.4969042752
 30
0.0
 10
10.7332469217
 20
8.5006122796
 30
0.0
 10
10.7259227501
 20
8.5051603932
 30
0.0
 10
10.7184779999
 20
8.5095314887
 30
0.0
 10
10.7124318459
 20
8.5128824248
 30
0.0
 10
10.7078519291
 20
8.5153064156
 30
0.0
 10
10.7032257379
 20
8.5176241684
 30
0.0
 10
10.6985519423
 20
8.5198160703
 30
0.0
 10
10.6938301374
 20
8.5218594014
 30
0.0
 10
10.6890615181
 20
8.5237282688
 30
0.0
 10
10.6842496385
 20
8.5253935575
 30
0.0
 10
10.6794014704
 20
8.5268235025
 30
0.0
 10
10.6745283904
 20
8.5279849884
 30
0.0
 10
10.6696472968
 20
8.5288457755
 30
0.0
 10
10.6655770953
 20
8.5292904607
 30
0.0
 10
10.6623408809
 20
8.5294698322
 30
0.0
 10
10.6599359574
 20
8.5295148683
 30
0.0
 10
10.6575488856
 20
8.529470506
 30
0.0
 10
10.6544071391
 20
8.5292932992
 30
0.0
 10
10.650540066
 20
8.5288555503
 30
0.0
 10
10.6460033883
 20
8.5279980531
 30
0.0
 10
10.6416041957
 20
8.5268386742
 30
0.0
 10
10.6373525253
 20
8.5254097843
 30
0.0
 10
10.6319222558
 20
8.5232045586
 30
0.0
 10
10.6267540135
 20
8.520580681
 30
0.0
 10
10.6218547794
 20
8.517640525
 30
0.0
 10
10.6171997576
 20
8.5145687539
 30
0.0
 10
10.6117133259
 20
8.5104696319
 30
0.0
 10
10.6055931061
 20
8.5052244645
 30
0.0
 10
10.6008544323
 20
8.5006504101
 30
0.0
 10
10.5972899911
 20
8.4969207366
 30
0.0
 10
10.5939216074
 20
8.493213095
 30
0.0
 10
10.5899749537
 20
8.4885411435
 30
0.0
 10
10.5856139115
 20
8.4828699576
 30
0.0
 10
10.5816593746
 20
8.4772165008
 30
0.0
 10
10.5781121638
 20
8.4716135309
 30
0.0
 10
10.5749782091
 20
8.4660896777
 30
0.0
 10
10.5722682588
 20
8.4606716288
 30
0.0
 10
10.5707128733
 20
8.4570508319
 30
0.0
 10
10.570016011
 20
8.4552638312
 30
0.0
  0
SPLINE
  5
2E7
100
AcDbEntity
  8
0
100
AcDbSpline
 62
7
  6
CONTINUOUS
 70
0
 71
3
 72
54
 73
50
 74
0
 42
0.0000001
 43
0.0000001
 44
0.0000000001
 40
0.0
 40
0.0
 40
0.0
 40
0.0
 40
0.0771322254
 40
0.1161812706
 40
0.1554313639
 40
0.1947991726
 40
0.2342036125
 40
0.2735621614
 40
0.2931970311
 40
0.3127863976
 40
0.3517748219
 40
0.3711449109
 40
0.3904103743
 40
0.4095531033
 40
0.4285519949
 40
0.447383519
 40
0.4660207533
 40
0.4844328212
 40
0.502585219
 40
0.5204400769
 40
0.5379574466
 40
0.5550979841
 40
0.5718271332
 40
0.5881206032
 40
0.5961021838
 40
0.6039730962
 40
0.6117355467
 40
0.6193930635
 40
0.6344096288
 40
0.6490725847
 40
0.663431724
 40
0.6775340525
 40
0.69141947
 40
0.7051190827
 40
0.7186554341
 40
0.7320436863
 40
0.7452930109
 40
0.7713841014
 40
0.7969459044
 40
0.8219622888
 40
0.8342600787
 40
0.8464107201
 40
0.8702521412
 40
0.893465355
 40
0.9160338481
 40
0.9379527535
 40
0.9592315572
 40
0.979897564
 40
1.0
 40
1.0
 40
1.0
 40
1.0
 10
10.570016011
 20
8.4552638312
 30
0.0
 10
10.564233424
 20
8.4587801647
 30
0.0
 10
10.5555792211
 20
8.4641688838
 30
0.0
 10
10.5440839197
 20
8.4715073055
 30
0.0
 10
10.5354141023
 20
8.4771134499
 30
0.0
 10
10.5267398219
 20
8.4827698873
 30
0.0
 10
10.5180655286
 20
8.4884436881
 30
0.0
 10
10.5108321943
 20
8.4931574764
 30
0.0
 10
10.5050392301
 20
8.4968969578
 30
0.0
 10
10.4992580014
 20
8.5005945894
 30
0.0
 10
10.4934648694
 20
8.504230588
 30
0.0
 10
10.4876472533
 20
8.507772568
 30
0.0
 10
10.4832878794
 20
8.5103606507
 30
0.0
 10
10.4789224259
 20
8.5128739151
 30
0.0
 10
10.4745500132
 20
8.5152976236
 30
0.0
 10
10.4701703623
 20
8.5176150818
 30
0.0
 10
10.4657837259
 20
8.5198067273
 30
0.0
 10
10.461391394
 20
8.5218499036
 30
0.0
 10
10.4569963065
 20
8.5237188089
 30
0.0
 10
10.45260366
 20
8.5253844532
 30
0.0
 10
10.4482217593
 20
8.5268152139
 30
0.0
 10
10.4438627126
 20
8.5279780957
 30
0.0
 10
10.4395433357
 20
8.528840875
 30
0.0
 10
10.435969607
 20
8.5292891129
 30
0.0
 10
10.4331541073
 20
8.5294695342
 30
0.0
 10
10.4310819221
 20
8.5295148706
 30
0.0
 10
10.4290381023
 20
8.529470774
 30
0.0
 10
10.4263726326
 20
8.5292943436
 30
0.0
 10
10.4231207842
 20
8.5288586502
 30
0.0
 10
10.4193478757
 20
8.5280012851
 30
0.0
 10
10.4157413127
 20
8.5268412902
 30
0.0
 10
10.4123074541
 20
8.5254114507
 30
0.0
 10
10.4090472731
 20
8.5237454896
 30
0.0
 10
10.4059581503
 20
8.5218756463
 30
0.0
 10
10.403035283
 20
8.5198313525
 30
0.0
 10
10.4002727572
 20
8.5176385935
 30
0.0
 10
10.3968133789
 20
8.5145636142
 30
0.0
 10
10.3928529179
 20
8.5104580767
 30
0.0
 10
10.3886303519
 20
8.505211472
 30
0.0
 10
10.3855285408
 20
8.5006417109
 30
0.0
 10
10.3832990183
 20
8.4969170097
 30
0.0
 10
10.3812560621
 20
8.4932040685
 30
0.0
 10
10.3789936157
 20
8.488522684
 30
0.0
 10
10.3767206239
 20
8.4828472555
 30
0.0
 10
10.3749005963
 20
8.477187469
 30
0.0
 10
10.3735337018
 20
8.4715758252
 30
0.0
 10
10.3726250362
 20
8.466040436
 30
0.0
 10
10.3721840793
 20
8.4606079894
 30
0.0
 10
10.3722113719
 20
8.457024861
 30
0.0
 10
10.3723109136
 20
8.4552638312
 30
0.0
  0
SPLINE
  5
2E8
100
AcDbEntity
  8
0
100
AcDbSpline
 62
7
  6
CONTINUOUS
 70
0
 71
3
 72
53
 73
49
 74
0
 42
0.0000001
 43
0.0000001
 44
0.0000000001
 40
0.0
 40
0.0
 40
0.0
 40
0.0
 40
0.0831386123
 40
0.1246163115
 40
0.1659515042
 40
0.2070851043
 40
0.2479579326
 40
0.2885076921
 40
0.3286659778
 40
0.3485743246
 40
0.3683546135
 40
0.4074793648
 40
0.4459283598
 40
0.4648598224
 40
0.4835715101
 40
0.502042179
 40
0.5202479631
 40
0.5381615628
 40
0.5557529846
 40
0.5729880171
 40
0.5898296998
 40
0.6062383894
 40
0.6221729713
 40
0.6375937719
 40
0.6524661074
 40
0.6667652055
 40
0.6804820811
 40
0.6936288736
 40
0.706242733
 40
0.7183876341
 40
0.7301464489
 40
0.7416083931
 40
0.7528595085
 40
0.763975309
 40
0.7750168427
 40
0.7860298789
 40
0.7970461416
 40
0.808085894
 40
0.8191609414
 40
0.8414239725
 40
0.8526205646
 40
0.8638534528
 40
0.8864069979
 40
0.9090580218
 40
0.9317709107
 40
0.9545099551
 40
0.9772547989
 40
1.0
 40
1.0
 40
1.0
 40
1.0
 10
10.3723109136
 20
8.4552638312
 30
0.0
 10
10.3672014621
 20
8.4582385059
 30
0.0
 10
10.3596063112
 20
8.4628070593
 30
0.0
 10
10.3496066859
 20
8.469074766
 30
0.0
 10
10.3421904748
 20
8.4738386737
 30
0.0
 10
10.3348575088
 20
8.4786516634
 30
0.0
 10
10.3276115595
 20
8.4834948248
 30
0.0
 10
10.3204552519
 20
8.4883468749
 30
0.0
 10
10.3145508954
 20
8.4923886083
 30
0.0
 10
10.3098693212
 20
8.4956018446
 30
0.0
 10
10.3052484078
 20
8.4987735817
 30
0.0
 10
10.2995345786
 20
8.5026829271
 30
0.0
 10
10.2938454768
 20
8.5065214503
 30
0.0
 10
10.2893325446
 20
8.50950723
 30
0.0
 10
10.2859875386
 20
8.5116832573
 30
0.0
 10
10.2826650885
 20
8.5137990286
 30
0.0
 10
10.2793656695
 20
8.5158448556
 30
0.0
 10
10.2760899921
 20
8.5178096312
 30
0.0
 10
10.272839384
 20
8.5196809679
 30
0.0
 10
10.2696156021
 20
8.5214445833
 30
0.0
 10
10.2664213687
 20
8.5230846906
 30
0.0
 10
10.263260383
 20
8.5245837109
 30
0.0
 10
10.2601376466
 20
8.5259225361
 30
0.0
 10
10.2570597007
 20
8.5270809961
 30
0.0
 10
10.2540347496
 20
8.5280385298
 30
0.0
 10
10.2510727179
 20
8.5287752434
 30
0.0
 10
10.2481851498
 20
8.5292733127
 30
0.0
 10
10.2453848083
 20
8.5295186378
 30
0.0
 10
10.2426849509
 20
8.5295019683
 30
0.0
 10
10.2400983853
 20
8.5292229924
 30
0.0
 10
10.2376355331
 20
8.528690611
 30
0.0
 10
10.2353038269
 20
8.5279191337
 30
0.0
 10
10.2331074772
 20
8.5269272806
 30
0.0
 10
10.2310476062
 20
8.5257360039
 30
0.0
 10
10.2291228541
 20
8.5243667764
 30
0.0
 10
10.2273301809
 20
8.5228403115
 30
0.0
 10
10.2256656142
 20
8.521175911
 30
0.0
 10
10.2241246082
 20
8.5193910349
 30
0.0
 10
10.2222262183
 20
8.5168676982
 30
0.0
 10
10.2205601569
 20
8.5141645393
 30
0.0
 10
10.2191124833
 20
8.511334129
 30
0.0
 10
10.2177992129
 20
8.5084158899
 30
0.0
 10
10.2164131532
 20
8.5046430303
 30
0.0
 10
10.2151417521
 20
8.4999779843
 30
0.0
 10
10.2142447487
 20
8.495213791
 30
0.0
 10
10.2137069138
 20
8.4903895546
 30
0.0
 10
10.2135198429
 20
8.4855371774
 30
0.0
 10
10.213625548
 20
8.4823007356
 30
0.0
 10
10.2137355376
 20
8.4806869851
 30
0.0
  0
SPLINE
  5
2E9
100
AcDbEntity
  8
0
100
AcDbSpline
 62
7
  6
CONTINUOUS
 70
0
 71
3
 72
50
 73
46
 74
0
 42
0.0000001
 43
0.0000001
 44
0.0000000001
 40
0.0
 40
0.0
 40
0.0
 40
0.0
 40
0.0896248795
 40
0.1777252876
 40
0.2640247545
 40
0.3064037069
 40
0.3482081898
 40
0.3893845885
 40
0.4298690662
 40
0.4695842611
 40
0.5084354316
 40
0.5463157436
 40
0.5831006655
 40
0.618638471
 40
0.652740246
 40
0.6691824874
 40
0.6851750795
 40
0.7006826674
 40
0.7156663383
 40
0.730086424
 40
0.7439023611
 40
0.7570753855
 40
0.7695713564
 40
0.7813643544
 40
0.7924419741
 40
0.8028110488
 40
0.8125034929
 40
0.8215813802
 40
0.8301411785
 40
0.8383093909
 40
0.8462297361
 40
0.8540474998
 40
0.8618953521
 40
0.8698828832
 40
0.8780920858
 40
0.8865782168
 40
0.8953741647
 40
0.9044949468
 40
0.9139436839
 40
0.9237144753
 40
0.9337967877
 40
0.9441764502
 40
0.9548387554
 40
0.9769439822
 40
1.0
 40
1.0
 40
1.0
 40
1.0
 10
10.2154329795
 20
8.4584034191
 30
0.0
 10
10.2115234715
 20
8.4608127069
 30
0.0
 10
10.2038443323
 20
8.4657104319
 30
0.0
 10
10.1926519219
 20
8.4733122783
 30
0.0
 10
10.1836300183
 20
8.4797937049
 30
0.0
 10
10.1766254121
 20
8.4850132606
 30
0.0
 10
10.1715152859
 20
8.4889051285
 30
0.0
 10
10.1665181405
 20
8.4927846169
 30
0.0
 10
10.1616352022
 20
8.4966363
 30
0.0
 10
10.1568680107
 20
8.5004421317
 30
0.0
 10
10.1522176986
 20
8.5041804132
 30
0.0
 10
10.1476864002
 20
8.5078270932
 30
0.0
 10
10.1432769876
 20
8.5113544459
 30
0.0
 10
10.1389935478
 20
8.514729167
 30
0.0
 10
10.1354923784
 20
8.5174121963
 30
0.0
 10
10.1327524008
 20
8.519441012
 30
0.0
 10
10.1307583111
 20
8.5208757613
 30
0.0
 10
10.128801885
 20
8.5222343965
 30
0.0
 10
10.1268851018
 20
8.5235081167
 30
0.0
 10
10.125010511
 20
8.524687627
 30
0.0
 10
10.1231809843
 20
8.5257629405
 30
0.0
 10
10.1213999068
 20
8.5267237417
 30
0.0
 10
10.1196710557
 20
8.5275594974
 30
0.0
 10
10.1179985848
 20
8.5282598408
 30
0.0
 10
10.1163869261
 20
8.5288149769
 30
0.0
 10
10.1148406459
 20
8.5292160464
 30
0.0
 10
10.1133643624
 20
8.5294556257
 30
0.0
 10
10.1119626297
 20
8.529527777
 30
0.0
 10
10.1106401355
 20
8.5294295645
 30
0.0
 10
10.109401426
 20
8.5291620805
 30
0.0
 10
10.1082503079
 20
8.5287304664
 30
0.0
 10
10.1071894933
 20
8.5281427007
 30
0.0
 10
10.1062198901
 20
8.5274092928
 30
0.0
 10
10.1053406542
 20
8.5265417206
 30
0.0
 10
10.1045497352
 20
8.5255514927
 30
0.0
 10
10.1038443956
 20
8.5244496982
 30
0.0
 10
10.103221821
 20
8.5232467422
 30
0.0
 10
10.1026791564
 20
8.5219523947
 30
0.0
 10
10.102213794
 20
8.5205757235
 30
0.0
 10
10.1018231973
 20
8.5191251171
 30
0.0
 10
10.1015051257
 20
8.5176082862
 30
0.0
 10
10.1012573887
 20
8.516032234
 30
0.0
 10
10.1010155786
 20
8.5138340237
 30
0.0
 10
10.1008861544
 20
8.510973393
 30
0.0
 10
10.1009514196
 20
8.5086582608
 30
0.0
 10
10.1010228227
 20
8.5074790589
 30
0.0
  0
SPLINE
  5
2EA
100
AcDbEntity
  8
0
100
AcDbSpline
 62
7
  6
CONTINUOUS
 70
0
 71
3
 72
44
 73
40
 74
0
 42
0.0000001
 43
0.0000001
 44
0.0000000001
 40
0.0
 40
0.0
 40
0.0
 40
0.0
 40
0.0954997938
 40
0.1887878596
 40
0.2797005153
 40
0.3680200013
 40
0.4534517455
 40
0.5355844128
 40
0.6138806261
 40
0.6513885521
 40
0.6876715126
 40
0.7226056916
 40
0.7560483458
 40
0.7878308885
 40
0.817757591
 40
0.8456054653
 40
0.8711245233
 40
0.8829270456
 40
0.8940455557
 40
0.9044457063
 40
0.9140949643
 40
0.9229634482
 40
0.9310262895
 40
0.938266237
 40
0.9446777266
 40
0.9502731783
 40
0.9550924403
 40
0.9592188791
 40
0.9628044708
 40
0.9644701437
 40
0.9660964373
 40
0.9677224466
 40
0.9693864037
 40
0.9729546414
 40
0.977021818
 40
0.9817144706
 40
0.9870957961
 40
0.9931907461
 40
1.0
 40
1.0
 40
1.0
 40
1.0
 10
10.1034916438
 20
8.4710711722
 30
0.0
 10
10.101318075
 20
8.4728060569
 30
0.0
 10
10.0970689066
 20
8.4762958163
 30
0.0
 10
10.0909178707
 20
8.4816365593
 30
0.0
 10
10.0850646064
 20
8.4869970262
 30
0.0
 10
10.0795135008
 20
8.4923448453
 30
0.0
 10
10.0742706554
 20
8.4976409134
 30
0.0
 10
10.0693436527
 20
8.5028363754
 30
0.0
 10
10.0654550249
 20
8.50709158
 30
0.0
 10
10.062503411
 20
8.5103936315
 30
0.0
 10
10.0604073017
 20
8.5127666306
 30
0.0
 10
10.0583992368
 20
8.5150593936
 30
0.0
 10
10.0564823498
 20
8.5172577828
 30
0.0
 10
10.0546603649
 20
8.5193454487
 30
0.0
 10
10.0529379048
 20
8.5213037237
 30
0.0
 10
10.0513205666
 20
8.5231114542
 30
0.0
 10
10.0500345216
 20
8.5245072525
 30
0.0
 10
10.0490597366
 20
8.5255269437
 30
0.0
 10
10.0483785915
 20
8.5262181034
 30
0.0
 10
10.047729275
 20
8.5268523919
 30
0.0
 10
10.0471129476
 20
8.5274263861
 30
0.0
 10
10.0465307905
 20
8.5279367553
 30
0.0
 10
10.0459839615
 20
8.5283803169
 30
0.0
 10
10.0454735715
 20
8.5287541772
 30
0.0
 10
10.0450005366
 20
8.5290557688
 30
0.0
 10
10.0445655237
 20
8.5292830076
 30
0.0
 10
10.0441684924
 20
8.5294340943
 30
0.0
 10
10.0438088303
 20
8.5295071627
 30
0.0
 10
10.0435323311
 20
8.5294994913
 30
0.0
 10
10.0433377022
 20
8.529449197
 30
0.0
 10
10.0432057394
 20
8.5293920127
 30
0.0
 10
10.0430845475
 20
8.5293146856
 30
0.0
 10
10.0429340804
 20
8.5291822845
 30
0.0
 10
10.0427726156
 20
8.5289607849
 30
0.0
 10
10.0426291219
 20
8.5286295921
 30
0.0
 10
10.0425274182
 20
8.5282292054
 30
0.0
 10
10.0424658969
 20
8.5277615892
 30
0.0
 10
10.0424434939
 20
8.5272290487
 30
0.0
 10
10.0424535509
 20
8.5268531305
 30
0.0
 10
10.0424640145
 20
8.5266551146
 30
0.0
  0
SPLINE
  5
2EB
100
AcDbEntity
  8
0
100
AcDbSpline
 62
7
  6
CONTINUOUS
 70
0
 71
3
 72
31
 73
27
 74
0
 42
0.0000001
 43
0.0000001
 44
0.0000000001
 40
0.0
 40
0.0
 40
0.0
 40
0.0
 40
0.0285183051
 40
0.0566759052
 40
0.0845419933
 40
0.1121885243
 40
0.1396889558
 40
0.167116964
 40
0.1945451721
 40
0.2220439638
 40
0.2496804154
 40
0.2775173801
 40
0.3056127506
 40
0.3340189321
 40
0.3919191722
 40
0.4515450703
 40
0.4820839163
 40
0.5131240412
 40
0.5446777239
 40
0.5767524889
 40
0.6424548872
 40
0.710230564
 40
0.7800058694
 40
0.8516630638
 40
0.9250524777
 40
1.0
 40
1.0
 40
1.0
 40
1.0
 10
11.3555133893
 20
6.7950019274
 30
0.0
 10
11.3547334806
 20
6.7943484465
 30
0.0
 10
11.3531441836
 20
6.7930958037
 30
0.0
 10
11.3506625036
 20
6.7913779562
 30
0.0
 10
11.3481034672
 20
6.7898367564
 30
0.0
 10
11.3454712285
 20
6.7884744687
 30
0.0
 10
11.3427700623
 20
6.7872929448
 30
0.0
 10
11.3400045375
 20
6.7862937772
 30
0.0
 10
11.3371794688
 20
6.7854782665
 30
0.0
 10
11.334299926
 20
6.7848474405
 30
0.0
 10
11.3313712149
 20
6.7844020642
 30
0.0
 10
11.3283989184
 20
6.7841426378
 30
0.0
 10
11.3253887236
 20
6.7840694443
 30
0.0
 10
11.3213076648
 20
6.7842210112
 30
0.0
 10
11.3161306459
 20
6.784886169
 30
0.0
 10
11.3109907751
 20
6.7861548018
 30
0.0
 10
11.3068876157
 20
6.7875255468
 30
0.0
 10
11.3037943252
 20
6.7887434535
 30
0.0
 10
11.3007178501
 20
6.7901412397
 30
0.0
 10
11.2966163281
 20
6.7922589372
 30
0.0
 10
11.2915744899
 20
6.7953552944
 30
0.0
 10
11.2857717674
 20
6.7997214991
 30
0.0
 10
11.2802347758
 20
6.8047424409
 30
0.0
 10
11.2750335519
 20
6.8103859571
 30
0.0
 10
11.2702387943
 20
6.8166125628
 30
0.0
 10
11.2673862943
 20
6.8210801056
 30
0.0
 10
11.2660467765
 20
6.8233944319
 30
0.0
  0
SPLINE
  5
2EC
100
AcDbEntity
  8
0
100
AcDbSpline
 62
9
  6
CONTINUOUS
 70
0
 71
3
 72
34
 73
30
 74
0
 42
0.0000001
 43
0.0000001
 44
0.0000000001
 40
0.0
 40
0.0
 40
0.0
 40
0.0
 40
0.0004886112
 40
0.0008578901
 40
0.0013330377
 40
0.0026248844
 40
0.0043906037
 40
0.0066389158
 40
0.009373795
 40
0.0125973033
 40
0.0163105901
 40
0.0252087288
 40
0.0360708684
 40
0.0488973729
 40
0.063687403
 40
0.0804393898
 40
0.099151468
 40
0.1198215935
 40
0.1424476053
 40
0.1935582281
 40
0.252464891
 40
0.3191485783
 40
0.3935894667
 40
0.4757458832
 40
0.5655469887
 40
0.6629198861
 40
0.7678050524
 40
0.8801733962
 40
1.0
 40
1.0
 40
1.0
 40
1.0
 10
10.6647055673
 20
6.5157369489
 30
0.0
 10
10.6647054359
 20
6.5157397391
 30
0.0
 10
10.6647087848
 20
6.5157443626
 30
0.0
 10
10.6647150159
 20
6.515748487
 30
0.0
 10
10.6647260279
 20
6.5157539908
 30
0.0
 10
10.6647452456
 20
6.5157602708
 30
0.0
 10
10.6647747252
 20
6.5157675019
 30
0.0
 10
10.6648126311
 20
6.5157747414
 30
0.0
 10
10.6648589785
 20
6.5157820525
 30
0.0
 10
10.6649137839
 20
6.5157893838
 30
0.0
 10
10.665003706
 20
6.5157998264
 30
0.0
 10
10.6651373052
 20
6.5158125419
 30
0.0
 10
10.665323025
 20
6.5158271351
 30
0.0
 10
10.6655425116
 20
6.515841774
 30
0.0
 10
10.6657957292
 20
6.5158564499
 30
0.0
 10
10.6660826412
 20
6.5158711439
 30
0.0
 10
10.6664032062
 20
6.5158858483
 30
0.0
 10
10.6667573825
 20
6.5159005574
 30
0.0
 10
10.6672966884
 20
6.5159210092
 30
0.0
 10
10.6680545517
 20
6.5159462146
 30
0.0
 10
10.6690642742
 20
6.5159753891
 30
0.0
 10
10.6702074175
 20
6.516004548
 30
0.0
 10
10.6714835109
 20
6.5160336696
 30
0.0
 10
10.6728917913
 20
6.5160627333
 30
0.0
 10
10.6744311929
 20
6.5160917306
 30
0.0
 10
10.6761005499
 20
6.5161206491
 30
0.0
 10
10.6778989357
 20
6.5161494794
 30
0.0
 10
10.6798256989
 20
6.5161782053
 30
0.0
 10
10.6811529532
 20
6.5161966874
 30
0.0
 10
10.6818379003
 20
6.5162059362
 30
0.0
  0
SPLINE
  5
2ED
100
AcDbEntity
  8
0
100
AcDbSpline
 62
7
  6
CONTINUOUS
 70
0
 71
3
 72
15
 73
11
 74
0
 42
0.0000001
 43
0.0000001
 44
0.0000000001
 40
0.0
 40
0.0
 40
0.0
 40
0.0
 40
0.1158840836
 40
0.235284956
 40
0.357793818
 40
0.482957466
 40
0.6102868079
 40
0.7392648043
 40
0.8693523154
 40
1.0
 40
1.0
 40
1.0
 40
1.0
 10
10.4047623532
 20
8.648834584
 30
0.0
 10
10.4041961211
 20
8.6502188537
 30
0.0
 10
10.4031290375
 20
8.6530638074
 30
0.0
 10
10.4017439206
 20
8.6574709728
 30
0.0
 10
10.4005570226
 20
8.6620594224
 30
0.0
 10
10.3995757459
 20
8.6668005696
 30
0.0
 10
10.398806142
 20
8.671665101
 30
0.0
 10
10.3982529947
 20
8.6766228764
 30
0.0
 10
10.3979197184
 20
8.6816430465
 30
0.0
 10
10.3978455583
 20
8.6850085729
 30
0.0
 10
10.3978455583
 20
8.6866947126
 30
0.0
  0
SPLINE
  5
2EE
100
AcDbEntity
  8
0
100
AcDbSpline
 62
7
  6
CONTINUOUS
 70
0
 71
3
 72
20
 73
16
 74
0
 42
0.0000001
 43
0.0000001
 44
0.0000000001
 40
0.0
 40
0.0
 40
0.0
 40
0.0
 40
0.049269892
 40
0.1008382267
 40
0.1546448324
 40
0.210607242
 40
0.2686236561
 40
0.3285753542
 40
0.3903289502
 40
0.4537382203
 40
0.5186457965
 40
0.5848846057
 40
0.7206345174
 40
0.8595234733
 40
1.0
 40
1.0
 40
1.0
 40
1.0
 10
10.5498786997
 20
8.634622116
 30
0.0
 10
10.5494171946
 20
8.6353787508
 30
0.0
 10
10.548516452
 20
8.6369543637
 30
0.0
 10
10.5472588594
 20
8.6394367668
 30
0.0
 10
10.5460677944
 20
8.642084319
 30
0.0
 10
10.544947438
 20
8.6448877266
 30
0.0
 10
10.5439016639
 20
8.6478372704
 30
0.0
 10
10.5429341205
 20
8.6509226712
 30
0.0
 10
10.5420481835
 20
8.6541331775
 30
0.0
 10
10.5412469563
 20
8.6574575803
 30
0.0
 10
10.5405332253
 20
8.6608843006
 30
0.0
 10
10.539694849
 20
8.6656120985
 30
0.0
 10
10.5388864094
 20
8.6716939052
 30
0.0
 10
10.5383034949
 20
8.6791415029
 30
0.0
 10
10.5381735948
 20
8.6841677977
 30
0.0
 10
10.5381735948
 20
8.6866947126
 30
0.0
  0
LINE
  5
2EF
100
AcDbEntity
  8
0
100
AcDbLine
 62
9
  6
CONTINUOUS
 10
10.656083561
 20
6.7017632885
 11
10.6737902045
 21
6.7019476335
  0
SPLINE
  5
2F0
100
AcDbEntity
  8
0
100
AcDbSpline
 62
7
  6
CONTINUOUS
 70
0
 71
3
 72
22
 73
18
 74
0
 42
0.0000001
 43
0.0000001
 44
0.0000000001
 40
0.0
 40
0.0
 40
0.0
 40
0.0
 40
0.0389637678
 40
0.081803939
 40
0.1285203224
 40
0.1790392794
 40
0.2332295438
 40
0.2909135557
 40
0.3518757616
 40
0.4158687025
 40
0.4826179939
 40
0.5518263932
 40
0.6231772668
 40
0.6963377478
 40
0.7709615787
 40
0.8466922619
 40
1.0
 40
1.0
 40
1.0
 40
1.0
 10
10.7005233244
 20
8.6276135173
 30
0.0
 10
10.7000548816
 20
8.6282532241
 30
0.0
 10
10.6991392207
 20
8.6296465192
 30
0.0
 10
10.6978791864
 20
8.6319405688
 30
0.0
 10
10.6966740421
 20
8.6345256989
 30
0.0
 10
10.6955301891
 20
8.6373883888
 30
0.0
 10
10.6944535942
 20
8.6405138722
 30
0.0
 10
10.6934500312
 20
8.6438857182
 30
0.0
 10
10.6925248948
 20
8.6474861204
 30
0.0
 10
10.6916831808
 20
8.6512959738
 30
0.0
 10
10.6909294368
 20
8.6552950097
 30
0.0
 10
10.690267739
 20
8.6594619139
 30
0.0
 10
10.6897016647
 20
8.6637744545
 30
0.0
 10
10.689234283
 20
8.6682095827
 30
0.0
 10
10.6888680992
 20
8.6727436498
 30
0.0
 10
10.6885161163
 20
8.6789132963
 30
0.0
 10
10.6884115547
 20
8.6835750168
 30
0.0
 10
10.6884115547
 20
8.6866947126
 30
0.0
  0
SPLINE
  5
2F1
100
AcDbEntity
  8
0
100
AcDbSpline
 62
7
  6
CONTINUOUS
 70
0
 71
3
 72
29
 73
25
 74
0
 42
0.0000001
 43
0.0000001
 44
0.0000000001
 40
0.0
 40
0.0
 40
0.0
 40
0.0
 40
0.0122227216
 40
0.0258575133
 40
0.0409511977
 40
0.0575292797
 40
0.0756016267
 40
0.0951661482
 40
0.1162117917
 40
0.1387199358
 40
0.1626657731
 40
0.188019403
 40
0.2147460895
 40
0.2428070725
 40
0.3027573122
 40
0.3674939325
 40
0.4365931729
 40
0.5095924189
 40
0.5859956765
 40
0.6652787343
 40
0.7468938073
 40
0.830274379
 40
0.9148393408
 40
1.0
 40
1.0
 40
1.0
 40
1.0
 10
10.85442119
 20
8.624012006
 30
0.0
 10
10.8542581392
 20
8.6242146831
 30
0.0
 10
10.8539356469
 20
8.6246616788
 30
0.0
 10
10.8534829158
 20
8.6254071342
 30
0.0
 10
10.8530360193
 20
8.6262621579
 30
0.0
 10
10.852595737
 20
8.6272253464
 30
0.0
 10
10.8521627979
 20
8.6282951782
 30
0.0
 10
10.8517379742
 20
8.6294698397
 30
0.0
 10
10.8513220443
 20
8.6307473099
 30
0.0
 10
10.8509157691
 20
8.6321253503
 30
0.0
 10
10.8505198915
 20
8.6336015255
 30
0.0
 10
10.8501351485
 20
8.6351732116
 30
0.0
 10
10.8497622299
 20
8.636837602
 30
0.0
 10
10.8492708248
 20
8.6392295892
 30
0.0
 10
10.8486954031
 20
8.6424295622
 30
0.0
 10
10.8480761286
 20
8.6465073471
 30
0.0
 10
10.847518458
 20
8.6508740868
 30
0.0
 10
10.847026515
 20
8.6554984224
 30
0.0
 10
10.8466039559
 20
8.6603471681
 30
0.0
 10
10.8462539032
 20
8.665385478
 30
0.0
 10
10.8459789343
 20
8.670577127
 30
0.0
 10
10.8457810735
 20
8.6758847641
 30
0.0
 10
10.8456617721
 20
8.6812702026
 30
0.0
 10
10.8456352268
 20
8.6848823359
 30
0.0
 10
10.8456352268
 20
8.6866947126
 30
0.0
  0
SPLINE
  5
2F2
100
AcDbEntity
  8
0
100
AcDbSpline
 62
7
  6
CONTINUOUS
 70
0
 71
3
 72
32
 73
28
 74
0
 42
0.0000001
 43
0.0000001
 44
0.0000000001
 40
0.0
 40
0.0
 40
0.0
 40
0.0
 40
0.000705648
 40
0.0015304626
 40
0.0035596054
 40
0.0061169215
 40
0.0092151733
 40
0.0128603746
 40
0.017055136
 40
0.0270948082
 40
0.0393270985
 40
0.053732241
 40
0.0702824051
 40
0.0889430009
 40
0.1096736057
 40
0.1324285754
 40
0.1571572211
 40
0.1838039822
 40
0.2426070823
 40
0.3083058587
 40
0.3803037217
 40
0.457946091
 40
0.5405265026
 40
0.6272933873
 40
0.7174565929
 40
0.8101947583
 40
1.0
 40
1.0
 40
1.0
 40
1.0
 10
11.0089288916
 20
8.6226244277
 30
0.0
 10
11.0089192193
 20
8.6226360179
 30
0.0
 10
11.0089001085
 20
8.6226627196
 30
0.0
 10
11.0088621366
 20
8.6227288156
 30
0.0
 10
11.00881619
 20
8.62283541
 30
0.0
 10
11.0087639739
 20
8.6229913772
 30
0.0
 10
11.0087116906
 20
8.6231834512
 30
0.0
 10
11.008659383
 20
8.6234115726
 30
0.0
 10
11.0085852467
 20
8.6237868656
 30
0.0
 10
11.0084956293
 20
8.6243460887
 30
0.0
 10
11.008393896
 20
8.6251241571
 30
0.0
 10
11.0082931976
 20
8.6260426212
 30
0.0
 10
11.008193826
 20
8.6270994234
 30
0.0
 10
11.0080961368
 20
8.6282922081
 30
0.0
 10
11.008000401
 20
8.6296182677
 30
0.0
 10
11.0079068821
 20
8.6310745893
 30
0.0
 10
11.0078158128
 20
8.6326578553
 30
0.0
 10
11.0076939303
 20
8.6350117638
 30
0.0
 10
11.0075513002
 20
8.6382421902
 30
0.0
 10
11.007398032
 20
8.6424431489
 30
0.0
 10
11.007259132
 20
8.6470478335
 30
0.0
 10
11.0071359374
 20
8.6520142276
 30
0.0
 10
11.0070296496
 20
8.6572970315
 30
0.0
 10
11.0069412839
 20
8.6628480571
 30
0.0
 10
11.0068716708
 20
8.6686166706
 30
0.0
 10
11.0068042514
 20
8.6765897185
 30
0.0
 10
11.0067844313
 20
8.6826342047
 30
0.0
 10
11.0067844313
 20
8.6866947126
 30
0.0
  0
SPLINE
  5
2F3
100
AcDbEntity
  8
0
100
AcDbSpline
 62
7
  6
CONTINUOUS
 70
0
 71
3
 72
30
 73
26
 74
0
 42
0.0000001
 43
0.0000001
 44
0.0000000001
 40
0.0
 40
0.0
 40
0.0
 40
0.0
 40
0.0038704448
 40
0.0081487576
 40
0.0128513132
 40
0.0179897239
 40
0.0296015931
 40
0.0430239767
 40
0.0582682137
 40
0.0753295257
 40
0.0941919838
 40
0.1148309165
 40
0.1372147235
 40
0.1613061286
 40
0.1870626289
 40
0.2144370575
 40
0.2738298697
 40
0.339029899
 40
0.4095272739
 40
0.4847643781
 40
0.5641423403
 40
0.647026433
 40
0.7327519655
 40
0.8206299027
 40
1.0
 40
1.0
 40
1.0
 40
1.0
 10
11.1628625672
 20
8.6230775804
 30
0.0
 10
11.16291527
 20
8.623141499
 30
0.0
 10
11.1630200229
 20
8.6232812388
 30
0.0
 10
11.1631689495
 20
8.6235127132
 30
0.0
 10
11.1633173028
 20
8.6237761824
 30
0.0
 10
11.1635226851
 20
8.624187038
 30
0.0
 10
11.1637742868
 20
8.6247825178
 30
0.0
 10
11.1640621151
 20
8.625595539
 30
0.0
 10
11.1643462303
 20
8.6265324654
 30
0.0
 10
11.1646260065
 20
8.6275915361
 30
0.0
 10
11.1649007822
 20
8.628770777
 30
0.0
 10
11.1651699425
 20
8.6300678642
 30
0.0
 10
11.1654328922
 20
8.6314802143
 30
0.0
 10
11.1656890532
 20
8.6330049869
 30
0.0
 10
11.1659378884
 20
8.6346390998
 30
0.0
 10
11.1662682147
 20
8.6370248966
 30
0.0
 10
11.1666549719
 20
8.6402548711
 30
0.0
 10
11.1670708707
 20
8.644410088
 30
0.0
 10
11.1674465445
 20
8.6489095244
 30
0.0
 10
11.167778814
 20
8.6537165791
 30
0.0
 10
11.1680648337
 20
8.6587921621
 30
0.0
 10
11.168302191
 20
8.6640949682
 30
0.0
 10
11.1684889057
 20
8.6695818432
 30
0.0
 10
11.1686693897
 20
8.6771349367
 30
0.0
 10
11.1687225822
 20
8.6828554156
 30
0.0
 10
11.1687225822
 20
8.6866947126
 30
0.0
  0
SPLINE
  5
2F4
100
AcDbEntity
  8
0
100
AcDbSpline
 62
7
  6
CONTINUOUS
 70
0
 71
3
 72
27
 73
23
 74
0
 42
0.0000001
 43
0.0000001
 44
0.0000000001
 40
0.0
 40
0.0
 40
0.0
 40
0.0
 40
0.0158225193
 40
0.0328196682
 40
0.0510149859
 40
0.0704206506
 40
0.0910400104
 40
0.1128686363
 40
0.1358959518
 40
0.160105993
 40
0.2119836916
 40
0.2682938512
 40
0.3287712907
 40
0.393107635
 40
0.4609581714
 40
0.5319475721
 40
0.605674477
 40
0.6817154942
 40
0.7596292308
 40
0.8389601011
 40
0.9192410294
 40
1.0
 40
1.0
 40
1.0
 40
1.0
 10
11.3174125102
 20
8.6254887716
 30
0.0
 10
11.3176154201
 20
8.6257509398
 30
0.0
 10
11.3180174751
 20
8.6263094675
 30
0.0
 10
11.3185909972
 20
8.6272120161
 30
0.0
 10
11.3191554065
 20
8.6282075422
 30
0.0
 10
11.3197098437
 20
8.6292944987
 30
0.0
 10
11.3202534681
 20
8.6304712677
 30
0.0
 10
11.3207854463
 20
8.6317360464
 30
0.0
 10
11.3213049636
 20
8.633086896
 30
0.0
 10
11.3219959137
 20
8.6350455099
 30
0.0
 10
11.3228170498
 20
8.6376964162
 30
0.0
 10
11.3237193367
 20
8.6411140885
 30
0.0
 10
11.3245540959
 20
8.6448168727
 30
0.0
 10
11.3253159965
 20
8.648781698
 30
0.0
 10
11.3260001464
 20
8.6529839057
 30
0.0
 10
11.3266021688
 20
8.6573972573
 30
0.0
 10
11.3271182147
 20
8.6619941679
 30
0.0
 10
11.3275449942
 20
8.6667458715
 30
0.0
 10
11.3278797864
 20
8.6716226134
 30
0.0
 10
11.328120455
 20
8.6765938345
 30
0.0
 10
11.328265475
 20
8.6816283733
 30
0.0
 10
11.3282977375
 20
8.6850026243
 30
0.0
 10
11.3282977375
 20
8.6866947126
 30
0.0
  0
SPLINE
  5
2F5
100
AcDbEntity
  8
0
100
AcDbSpline
 62
7
  6
CONTINUOUS
 70
0
 71
3
 72
27
 73
23
 74
0
 42
0.0000001
 43
0.0000001
 44
0.0000000001
 40
0.0
 40
0.0
 40
0.0
 40
0.0
 40
0.021081577
 40
0.0418374211
 40
0.0624207248
 40
0.0829873877
 40
0.1036919136
 40
0.1246834224
 40
0.1461021911
 40
0.1680770249
 40
0.2141122119
 40
0.2635846254
 40
0.3170400096
 40
0.3748409758
 40
0.4372019704
 40
0.5042206878
 40
0.5759030016
 40
0.6521820376
 40
0.7329300952
 40
0.817968759
 40
0.9070781797
 40
1.0
 40
1.0
 40
1.0
 40
1.0
 10
11.4180230661
 20
6.7860344864
 30
0.0
 10
11.4176673829
 20
6.7858211843
 30
0.0
 10
11.4169429766
 20
6.7854278095
 30
0.0
 10
11.4158141302
 20
6.7849402731
 30
0.0
 10
11.414654795
 20
6.7845615304
 30
0.0
 10
11.4134663734
 20
6.784292011
 30
0.0
 10
11.4122502649
 20
6.7841319085
 30
0.0
 10
11.4110080159
 20
6.7840812695
 30
0.0
 10
11.409741159
 20
6.7841400204
 30
0.0
 10
11.4079948255
 20
6.7843673269
 30
0.0
 10
11.4057458841
 20
6.7849397283
 30
0.0
 10
11.4030252035
 20
6.7860491951
 30
0.0
 10
11.4002541702
 20
6.7875857918
 30
0.0
 10
11.397449213
 20
6.7895438681
 30
0.0
 10
11.3946279819
 20
6.7919172659
 30
0.0
 10
11.3918103679
 20
6.7946987154
 30
0.0
 10
11.3890179618
 20
6.7978794549
 30
0.0
 10
11.3862739045
 20
6.8014489367
 30
0.0
 10
11.3836025859
 20
6.8053945603
 30
0.0
 10
11.3810293058
 20
6.8097015334
 30
0.0
 10
11.3785800481
 20
6.8143524426
 30
0.0
 10
11.3770769835
 20
6.8176048726
 30
0.0
 10
11.3763513315
 20
6.8192827332
 30
0.0
  0
SPLINE
  5
2F6
100
AcDbEntity
  8
0
100
AcDbSpline
 62
7
  6
CONTINUOUS
 70
0
 71
3
 72
22
 73
18
 74
0
 42
0.0000001
 43
0.0000001
 44
0.0000000001
 40
0.0
 40
0.0
 40
0.0
 40
0.0
 40
0.044418096
 40
0.0918910063
 40
0.1423778641
 40
0.1957956396
 40
0.2520262359
 40
0.3109221229
 40
0.3723106562
 40
0.4359978
 40
0.5017711509
 40
0.5694025882
 40
0.6386505718
 40
0.7092623755
 40
0.7809760025
 40
0.8535225346
 40
1.0
 40
1.0
 40
1.0
 40
1.0
 10
11.4699953196
 20
8.6305603599
 30
0.0
 10
11.4704789683
 20
8.631273396
 30
0.0
 10
11.4714241571
 20
8.6327865404
 30
0.0
 10
11.4727366922
 20
8.6352181435
 30
0.0
 10
11.473985814
 20
8.6378770417
 30
0.0
 10
11.4751660004
 20
8.6407515073
 30
0.0
 10
11.4762721188
 20
8.6438290417
 30
0.0
 10
11.4772992834
 20
8.6470961362
 30
0.0
 10
11.4782429498
 20
8.6505384293
 30
0.0
 10
11.4790989283
 20
8.6541407511
 30
0.0
 10
11.4798634133
 20
8.6578872053
 30
0.0
 10
11.4805330016
 20
8.6617612383
 30
0.0
 10
11.4811047113
 20
8.6657457224
 30
0.0
 10
11.4815759888
 20
8.6698230079
 30
0.0
 10
11.4819447509
 20
8.6739751053
 30
0.0
 10
11.4822985794
 20
8.679603928
 30
0.0
 10
11.4824039485
 20
8.6838534505
 30
0.0
 10
11.4824039485
 20
8.6866947126
 30
0.0
  0
LINE
  5
2F7
100
AcDbEntity
  8
0
100
AcDbLine
 62
7
  6
CONTINUOUS
 10
10.6961780338
 20
7.1816947126
 11
10.6626750778
 21
7.2312803822
  0
SPLINE
  5
2F8
100
AcDbEntity
  8
0
100
AcDbSpline
 62
7
  6
CONTINUOUS
 70
0
 71
3
 72
11
 73
7
 74
0
 42
0.0000001
 43
0.0000001
 44
0.0000000001
 40
0.0
 40
0.0
 40
0.0
 40
0.0
 40
0.2496393425
 40
0.4994386627
 40
0.7495070814
 40
1.0
 40
1.0
 40
1.0
 40
1.0
 10
10.6626750778
 20
7.2312803822
 30
0.0
 10
10.6656486305
 20
7.2270999446
 30
0.0
 10
10.6716316647
 20
7.218760525
 30
0.0
 10
10.6807179625
 20
7.2063234512
 30
0.0
 10
10.6899302605
 20
7.1939575034
 30
0.0
 10
10.6961607585
 20
7.1857721514
 30
0.0
 10
10.6993028677
 20
7.1816947126
 30
0.0
  0
LINE
  5
2F9
100
AcDbEntity
  8
0
100
AcDbLine
 62
7
  6
CONTINUOUS
 10
10.7596795971
 20
7.1816947126
 11
10.7332584313
 21
7.2312803822
  0
SPLINE
  5
2FA
100
AcDbEntity
  8
0
100
AcDbSpline
 62
7
  6
CONTINUOUS
 70
0
 71
3
 72
11
 73
7
 74
0
 42
0.0000001
 43
0.0000001
 44
0.0000000001
 40
0.0
 40
0.0
 40
0.0
 40
0.0
 40
0.249786147
 40
0.4995998839
 40
0.7495959183
 40
1.0
 40
1.0
 40
1.0
 40
1.0
 10
10.7332584313
 20
7.2312803822
 30
0.0
 10
10.7357438538
 20
7.2271012409
 30
0.0
 10
10.7407509961
 20
7.2187638494
 30
0.0
 10
10.7483809013
 20
7.2063256329
 30
0.0
 10
10.7561473602
 20
7.1939579625
 30
0.0
 10
10.761427164
 20
7.1857717384
 30
0.0
 10
10.7640987796
 20
7.1816947126
 30
0.0
  0
LINE
  5
2FB
100
AcDbEntity
  8
0
100
AcDbLine
 62
7
  6
CONTINUOUS
 10
10.8427832653
 20
7.1816947126
 11
10.8252444483
 21
7.2312803822
  0
SPLINE
  5
2FC
100
AcDbEntity
  8
0
100
AcDbSpline
 62
7
  6
CONTINUOUS
 70
0
 71
3
 72
13
 73
9
 74
0
 42
0.0000001
 43
0.0000001
 44
0.0000000001
 40
0.0
 40
0.0
 40
0.0
 40
0.0
 40
0.2502755385
 40
0.3752908631
 40
0.5002462522
 40
0.6251654169
 40
0.7500742653
 40
1.0
 40
1.0
 40
1.0
 40
1.0
 10
10.8252444483
 20
7.2312803822
 30
0.0
 10
10.8270720585
 20
7.2271040446
 30
0.0
 10
10.8298395364
 20
7.2208533069
 30
0.0
 10
10.8335894769
 20
7.2125487846
 30
0.0
 10
10.8364320764
 20
7.2063399854
 30
0.0
 10
10.839309268
 20
7.2001492648
 30
0.0
 10
10.8431965122
 20
7.1919180426
 30
0.0
 10
10.8461750972
 20
7.1857740906
 30
0.0
 10
10.8481956363
 20
7.1816947126
 30
0.0
  0
SPLINE
  5
2FD
100
AcDbEntity
  8
0
100
AcDbSpline
 62
7
  6
CONTINUOUS
 70
0
 71
3
 72
13
 73
9
 74
0
 42
0.0000001
 43
0.0000001
 44
0.0000000001
 40
0.0
 40
0.0
 40
0.0
 40
0.0
 40
0.2473636755
 40
0.3717563867
 40
0.4965891251
 40
0.6218449281
 40
0.7475071009
 40
1.0
 40
1.0
 40
1.0
 40
1.0
 10
10.9398256606
 20
7.1816947126
 30
0.0
 10
10.9392807547
 20
7.1857933537
 30
0.0
 10
10.9384194396
 20
7.1919474883
 30
0.0
 10
10.937213165
 20
7.200159899
 30
0.0
 10
10.9362808538
 20
7.2063495801
 30
0.0
 10
10.9353263574
 20
7.2125573388
 30
0.0
 10
10.9340276309
 20
7.2208710711
 30
0.0
 10
10.9330333913
 20
7.2271132959
 30
0.0
 10
10.932364434
 20
7.2312803822
 30
0.0
  0
SPLINE
  5
2FE
100
AcDbEntity
  8
0
100
AcDbSpline
 62
7
  6
CONTINUOUS
 70
0
 71
3
 72
13
 73
9
 74
0
 42
0.0000001
 43
0.0000001
 44
0.0000000001
 40
0.0
 40
0.0
 40
0.0
 40
0.0
 40
0.2510867525
 40
0.3763213262
 40
0.5013646361
 40
0.6262331717
 40
0.7509454648
 40
1.0
 40
1.0
 40
1.0
 40
1.0
 10
10.932364434
 20
7.2312803822
 30
0.0
 10
10.9334103607
 20
7.2271079936
 30
0.0
 10
10.9350019847
 20
7.2208605072
 30
0.0
 10
10.9371797735
 20
7.212552041
 30
0.0
 10
10.9388403078
 20
7.2063434245
 30
0.0
 10
10.9405334266
 20
7.2001528741
 30
0.0
 10
10.9428380077
 20
7.1919272321
 30
0.0
 10
10.9446304681
 20
7.185779672
 30
0.0
 10
10.9458623762
 20
7.1816947126
 30
0.0
  0
SPLINE
  5
2FF
100
AcDbEntity
  8
0
100
AcDbSpline
 62
7
  6
CONTINUOUS
 70
0
 71
3
 72
13
 73
9
 74
0
 42
0.0000001
 43
0.0000001
 44
0.0000000001
 40
0.0
 40
0.0
 40
0.0
 40
0.0
 40
0.2480382385
 40
0.3725444674
 40
0.4973774164
 40
0.6225390465
 40
0.7480302002
 40
1.0
 40
1.0
 40
1.0
 40
1.0
 10
11.0441935044
 20
7.1816947126
 30
0.0
 10
11.0445507262
 20
7.1857872544
 30
0.0
 10
11.0450334698
 20
7.1919388686
 30
0.0
 10
11.0456004651
 20
7.2001570948
 30
0.0
 10
11.0459941859
 20
7.2063472422
 30
0.0
 10
11.0463595584
 20
7.212555454
 30
0.0
 10
11.0468152137
 20
7.220867615
 30
0.0
 10
11.0471238181
 20
7.2271116998
 30
0.0
 10
11.0473183383
 20
7.2312803822
 30
0.0
  0
SPLINE
  5
300
100
AcDbEntity
  8
0
100
AcDbSpline
 62
7
  6
CONTINUOUS
 70
0
 71
3
 72
13
 73
9
 74
0
 42
0.0000001
 43
0.0000001
 44
0.0000000001
 40
0.0
 40
0.0
 40
0.0
 40
0.0
 40
0.2519697998
 40
0.3774609535
 40
0.5026225835
 40
0.6274555325
 40
0.7519617615
 40
1.0
 40
1.0
 40
1.0
 40
1.0
 10
11.0473183383
 20
7.2312803822
 30
0.0
 10
11.0475128585
 20
7.2271116998
 30
0.0
 10
11.0478214629
 20
7.220867615
 30
0.0
 10
11.0482771182
 20
7.212555454
 30
0.0
 10
11.0486424907
 20
7.2063472422
 30
0.0
 10
11.0490362115
 20
7.2001570948
 30
0.0
 10
11.0496032068
 20
7.1919388686
 30
0.0
 10
11.0500859503
 20
7.1857872544
 30
0.0
 10
11.0504431722
 20
7.1816947126
 30
0.0
  0
SPLINE
  5
301
100
AcDbEntity
  8
0
100
AcDbSpline
 62
7
  6
CONTINUOUS
 70
0
 71
3
 72
13
 73
9
 74
0
 42
0.0000001
 43
0.0000001
 44
0.0000000001
 40
0.0
 40
0.0
 40
0.0
 40
0.0
 40
0.2490545351
 40
0.3737668283
 40
0.4986353638
 40
0.6236786737
 40
0.7489132475
 40
1.0
 40
1.0
 40
1.0
 40
1.0
 10
11.1487743004
 20
7.1816947126
 30
0.0
 10
11.1500062084
 20
7.185779672
 30
0.0
 10
11.1517986688
 20
7.1919272321
 30
0.0
 10
11.15410325
 20
7.2001528741
 30
0.0
 10
11.1557963688
 20
7.2063434245
 30
0.0
 10
11.157456903
 20
7.212552041
 30
0.0
 10
11.1596346919
 20
7.2208605072
 30
0.0
 10
11.1612263159
 20
7.2271079936
 30
0.0
 10
11.1622722426
 20
7.2312803822
 30
0.0
  0
SPLINE
  5
302
100
AcDbEntity
  8
0
100
AcDbSpline
 62
7
  6
CONTINUOUS
 70
0
 71
3
 72
13
 73
9
 74
0
 42
0.0000001
 43
0.0000001
 44
0.0000000001
 40
0.0
 40
0.0
 40
0.0
 40
0.0
 40
0.2524928991
 40
0.3781550718
 40
0.5034108748
 40
0.6282436131
 40
0.7526363245
 40
1.0
 40
1.0
 40
1.0
 40
1.0
 10
11.1622722426
 20
7.2312803822
 30
0.0
 10
11.1616032853
 20
7.2271132959
 30
0.0
 10
11.1606090457
 20
7.2208710711
 30
0.0
 10
11.1593103191
 20
7.2125573388
 30
0.0
 10
11.1583558227
 20
7.2063495801
 30
0.0
 10
11.1574235116
 20
7.200159899
 30
0.0
 10
11.156217237
 20
7.1919474883
 30
0.0
 10
11.1553559219
 20
7.1857933537
 30
0.0
 10
11.1548110159
 20
7.1816947126
 30
0.0
  0
SPLINE
  5
303
100
AcDbEntity
  8
0
100
AcDbSpline
 62
7
  6
CONTINUOUS
 70
0
 71
3
 72
13
 73
9
 74
0
 42
0.0000001
 43
0.0000001
 44
0.0000000001
 40
0.0
 40
0.0
 40
0.0
 40
0.0
 40
0.2499257346
 40
0.3748345831
 40
0.4997537477
 40
0.6247091368
 40
0.7497244614
 40
1.0
 40
1.0
 40
1.0
 40
1.0
 10
11.2464410402
 20
7.1816947126
 30
0.0
 10
11.2484615794
 20
7.1857740906
 30
0.0
 10
11.2514401643
 20
7.1919180426
 30
0.0
 10
11.2553274086
 20
7.2001492648
 30
0.0
 10
11.2582046002
 20
7.2063399854
 30
0.0
 10
11.2610471997
 20
7.2125487846
 30
0.0
 10
11.2647971402
 20
7.2208533069
 30
0.0
 10
11.267564618
 20
7.2271040446
 30
0.0
 10
11.2693922282
 20
7.2312803822
 30
0.0
  0
LINE
  5
304
100
AcDbEntity
  8
0
100
AcDbLine
 62
7
  6
CONTINUOUS
 10
11.2693922282
 20
7.2312803822
 11
11.2518534113
 21
7.1816947126
  0
SPLINE
  5
305
100
AcDbEntity
  8
0
100
AcDbSpline
 62
7
  6
CONTINUOUS
 70
0
 71
3
 72
11
 73
7
 74
0
 42
0.0000001
 43
0.0000001
 44
0.0000000001
 40
0.0
 40
0.0
 40
0.0
 40
0.0
 40
0.2504040816
 40
0.500400116
 40
0.750213853
 40
1.0
 40
1.0
 40
1.0
 40
1.0
 10
11.330537897
 20
7.1816947126
 30
0.0
 10
11.3332095126
 20
7.1857717384
 30
0.0
 10
11.3384893163
 20
7.1939579625
 30
0.0
 10
11.3462557752
 20
7.2063256329
 30
0.0
 10
11.3538856805
 20
7.2187638494
 30
0.0
 10
11.3588928227
 20
7.2271012409
 30
0.0
 10
11.3613782453
 20
7.2312803822
 30
0.0
  0
LINE
  5
306
100
AcDbEntity
  8
0
100
AcDbLine
 62
7
  6
CONTINUOUS
 10
11.3613782453
 20
7.2312803822
 11
11.3349570795
 21
7.1816947126
  0
SPLINE
  5
307
100
AcDbEntity
  8
0
100
AcDbSpline
 62
7
  6
CONTINUOUS
 70
0
 71
3
 72
11
 73
7
 74
0
 42
0.0000001
 43
0.0000001
 44
0.0000000001
 40
0.0
 40
0.0
 40
0.0
 40
0.0
 40
0.2504929185
 40
0.5005613372
 40
0.7503606575
 40
1.0
 40
1.0
 40
1.0
 40
1.0
 10
11.3953338089
 20
7.1816947126
 30
0.0
 10
11.3984759181
 20
7.1857721514
 30
0.0
 10
11.4047064161
 20
7.1939575034
 30
0.0
 10
11.4139187141
 20
7.2063234512
 30
0.0
 10
11.4230050119
 20
7.218760525
 30
0.0
 10
11.4289880461
 20
7.2270999446
 30
0.0
 10
11.4319615987
 20
7.2312803822
 30
0.0
  0
LINE
  5
308
100
AcDbEntity
  8
0
100
AcDbLine
 62
7
  6
CONTINUOUS
 10
11.4319615987
 20
7.2312803822
 11
11.3984586428
 21
7.1816947126
  0
SPLINE
  5
309
100
AcDbEntity
  8
0
100
AcDbSpline
 62
7
  6
CONTINUOUS
 70
0
 71
3
 72
15
 73
11
 74
0
 42
0.0000001
 43
0.0000001
 44
0.0000000001
 40
0.0
 40
0.0
 40
0.0
 40
0.0
 40
0.1087808561
 40
0.2236805767
 40
0.3440940652
 40
0.4692857785
 40
0.5984170728
 40
0.7305699288
 40
0.8647684198
 40
1.0
 40
1.0
 40
1.0
 40
1.0
 10
11.6181291615
 20
8.6403310875
 30
0.0
 10
11.618933367
 20
8.6418679459
 30
0.0
 10
11.6204528617
 20
8.6450995703
 30
0.0
 10
11.6224180993
 20
8.6502266624
 30
0.0
 10
11.6241159694
 20
8.6557227312
 30
0.0
 10
11.6255291915
 20
8.661532048
 30
0.0
 10
11.6266435515
 20
8.6675961607
 30
0.0
 10
11.6274477193
 20
8.6738537961
 30
0.0
 10
11.6279335264
 20
8.6802414188
 30
0.0
 10
11.628041713
 20
8.6845383904
 30
0.0
 10
11.628041713
 20
8.6866947126
 30
0.0
  0
SPLINE
  5
30A
100
AcDbEntity
  8
0
100
AcDbSpline
 62
7
  6
CONTINUOUS
 70
0
 71
3
 72
11
 73
7
 74
0
 42
0.0000001
 43
0.0000001
 44
0.0000000001
 40
0.0
 40
0.0
 40
0.0
 40
0.0
 40
0.245563998
 40
0.4949070132
 40
0.7468071048
 40
1.0
 40
1.0
 40
1.0
 40
1.0
 10
11.7598050238
 20
8.6639305225
 30
0.0
 10
11.7602327725
 20
8.6657602267
 30
0.0
 10
11.760982401
 20
8.6694749788
 30
0.0
 10
11.7617846129
 20
8.6751359573
 30
0.0
 10
11.7622686059
 20
8.6808914954
 30
0.0
 10
11.7623763575
 20
8.6847572982
 30
0.0
 10
11.7623763575
 20
8.6866947126
 30
0.0
  0
SPLINE
  5
30B
100
AcDbEntity
  8
0
100
AcDbSpline
 62
9
  6
CONTINUOUS
 70
0
 71
3
 72
8
 73
4
 74
0
 42
0.0000001
 43
0.0000001
 44
0.0000000001
 40
0.0
 40
0.0
 40
0.0
 40
0.0
 40
1.0
 40
1.0
 40
1.0
 40
1.0
 10
11.1628532062
 20
5.4185268855
 30
0.0
 10
11.1628534915
 20
5.4185313771
 30
0.0
 10
11.1628537768
 20
5.4185358686
 30
0.0
 10
11.1628540622
 20
5.4185403602
 30
0.0
  0
SPLINE
  5
30C
100
AcDbEntity
  8
0
100
AcDbSpline
 62
9
  6
CONTINUOUS
 70
0
 71
3
 72
15
 73
11
 74
0
 42
0.0000001
 43
0.0000001
 44
0.0000000001
 40
0.0
 40
0.0
 40
0.0
 40
0.0
 40
0.0957278706
 40
0.1999197675
 40
0.3125248307
 40
0.4334753936
 40
0.5627477767
 40
0.7003016966
 40
0.8460678381
 40
1.0
 40
1.0
 40
1.0
 40
1.0
 10
11.1628540622
 20
5.4185403602
 30
0.0
 10
11.1632454014
 20
5.4247009562
 30
0.0
 10
11.1640200128
 20
5.4375695819
 30
0.0
 10
11.1651224832
 20
5.4576926493
 30
0.0
 10
11.1662107922
 20
5.4794451704
 30
0.0
 10
11.1672793757
 20
5.5028177907
 30
0.0
 10
11.168321218
 20
5.5278019372
 30
0.0
 10
11.1693284368
 20
5.5543889573
 30
0.0
 10
11.1702916628
 20
5.5825687755
 30
0.0
 10
11.1708811796
 20
5.6018858822
 30
0.0
 10
11.1711663378
 20
5.6118081028
 30
0.0
  0
SPLINE
  5
30D
100
AcDbEntity
  8
0
100
AcDbSpline
 62
7
  6
CONTINUOUS
 70
0
 71
3
 72
27
 73
23
 74
0
 42
0.0000001
 43
0.0000001
 44
0.0000000001
 40
0.0
 40
0.0
 40
0.0
 40
0.0
 40
0.021081577
 40
0.0418374211
 40
0.0624207249
 40
0.0829873878
 40
0.1036919138
 40
0.1246834226
 40
0.1461021913
 40
0.1680770251
 40
0.2141122122
 40
0.2635846258
 40
0.3170400102
 40
0.3748409765
 40
0.4372019715
 40
0.5042206891
 40
0.5759030039
 40
0.6521820389
 40
0.7329300942
 40
0.8179687582
 40
0.9070781793
 40
1.0
 40
1.0
 40
1.0
 40
1.0
 10
10.6766136105
 20
6.9548549388
 30
0.0
 10
10.6769692937
 20
6.955068241
 30
0.0
 10
10.6776937
 20
6.9554616158
 30
0.0
 10
10.6788225463
 20
6.9559491522
 30
0.0
 10
10.6799818816
 20
6.9563278948
 30
0.0
 10
10.6811703032
 20
6.9565974142
 30
0.0
 10
10.6823864117
 20
6.9567575168
 30
0.0
 10
10.6836286607
 20
6.9568081558
 30
0.0
 10
10.6848955176
 20
6.9567494049
 30
0.0
 10
10.686641851
 20
6.9565220984
 30
0.0
 10
10.6888907924
 20
6.955949697
 30
0.0
 10
10.6916114731
 20
6.9548402302
 30
0.0
 10
10.6943825064
 20
6.9533036335
 30
0.0
 10
10.6971874636
 20
6.9513455571
 30
0.0
 10
10.7000086947
 20
6.9489721594
 30
0.0
 10
10.7028263087
 20
6.9461907099
 30
0.0
 10
10.7056187148
 20
6.9430099703
 30
0.0
 10
10.708362772
 20
6.9394404885
 30
0.0
 10
10.7110340907
 20
6.935494865
 30
0.0
 10
10.7136073707
 20
6.931187892
 30
0.0
 10
10.7160566284
 20
6.9265369827
 30
0.0
 10
10.717559693
 20
6.9232845528
 30
0.0
 10
10.7182853451
 20
6.9216066921
 30
0.0
  0
SPLINE
  5
30E
100
AcDbEntity
  8
0
100
AcDbSpline
 62
7
  6
CONTINUOUS
 70
0
 71
3
 72
19
 73
15
 74
0
 42
0.0000001
 43
0.0000001
 44
0.0000000001
 40
0.0
 40
0.0
 40
0.0
 40
0.0
 40
0.1343934675
 40
0.2656847369
 40
0.3940656842
 40
0.5197415164
 40
0.5816364134
 40
0.6429382168
 40
0.7036763739
 40
0.763881159
 40
0.8235836581
 40
0.8828157477
 40
0.9416100697
 40
1.0
 40
1.0
 40
1.0
 40
1.0
 10
11.5246206656
 20
8.4552638312
 30
0.0
 10
11.5218543452
 20
8.3990525219
 30
0.0
 10
11.5144298691
 20
8.2880119623
 30
0.0
 10
11.4972760983
 20
8.123845824
 30
0.0
 10
11.4742385732
 20
7.9640857239
 30
0.0
 10
11.450013552
 20
7.8339698168
 30
0.0
 10
11.4276581952
 20
7.7321695249
 30
0.0
 10
11.4095062037
 20
7.6573067878
 30
0.0
 10
11.3898843905
 20
7.5835480686
 30
0.0
 10
11.3687926311
 20
7.510893019
 30
0.0
 10
11.3462309056
 20
7.4393418308
 30
0.0
 10
11.3221991
 20
7.3688943903
 30
0.0
 10
11.2966973892
 20
7.2995513031
 30
0.0
 10
11.2786569856
 20
7.2539088846
 30
0.0
 10
11.2693922282
 20
7.2312803822
 30
0.0
  0
SPLINE
  5
30F
100
AcDbEntity
  8
0
100
AcDbSpline
 62
7
  6
CONTINUOUS
 70
0
 71
3
 72
23
 73
19
 74
0
 42
0.0000001
 43
0.0000001
 44
0.0000000001
 40
0.0
 40
0.0
 40
0.0
 40
0.0
 40
0.0688024002
 40
0.1367311251
 40
0.20379243
 40
0.2699928158
 40
0.3353390407
 40
0.3998381312
 40
0.4634973943
 40
0.5263244301
 40
0.5883271447
 40
0.6495137638
 40
0.7098928466
 40
0.7694733003
 40
0.8282643951
 40
0.8862757796
 40
0.9435174967
 40
1.0
 40
1.0
 40
1.0
 40
1.0
 10
11.2943882034
 20
8.4552638312
 30
0.0
 10
11.2936681972
 20
8.4269999846
 30
0.0
 10
11.2919796463
 20
8.3708373847
 30
0.0
 10
11.2886701899
 20
8.2871570166
 30
0.0
 10
11.2846003495
 20
8.2045805869
 30
0.0
 10
11.279770123
 20
8.1231081788
 30
0.0
 10
11.2741795047
 20
8.0427397583
 30
0.0
 10
11.2678284891
 20
7.9634753217
 30
0.0
 10
11.2607170696
 20
7.8853148571
 30
0.0
 10
11.2528452391
 20
7.8082583541
 30
0.0
 10
11.2442129895
 20
7.7323058021
 30
0.0
 10
11.2348203115
 20
7.6574571898
 30
0.0
 10
11.2246671952
 20
7.5837125071
 30
0.0
 10
11.2137536288
 20
7.511071739
 30
0.0
 10
11.2020796026
 20
7.439534888
 30
0.0
 10
11.1896450925
 20
7.3691018932
 30
0.0
 10
11.176450122
 20
7.2997729254
 30
0.0
 10
11.1670844694
 20
7.2539864343
 30
0.0
 10
11.1622722426
 20
7.2312803822
 30
0.0
  0
SPLINE
  5
310
100
AcDbEntity
  8
0
100
AcDbSpline
 62
7
  6
CONTINUOUS
 70
0
 71
3
 72
23
 73
19
 74
0
 42
0.0000001
 43
0.0000001
 44
0.0000000001
 40
0.0
 40
0.0
 40
0.0
 40
0.0
 40
0.0688024002
 40
0.1367311251
 40
0.20379243
 40
0.2699928158
 40
0.3353390407
 40
0.3998381312
 40
0.4634973943
 40
0.5263244301
 40
0.5883271447
 40
0.6495137638
 40
0.7098928466
 40
0.7694733003
 40
0.8282643951
 40
0.8862757796
 40
0.9435174967
 40
1.0
 40
1.0
 40
1.0
 40
1.0
 10
10.8002484731
 20
8.4552638312
 30
0.0
 10
10.8009684794
 20
8.4269999846
 30
0.0
 10
10.8026570303
 20
8.3708373847
 30
0.0
 10
10.8059664867
 20
8.2871570166
 30
0.0
 10
10.810036327
 20
8.2045805869
 30
0.0
 10
10.8148665536
 20
8.1231081788
 30
0.0
 10
10.8204571719
 20
8.0427397583
 30
0.0
 10
10.8268081875
 20
7.9634753217
 30
0.0
 10
10.8339196069
 20
7.8853148571
 30
0.0
 10
10.8417914374
 20
7.8082583541
 30
0.0
 10
10.8504236871
 20
7.7323058021
 30
0.0
 10
10.8598163651
 20
7.6574571898
 30
0.0
 10
10.8699694813
 20
7.5837125071
 30
0.0
 10
10.8808830478
 20
7.511071739
 30
0.0
 10
10.892557074
 20
7.439534888
 30
0.0
 10
10.9049915841
 20
7.3691018932
 30
0.0
 10
10.9181865546
 20
7.2997729254
 30
0.0
 10
10.9275522071
 20
7.2539864343
 30
0.0
 10
10.932364434
 20
7.2312803822
 30
0.0
  0
SPLINE
  5
311
100
AcDbEntity
  8
0
100
AcDbSpline
 62
7
  6
CONTINUOUS
 70
0
 71
3
 72
19
 73
15
 74
0
 42
0.0000001
 43
0.0000001
 44
0.0000000001
 40
0.0
 40
0.0
 40
0.0
 40
0.0
 40
0.1343934675
 40
0.2656847369
 40
0.3940656842
 40
0.5197415164
 40
0.5816364134
 40
0.6429382168
 40
0.7036763739
 40
0.763881159
 40
0.8235836581
 40
0.8828157477
 40
0.9416100697
 40
1.0
 40
1.0
 40
1.0
 40
1.0
 10
10.570016011
 20
8.4552638312
 30
0.0
 10
10.5727823314
 20
8.3990525219
 30
0.0
 10
10.5802068074
 20
8.2880119623
 30
0.0
 10
10.5973605783
 20
8.123845824
 30
0.0
 10
10.6203981034
 20
7.9640857239
 30
0.0
 10
10.6446231246
 20
7.8339698168
 30
0.0
 10
10.6669784813
 20
7.7321695249
 30
0.0
 10
10.6851304729
 20
7.6573067878
 30
0.0
 10
10.7047522861
 20
7.5835480686
 30
0.0
 10
10.7258440455
 20
7.510893019
 30
0.0
 10
10.748405771
 20
7.4393418308
 30
0.0
 10
10.7724375766
 20
7.3688943903
 30
0.0
 10
10.7979392874
 20
7.2995513031
 30
0.0
 10
10.8159796909
 20
7.2539088846
 30
0.0
 10
10.8252444483
 20
7.2312803822
 30
0.0
  0
SPLINE
  5
312
100
AcDbEntity
  8
0
100
AcDbSpline
 62
7
  6
CONTINUOUS
 70
0
 71
3
 72
31
 73
27
 74
0
 42
0.0000001
 43
0.0000001
 44
0.0000000001
 40
0.0
 40
0.0
 40
0.0
 40
0.0
 40
0.0285183053
 40
0.0566759055
 40
0.0845419936
 40
0.1121885247
 40
0.1396889563
 40
0.1671169645
 40
0.1945451726
 40
0.2220439643
 40
0.2496804159
 40
0.2775173806
 40
0.3056127511
 40
0.3340189326
 40
0.3919191727
 40
0.4515450708
 40
0.4820839169
 40
0.5131240419
 40
0.5446777246
 40
0.5767524898
 40
0.6424548883
 40
0.7102305655
 40
0.7800058688
 40
0.8516630633
 40
0.9250524773
 40
1.0
 40
1.0
 40
1.0
 40
1.0
 10
10.7391232873
 20
6.9458874978
 30
0.0
 10
10.739903196
 20
6.9465409787
 30
0.0
 10
10.741492493
 20
6.9477936215
 30
0.0
 10
10.743974173
 20
6.9495114691
 30
0.0
 10
10.7465332094
 20
6.9510526689
 30
0.0
 10
10.7491654481
 20
6.9524149565
 30
0.0
 10
10.7518666144
 20
6.9535964805
 30
0.0
 10
10.7546321391
 20
6.9545956481
 30
0.0
 10
10.7574572079
 20
6.9554111588
 30
0.0
 10
10.7603367506
 20
6.9560419848
 30
0.0
 10
10.7632654617
 20
6.9564873611
 30
0.0
 10
10.7662377582
 20
6.9567467875
 30
0.0
 10
10.769247953
 20
6.956819981
 30
0.0
 10
10.7733290118
 20
6.956668414
 30
0.0
 10
10.7785060307
 20
6.9560032563
 30
0.0
 10
10.7836459015
 20
6.9547346235
 30
0.0
 10
10.787749061
 20
6.9533638785
 30
0.0
 10
10.7908423515
 20
6.9521459717
 30
0.0
 10
10.7939188266
 20
6.9507481856
 30
0.0
 10
10.7980203486
 20
6.948630488
 30
0.0
 10
10.8030621867
 20
6.9455341308
 30
0.0
 10
10.8088649092
 20
6.9411679262
 30
0.0
 10
10.8144019007
 20
6.9361469843
 30
0.0
 10
10.8196031246
 20
6.9305034682
 30
0.0
 10
10.8243978822
 20
6.9242768625
 30
0.0
 10
10.8272503823
 20
6.9198093196
 30
0.0
 10
10.8285899001
 20
6.9174949934
 30
0.0
  0
SPLINE
  5
313
100
AcDbEntity
  8
0
100
AcDbSpline
 62
7
  6
CONTINUOUS
 70
0
 71
3
 72
11
 73
7
 74
0
 42
0.0000001
 43
0.0000001
 44
0.0000000001
 40
0.0
 40
0.0
 40
0.0
 40
0.0
 40
0.2506356024
 40
0.5006339046
 40
0.7503149495
 40
1.0
 40
1.0
 40
1.0
 40
1.0
 10
10.5700816906
 20
7.5664200394
 30
0.0
 10
10.5816919851
 20
7.5374965528
 30
0.0
 10
10.6059087974
 20
7.4801287052
 30
0.0
 10
10.6452494343
 20
7.3955046465
 30
0.0
 10
10.6875451114
 20
7.31245072
 30
0.0
 10
10.717700524
 20
7.2581497805
 30
0.0
 10
10.7332584313
 20
7.2312803822
 30
0.0
  0
SPLINE
  5
314
100
AcDbEntity
  8
0
100
AcDbSpline
 62
7
  6
CONTINUOUS
 70
0
 71
3
 72
11
 73
7
 74
0
 42
0.0000001
 43
0.0000001
 44
0.0000000001
 40
0.0
 40
0.0
 40
0.0
 40
0.0
 40
0.2531914976
 40
0.5050909704
 40
0.7544338121
 40
1.0
 40
1.0
 40
1.0
 40
1.0
 10
11.7623763575
 20
8.6866947126
 30
0.0
 10
11.7623763575
 20
8.688632143
 30
0.0
 10
11.7622686041
 20
8.6924979836
 30
0.0
 10
11.7617846007
 20
8.6982535838
 30
0.0
 10
11.7609823693
 20
8.70391465
 30
0.0
 10
11.7602327156
 20
8.7076294662
 30
0.0
 10
11.7598049496
 20
8.70945921
 30
0.0
  0
SPLINE
  5
315
100
AcDbEntity
  8
0
100
AcDbSpline
 62
7
  6
CONTINUOUS
 70
0
 71
3
 72
11
 73
7
 74
0
 42
0.0000001
 43
0.0000001
 44
0.0000000001
 40
0.0
 40
0.0
 40
0.0
 40
0.0
 40
0.2506356434
 40
0.5006339493
 40
0.7503149756
 40
1.0
 40
1.0
 40
1.0
 40
1.0
 10
11.5245582486
 20
7.5664281674
 30
0.0
 10
11.5129477756
 20
7.5375039587
 30
0.0
 10
11.4887305599
 20
7.480134688
 30
0.0
 10
11.449389175
 20
7.3955085566
 30
0.0
 10
11.4070926115
 20
7.312452631
 30
0.0
 10
11.3769365161
 20
7.2581504084
 30
0.0
 10
11.3613782453
 20
7.2312803822
 30
0.0
  0
SPLINE
  5
316
100
AcDbEntity
  8
0
100
AcDbSpline
 62
7
  6
CONTINUOUS
 70
0
 71
3
 72
11
 73
7
 74
0
 42
0.0000001
 43
0.0000001
 44
0.0000000001
 40
0.0
 40
0.0
 40
0.0
 40
0.0
 40
0.2547240065
 40
0.5075371426
 40
0.7565646335
 40
1.0
 40
1.0
 40
1.0
 40
1.0
 10
11.628041713
 20
8.6866947126
 30
0.0
 10
11.628041713
 20
8.688831895
 30
0.0
 10
11.6279354303
 20
8.6930909958
 30
0.0
 10
11.6274581363
 20
8.6994233953
 30
0.0
 10
11.6266680073
 20
8.7056290206
 30
0.0
 10
11.625927718
 20
8.70969652
 30
0.0
 10
11.6255047475
 20
8.7116947126
 30
0.0
  0
SPLINE
  5
317
100
AcDbEntity
  8
0
100
AcDbSpline
 62
7
  6
CONTINUOUS
 70
0
 71
3
 72
11
 73
7
 74
0
 42
0.0000001
 43
0.0000001
 44
0.0000000001
 40
0.0
 40
0.0
 40
0.0
 40
0.0
 40
0.2554456909
 40
0.5086932288
 40
0.7575782766
 40
1.0
 40
1.0
 40
1.0
 40
1.0
 10
11.4824039485
 20
8.6866947126
 30
0.0
 10
11.4824039485
 20
8.688831601
 30
0.0
 10
11.4823244216
 20
8.693087421
 30
0.0
 10
11.4819672365
 20
8.6994162322
 30
0.0
 10
11.4813759693
 20
8.7056180922
 30
0.0
 10
11.4808208633
 20
8.7096918053
 30
0.0
 10
11.4805032205
 20
8.7116947126
 30
0.0
  0
SPLINE
  5
318
100
AcDbEntity
  8
0
100
AcDbSpline
 62
7
  6
CONTINUOUS
 70
0
 71
3
 72
53
 73
49
 74
0
 42
0.0000001
 43
0.0000001
 44
0.0000000001
 40
0.0
 40
0.0
 40
0.0
 40
0.0
 40
0.0227451977
 40
0.0454900386
 40
0.0682290826
 40
0.0909419689
 40
0.1135929846
 40
0.136146522
 40
0.147379419
 40
0.158576016
 40
0.1808390631
 40
0.1919141114
 40
0.2029538584
 40
0.2139701072
 40
0.2249831223
 40
0.2360246357
 40
0.2471404198
 40
0.2583915246
 40
0.2698534566
 40
0.2816122463
 40
0.2937571172
 40
0.3063709366
 40
0.319517706
 40
0.3332345459
 40
0.3475336294
 40
0.3624059394
 40
0.3778267052
 40
0.393761245
 40
0.4101699052
 40
0.4270116033
 40
0.4442466084
 40
0.461838035
 40
0.4797516804
 40
0.4979574591
 40
0.5164281879
 40
0.5351398727
 40
0.5540713901
 40
0.5925203817
 40
0.6316451689
 40
0.6514254735
 40
0.6713338337
 40
0.7114921778
 40
0.7520419842
 40
0.7929148392
 40
0.8340484338
 40
0.8753835963
 40
0.9168612494
 40
1.0
 40
1.0
 40
1.0
 40
1.0
 10
11.8809011387
 20
8.4806869824
 30
0.0
 10
11.8810111282
 20
8.4823007328
 30
0.0
 10
11.8811168342
 20
8.4855371741
 30
0.0
 10
11.8809297631
 20
8.4903895509
 30
0.0
 10
11.8803919287
 20
8.495213787
 30
0.0
 10
11.8794949249
 20
8.4999779795
 30
0.0
 10
11.8782235247
 20
8.5046430244
 30
0.0
 10
11.8768374649
 20
8.5084158835
 30
0.0
 10
11.8755241967
 20
8.5113341241
 30
0.0
 10
11.8740765211
 20
8.5141645359
 30
0.0
 10
11.8724104599
 20
8.5168676966
 30
0.0
 10
11.870512069
 20
8.5193910338
 30
0.0
 10
11.8689710641
 20
8.5211759091
 30
0.0
 10
11.8673064993
 20
8.5228403075
 30
0.0
 10
11.8655138297
 20
8.5243667705
 30
0.0
 10
11.8635890818
 20
8.5257359969
 30
0.0
 10
11.8615292139
 20
8.5269272723
 30
0.0
 10
11.8593328675
 20
8.5279191263
 30
0.0
 10
11.8570011652
 20
8.5286906038
 30
0.0
 10
11.8545383188
 20
8.5292229908
 30
0.0
 10
11.8519517597
 20
8.5295019607
 30
0.0
 10
11.849251909
 20
8.5295186488
 30
0.0
 10
11.8464515749
 20
8.5292733162
 30
0.0
 10
11.8435640104
 20
8.5287752583
 30
0.0
 10
11.8406019835
 20
8.5280385467
 30
0.0
 10
11.8375770363
 20
8.5270810183
 30
0.0
 10
11.8344990967
 20
8.5259225619
 30
0.0
 10
11.8313763659
 20
8.5245837428
 30
0.0
 10
11.8282153807
 20
8.5230847305
 30
0.0
 10
11.8250211522
 20
8.5214446198
 30
0.0
 10
11.8217973677
 20
8.5196810105
 30
0.0
 10
11.8185467543
 20
8.5178096794
 30
0.0
 10
11.8152710808
 20
8.515844891
 30
0.0
 10
11.8119716451
 20
8.5137990773
 30
0.0
 10
11.8086492023
 20
8.5116832875
 30
0.0
 10
11.8053041782
 20
8.5095072734
 30
0.0
 10
11.8007912581
 20
8.5065214689
 30
0.0
 10
11.7951021318
 20
8.5026829711
 30
0.0
 10
11.7893883135
 20
8.4987736033
 30
0.0
 10
11.7847673928
 20
8.4956018686
 30
0.0
 10
11.7800858095
 20
8.4923886344
 30
0.0
 10
11.7741814487
 20
8.488346892
 30
0.0
 10
11.7670251335
 20
8.4834948362
 30
0.0
 10
11.7597791806
 20
8.4786516713
 30
0.0
 10
11.752446215
 20
8.4738386819
 30
0.0
 10
11.7450300086
 20
8.4690747773
 30
0.0
 10
11.7350303793
 20
8.4628070682
 30
0.0
 10
11.727435223
 20
8.4582385109
 30
0.0
 10
11.7223257629
 20
8.4552638312
 30
0.0
  0
SPLINE
  5
319
100
AcDbEntity
  8
0
100
AcDbSpline
 62
7
  6
CONTINUOUS
 70
0
 71
3
 72
11
 73
7
 74
0
 42
0.0000001
 43
0.0000001
 44
0.0000000001
 40
0.0
 40
0.0
 40
0.0
 40
0.0
 40
0.2559894793
 40
0.5095651238
 40
0.7583439283
 40
1.0
 40
1.0
 40
1.0
 40
1.0
 10
11.3282977375
 20
8.6866947126
 30
0.0
 10
11.3282977375
 20
8.6888313817
 30
0.0
 10
11.3282464276
 20
8.6930847522
 30
0.0
 10
11.3280159555
 20
8.6994108514
 30
0.0
 10
11.3276344618
 20
8.7056098047
 30
0.0
 10
11.3272757487
 20
8.7096881767
 30
0.0
 10
11.3270702425
 20
8.7116947126
 30
0.0
  0
SPLINE
  5
31A
100
AcDbEntity
  8
0
100
AcDbSpline
 62
7
  6
CONTINUOUS
 70
0
 71
3
 72
50
 73
46
 74
0
 42
0.0000001
 43
0.0000001
 44
0.0000000001
 40
0.0
 40
0.0
 40
0.0
 40
0.0
 40
0.0230560094
 40
0.0451612375
 40
0.0558235998
 40
0.0662032393
 40
0.076285626
 40
0.0860564069
 40
0.0955052045
 40
0.1046260052
 40
0.113421984
 40
0.1219081576
 40
0.1301173825
 40
0.1381049568
 40
0.1459528352
 40
0.1537706044
 40
0.1616909433
 40
0.1698591375
 40
0.1784189082
 40
0.187496731
 40
0.1971891278
 40
0.207558126
 40
0.2186356861
 40
0.2304286043
 40
0.2429244909
 40
0.2560974547
 40
0.2699133108
 40
0.2843333723
 40
0.2993169797
 40
0.3148245264
 40
0.330817086
 40
0.3472592808
 40
0.3813610277
 40
0.4168988178
 40
0.4536837428
 40
0.4915640256
 40
0.5304152065
 40
0.5701304831
 40
0.610614956
 40
0.6517914175
 40
0.6935959746
 40
0.7359749818
 40
0.8222745173
 40
0.9103749253
 40
1.0
 40
1.0
 40
1.0
 40
1.0
 10
11.9936138579
 20
8.5074790647
 30
0.0
 10
11.9936852585
 20
8.5086582574
 30
0.0
 10
11.9937505231
 20
8.5109733718
 30
0.0
 10
11.993621096
 20
8.5138339828
 30
0.0
 10
11.993379299
 20
8.5160321797
 30
0.0
 10
11.9931315565
 20
8.5176082243
 30
0.0
 10
11.9928135003
 20
8.5191250487
 30
0.0
 10
11.9924229001
 20
8.520575649
 30
0.0
 10
11.9919575525
 20
8.5219523171
 30
0.0
 10
11.9914148909
 20
8.5232466606
 30
0.0
 10
11.9907923289
 20
8.5244496166
 30
0.0
 10
11.9900869985
 20
8.5255514113
 30
0.0
 10
11.9892960912
 20
8.526541643
 30
0.0
 10
11.9884168697
 20
8.5274092231
 30
0.0
 10
11.9874472775
 20
8.5281426372
 30
0.0
 10
11.9863864769
 20
8.5287304105
 30
0.0
 10
11.9852353792
 20
8.5291620494
 30
0.0
 10
11.9839966839
 20
8.5294295452
 30
0.0
 10
11.9826742068
 20
8.5295277692
 30
0.0
 10
11.9812724904
 20
8.5294556463
 30
0.0
 10
11.9797962252
 20
8.5292160842
 30
0.0
 10
11.9782499592
 20
8.5288150457
 30
0.0
 10
11.9766383197
 20
8.5282599264
 30
0.0
 10
11.9749658667
 20
8.527559606
 30
0.0
 10
11.9732370309
 20
8.5267238781
 30
0.0
 10
11.971455973
 20
8.5257630972
 30
0.0
 10
11.9696264606
 20
8.5246878078
 30
0.0
 10
11.967751887
 20
8.523508318
 30
0.0
 10
11.9658351187
 20
8.5222346187
 30
0.0
 10
11.9638787079
 20
8.5208760053
 30
0.0
 10
11.9618846365
 20
8.5194412731
 30
0.0
 10
11.9591446763
 20
8.5174124864
 30
0.0
 10
11.9556435358
 20
8.5147294816
 30
0.0
 10
11.9513601271
 20
8.5113547911
 30
0.0
 10
11.9469507494
 20
8.5078274666
 30
0.0
 10
11.9424194787
 20
8.5041808236
 30
0.0
 10
11.9377691984
 20
8.5004425694
 30
0.0
 10
11.9330020535
 20
8.4966367461
 30
0.0
 10
11.9281191397
 20
8.4927850963
 30
0.0
 10
11.9231220334
 20
8.4889056246
 30
0.0
 10
11.9180119449
 20
8.4850137712
 30
0.0
 10
11.9110073889
 20
8.4797942418
 30
0.0
 10
11.9019855618
 20
8.4733128421
 30
0.0
 10
11.8907932401
 20
8.4657110232
 30
0.0
 10
11.8831141624
 20
8.4608133113
 30
0.0
 10
11.8792046818
 20
8.4584040263
 30
0.0
  0
SPLINE
  5
31B
100
AcDbEntity
  8
0
100
AcDbSpline
 62
7
  6
CONTINUOUS
 70
0
 71
3
 72
45
 73
41
 74
0
 42
0.0000001
 43
0.0000001
 44
0.0000000001
 40
0.0
 40
0.0
 40
0.0
 40
0.0
 40
0.0068092902
 40
0.0129042613
 40
0.0182856234
 40
0.0229783039
 40
0.0250859919
 40
0.0270501708
 40
0.0306184404
 40
0.0322824038
 40
0.0339084271
 40
0.0355347196
 40
0.0372003921
 40
0.040785876
 40
0.0449122811
 40
0.0497314443
 40
0.0553268158
 40
0.0617381264
 40
0.06897798
 40
0.0770406499
 40
0.0859090031
 40
0.0955580848
 40
0.1059580851
 40
0.1170764568
 40
0.1288788008
 40
0.15439758
 40
0.1822452447
 40
0.2121716684
 40
0.2439539
 40
0.2773964518
 40
0.3123303644
 40
0.3486131201
 40
0.3861209847
 40
0.4644168045
 40
0.5465493364
 40
0.631980785
 40
0.7203001178
 40
0.8112126156
 40
0.904500479
 40
1.0
 40
1.0
 40
1.0
 40
1.0
 10
12.0521726618
 20
8.5266551138
 30
0.0
 10
12.0521831248
 20
8.5268531277
 30
0.0
 10
12.0521931813
 20
8.5272290355
 30
0.0
 10
12.0521707855
 20
8.5277615954
 30
0.0
 10
12.0521092459
 20
8.5282291313
 30
0.0
 10
12.0520216919
 20
8.5285742336
 30
0.0
 10
12.0519283023
 20
8.5288121753
 30
0.0
 10
12.0518276729
 20
8.5290107757
 30
0.0
 10
12.0517025969
 20
8.5291822791
 30
0.0
 10
12.0515521512
 20
8.5293146661
 30
0.0
 10
12.0514309618
 20
8.5293920018
 30
0.0
 10
12.0512990024
 20
8.5294491888
 30
0.0
 10
12.0511043765
 20
8.5294994668
 30
0.0
 10
12.0508278891
 20
8.5295071858
 30
0.0
 10
12.0504682387
 20
8.5294341019
 30
0.0
 10
12.0500712138
 20
8.5292830414
 30
0.0
 10
12.0496362176
 20
8.5290558065
 30
0.0
 10
12.0491631889
 20
8.5287542418
 30
0.0
 10
12.048652819
 20
8.5283803917
 30
0.0
 10
12.0481059988
 20
8.5279368551
 30
0.0
 10
12.0475238615
 20
8.5274265023
 30
0.0
 10
12.0469075465
 20
8.5268525335
 30
0.0
 10
12.0462582491
 20
8.5262182648
 30
0.0
 10
12.0455771198
 20
8.5255271296
 30
0.0
 10
12.0446023583
 20
8.52450747
 30
0.0
 10
12.0433163416
 20
8.5231117118
 30
0.0
 10
12.0416990423
 20
8.5213040265
 30
0.0
 10
12.0399766221
 20
8.519345801
 30
0.0
 10
12.038154673
 20
8.5172581872
 30
0.0
 10
12.0362378357
 20
8.5150598406
 30
0.0
 10
12.0342298103
 20
8.5127671276
 30
0.0
 10
12.0321337448
 20
8.5103941757
 30
0.0
 10
12.0291821999
 20
8.5070921797
 30
0.0
 10
12.0252936447
 20
8.5028370525
 30
0.0
 10
12.0203667572
 20
8.4976416664
 30
0.0
 10
12.0151240165
 20
8.49234568
 30
0.0
 10
12.0095730323
 20
8.4869979317
 30
0.0
 10
12.003719893
 20
8.4816375314
 30
0.0
 10
11.9975689933
 20
8.4762968513
 30
0.0
 10
11.9933199207
 20
8.4728071306
 30
0.0
 10
11.9911464016
 20
8.471072265
 30
0.0
  0
SPLINE
  5
31C
100
AcDbEntity
  8
0
100
AcDbSpline
 62
9
  6
CONTINUOUS
 70
0
 71
3
 72
46
 73
42
 74
0
 42
0.0000001
 43
0.0000001
 44
0.0000000001
 40
0.0
 40
0.0
 40
0.0
 40
0.0
 40
0.0006912769
 40
0.0014114097
 40
0.0021785846
 40
0.0030079207
 40
0.0039114425
 40
0.0048984854
 40
0.0059762336
 40
0.0071502173
 40
0.0084247007
 40
0.0098030093
 40
0.0128806125
 40
0.0163990559
 40
0.0203685275
 40
0.024796129
 40
0.0296870137
 40
0.0350450062
 40
0.0408730152
 40
0.04717326
 40
0.0539474087
 40
0.061196765
 40
0.0689223629
 40
0.0858052944
 40
0.1046014787
 40
0.1253143276
 40
0.1479461615
 40
0.1724980971
 40
0.1989699251
 40
0.2273608635
 40
0.2576697168
 40
0.2898940714
 40
0.3240299689
 40
0.3600741757
 40
0.398024869
 40
0.4796300184
 40
0.5687926015
 40
0.6654548368
 40
0.7695923225
 40
0.8811306028
 40
1.0
 40
1.0
 40
1.0
 40
1.0
 10
10.9353558285
 20
5.3370644275
 30
0.0
 10
10.9352895829
 20
5.3370702055
 30
0.0
 10
10.9351551284
 20
5.3370942034
 30
0.0
 10
10.9349571311
 20
5.3371654165
 30
0.0
 10
10.9347604779
 20
5.3372718165
 30
0.0
 10
10.9345651416
 20
5.3374130693
 30
0.0
 10
10.9343709031
 20
5.3375890159
 30
0.0
 10
10.9341775938
 20
5.3377996191
 30
0.0
 10
10.9339850833
 20
5.3380449059
 30
0.0
 10
10.9337932953
 20
5.3383249255
 30
0.0
 10
10.933602162
 20
5.3386397157
 30
0.0
 10
10.933338383
 20
5.3391239259
 30
0.0
 10
10.9330134104
 20
5.339819566
 30
0.0
 10
10.9326386199
 20
5.3407647219
 30
0.0
 10
10.9322659709
 20
5.3418490206
 30
0.0
 10
10.931895462
 20
5.3430726126
 30
0.0
 10
10.931527105
 20
5.3444356908
 30
0.0
 10
10.9311609003
 20
5.3459383531
 30
0.0
 10
10.9307968479
 20
5.3475806729
 30
0.0
 10
10.9304349191
 20
5.3493626803
 30
0.0
 10
10.930075031
 20
5.351284371
 30
0.0
 10
10.9297170903
 20
5.3533457243
 30
0.0
 10
10.9292277308
 20
5.3563710136
 30
0.0
 10
10.9286252624
 20
5.3605028794
 30
0.0
 10
10.9279280825
 20
5.3658826628
 30
0.0
 10
10.9272366298
 20
5.3718202928
 30
0.0
 10
10.9265500143
 20
5.3783154886
 30
0.0
 10
10.9258673318
 20
5.3853678695
 30
0.0
 10
10.9251872843
 20
5.3929768628
 30
0.0
 10
10.9245088634
 20
5.4011418208
 30
0.0
 10
10.9238313674
 20
5.4098619888
 30
0.0
 10
10.9231541193
 20
5.419136368
 30
0.0
 10
10.9224765912
 20
5.4289638189
 30
0.0
 10
10.9217982886
 20
5.4393432963
 30
0.0
 10
10.9208698545
 20
5.4542823776
 30
0.0
 10
10.9197116527
 20
5.4743266268
 30
0.0
 10
10.9183460277
 20
5.5000157407
 30
0.0
 10
10.9169742427
 20
5.5278748542
 30
0.0
 10
10.9155967553
 20
5.5578885332
 30
0.0
 10
10.9142132997
 20
5.590040254
 30
0.0
 10
10.9133162077
 20
5.6121860872
 30
0.0
 10
10.9128656417
 20
5.6236117994
 30
0.0
  0
SPLINE
  5
31D
100
AcDbEntity
  8
0
100
AcDbSpline
 62
7
  6
CONTINUOUS
 70
0
 71
3
 72
11
 73
7
 74
0
 42
0.0000001
 43
0.0000001
 44
0.0000000001
 40
0.0
 40
0.0
 40
0.0
 40
0.0
 40
0.2561791941
 40
0.5098694657
 40
0.7586114256
 40
1.0
 40
1.0
 40
1.0
 40
1.0
 10
10.8456352268
 20
8.6866947126
 30
0.0
 10
10.8456352268
 20
8.6888313056
 30
0.0
 10
10.8456720442
 20
8.6930838261
 30
0.0
 10
10.8458374241
 20
8.6994089775
 30
0.0
 10
10.8461111673
 20
8.7056069028
 30
0.0
 10
10.846368702
 20
8.709686895
 30
0.0
 10
10.8465163057
 20
8.7116947126
 30
0.0
  0
SPLINE
  5
31E
100
AcDbEntity
  8
0
100
AcDbSpline
 62
7
  6
CONTINUOUS
 70
0
 71
3
 72
11
 73
7
 74
0
 42
0.0000001
 43
0.0000001
 44
0.0000000001
 40
0.0
 40
0.0
 40
0.0
 40
0.0
 40
0.2557431682
 40
0.509170112
 40
0.7579969235
 40
1.0
 40
1.0
 40
1.0
 40
1.0
 10
10.6884115547
 20
8.6866947126
 30
0.0
 10
10.6884115547
 20
8.6888314808
 30
0.0
 10
10.6884771231
 20
8.6930859584
 30
0.0
 10
10.6887716298
 20
8.6994132868
 30
0.0
 10
10.6892591297
 20
8.7056135642
 30
0.0
 10
10.6897172
 20
8.7096898285
 30
0.0
 10
10.6899794856
 20
8.7116947126
 30
0.0
  0
SPLINE
  5
31F
100
AcDbEntity
  8
0
100
AcDbSpline
 62
9
  6
CONTINUOUS
 70
0
 71
3
 72
15
 73
11
 74
0
 42
0.0000001
 43
0.0000001
 44
0.0000000001
 40
0.0
 40
0.0
 40
0.0
 40
0.0
 40
0.0947375185
 40
0.1982157838
 40
0.3103965737
 40
0.4312169112
 40
0.5606473959
 40
0.6986450815
 40
0.8451225021
 40
1.0
 40
1.0
 40
1.0
 40
1.0
 10
10.9317392896
 20
5.4188175076
 30
0.0
 10
10.9312972556
 20
5.4250982878
 30
0.0
 10
10.9304112016
 20
5.4382420716
 30
0.0
 10
10.929115354
 20
5.458830533
 30
0.0
 10
10.9277902622
 20
5.4811539141
 30
0.0
 10
10.9264320617
 20
5.5052030535
 30
0.0
 10
10.9250366856
 20
5.530968558
 30
0.0
 10
10.923599121
 20
5.5584394103
 30
0.0
 10
10.922113709
 20
5.5876012645
 30
0.0
 10
10.9211153937
 20
5.607604611
 30
0.0
 10
10.9206058902
 20
5.6178852506
 30
0.0
  0
SPLINE
  5
320
100
AcDbEntity
  8
0
100
AcDbSpline
 62
7
  6
CONTINUOUS
 70
0
 71
3
 72
11
 73
7
 74
0
 42
0.0000001
 43
0.0000001
 44
0.0000000001
 40
0.0
 40
0.0
 40
0.0
 40
0.0
 40
0.2551035237
 40
0.5081449535
 40
0.7570973324
 40
1.0
 40
1.0
 40
1.0
 40
1.0
 10
10.5381735948
 20
8.6866947126
 30
0.0
 10
10.5381735948
 20
8.68883174
 30
0.0
 10
10.5382667147
 20
8.6930891112
 30
0.0
 10
10.5386849262
 20
8.6994196253
 30
0.0
 10
10.5393772313
 20
8.7056232837
 30
0.0
 10
10.5400265661
 20
8.7096940548
 30
0.0
 10
10.5403978598
 20
8.7116947126
 30
0.0
  0
SPLINE
  5
321
100
AcDbEntity
  8
0
100
AcDbSpline
 62
7
  6
CONTINUOUS
 70
0
 71
3
 72
11
 73
7
 74
0
 42
0.0000001
 43
0.0000001
 44
0.0000000001
 40
0.0
 40
0.0
 40
0.0
 40
0.0
 40
0.2543151442
 40
0.5068827029
 40
0.7559916191
 40
1.0
 40
1.0
 40
1.0
 40
1.0
 10
10.3978455583
 20
8.6866947126
 30
0.0
 10
10.3978455583
 20
8.6888320631
 30
0.0
 10
10.39796451
 20
8.6930930379
 30
0.0
 10
10.3984986562
 20
8.6994274647
 30
0.0
 10
10.3993829181
 20
8.7056351761
 30
0.0
 10
10.4002104408
 20
8.7096991413
 30
0.0
 10
10.4006828645
 20
8.7116947126
 30
0.0
  0
SPLINE
  5
322
100
AcDbEntity
  8
0
100
AcDbSpline
 62
7
  6
CONTINUOUS
 70
0
 71
3
 72
23
 73
19
 74
0
 42
0.0000001
 43
0.0000001
 44
0.0000000001
 40
0.0
 40
0.0
 40
0.0
 40
0.0
 40
0.0627621608
 40
0.1255112656
 40
0.1882356179
 40
0.2509243875
 40
0.3135688323
 40
0.3761626609
 40
0.4387024174
 40
0.5011877304
 40
0.5636214547
 40
0.6260095777
 40
0.6883610692
 40
0.7506871732
 40
0.8130002391
 40
0.8753139939
 40
0.9376424252
 40
1.0
 40
1.0
 40
1.0
 40
1.0
 10
11.0473183383
 20
6.784099389
 30
0.0
 10
11.0491956663
 20
6.784099389
 30
0.0
 10
11.0529508254
 20
6.7842071759
 30
0.0
 10
11.0585633493
 20
6.7846918898
 30
0.0
 10
11.0641367022
 20
6.7854985908
 30
0.0
 10
11.0696510059
 20
6.7866255343
 30
0.0
 10
11.0750867209
 20
6.7880702541
 30
0.0
 10
11.0804242833
 20
6.7898295229
 30
0.0
 10
11.085644214
 20
6.7918993271
 30
0.0
 10
11.0907271118
 20
6.7942748003
 30
0.0
 10
11.0956536708
 20
6.7969501791
 30
0.0
 10
11.1004047145
 20
6.7999187144
 30
0.0
 10
11.1049612155
 20
6.8031725938
 30
0.0
 10
11.1093043287
 20
6.8067028384
 30
0.0
 10
11.1134154473
 20
6.8104991598
 30
0.0
 10
11.1172763568
 20
6.8145499812
 30
0.0
 10
11.1208691142
 20
6.8188419368
 30
0.0
 10
11.1230738383
 20
6.8218539879
 30
0.0
 10
11.1241255517
 20
6.8233944319
 30
0.0
  0
SPLINE
  5
323
100
AcDbEntity
  8
0
100
AcDbSpline
 62
7
  6
CONTINUOUS
 70
0
 71
3
 72
23
 73
19
 74
0
 42
0.0000001
 43
0.0000001
 44
0.0000000001
 40
0.0
 40
0.0
 40
0.0
 40
0.0
 40
0.0623575799
 40
0.1246860406
 40
0.1869997856
 40
0.2493129631
 40
0.3116393736
 40
0.3739911586
 40
0.4363794413
 40
0.4988132503
 40
0.5612985794
 40
0.6238382964
 40
0.6864320425
 40
0.7490763659
 40
0.8117649813
 40
0.8744891491
 40
0.9372380642
 40
1.0
 40
1.0
 40
1.0
 40
1.0
 10
10.9705111249
 20
6.8233944319
 30
0.0
 10
10.9715628383
 20
6.8218539878
 30
0.0
 10
10.9737675631
 20
6.8188419359
 30
0.0
 10
10.9773603209
 20
6.8145499797
 30
0.0
 10
10.9812212334
 20
6.8104991556
 30
0.0
 10
10.9853323612
 20
6.8067028262
 30
0.0
 10
10.989675492
 20
6.8031725694
 30
0.0
 10
10.9942320134
 20
6.7999186793
 30
0.0
 10
10.9989830734
 20
6.7969501397
 30
0.0
 10
11.0039096417
 20
6.7942747616
 30
0.0
 10
11.0089925431
 20
6.791899292
 30
0.0
 10
11.0142124731
 20
6.7898294944
 30
0.0
 10
11.0195500299
 20
6.788070232
 30
0.0
 10
11.0249857356
 20
6.7866255194
 30
0.0
 10
11.0305000265
 20
6.7854985819
 30
0.0
 10
11.0360733641
 20
6.7846918858
 30
0.0
 10
11.0416858704
 20
6.7842071752
 30
0.0
 10
11.045441017
 20
6.784099389
 30
0.0
 10
11.0473183383
 20
6.784099389
 30
0.0
  0
SPLINE
  5
324
100
AcDbEntity
  8
0
100
AcDbSpline
 62
9
  6
CONTINUOUS
 70
0
 71
3
 72
15
 73
11
 74
0
 42
0.0000001
 43
0.0000001
 44
0.0000000001
 40
0.0
 40
0.0
 40
0.0
 40
0.0
 40
0.1217151664
 40
0.2442855479
 40
0.3678421218
 40
0.4924382593
 40
0.6180615716
 40
0.7446324771
 40
0.8720066558
 40
1.0
 40
1.0
 40
1.0
 40
1.0
 10
10.9206058902
 20
5.6178852506
 30
0.0
 10
10.9204449185
 20
5.6182601024
 30
0.0
 10
10.9200700241
 20
5.6189913264
 30
0.0
 10
10.9193637083
 20
5.6200060799
 30
0.0
 10
10.9185232604
 20
5.6209261731
 30
0.0
 10
10.9175629114
 20
5.6217360451
 30
0.0
 10
10.9164987628
 20
5.6224223575
 30
0.0
 10
10.9153485544
 20
5.6229737584
 30
0.0
 10
10.9141317062
 20
5.623381162
 30
0.0
 10
10.9132904567
 20
5.623552054
 30
0.0
 10
10.9128656417
 20
5.6236117994
 30
0.0
  0
SPLINE
  5
325
100
AcDbEntity
  8
0
100
AcDbSpline
 62
9
  6
CONTINUOUS
 70
0
 71
3
 72
15
 73
11
 74
0
 42
0.0000001
 43
0.0000001
 44
0.0000000001
 40
0.0
 40
0.0
 40
0.0
 40
0.0
 40
0.1216925435
 40
0.2442459801
 40
0.3677919994
 40
0.4923844487
 40
0.6180111326
 40
0.7445923948
 40
0.8719835894
 40
1.0
 40
1.0
 40
1.0
 40
1.0
 10
10.9205776544
 20
5.6184491227
 30
0.0
 10
10.9204165149
 20
5.6188230746
 30
0.0
 10
10.9200414506
 20
5.619552505
 30
0.0
 10
10.9193353767
 20
5.6205646833
 30
0.0
 10
10.9184956174
 20
5.6214824185
 30
0.0
 10
10.9175363525
 20
5.622290234
 30
0.0
 10
10.9164736195
 20
5.6229748641
 30
0.0
 10
10.9153250846
 20
5.6235250177
 30
0.0
 10
10.9141100837
 20
5.623931656
 30
0.0
 10
10.9132701415
 20
5.6241023771
 30
0.0
 10
10.9128459762
 20
5.6241621271
 30
0.0
  0
SPLINE
  5
326
100
AcDbEntity
  8
0
100
AcDbSpline
 62
9
  6
CONTINUOUS
 70
0
 71
3
 72
15
 73
11
 74
0
 42
0.0000001
 43
0.0000001
 44
0.0000000001
 40
0.0
 40
0.0
 40
0.0
 40
0.0
 40
0.1213784765
 40
0.2437146541
 40
0.3671404645
 40
0.4917067679
 40
0.6173951609
 40
0.7441173014
 40
0.8717180142
 40
1.0
 40
1.0
 40
1.0
 40
1.0
 10
10.9201552915
 20
5.6269804493
 30
0.0
 10
10.9199917778
 20
5.6273418176
 30
0.0
 10
10.9196143612
 20
5.6280462605
 30
0.0
 10
10.9189119597
 20
5.6290228834
 30
0.0
 10
10.918082303
 20
5.6299084904
 30
0.0
 10
10.9171388291
 20
5.630688771
 30
0.0
 10
10.9160966588
 20
5.6313514512
 30
0.0
 10
10.9149724007
 20
5.6318860613
 30
0.0
 10
10.9137841945
 20
5.6322841851
 30
0.0
 10
10.9129631124
 20
5.6324541603
 30
0.0
 10
10.912548325
 20
5.6325148224
 30
0.0
  0
SPLINE
  5
327
100
AcDbEntity
  8
0
100
AcDbSpline
 62
9
  6
CONTINUOUS
 70
0
 71
3
 72
15
 73
11
 74
0
 42
0.0000001
 43
0.0000001
 44
0.0000000001
 40
0.0
 40
0.0
 40
0.0
 40
0.0
 40
0.1213578281
 40
0.2436798462
 40
0.3670979199
 40
0.4916626444
 40
0.617355157
 40
0.7440865135
 40
0.8717008344
 40
1.0
 40
1.0
 40
1.0
 40
1.0
 10
10.9201279968
 20
5.6275468578
 30
0.0
 10
10.9199643371
 20
5.6279074095
 30
0.0
 10
10.9195867824
 20
5.6286102327
 30
0.0
 10
10.9188846369
 20
5.6295845551
 30
0.0
 10
10.9180556485
 20
5.6304680863
 30
0.0
 10
10.9171132077
 20
5.6312465894
 30
0.0
 10
10.9160723765
 20
5.631907853
 30
0.0
 10
10.9149496964
 20
5.6324414591
 30
0.0
 10
10.9137632309
 20
5.632839031
 30
0.0
 10
10.9129433741
 20
5.6330089551
 30
0.0
 10
10.9125291965
 20
5.6330696743
 30
0.0
  0
SPLINE
  5
328
100
AcDbEntity
  8
0
100
AcDbSpline
 62
9
  6
CONTINUOUS
 70
0
 71
3
 72
9
 73
5
 74
0
 42
0.0000001
 43
0.0000001
 44
0.0000000001
 40
0.0
 40
0.0
 40
0.0
 40
0.0
 40
0.484084481
 40
1.0
 40
1.0
 40
1.0
 40
1.0
 10
10.9099634027
 20
5.9368997736
 30
0.0
 10
10.9094079393
 20
5.9372524869
 30
0.0
 10
10.9081820445
 20
5.937861009
 30
0.0
 10
10.9068717925
 20
5.9382467727
 30
0.0
 10
10.9061858962
 20
5.9383927228
 30
0.0
  0
SPLINE
  5
329
100
AcDbEntity
  8
0
100
AcDbSpline
 62
9
  6
CONTINUOUS
 70
0
 71
3
 72
13
 73
9
 74
0
 42
0.0000001
 43
0.0000001
 44
0.0000000001
 40
0.0
 40
0.0
 40
0.0
 40
0.0
 40
0.1372611023
 40
0.2718484179
 40
0.5312948163
 40
0.7750405776
 40
0.8900531529
 40
1.0
 40
1.0
 40
1.0
 40
1.0
 10
10.9207269393
 20
6.4011533468
 30
0.0
 10
10.9208303108
 20
6.3795544559
 30
0.0
 10
10.9210276705
 20
6.3367773759
 30
0.0
 10
10.9214050481
 20
6.2531747168
 30
0.0
 10
10.9218818009
 20
6.1528161116
 30
0.0
 10
10.9224725948
 20
6.0555383665
 30
0.0
 10
10.9230297972
 20
5.9817859291
 30
0.0
 10
10.9233404612
 20
5.9463881049
 30
0.0
 10
10.923505485
 20
5.9290878714
 30
0.0
  0
SPLINE
  5
32A
100
AcDbEntity
  8
0
100
AcDbSpline
 62
9
  6
CONTINUOUS
 70
0
 71
3
 72
15
 73
11
 74
0
 42
0.0000001
 43
0.0000001
 44
0.0000000001
 40
0.0
 40
0.0
 40
0.0
 40
0.0
 40
0.1261706143
 40
0.2524297184
 40
0.3785656573
 40
0.5043663438
 40
0.6296200429
 40
0.7541165658
 40
0.8776462467
 40
1.0
 40
1.0
 40
1.0
 40
1.0
 10
11.0473183383
 20
5.9197156608
 30
0.0
 10
11.0420913011
 20
5.9197156608
 30
0.0
 10
11.0316332924
 20
5.9198158601
 30
0.0
 10
11.0159554467
 20
5.9202631911
 30
0.0
 10
11.0003040737
 20
5.9210052526
 30
0.0
 10
10.9847110478
 20
5.9220395772
 30
0.0
 10
10.969208121
 20
5.9233637992
 30
0.0
 10
10.9538267875
 20
5.9249733335
 30
0.0
 10
10.9385985114
 20
5.9268634624
 30
0.0
 10
10.9285151727
 20
5.9283152858
 30
0.0
 10
10.923505485
 20
5.9290878714
 30
0.0
  0
SPLINE
  5
32B
100
AcDbEntity
  8
0
100
AcDbSpline
 62
9
  6
CONTINUOUS
 70
0
 71
3
 72
17
 73
13
 74
0
 42
0.0000001
 43
0.0000001
 44
0.0000000001
 40
0.0
 40
0.0
 40
0.0
 40
0.0
 40
0.1591777087
 40
0.3094843336
 40
0.4504327661
 40
0.5815681686
 40
0.7024666741
 40
0.8127374367
 40
0.8637742147
 40
0.9120226246
 40
0.9574436267
 40
1.0
 40
1.0
 40
1.0
 40
1.0
 10
10.9235058429
 20
5.9290503825
 30
0.0
 10
10.9236644789
 20
5.9124307252
 30
0.0
 10
10.9240004878
 20
5.8801178897
 30
0.0
 10
10.9245785144
 20
5.833089832
 30
0.0
 10
10.9252121172
 20
5.7889907825
 30
0.0
 10
10.9258995285
 20
5.7479635539
 30
0.0
 10
10.9266399025
 20
5.7101409907
 30
0.0
 10
10.9273123491
 20
5.6806822728
 30
0.0
 10
10.9278772414
 20
5.6588089333
 30
0.0
 10
10.9282996629
 20
5.6437054441
 30
0.0
 10
10.9287307438
 20
5.6294880571
 30
0.0
 10
10.9290331988
 20
5.6203069353
 30
0.0
 10
10.9291862945
 20
5.6158660835
 30
0.0
  0
SPLINE
  5
32C
100
AcDbEntity
  8
0
100
AcDbSpline
 62
9
  6
CONTINUOUS
 70
0
 71
3
 72
13
 73
9
 74
0
 42
0.0000001
 43
0.0000001
 44
0.0000000001
 40
0.0
 40
0.0
 40
0.0
 40
0.0
 40
0.2515661465
 40
0.3772886485
 40
0.5027894276
 40
0.7525836084
 40
0.8766559109
 40
1.0
 40
1.0
 40
1.0
 40
1.0
 10
11.0473183383
 20
5.6007842021
 30
0.0
 10
11.037305897
 20
5.6007842021
 30
0.0
 10
11.0222840137
 20
5.6012658108
 30
0.0
 10
11.0023336677
 20
5.602856543
 30
0.0
 10
10.9825135405
 20
5.605071056
 30
0.0
 10
10.96287303
 20
5.6082191981
 30
0.0
 10
10.9435042167
 20
5.612288238
 30
0.0
 10
10.9339356573
 20
5.6146237923
 30
0.0
 10
10.9291862945
 20
5.6158660835
 30
0.0
  0
LINE
  5
32D
100
AcDbEntity
  8
0
100
AcDbLine
 62
9
  6
CONTINUOUS
 10
10.9291873884
 20
5.6158657415
 11
10.92919135
 21
5.6156883718
  0
SPLINE
  5
32E
100
AcDbEntity
  8
0
100
AcDbSpline
 62
9
  6
CONTINUOUS
 70
0
 71
3
 72
13
 73
9
 74
0
 42
0.0000001
 43
0.0000001
 44
0.0000000001
 40
0.0
 40
0.0
 40
0.0
 40
0.0
 40
0.2515316948
 40
0.3772383749
 40
0.502727992
 40
0.7525251363
 40
0.876618318
 40
1.0
 40
1.0
 40
1.0
 40
1.0
 10
11.0473183383
 20
5.5914992059
 30
0.0
 10
11.0373325657
 20
5.5914992059
 30
0.0
 10
11.0223505107
 20
5.5919848082
 30
0.0
 10
11.0024543685
 20
5.5935889672
 30
0.0
 10
10.9826879746
 20
5.5958223805
 30
0.0
 10
10.9631018811
 20
5.5989977242
 30
0.0
 10
10.9437890618
 20
5.6031019051
 30
0.0
 10
10.9342486605
 20
5.6054577042
 30
0.0
 10
10.9295134159
 20
5.6067107673
 30
0.0
  0
SPLINE
  5
32F
100
AcDbEntity
  8
0
100
AcDbSpline
 62
9
  6
CONTINUOUS
 70
0
 71
3
 72
9
 73
5
 74
0
 42
0.0000001
 43
0.0000001
 44
0.0000000001
 40
0.0
 40
0.0
 40
0.0
 40
0.0
 40
0.4840919868
 40
1.0
 40
1.0
 40
1.0
 40
1.0
 10
10.9099546479
 20
5.9372431844
 30
0.0
 10
10.909399602
 20
5.9375952206
 30
0.0
 10
10.9081748613
 20
5.93820261
 30
0.0
 10
10.9068660291
 20
5.9385877967
 30
0.0
 10
10.9061808984
 20
5.9387335808
 30
0.0
  0
SPLINE
  5
330
100
AcDbEntity
  8
0
100
AcDbSpline
 62
9
  6
CONTINUOUS
 70
0
 71
3
 72
45
 73
41
 74
0
 42
0.0000001
 43
0.0000001
 44
0.0000000001
 40
0.0
 40
0.0
 40
0.0
 40
0.0
 40
0.1176922664
 40
0.2282085633
 40
0.3314864484
 40
0.4274533961
 40
0.5160892251
 40
0.5973460339
 40
0.6351881434
 40
0.6711678107
 40
0.7052834273
 40
0.7375318258
 40
0.7679095692
 40
0.7964135729
 40
0.8230411655
 40
0.8477906849
 40
0.87066109
 40
0.8916521169
 40
0.9107641627
 40
0.9279984017
 40
0.9359121302
 40
0.9433574876
 40
0.9503351039
 40
0.9568458065
 40
0.9628907172
 40
0.9684713059
 40
0.973589489
 40
0.9782477942
 40
0.982449556
 40
0.9861993692
 40
0.9895038137
 40
0.9923726615
 40
0.993648513
 40
0.9948218618
 40
0.9958961433
 40
0.9968758381
 40
0.9977668579
 40
0.998577061
 40
0.999316888
 40
1.0
 40
1.0
 40
1.0
 40
1.0
 10
10.9295199591
 20
5.6065236455
 30
0.0
 10
10.9299235778
 20
5.5950519228
 30
0.0
 10
10.9307354198
 20
5.5728089479
 30
0.0
 10
10.9320070959
 20
5.5405032206
 30
0.0
 10
10.9332877205
 20
5.5103185446
 30
0.0
 10
10.9345740912
 20
5.4822702442
 30
0.0
 10
10.9358614885
 20
5.4563722051
 30
0.0
 10
10.936957418
 20
5.4361408852
 30
0.0
 10
10.9378378723
 20
5.4210413121
 30
0.0
 10
10.9384821379
 20
5.4105336233
 30
0.0
 10
10.9391261091
 20
5.4005725618
 30
0.0
 10
10.9397701625
 20
5.391159078
 30
0.0
 10
10.9404146496
 20
5.3822942933
 30
0.0
 10
10.941060032
 20
5.3739793243
 30
0.0
 10
10.9417067623
 20
5.3662151601
 30
0.0
 10
10.9423556482
 20
5.3590026822
 30
0.0
 10
10.9430074992
 20
5.3523426283
 30
0.0
 10
10.9436633137
 20
5.3462356671
 30
0.0
 10
10.9443239544
 20
5.3406824397
 30
0.0
 10
10.9448935316
 20
5.3364031871
 30
0.0
 10
10.9453553982
 20
5.3332579665
 30
0.0
 10
10.945693359
 20
5.3311057442
 30
0.0
 10
10.9460328413
 20
5.3290924017
 30
0.0
 10
10.9463739001
 20
5.327217992
 30
0.0
 10
10.9467165514
 20
5.3254825504
 30
0.0
 10
10.9470608057
 20
5.3238860954
 30
0.0
 10
10.9474066641
 20
5.3224286307
 30
0.0
 10
10.9477541232
 20
5.3211101436
 30
0.0
 10
10.9481031177
 20
5.3199305978
 30
0.0
 10
10.948453547
 20
5.3188898516
 30
0.0
 10
10.9488053556
 20
5.3179878062
 30
0.0
 10
10.9491104124
 20
5.3173276185
 30
0.0
 10
10.9493579811
 20
5.3168716378
 30
0.0
 10
10.9495367579
 20
5.3165779536
 30
0.0
 10
10.9497159781
 20
5.3163189302
 30
0.0
 10
10.9498957166
 20
5.3160945228
 30
0.0
 10
10.9500760668
 20
5.315904689
 30
0.0
 10
10.9502572236
 20
5.3157494152
 30
0.0
 10
10.9504393302
 20
5.3156288198
 30
0.0
 10
10.9505657197
 20
5.315569802
 30
0.0
 10
10.9506283334
 20
5.3155470316
 30
0.0
  0
SPLINE
  5
331
100
AcDbEntity
  8
0
100
AcDbSpline
 62
9
  6
CONTINUOUS
 70
0
 71
3
 72
15
 73
11
 74
0
 42
0.0000001
 43
0.0000001
 44
0.0000000001
 40
0.0
 40
0.0
 40
0.0
 40
0.0
 40
0.1217151678
 40
0.2442855505
 40
0.3678421251
 40
0.4924382625
 40
0.6180615743
 40
0.7446324788
 40
0.8720066565
 40
1.0
 40
1.0
 40
1.0
 40
1.0
 10
11.1740308807
 20
5.617885267
 30
0.0
 10
11.1741918525
 20
5.6182601184
 30
0.0
 10
11.174566747
 20
5.6189913416
 30
0.0
 10
11.1752730627
 20
5.6200060939
 30
0.0
 10
11.1761135103
 20
5.6209261861
 30
0.0
 10
11.1770738587
 20
5.6217360572
 30
0.0
 10
11.1781380066
 20
5.6224223689
 30
0.0
 10
11.1792882141
 20
5.6229737693
 30
0.0
 10
11.1805050613
 20
5.6233811726
 30
0.0
 10
11.1813463101
 20
5.6235520646
 30
0.0
 10
11.1817711248
 20
5.62361181
 30
0.0
  0
SPLINE
  5
332
100
AcDbEntity
  8
0
100
AcDbSpline
 62
9
  6
CONTINUOUS
 70
0
 71
3
 72
15
 73
11
 74
0
 42
0.0000001
 43
0.0000001
 44
0.0000000001
 40
0.0
 40
0.0
 40
0.0
 40
0.0
 40
0.1216925453
 40
0.2442459832
 40
0.3677920033
 40
0.4923844525
 40
0.6180111357
 40
0.7445923969
 40
0.8719835903
 40
1.0
 40
1.0
 40
1.0
 40
1.0
 10
11.174059116
 20
5.6184491313
 30
0.0
 10
11.1742202557
 20
5.6188230829
 30
0.0
 10
11.17459532
 20
5.6195525125
 30
0.0
 10
11.1753013938
 20
5.6205646898
 30
0.0
 10
11.1761411527
 20
5.6214824241
 30
0.0
 10
11.1771004171
 20
5.6222902389
 30
0.0
 10
11.1781631494
 20
5.6229748684
 30
0.0
 10
11.1793116835
 20
5.6235250216
 30
0.0
 10
11.1805266835
 20
5.6239316596
 30
0.0
 10
11.1813666251
 20
5.6241023807
 30
0.0
 10
11.1817907901
 20
5.6241621307
 30
0.0
  0
SPLINE
  5
333
100
AcDbEntity
  8
0
100
AcDbSpline
 62
9
  6
CONTINUOUS
 70
0
 71
3
 72
15
 73
11
 74
0
 42
0.0000001
 43
0.0000001
 44
0.0000000001
 40
0.0
 40
0.0
 40
0.0
 40
0.0
 40
0.1213784781
 40
0.2437146569
 40
0.367140468
 40
0.4917067715
 40
0.6173951638
 40
0.7441173033
 40
0.871718015
 40
1.0
 40
1.0
 40
1.0
 40
1.0
 10
11.174481482
 20
5.6269804654
 30
0.0
 10
11.1746449957
 20
5.6273418333
 30
0.0
 10
11.1750224125
 20
5.6280462756
 30
0.0
 10
11.1757248139
 20
5.6290228975
 30
0.0
 10
11.1765544703
 20
5.6299085036
 30
0.0
 10
11.1774979436
 20
5.6306887834
 30
0.0
 10
11.1785401133
 20
5.631351463
 30
0.0
 10
11.1796643705
 20
5.6318860726
 30
0.0
 10
11.1808525759
 20
5.6322841961
 30
0.0
 10
11.1816736574
 20
5.6324541713
 30
0.0
 10
11.1820884445
 20
5.6325148335
 30
0.0
  0
SPLINE
  5
334
100
AcDbEntity
  8
0
100
AcDbSpline
 62
9
  6
CONTINUOUS
 70
0
 71
3
 72
15
 73
11
 74
0
 42
0.0000001
 43
0.0000001
 44
0.0000000001
 40
0.0
 40
0.0
 40
0.0
 40
0.0
 40
0.12135783
 40
0.2436798496
 40
0.3670979242
 40
0.4916626487
 40
0.6173551607
 40
0.744086516
 40
0.8717008355
 40
1.0
 40
1.0
 40
1.0
 40
1.0
 10
11.1745087765
 20
5.6275468659
 30
0.0
 10
11.1746724363
 20
5.6279074171
 30
0.0
 10
11.175049991
 20
5.6286102397
 30
0.0
 10
11.1757521365
 20
5.6295845611
 30
0.0
 10
11.1765811246
 20
5.6304680915
 30
0.0
 10
11.1775235649
 20
5.6312465938
 30
0.0
 10
11.1785643955
 20
5.6319078567
 30
0.0
 10
11.1796870748
 20
5.6324414623
 30
0.0
 10
11.1808735394
 20
5.6328390339
 30
0.0
 10
11.1816933956
 20
5.6330089581
 30
0.0
 10
11.1821075729
 20
5.6330696773
 30
0.0
  0
SPLINE
  5
335
100
AcDbEntity
  8
0
100
AcDbSpline
 62
9
  6
CONTINUOUS
 70
0
 71
3
 72
9
 73
5
 74
0
 42
0.0000001
 43
0.0000001
 44
0.0000000001
 40
0.0
 40
0.0
 40
0.0
 40
0.0
 40
0.4840845015
 40
1.0
 40
1.0
 40
1.0
 40
1.0
 10
11.1846734456
 20
5.9368997825
 30
0.0
 10
11.1852289088
 20
5.9372524952
 30
0.0
 10
11.186454803
 20
5.937861016
 30
0.0
 10
11.1877650542
 20
5.9382467789
 30
0.0
 10
11.1884509499
 20
5.9383927285
 30
0.0
  0
SPLINE
  5
336
100
AcDbEntity
  8
0
100
AcDbSpline
 62
9
  6
CONTINUOUS
 70
0
 71
3
 72
9
 73
5
 74
0
 42
0.0000001
 43
0.0000001
 44
0.0000000001
 40
0.0
 40
0.0
 40
0.0
 40
0.0
 40
0.4840920098
 40
1.0
 40
1.0
 40
1.0
 40
1.0
 10
11.1846822008
 20
5.9372431884
 30
0.0
 10
11.1852372465
 20
5.9375952239
 30
0.0
 10
11.1864619865
 20
5.938202612
 30
0.0
 10
11.1877708179
 20
5.9385877977
 30
0.0
 10
11.1884559479
 20
5.9387335814
 30
0.0
  0
SPLINE
  5
337
100
AcDbEntity
  8
0
100
AcDbSpline
 62
9
  6
CONTINUOUS
 70
0
 71
3
 72
12
 73
8
 74
0
 42
0.0000001
 43
0.0000001
 44
0.0000000001
 40
0.0
 40
0.0
 40
0.0
 40
0.0
 40
0.1098686532
 40
0.224791393
 40
0.468396171
 40
0.7278672401
 40
1.0
 40
1.0
 40
1.0
 40
1.0
 10
10.9099546476
 20
5.9372431842
 30
0.0
 10
10.9095217075
 20
5.9542321696
 30
0.0
 10
10.9086522819
 20
5.9889920715
 30
0.0
 10
10.9068901045
 20
6.0614222363
 30
0.0
 10
10.9046333084
 20
6.1569877255
 30
0.0
 10
10.9018731035
 20
6.2768653415
 30
0.0
 10
10.8999585847
 20
6.3590716259
 30
0.0
 10
10.898953336
 20
6.4011531599
 30
0.0
  0
SPLINE
  5
338
100
AcDbEntity
  8
0
100
AcDbSpline
 62
9
  6
CONTINUOUS
 70
0
 71
3
 72
15
 73
11
 74
0
 42
0.0000001
 43
0.0000001
 44
0.0000000001
 40
0.0
 40
0.0
 40
0.0
 40
0.0
 40
0.1374794934
 40
0.2722460613
 40
0.4038593943
 40
0.5318859445
 40
0.655909388
 40
0.7755231006
 40
0.8903435566
 40
1.0
 40
1.0
 40
1.0
 40
1.0
 10
10.9207269393
 20
6.4011533377
 30
0.0
 10
10.9207489838
 20
6.3795769743
 30
0.0
 10
10.9207682049
 20
6.336849993
 30
0.0
 10
10.9207374573
 20
6.2734672933
 30
0.0
 10
10.9206656382
 20
6.2115681994
 30
0.0
 10
10.9205722829
 20
6.1513551917
 30
0.0
 10
10.9204775375
 20
6.0930254394
 30
0.0
 10
10.9203969224
 20
6.0367682641
 30
0.0
 10
10.9203452691
 20
5.9827658467
 30
0.0
 10
10.9203427506
 20
5.9475358732
 30
0.0
 10
10.9203531985
 20
5.9303261205
 30
0.0
  0
LINE
  5
339
100
AcDbEntity
  8
0
100
AcDbLine
 62
9
  6
CONTINUOUS
 10
10.9099623924
 20
5.9369004131
 11
10.9099556576
 21
5.9372425457
  0
SPLINE
  5
33A
100
AcDbEntity
  8
0
100
AcDbSpline
 62
9
  6
CONTINUOUS
 70
0
 71
3
 72
16
 73
12
 74
0
 42
0.0000001
 43
0.0000001
 44
0.0000000001
 40
0.0
 40
0.0
 40
0.0
 40
0.0
 40
0.1597747535
 40
0.3104786383
 40
0.4516353888
 40
0.5828056198
 40
0.7035837499
 40
0.8135973653
 40
0.9125055273
 40
0.957697572
 40
1.0
 40
1.0
 40
1.0
 40
1.0
 10
10.9203532211
 20
5.9302888832
 30
0.0
 10
10.9203631613
 20
5.9138134687
 30
0.0
 10
10.9204055895
 20
5.8817980019
 30
0.0
 10
10.9205504377
 20
5.8352271269
 30
0.0
 10
10.9207779707
 20
5.7916062085
 30
0.0
 10
10.921091963
 20
5.7510717399
 30
0.0
 10
10.9214938119
 20
5.7137495747
 30
0.0
 10
10.921978461
 20
5.6797554455
 30
0.0
 10
10.9224586302
 20
5.6535564125
 30
0.0
 10
10.9228821034
 20
5.6343398685
 30
0.0
 10
10.9231048144
 20
5.6253204773
 30
0.0
 10
10.9232191272
 20
5.620959896
 30
0.0
  0
LINE
  5
33B
100
AcDbEntity
  8
0
100
AcDbLine
 62
9
  6
CONTINUOUS
 10
10.9232187641
 20
5.6209606799
 11
10.9232240664
 21
5.6207846641
  0
SPLINE
  5
33C
100
AcDbEntity
  8
0
100
AcDbSpline
 62
9
  6
CONTINUOUS
 70
0
 71
3
 72
17
 73
13
 74
0
 42
0.0000001
 43
0.0000001
 44
0.0000000001
 40
0.0
 40
0.0
 40
0.0
 40
0.0
 40
0.0426725112
 40
0.0881872871
 40
0.1365084352
 40
0.1875981475
 40
0.2979201329
 40
0.4188085176
 40
0.5498842766
 40
0.6907391601
 40
0.8409336673
 40
1.0
 40
1.0
 40
1.0
 40
1.0
 10
10.9201279968
 20
5.6275468578
 30
0.0
 10
10.9199165147
 20
5.6319445154
 30
0.0
 10
10.919493308
 20
5.641033412
 30
0.0
 10
10.9188744866
 20
5.655104092
 30
0.0
 10
10.9182515986
 20
5.6700438384
 30
0.0
 10
10.9173944535
 20
5.691666071
 30
0.0
 10
10.9163227119
 20
5.7207727398
 30
0.0
 10
10.9150573144
 20
5.7581302559
 30
0.0
 10
10.9137850191
 20
5.7986394492
 30
0.0
 10
10.9125047612
 20
5.842173447
 30
0.0
 10
10.911217599
 20
5.8885963497
 30
0.0
 10
10.9103818131
 20
5.9204934267
 30
0.0
 10
10.9099634027
 20
5.9368997736
 30
0.0
  0
LINE
  5
33D
100
AcDbEntity
  8
0
100
AcDbLine
 62
9
  6
CONTINUOUS
 10
10.9201552915
 20
5.6269804493
 11
10.9201279968
 21
5.6275468578
  0
LINE
  5
33E
100
AcDbEntity
  8
0
100
AcDbLine
 62
9
  6
CONTINUOUS
 10
10.9234647781
 20
5.6119932954
 11
10.923470771
 21
5.6118072905
  0
LINE
  5
33F
100
AcDbEntity
  8
0
100
AcDbLine
 62
9
  6
CONTINUOUS
 10
10.9206058902
 20
5.6178852506
 11
10.9205776544
 21
5.6184491227
  0
SPLINE
  5
340
100
AcDbEntity
  8
0
100
AcDbSpline
 62
9
  6
CONTINUOUS
 70
0
 71
3
 72
15
 73
11
 74
0
 42
0.0000001
 43
0.0000001
 44
0.0000000001
 40
0.0
 40
0.0
 40
0.0
 40
0.0
 40
0.1539321746
 40
0.2996983268
 40
0.4372522544
 40
0.5665246414
 40
0.6874752039
 40
0.8000802615
 40
0.904272147
 40
1.0
 40
1.0
 40
1.0
 40
1.0
 10
10.9234704106
 20
5.6118081122
 30
0.0
 10
10.923755567
 20
5.6018858869
 30
0.0
 10
10.9243450802
 20
5.5825687714
 30
0.0
 10
10.9253083006
 20
5.5543889403
 30
0.0
 10
10.9263155139
 20
5.5278019086
 30
0.0
 10
10.9273573507
 20
5.5028177517
 30
0.0
 10
10.9284259288
 20
5.4794451225
 30
0.0
 10
10.9295142323
 20
5.4576925941
 30
0.0
 10
10.9306166974
 20
5.437569521
 30
0.0
 10
10.9313913052
 20
5.4247008921
 30
0.0
 10
10.9317826427
 20
5.4185402948
 30
0.0
  0
SPLINE
  5
341
100
AcDbEntity
  8
0
100
AcDbSpline
 62
9
  6
CONTINUOUS
 70
0
 71
3
 72
8
 73
4
 74
0
 42
0.0000001
 43
0.0000001
 44
0.0000000001
 40
0.0
 40
0.0
 40
0.0
 40
0.0
 40
1.0
 40
1.0
 40
1.0
 40
1.0
 10
10.9317826427
 20
5.4185402948
 30
0.0
 10
10.931782928
 20
5.418535803
 30
0.0
 10
10.9317832134
 20
5.4185313112
 30
0.0
 10
10.9317834987
 20
5.4185268195
 30
0.0
  0
SPLINE
  5
342
100
AcDbEntity
  8
0
100
AcDbSpline
 62
9
  6
CONTINUOUS
 70
0
 71
3
 72
15
 73
11
 74
0
 42
0.0000001
 43
0.0000001
 44
0.0000000001
 40
0.0
 40
0.0
 40
0.0
 40
0.0
 40
0.1278588079
 40
0.2550078757
 40
0.3813466574
 40
0.5068100003
 40
0.6313717445
 40
0.7550467337
 40
0.8778910065
 40
1.0
 40
1.0
 40
1.0
 40
1.0
 10
10.9295199589
 20
5.6065236449
 30
0.0
 10
10.9291831235
 20
5.6066286327
 30
0.0
 10
10.9285214268
 20
5.6068722576
 30
0.0
 10
10.9275747619
 20
5.6073358465
 30
0.0
 10
10.9266867072
 20
5.6078916014
 30
0.0
 10
10.9258675581
 20
5.6085331788
 30
0.0
 10
10.9251266735
 20
5.6092532904
 30
0.0
 10
10.9244725551
 20
5.6100437808
 30
0.0
 10
10.9239127991
 20
5.6108954829
 30
0.0
 10
10.923605865
 20
5.6114995857
 30
0.0
 10
10.9234704104
 20
5.6118081121
 30
0.0
  0
SPLINE
  5
343
100
AcDbEntity
  8
0
100
AcDbSpline
 62
9
  6
CONTINUOUS
 70
0
 71
3
 72
15
 73
11
 74
0
 42
0.0000001
 43
0.0000001
 44
0.0000000001
 40
0.0
 40
0.0
 40
0.0
 40
0.0
 40
0.1278580191
 40
0.2550068327
 40
0.3813457994
 40
0.5068096203
 40
0.6313719403
 40
0.7550473663
 40
0.8778916688
 40
1.0
 40
1.0
 40
1.0
 40
1.0
 10
10.9295134159
 20
5.6067107673
 30
0.0
 10
10.9291767143
 20
5.6068157275
 30
0.0
 10
10.9285152763
 20
5.6070592687
 30
0.0
 10
10.9275689591
 20
5.6075226496
 30
0.0
 10
10.9266811967
 20
5.6080781214
 30
0.0
 10
10.9258622727
 20
5.6087193489
 30
0.0
 10
10.9251215361
 20
5.6094390536
 30
0.0
 10
10.9244674797
 20
5.6102290913
 30
0.0
 10
10.9239076929
 20
5.6110803078
 30
0.0
 10
10.9236006718
 20
5.6116840745
 30
0.0
 10
10.9234651569
 20
5.6119924328
 30
0.0
  0
SPLINE
  5
344
100
AcDbEntity
  8
0
100
AcDbSpline
 62
9
  6
CONTINUOUS
 70
0
 71
3
 72
15
 73
11
 74
0
 42
0.0000001
 43
0.0000001
 44
0.0000000001
 40
0.0
 40
0.0
 40
0.0
 40
0.0
 40
0.1281208925
 40
0.2554709798
 40
0.3819410094
 40
0.5074583284
 40
0.6319907528
 40
0.7555488954
 40
0.8781867023
 40
1.0
 40
1.0
 40
1.0
 40
1.0
 10
10.9291924434
 20
5.6156880299
 30
0.0
 10
10.928863016
 20
5.615790486
 30
0.0
 10
10.9282157404
 20
5.6160273249
 30
0.0
 10
10.9272884736
 20
5.6164759863
 30
0.0
 10
10.9264171051
 20
5.6170123882
 30
0.0
 10
10.9256113104
 20
5.617630668
 30
0.0
 10
10.9248799104
 20
5.6183241004
 30
0.0
 10
10.9242309453
 20
5.6190851663
 30
0.0
 10
10.9236716394
 20
5.6199054128
 30
0.0
 10
10.92336157
 20
5.6204878225
 30
0.0
 10
10.923223703
 20
5.6207854493
 30
0.0
  0
SPLINE
  5
345
100
AcDbEntity
  8
0
100
AcDbSpline
 62
9
  6
CONTINUOUS
 70
0
 71
3
 72
15
 73
11
 74
0
 42
0.0000001
 43
0.0000001
 44
0.0000000001
 40
0.0
 40
0.0
 40
0.0
 40
0.0
 40
0.1281261911
 40
0.2554803316
 40
0.3819529993
 40
0.5074713957
 40
0.63200322
 40
0.7555590034
 40
0.8781926518
 40
1.0
 40
1.0
 40
1.0
 40
1.0
 10
10.9291862945
 20
5.6158660835
 30
0.0
 10
10.928857009
 20
5.6159684896
 30
0.0
 10
10.9282100095
 20
5.6162051958
 30
0.0
 10
10.9272831145
 20
5.616653568
 30
0.0
 10
10.9264120667
 20
5.6171895964
 30
0.0
 10
10.9256065299
 20
5.6178074277
 30
0.0
 10
10.9248753149
 20
5.6185003468
 30
0.0
 10
10.9242264533
 20
5.6192608466
 30
0.0
 10
10.9236671622
 20
5.6200804876
 30
0.0
 10
10.9233570377
 20
5.6206624793
 30
0.0
 10
10.9232191272
 20
5.620959896
 30
0.0
  0
SPLINE
  5
346
100
AcDbEntity
  8
0
100
AcDbSpline
 62
9
  6
CONTINUOUS
 70
0
 71
3
 72
9
 73
5
 74
0
 42
0.0000001
 43
0.0000001
 44
0.0000000001
 40
0.0
 40
0.0
 40
0.0
 40
0.0
 40
0.5133465098
 40
1.0
 40
1.0
 40
1.0
 40
1.0
 10
10.9235058429
 20
5.9290503826
 30
0.0
 10
10.9229408877
 20
5.9291864941
 30
0.0
 10
10.921855972
 20
5.9295228211
 30
0.0
 10
10.9208291607
 20
5.930011438
 30
0.0
 10
10.9203532212
 20
5.9302888832
 30
0.0
  0
SPLINE
  5
347
100
AcDbEntity
  8
0
100
AcDbSpline
 62
9
  6
CONTINUOUS
 70
0
 71
3
 72
9
 73
5
 74
0
 42
0.0000001
 43
0.0000001
 44
0.0000000001
 40
0.0
 40
0.0
 40
0.0
 40
0.0
 40
0.5133456298
 40
1.0
 40
1.0
 40
1.0
 40
1.0
 10
10.923505485
 20
5.9290878714
 30
0.0
 10
10.9229405972
 20
5.9292239604
 30
0.0
 10
10.9218558061
 20
5.9295602244
 30
0.0
 10
10.9208290981
 20
5.9300487362
 30
0.0
 10
10.9203531985
 20
5.9303261205
 30
0.0
  0
SPLINE
  5
348
100
AcDbEntity
  8
0
100
AcDbSpline
 62
9
  6
CONTINUOUS
 70
0
 71
3
 72
15
 73
11
 74
0
 42
0.0000001
 43
0.0000001
 44
0.0000000001
 40
0.0
 40
0.0
 40
0.0
 40
0.0
 40
0.1095658841
 40
0.2242816443
 40
0.343797476
 40
0.4677522287
 40
0.5957592923
 40
0.727419705
 40
0.8623114138
 40
1.0
 40
1.0
 40
1.0
 40
1.0
 10
10.9061808983
 20
5.9387335804
 30
0.0
 10
10.9059333745
 20
5.9556223186
 30
0.0
 10
10.9054364731
 20
5.9901937517
 30
0.0
 10
10.9046846851
 20
6.0431878465
 30
0.0
 10
10.9038939639
 20
6.0983997841
 30
0.0
 10
10.9030553036
 20
6.1556602155
 30
0.0
 10
10.9021589378
 20
6.2147921919
 30
0.0
 10
10.9011890223
 20
6.2756092618
 30
0.0
 10
10.9001292396
 20
6.3379175503
 30
0.0
 10
10.8993589077
 20
6.3799311744
 30
0.0
 10
10.8989533348
 20
6.401153215
 30
0.0
  0
LINE
  5
349
100
AcDbEntity
  8
0
100
AcDbLine
 62
9
  6
CONTINUOUS
 10
10.90618713
 20
5.9383924633
 11
10.9061796639
 21
5.93873384
  0
SPLINE
  5
34A
100
AcDbEntity
  8
0
100
AcDbSpline
 62
9
  6
CONTINUOUS
 70
0
 71
3
 72
16
 73
12
 74
0
 42
0.0000001
 43
0.0000001
 44
0.0000000001
 40
0.0
 40
0.0
 40
0.0
 40
0.0
 40
0.1345503946
 40
0.2673178658
 40
0.3978033519
 40
0.4620401375
 40
0.5255227807
 40
0.6499897513
 40
0.7708107052
 40
0.8876053136
 40
1.0
 40
1.0
 40
1.0
 40
1.0
 10
10.9061858962
 20
5.9383927228
 30
0.0
 10
10.9008991942
 20
5.9385209756
 30
0.0
 10
10.8903998095
 20
5.9389991348
 30
0.0
 10
10.8748215167
 20
5.9403807131
 30
0.0
 10
10.8620577755
 20
5.9420778815
 30
0.0
 10
10.8520487243
 20
5.9437578317
 30
0.0
 10
10.8423135256
 20
5.9456241906
 30
0.0
 10
10.8304784147
 20
5.9483310034
 30
0.0
 10
10.8167709184
 20
5.9521767781
 30
0.0
 10
10.8037239519
 20
5.9565557863
 30
0.0
 10
10.7953424188
 20
5.9598705039
 30
0.0
 10
10.7912828978
 20
5.9616124314
 30
0.0
  0
SPLINE
  5
34B
100
AcDbEntity
  8
0
100
AcDbSpline
 62
9
  6
CONTINUOUS
 70
0
 71
3
 72
18
 73
14
 74
0
 42
0.0000001
 43
0.0000001
 44
0.0000000001
 40
0.0
 40
0.0
 40
0.0
 40
0.0
 40
0.1373518441
 40
0.2719419813
 40
0.4033674908
 40
0.4677705128
 40
0.5312379819
 40
0.5937244332
 40
0.6551846479
 40
0.7155737022
 40
0.7748495196
 40
0.8898970257
 40
1.0
 40
1.0
 40
1.0
 40
1.0
 10
10.7774060542
 20
6.4011532158
 30
0.0
 10
10.778005273
 20
6.3810281136
 30
0.0
 10
10.7791753591
 20
6.3411820755
 30
0.0
 10
10.7808889165
 20
6.2820784037
 30
0.0
 10
10.7822994731
 20
6.2336638013
 30
0.0
 10
10.7834258561
 20
6.1956710212
 30
0.0
 10
10.7842666881
 20
6.1677798016
 30
0.0
 10
10.7851111544
 20
6.1403202698
 30
0.0
 10
10.7859619073
 20
6.1133124077
 30
0.0
 10
10.7868195775
 20
6.0867756429
 30
0.0
 10
10.7879625084
 20
6.0523887995
 30
0.0
 10
10.7894118273
 20
6.010720709
 30
0.0
 10
10.7906491274
 20
5.9777396689
 30
0.0
 10
10.7912828978
 20
5.9616124314
 30
0.0
  0
SPLINE
  5
34C
100
AcDbEntity
  8
0
100
AcDbSpline
 62
9
  6
CONTINUOUS
 70
0
 71
3
 72
17
 73
13
 74
0
 42
0.0000001
 43
0.0000001
 44
0.0000000001
 40
0.0
 40
0.0
 40
0.0
 40
0.0
 40
0.042423181
 40
0.0877131971
 40
0.1358356675
 40
0.1867543793
 40
0.296824996
 40
0.4175969366
 40
0.5487083632
 40
0.6897681411
 40
0.8403510673
 40
1.0
 40
1.0
 40
1.0
 40
1.0
 10
10.9125291964
 20
5.6330696741
 30
0.0
 10
10.9123808004
 20
5.6373857058
 30
0.0
 10
10.9120859618
 20
5.6463098487
 30
0.0
 10
10.9116610487
 20
5.6601310865
 30
0.0
 10
10.9112396799
 20
5.6748176361
 30
0.0
 10
10.9106685125
 20
5.6960970814
 30
0.0
 10
10.9099723964
 20
5.7247713306
 30
0.0
 10
10.9091775701
 20
5.7616088724
 30
0.0
 10
10.9084037229
 20
5.80160212
 30
0.0
 10
10.9076464257
 20
5.8446308694
 30
0.0
 10
10.9069008024
 20
5.8905652783
 30
0.0
 10
10.9064239192
 20
5.9221425724
 30
0.0
 10
10.9061858962
 20
5.9383927228
 30
0.0
  0
LINE
  5
34D
100
AcDbEntity
  8
0
100
AcDbLine
 62
9
  6
CONTINUOUS
 10
10.912548325
 20
5.6325148224
 11
10.9125291964
 21
5.6330696741
  0
SPLINE
  5
34E
100
AcDbEntity
  8
0
100
AcDbSpline
 62
9
  6
CONTINUOUS
 70
0
 71
3
 72
18
 73
14
 74
0
 42
0.0000001
 43
0.0000001
 44
0.0000000001
 40
0.0
 40
0.0
 40
0.0
 40
0.0
 40
0.1293336034
 40
0.2579268435
 40
0.3855072873
 40
0.4488431137
 40
0.5118280152
 40
0.5744325386
 40
0.6366307567
 40
0.6984006377
 40
0.759719886
 40
0.8808964481
 40
1.0
 40
1.0
 40
1.0
 40
1.0
 10
10.912548325
 20
5.6325148224
 30
0.0
 10
10.9078648112
 20
5.6327506876
 30
0.0
 10
10.898536967
 20
5.6335243697
 30
0.0
 10
10.8847019088
 20
5.6355803867
 30
0.0
 10
10.8733690982
 20
5.6380285409
 30
0.0
 10
10.8644774879
 20
5.6404196336
 30
0.0
 10
10.8579246622
 20
5.6424206136
 30
0.0
 10
10.851483161
 20
5.6446311756
 30
0.0
 10
10.8451635238
 20
5.6470485625
 30
0.0
 10
10.8389746445
 20
5.6496661388
 30
0.0
 10
10.8309416456
 20
5.6533996888
 30
0.0
 10
10.8212720547
 20
5.6585272595
 30
0.0
 10
10.8138798285
 20
5.6631547265
 30
0.0
 10
10.8103074082
 20
5.665581133
 30
0.0
  0
SPLINE
  5
34F
100
AcDbEntity
  8
0
100
AcDbSpline
 62
9
  6
CONTINUOUS
 70
0
 71
3
 72
21
 73
17
 74
0
 42
0.0000001
 43
0.0000001
 44
0.0000000001
 40
0.0
 40
0.0
 40
0.0
 40
0.0
 40
0.1573613378
 40
0.2328769401
 40
0.3062133262
 40
0.3773213905
 40
0.4461523459
 40
0.5126587988
 40
0.5767980281
 40
0.6978099586
 40
0.7546010557
 40
0.8088660629
 40
0.8605715656
 40
0.9096834321
 40
0.9561691609
 40
1.0
 40
1.0
 40
1.0
 40
1.0
 10
10.7913765583
 20
5.9592426136
 30
0.0
 10
10.7919863591
 20
5.9438159036
 30
0.0
 10
10.7929377015
 20
5.9209879936
 30
0.0
 10
10.7943031118
 20
5.8909763508
 30
0.0
 10
10.7953416984
 20
5.8694209957
 30
0.0
 10
10.7964093211
 20
5.8485237178
 30
0.0
 10
10.7975067908
 20
5.828299024
 30
0.0
 10
10.7986346685
 20
5.8087608017
 30
0.0
 10
10.8001515681
 20
5.784117223
 30
0.0
 10
10.801754994
 20
5.7604340206
 30
0.0
 10
10.8034681974
 20
5.7377302239
 30
0.0
 10
10.8047587942
 20
5.7218137884
 30
0.0
 10
10.8060829317
 20
5.7066562396
 30
0.0
 10
10.807440689
 20
5.6922680861
 30
0.0
 10
10.8088318657
 20
5.6786595106
 30
0.0
 10
10.8098104211
 20
5.6698525715
 30
0.0
 10
10.8103074082
 20
5.665581133
 30
0.0
  0
LINE
  5
350
100
AcDbEntity
  8
0
100
AcDbLine
 62
9
  6
CONTINUOUS
 10
10.7912828978
 20
5.9616124314
 11
10.7913765583
 21
5.9592426136
  0
LINE
  5
351
100
AcDbEntity
  8
0
100
AcDbLine
 62
9
  6
CONTINUOUS
 10
10.9128459762
 20
5.6241621271
 11
10.912548325
 21
5.6325148224
  0
LINE
  5
352
100
AcDbEntity
  8
0
100
AcDbLine
 62
9
  6
CONTINUOUS
 10
10.9128656417
 20
5.6236117994
 11
10.9128459762
 21
5.6241621271
  0
SPLINE
  5
353
100
AcDbEntity
  8
0
100
AcDbSpline
 62
9
  6
CONTINUOUS
 70
0
 71
3
 72
18
 73
14
 74
0
 42
0.0000001
 43
0.0000001
 44
0.0000000001
 40
0.0
 40
0.0
 40
0.0
 40
0.0
 40
0.1291627979
 40
0.257615312
 40
0.3850949974
 40
0.4483985523
 40
0.5113647651
 40
0.5739653418
 40
0.6361753508
 40
0.6979737477
 40
0.7593392499
 40
0.8806651851
 40
1.0
 40
1.0
 40
1.0
 40
1.0
 10
10.9128656417
 20
5.6236117994
 30
0.0
 10
10.9082193033
 20
5.6238466019
 30
0.0
 10
10.8989645782
 20
5.6246180541
 30
0.0
 10
10.8852374115
 20
5.6266701807
 30
0.0
 10
10.8739922788
 20
5.6291146439
 30
0.0
 10
10.8651685487
 20
5.6315025214
 30
0.0
 10
10.8586645034
 20
5.6335012546
 30
0.0
 10
10.8522702768
 20
5.6357095434
 30
0.0
 10
10.8459963545
 20
5.6381247907
 30
0.0
 10
10.8398515662
 20
5.640740465
 30
0.0
 10
10.8318735735
 20
5.6444724251
 30
0.0
 10
10.8222680702
 20
5.6495991832
 30
0.0
 10
10.8149264893
 20
5.6542246638
 30
0.0
 10
10.8113779501
 20
5.6566501645
 30
0.0
  0
LINE
  5
354
100
AcDbEntity
  8
0
100
AcDbLine
 62
9
  6
CONTINUOUS
 10
10.8103074082
 20
5.665581133
 11
10.8107587868
 21
5.6617407106
  0
SPLINE
  5
355
100
AcDbEntity
  8
0
100
AcDbSpline
 62
9
  6
CONTINUOUS
 70
0
 71
3
 72
15
 73
11
 74
0
 42
0.0000001
 43
0.0000001
 44
0.0000000001
 40
0.0
 40
0.0
 40
0.0
 40
0.0
 40
0.1278588012
 40
0.2550078641
 40
0.3813466432
 40
0.5068099858
 40
0.6313717319
 40
0.7550467246
 40
0.877891002
 40
1.0
 40
1.0
 40
1.0
 40
1.0
 10
11.1651167958
 20
5.6065236535
 30
0.0
 10
11.1654536305
 20
5.606628641
 30
0.0
 10
11.1661153257
 20
5.6068722652
 30
0.0
 10
11.1670619887
 20
5.6073358526
 30
0.0
 10
11.1679500419
 20
5.6078916055
 30
0.0
 10
11.1687691898
 20
5.6085331807
 30
0.0
 10
11.1695100736
 20
5.6092532897
 30
0.0
 10
11.1701641918
 20
5.6100437773
 30
0.0
 10
11.1707239481
 20
5.6108954766
 30
0.0
 10
11.1710308828
 20
5.6114995774
 30
0.0
 10
11.1711663378
 20
5.6118081028
 30
0.0
  0
SPLINE
  5
356
100
AcDbEntity
  8
0
100
AcDbSpline
 62
9
  6
CONTINUOUS
 70
0
 71
3
 72
15
 73
11
 74
0
 42
0.0000001
 43
0.0000001
 44
0.0000000001
 40
0.0
 40
0.0
 40
0.0
 40
0.0
 40
0.1278580126
 40
0.2550068215
 40
0.3813457857
 40
0.5068096063
 40
0.6313719282
 40
0.7550473577
 40
0.8778916645
 40
1.0
 40
1.0
 40
1.0
 40
1.0
 10
11.1651233397
 20
5.6067107912
 30
0.0
 10
11.1654600405
 20
5.6068157511
 30
0.0
 10
11.1661214771
 20
5.6070592916
 30
0.0
 10
11.1670677924
 20
5.607522671
 30
0.0
 10
11.1679555533
 20
5.6080781408
 30
0.0
 10
11.168774476
 20
5.6087193661
 30
0.0
 10
11.1695152119
 20
5.6094390683
 30
0.0
 10
11.1701692681
 20
5.6102291034
 30
0.0
 10
11.1707290552
 20
5.611080317
 30
0.0
 10
11.1710360768
 20
5.6116840817
 30
0.0
 10
11.1711715921
 20
5.6119924391
 30
0.0
  0
SPLINE
  5
357
100
AcDbEntity
  8
0
100
AcDbSpline
 62
9
  6
CONTINUOUS
 70
0
 71
3
 72
15
 73
11
 74
0
 42
0.0000001
 43
0.0000001
 44
0.0000000001
 40
0.0
 40
0.0
 40
0.0
 40
0.0
 40
0.1281208844
 40
0.2554709659
 40
0.3819409922
 40
0.5074583106
 40
0.631990737
 40
0.7555488839
 40
0.8781866964
 40
1.0
 40
1.0
 40
1.0
 40
1.0
 10
11.1654443139
 20
5.6156880371
 30
0.0
 10
11.1657737405
 20
5.6157904929
 30
0.0
 10
11.1664210147
 20
5.6160273312
 30
0.0
 10
11.1673482795
 20
5.6164759912
 30
0.0
 10
11.1682196463
 20
5.6170123912
 30
0.0
 10
11.1690254398
 20
5.6176306688
 30
0.0
 10
11.169756839
 20
5.6183240988
 30
0.0
 10
11.1704058036
 20
5.619085162
 30
0.0
 10
11.1709651097
 20
5.6199054057
 30
0.0
 10
11.1712751795
 20
5.6204878135
 30
0.0
 10
11.1714130469
 20
5.6207854394
 30
0.0
  0
SPLINE
  5
358
100
AcDbEntity
  8
0
100
AcDbSpline
 62
9
  6
CONTINUOUS
 70
0
 71
3
 72
43
 73
39
 74
0
 42
0.0000001
 43
0.0000001
 44
0.0000000001
 40
0.0
 40
0.0
 40
0.0
 40
0.0
 40
0.111472683
 40
0.2167046238
 40
0.2669524229
 40
0.3156050302
 40
0.3626506419
 40
0.4080815513
 40
0.4518920798
 40
0.4940738569
 40
0.5735108529
 40
0.6107476572
 40
0.6463202029
 40
0.6802240414
 40
0.7124544226
 40
0.74300623
 40
0.7718750773
 40
0.7990575457
 40
0.8245511074
 40
0.848354428
 40
0.8704669123
 40
0.8908888441
 40
0.9096214041
 40
0.9266667738
 40
0.9345582089
 40
0.9420297188
 40
0.9490823953
 40
0.9557176816
 40
0.9619374183
 40
0.9677439465
 40
0.9731403248
 40
0.9781305621
 40
0.9827198308
 40
0.9869148983
 40
0.9907249691
 40
0.9941627335
 40
0.9972459957
 40
1.0
 40
1.0
 40
1.0
 40
1.0
 10
10.8117851399
 20
5.6529487938
 30
0.0
 10
10.813015254
 20
5.6420256927
 30
0.0
 10
10.8154791811
 20
5.6207991022
 30
0.0
 10
10.8187069362
 20
5.5946737081
 30
0.0
 10
10.8212934088
 20
5.5747113519
 30
0.0
 10
10.8232000569
 20
5.5604466599
 30
0.0
 10
10.8251013498
 20
5.5466605837
 30
0.0
 10
10.8269948163
 20
5.5333555445
 30
0.0
 10
10.8288776969
 20
5.5205335668
 30
0.0
 10
10.8313228119
 20
5.5044050937
 30
0.0
 10
10.8337820035
 20
5.4889344891
 30
0.0
 10
10.8362631022
 20
5.4741280842
 30
0.0
 10
10.8380631085
 20
5.4637602895
 30
0.0
 10
10.8398411113
 20
5.4538899342
 30
0.0
 10
10.8415957538
 20
5.4445186445
 30
0.0
 10
10.8433258727
 20
5.4356481322
 30
0.0
 10
10.8450303811
 20
5.4272800567
 30
0.0
 10
10.8467083052
 20
5.4194159267
 30
0.0
 10
10.8483589077
 20
5.4120571073
 30
0.0
 10
10.8499819595
 20
5.4052049496
 30
0.0
 10
10.8515770395
 20
5.3988607003
 30
0.0
 10
10.8531435346
 20
5.3930255638
 30
0.0
 10
10.8546806045
 20
5.3877008409
 30
0.0
 10
10.8559663463
 20
5.3835905898
 30
0.0
 10
10.8569832985
 20
5.3805608772
 30
0.0
 10
10.8577181224
 20
5.3784761271
 30
0.0
 10
10.8584446712
 20
5.3765200915
 30
0.0
 10
10.8591628423
 20
5.3746929685
 30
0.0
 10
10.8598724665
 20
5.3729949398
 30
0.0
 10
10.8605733178
 20
5.3714261626
 30
0.0
 10
10.8612651791
 20
5.3699867882
 30
0.0
 10
10.8619478338
 20
5.3686769578
 30
0.0
 10
10.862621057
 20
5.3674968062
 30
0.0
 10
10.8632846391
 20
5.3664464446
 30
0.0
 10
10.8639383939
 20
5.3655259658
 30
0.0
 10
10.8645823256
 20
5.3647353416
 30
0.0
 10
10.8652163809
 20
5.3640746735
 30
0.0
 10
10.8656562353
 20
5.3637010113
 30
0.0
 10
10.8658745985
 20
5.3635395592
 30
0.0
  0
SPLINE
  5
359
100
AcDbEntity
  8
0
100
AcDbSpline
 62
9
  6
CONTINUOUS
 70
0
 71
3
 72
15
 73
11
 74
0
 42
0.0000001
 43
0.0000001
 44
0.0000000001
 40
0.0
 40
0.0
 40
0.0
 40
0.0
 40
0.1281261835
 40
0.2554803184
 40
0.381952983
 40
0.5074713789
 40
0.6320032053
 40
0.7555589927
 40
0.8781926464
 40
1.0
 40
1.0
 40
1.0
 40
1.0
 10
11.1654504634
 20
5.6158661074
 30
0.0
 10
11.1657797482
 20
5.6159685132
 30
0.0
 10
11.1664267461
 20
5.6162052187
 30
0.0
 10
11.1673536391
 20
5.6166535894
 30
0.0
 10
11.1682246852
 20
5.617189616
 30
0.0
 10
11.1690302207
 20
5.617807445
 30
0.0
 10
11.1697614349
 20
5.6185003616
 30
0.0
 10
11.1704102961
 20
5.6192608587
 30
0.0
 10
11.1709695873
 20
5.6200804969
 30
0.0
 10
11.1712797123
 20
5.6206624866
 30
0.0
 10
11.1714176231
 20
5.6209599023
 30
0.0
  0
SPLINE
  5
35A
100
AcDbEntity
  8
0
100
AcDbSpline
 62
9
  6
CONTINUOUS
 70
0
 71
3
 72
9
 73
5
 74
0
 42
0.0000001
 43
0.0000001
 44
0.0000000001
 40
0.0
 40
0.0
 40
0.0
 40
0.0
 40
0.5133464814
 40
1.0
 40
1.0
 40
1.0
 40
1.0
 10
11.1711309659
 20
5.9290503844
 30
0.0
 10
11.1716959189
 20
5.9291864959
 30
0.0
 10
11.1727808303
 20
5.9295228225
 30
0.0
 10
11.1738076375
 20
5.9300114378
 30
0.0
 10
11.1742835752
 20
5.930288882
 30
0.0
  0
SPLINE
  5
35B
100
AcDbEntity
  8
0
100
AcDbSpline
 62
9
  6
CONTINUOUS
 70
0
 71
3
 72
9
 73
5
 74
0
 42
0.0000001
 43
0.0000001
 44
0.0000000001
 40
0.0
 40
0.0
 40
0.0
 40
0.0
 40
0.5133456
 40
1.0
 40
1.0
 40
1.0
 40
1.0
 10
11.1711313236
 20
5.9290878842
 30
0.0
 10
11.1716962091
 20
5.9292239732
 30
0.0
 10
11.1727809958
 20
5.9295602367
 30
0.0
 10
11.1738076997
 20
5.9300487469
 30
0.0
 10
11.1742835976
 20
5.9303261301
 30
0.0
  0
SPLINE
  5
35C
100
AcDbEntity
  8
0
100
AcDbSpline
 62
9
  6
CONTINUOUS
 70
0
 71
3
 72
15
 73
11
 74
0
 42
0.0000001
 43
0.0000001
 44
0.0000000001
 40
0.0
 40
0.0
 40
0.0
 40
0.0
 40
0.1093428538
 40
0.2237840035
 40
0.3430354937
 40
0.4667936258
 40
0.5947303104
 40
0.7264978421
 40
0.8617208248
 40
1.0
 40
1.0
 40
1.0
 40
1.0
 10
10.758306
 20
5.9986034663
 30
0.0
 10
10.7568505014
 20
6.0132735717
 30
0.0
 10
10.7539048535
 20
6.0433010969
 30
0.0
 10
10.749449102
 20
6.089335668
 30
0.0
 10
10.7448308096
 20
6.137307118
 30
0.0
 10
10.7400387448
 20
6.1870897835
 30
0.0
 10
10.7350620234
 20
6.238549947
 30
0.0
 10
10.7298732899
 20
6.2915425444
 30
0.0
 10
10.7244454869
 20
6.3459127464
 30
0.0
 10
10.7206880744
 20
6.3825957606
 30
0.0
 10
10.7187590088
 20
6.4011391577
 30
0.0
  0
SPLINE
  5
35D
100
AcDbEntity
  8
0
100
AcDbSpline
 62
9
  6
CONTINUOUS
 70
0
 71
3
 72
17
 73
13
 74
0
 42
0.0000001
 43
0.0000001
 44
0.0000000001
 40
0.0
 40
0.0
 40
0.0
 40
0.0
 40
0.1384917394
 40
0.2739495838
 40
0.4059400368
 40
0.4705031301
 40
0.5340448703
 40
0.5965167325
 40
0.6578707755
 40
0.7770389278
 40
0.8911963353
 40
1.0
 40
1.0
 40
1.0
 40
1.0
 10
10.7774060545
 20
6.4011532031
 30
0.0
 10
10.7776684578
 20
6.3812257043
 30
0.0
 10
10.778146905
 20
6.3418067114
 30
0.0
 10
10.7787653024
 20
6.2833944236
 30
0.0
 10
10.7792258313
 20
6.2356195653
 30
0.0
 10
10.7795775789
 20
6.1981930089
 30
0.0
 10
10.779836121
 20
6.1707698762
 30
0.0
 10
10.780094677
 20
6.1438085528
 30
0.0
 10
10.7804410078
 20
6.1088429577
 30
0.0
 10
10.7808868103
 20
6.0664403338
 30
0.0
 10
10.7814688887
 20
6.017210707
 30
0.0
 10
10.7819117365
 20
5.9851292012
 30
0.0
 10
10.7821499396
 20
5.9694739577
 30
0.0
  0
LINE
  5
35E
100
AcDbEntity
  8
0
100
AcDbLine
 62
9
  6
CONTINUOUS
 10
10.7821499396
 20
5.9694739577
 11
10.7821845977
 21
5.9671939474
  0
SPLINE
  5
35F
100
AcDbEntity
  8
0
100
AcDbSpline
 62
9
  6
CONTINUOUS
 70
0
 71
3
 72
15
 73
11
 74
0
 42
0.0000001
 43
0.0000001
 44
0.0000000001
 40
0.0
 40
0.0
 40
0.0
 40
0.0
 40
0.1527691811
 40
0.2976569835
 40
0.4345830825
 40
0.5634751812
 40
0.6843293356
 40
0.797262776
 40
0.902424928
 40
1.0
 40
1.0
 40
1.0
 40
1.0
 10
10.7821845977
 20
5.9671939474
 30
0.0
 10
10.7806484029
 20
5.9685204418
 30
0.0
 10
10.777715567
 20
5.9711760545
 30
0.0
 10
10.7736355936
 20
5.9752649263
 30
0.0
 10
10.7699919842
 20
5.97933045
 30
0.0
 10
10.7667865355
 20
5.9833488498
 30
0.0
 10
10.7640191784
 20
5.9872974074
 30
0.0
 10
10.7616843232
 20
5.9911523484
 30
0.0
 10
10.7597758167
 20
5.9948910611
 30
0.0
 10
10.7587452584
 20
5.9973837974
 30
0.0
 10
10.758306
 20
5.9986034663
 30
0.0
  0
LINE
  5
360
100
AcDbEntity
  8
0
100
AcDbLine
 62
9
  6
CONTINUOUS
 10
10.7585167146
 20
5.9964817081
 11
10.758306
 21
5.9986034663
  0
SPLINE
  5
361
100
AcDbEntity
  8
0
100
AcDbSpline
 62
9
  6
CONTINUOUS
 70
0
 71
3
 72
20
 73
16
 74
0
 42
0.0000001
 43
0.0000001
 44
0.0000000001
 40
0.0
 40
0.0
 40
0.0
 40
0.0
 40
0.1613094839
 40
0.3130994487
 40
0.3852837929
 40
0.4549212431
 40
0.5863442753
 40
0.6480298439
 40
0.7069637637
 40
0.7630947519
 40
0.8163753834
 40
0.8667572102
 40
0.9141886879
 40
0.9586194697
 40
1.0
 40
1.0
 40
1.0
 40
1.0
 10
10.7821845977
 20
5.9671939474
 30
0.0
 10
10.782410332
 20
5.9524832224
 30
0.0
 10
10.7828950758
 20
5.923930595
 30
0.0
 10
10.7836294217
 20
5.8887978084
 30
0.0
 10
10.784282554
 20
5.8620264761
 30
0.0
 10
10.7849532457
 20
5.8371138116
 30
0.0
 10
10.7856955053
 20
5.8131610072
 30
0.0
 10
10.7865256359
 20
5.7901880683
 30
0.0
 10
10.7871674613
 20
5.7740800346
 30
0.0
 10
10.7878409721
 20
5.7587405772
 30
0.0
 10
10.7885457749
 20
5.7441833898
 30
0.0
 10
10.7892810658
 20
5.7304222234
 30
0.0
 10
10.7900455647
 20
5.7174711194
 30
0.0
 10
10.7908381548
 20
5.7053443146
 30
0.0
 10
10.7914048748
 20
5.6975382231
 30
0.0
 10
10.7916945528
 20
5.6937751873
 30
0.0
  0
SPLINE
  5
362
100
AcDbEntity
  8
0
100
AcDbSpline
 62
9
  6
CONTINUOUS
 70
0
 71
3
 72
13
 73
9
 74
0
 42
0.0000001
 43
0.0000001
 44
0.0000000001
 40
0.0
 40
0.0
 40
0.0
 40
0.0
 40
0.1155944287
 40
0.2328734468
 40
0.3524515699
 40
0.4748966325
 40
0.7297662131
 40
1.0
 40
1.0
 40
1.0
 40
1.0
 10
10.7585167146
 20
5.9964817081
 30
0.0
 10
10.7584726694
 20
5.9966606345
 30
0.0
 10
10.7583634106
 20
5.9970163682
 30
0.0
 10
10.7581399853
 20
5.9975330045
 30
0.0
 10
10.7578575294
 20
5.9980325082
 30
0.0
 10
10.7573989192
 20
5.9986797764
 30
0.0
 10
10.7566808951
 20
5.9994300441
 30
0.0
 10
10.7560035628
 20
5.9999288319
 30
0.0
 10
10.7556387265
 20
6.0001578799
 30
0.0
  0
SPLINE
  5
363
100
AcDbEntity
  8
0
100
AcDbSpline
 62
9
  6
CONTINUOUS
 70
0
 71
3
 72
13
 73
9
 74
0
 42
0.0000001
 43
0.0000001
 44
0.0000000001
 40
0.0
 40
0.0
 40
0.0
 40
0.0
 40
0.1155429731
 40
0.2327924626
 40
0.3523588758
 40
0.4748056238
 40
0.7297087886
 40
1.0
 40
1.0
 40
1.0
 40
1.0
 10
10.7583060002
 20
5.9986034663
 30
0.0
 10
10.7582616693
 20
5.998780708
 30
0.0
 10
10.7581521033
 20
5.9991330652
 30
0.0
 10
10.7579290269
 20
5.9996447367
 30
0.0
 10
10.7576476898
 20
6.0001394742
 30
0.0
 10
10.7571915645
 20
6.000780697
 30
0.0
 10
10.7564784917
 20
6.0015242266
 30
0.0
 10
10.755806517
 20
6.0020190213
 30
0.0
 10
10.755444633
 20
6.0022464139
 30
0.0
  0
SPLINE
  5
364
100
AcDbEntity
  8
0
100
AcDbSpline
 62
9
  6
CONTINUOUS
 70
0
 71
3
 72
13
 73
9
 74
0
 42
0.0000001
 43
0.0000001
 44
0.0000000001
 40
0.0
 40
0.0
 40
0.0
 40
0.0
 40
0.115594447
 40
0.2328734727
 40
0.3524515956
 40
0.4748966527
 40
0.7297662175
 40
1.0
 40
1.0
 40
1.0
 40
1.0
 10
11.336120167
 20
5.9964817189
 30
0.0
 10
11.3361642119
 20
5.9966606452
 30
0.0
 10
11.33627347
 20
5.9970163788
 30
0.0
 10
11.3364968943
 20
5.997533015
 30
0.0
 10
11.3367793493
 20
5.9980325187
 30
0.0
 10
11.3372379581
 20
5.9986797867
 30
0.0
 10
11.3379559807
 20
5.9994300546
 30
0.0
 10
11.3386333118
 20
5.9999288426
 30
0.0
 10
11.3389981476
 20
6.0001578907
 30
0.0
  0
SPLINE
  5
365
100
AcDbEntity
  8
0
100
AcDbSpline
 62
9
  6
CONTINUOUS
 70
0
 71
3
 72
13
 73
9
 74
0
 42
0.0000001
 43
0.0000001
 44
0.0000000001
 40
0.0
 40
0.0
 40
0.0
 40
0.0
 40
0.1155429904
 40
0.2327924873
 40
0.3523589002
 40
0.474805643
 40
0.7297087929
 40
1.0
 40
1.0
 40
1.0
 40
1.0
 10
11.336330883
 20
5.9986034802
 30
0.0
 10
11.3363752135
 20
5.9987807218
 30
0.0
 10
11.3364847789
 20
5.9991330789
 30
0.0
 10
11.3367078544
 20
5.9996447502
 30
0.0
 10
11.3369891905
 20
6.0001394875
 30
0.0
 10
11.3374453146
 20
6.0007807103
 30
0.0
 10
11.3381583858
 20
6.0015242399
 30
0.0
 10
11.3388303594
 20
6.0020190347
 30
0.0
 10
11.3391922428
 20
6.0022464273
 30
0.0
  0
SPLINE
  5
366
100
AcDbEntity
  8
0
100
AcDbSpline
 62
9
  6
CONTINUOUS
 70
0
 71
3
 72
15
 73
11
 74
0
 42
0.0000001
 43
0.0000001
 44
0.0000000001
 40
0.0
 40
0.0
 40
0.0
 40
0.0
 40
0.1089140951
 40
0.2230405432
 40
0.3420973604
 40
0.4657860479
 40
0.5937815444
 40
0.7257374358
 40
0.8612775887
 40
1.0
 40
1.0
 40
1.0
 40
1.0
 10
10.7554446327
 20
6.0022464137
 30
0.0
 10
10.7541004398
 20
6.0167269864
 30
0.0
 10
10.7513798791
 20
6.0463841204
 30
0.0
 10
10.7472640522
 20
6.0918770998
 30
0.0
 10
10.7429939318
 20
6.1393369566
 30
0.0
 10
10.738557983
 20
6.188641247
 30
0.0
 10
10.7339441652
 20
6.2396588485
 30
0.0
 10
10.729124156
 20
6.2922467145
 30
0.0
 10
10.7240696669
 20
6.3462513297
 30
0.0
 10
10.7205624871
 20
6.3827041596
 30
0.0
 10
10.7187590089
 20
6.4011391567
 30
0.0
  0
LINE
  5
367
100
AcDbEntity
  8
0
100
AcDbLine
 62
9
  6
CONTINUOUS
 10
10.7556387265
 20
6.0001578799
 11
10.7554446327
 21
6.0022464137
  0
SPLINE
  5
368
100
AcDbEntity
  8
0
100
AcDbSpline
 62
9
  6
CONTINUOUS
 70
0
 71
3
 72
15
 73
11
 74
0
 42
0.0000001
 43
0.0000001
 44
0.0000000001
 40
0.0
 40
0.0
 40
0.0
 40
0.0
 40
0.1368625728
 40
0.2706164247
 40
0.4010949807
 40
0.528149227
 40
0.6516517048
 40
0.7714942079
 40
0.8876080914
 40
1.0
 40
1.0
 40
1.0
 40
1.0
 10
10.7556387265
 20
6.0001578799
 30
0.0
 10
10.7535968258
 20
6.000439194
 30
0.0
 10
10.7495703249
 20
6.0010789072
 30
0.0
 10
10.743649296
 20
6.0022842926
 30
0.0
 10
10.7379317414
 20
6.0037197904
 30
0.0
 10
10.7324363971
 20
6.005380416
 30
0.0
 10
10.7271818575
 20
6.007260477
 30
0.0
 10
10.7221852913
 20
6.0093509281
 30
0.0
 10
10.7174633895
 20
6.0116432431
 30
0.0
 10
10.7144588513
 20
6.0133263571
 30
0.0
 10
10.7130089826
 20
6.0141998301
 30
0.0
  0
SPLINE
  5
369
100
AcDbEntity
  8
0
100
AcDbSpline
 62
9
  6
CONTINUOUS
 70
0
 71
3
 72
15
 73
11
 74
0
 42
0.0000001
 43
0.0000001
 44
0.0000000001
 40
0.0
 40
0.0
 40
0.0
 40
0.0
 40
0.1375074849
 40
0.2720814921
 40
0.4033893268
 40
0.5311127566
 40
0.6549390933
 40
0.7745635465
 40
0.8896839108
 40
1.0
 40
1.0
 40
1.0
 40
1.0
 10
10.6869953659
 20
6.4011525498
 30
0.0
 10
10.6882350455
 20
6.38341946
 30
0.0
 10
10.6906391805
 20
6.348328166
 30
0.0
 10
10.6940980122
 20
6.2962945654
 30
0.0
 10
10.6974112764
 20
6.2455189713
 30
0.0
 10
10.7006167971
 20
6.1961287222
 30
0.0
 10
10.7037528701
 20
6.1482475222
 30
0.0
 10
10.7068375763
 20
6.1019957388
 30
0.0
 10
10.7098886901
 20
6.057492204
 30
0.0
 10
10.711964368
 20
6.0284227036
 30
0.0
 10
10.7130089826
 20
6.0141998301
 30
0.0
  0
LINE
  5
36A
100
AcDbEntity
  8
0
100
AcDbLine
 62
7
  6
CONTINUOUS
 10
10.7187590089
 20
6.4011391567
 11
10.6869953659
 21
6.4011525498
  0
SPLINE
  5
36B
100
AcDbEntity
  8
0
100
AcDbSpline
 62
9
  6
CONTINUOUS
 70
0
 71
3
 72
20
 73
16
 74
0
 42
0.0000001
 43
0.0000001
 44
0.0000000001
 40
0.0
 40
0.0
 40
0.0
 40
0.0
 40
0.0433653356
 40
0.0894260551
 40
0.1381549818
 40
0.1895220564
 40
0.2434964168
 40
0.3000497228
 40
0.3591520955
 40
0.4207692925
 40
0.5514122005
 40
0.6203716487
 40
0.6917069767
 40
0.8413456336
 40
1.0
 40
1.0
 40
1.0
 40
1.0
 10
10.7851552023
 20
5.7408284816
 30
0.0
 10
10.784577285
 20
5.7445573039
 30
0.0
 10
10.7834146375
 20
5.7522512452
 30
0.0
 10
10.7816962378
 20
5.7641491215
 30
0.0
 10
10.7799525878
 20
5.7767466029
 30
0.0
 10
10.7781856788
 20
5.7900358133
 30
0.0
 10
10.7763974207
 20
5.8040088218
 30
0.0
 10
10.7745896054
 20
5.8186577298
 30
0.0
 10
10.7727630996
 20
5.8339742663
 30
0.0
 10
10.7702553653
 20
5.8557018338
 30
0.0
 10
10.7677695153
 20
5.8782951357
 30
0.0
 10
10.7652918128
 20
5.9017396481
 30
0.0
 10
10.7627076484
 20
5.92683491
 30
0.0
 10
10.7594476286
 20
5.9597063187
 30
0.0
 10
10.7569158852
 20
5.9864121169
 30
0.0
 10
10.7556387265
 20
6.0001578799
 30
0.0
  0
SPLINE
  5
36C
100
AcDbEntity
  8
0
100
AcDbSpline
 62
9
  6
CONTINUOUS
 70
0
 71
3
 72
14
 73
10
 74
0
 42
0.0000001
 43
0.0000001
 44
0.0000000001
 40
0.0
 40
0.0
 40
0.0
 40
0.0
 40
0.2569147943
 40
0.3837867161
 40
0.5094933368
 40
0.6339927813
 40
0.7572488276
 40
0.8792464663
 40
1.0
 40
1.0
 40
1.0
 40
1.0
 10
10.7855484958
 20
5.7371855128
 30
0.0
 10
10.781176952
 20
5.7381663088
 30
0.0
 10
10.7747177621
 20
5.7399864659
 30
0.0
 10
10.766396741
 20
5.7431105674
 30
0.0
 10
10.7603799119
 20
5.7457732537
 30
0.0
 10
10.7545857063
 20
5.7487548199
 30
0.0
 10
10.7490346162
 20
5.7520430787
 30
0.0
 10
10.7437476141
 20
5.7556255108
 30
0.0
 10
10.7403936993
 20
5.758213752
 30
0.0
 10
10.7387681656
 20
5.7595523656
 30
0.0
  0
SPLINE
  5
36D
100
AcDbEntity
  8
0
100
AcDbSpline
 62
9
  6
CONTINUOUS
 70
0
 71
3
 72
21
 73
17
 74
0
 42
0.0000001
 43
0.0000001
 44
0.0000000001
 40
0.0
 40
0.0
 40
0.0
 40
0.0
 40
0.1587891317
 40
0.308153528
 40
0.3792761921
 40
0.4480090073
 40
0.5143381309
 40
0.578249869
 40
0.6397291061
 40
0.6987545281
 40
0.7553034077
 40
0.8093532336
 40
0.860879854
 40
0.9098518041
 40
0.9562360541
 40
1.0
 40
1.0
 40
1.0
 40
1.0
 10
10.7130089826
 20
6.0141998301
 30
0.0
 10
10.7140015314
 20
6.0006858538
 30
0.0
 10
10.7159932699
 20
5.9744647591
 30
0.0
 10
10.7186312773
 20
5.9422064337
 30
0.0
 10
10.7207661067
 20
5.9176181205
 30
0.0
 10
10.722350624
 20
5.9000946706
 30
0.0
 10
10.7239452716
 20
5.8831901199
 30
0.0
 10
10.7255505419
 20
5.8669084474
 30
0.0
 10
10.72716685
 20
5.8512543123
 30
0.0
 10
10.7287935156
 20
5.8362330825
 30
0.0
 10
10.7304297789
 20
5.8218507966
 30
0.0
 10
10.7320748435
 20
5.8081137863
 30
0.0
 10
10.7337278093
 20
5.7950291914
 30
0.0
 10
10.7353869067
 20
5.7826050163
 30
0.0
 10
10.7370502584
 20
5.7708500826
 30
0.0
 10
10.7381942428
 20
5.7632426286
 30
0.0
 10
10.7387681656
 20
5.7595523656
 30
0.0
  0
SPLINE
  5
36E
100
AcDbEntity
  8
0
100
AcDbSpline
 62
9
  6
CONTINUOUS
 70
0
 71
3
 72
14
 73
10
 74
0
 42
0.0000001
 43
0.0000001
 44
0.0000000001
 40
0.0
 40
0.0
 40
0.0
 40
0.0
 40
0.2565804154
 40
0.3833603277
 40
0.5090308389
 40
0.6335529318
 40
0.7568927641
 40
0.8790371276
 40
1.0
 40
1.0
 40
1.0
 40
1.0
 10
10.786386247
 20
5.7295419171
 30
0.0
 10
10.7820537247
 20
5.7305348952
 30
0.0
 10
10.775652513
 20
5.7323694728
 30
0.0
 10
10.7674066941
 20
5.7355038804
 30
0.0
 10
10.7614414365
 20
5.738171058
 30
0.0
 10
10.7556946944
 20
5.7411533412
 30
0.0
 10
10.7501864827
 20
5.7444388738
 30
0.0
 10
10.7449372271
 20
5.7480153154
 30
0.0
 10
10.7416057717
 20
5.7505968857
 30
0.0
 10
10.7399904121
 20
5.7519316919
 30
0.0
  0
LINE
  5
36F
100
AcDbEntity
  8
0
100
AcDbLine
 62
9
  6
CONTINUOUS
 10
10.7387681656
 20
5.7595523656
 11
10.7399904121
 21
5.7519316919
  0
SPLINE
  5
370
100
AcDbEntity
  8
0
100
AcDbSpline
 62
9
  6
CONTINUOUS
 70
0
 71
3
 72
39
 73
35
 74
0
 42
0.0000001
 43
0.0000001
 44
0.0000000001
 40
0.0
 40
0.0
 40
0.0
 40
0.0
 40
0.1112450536
 40
0.2160912478
 40
0.314401263
 40
0.4060644836
 40
0.4910312126
 40
0.5309908209
 40
0.569261893
 40
0.6058461728
 40
0.6407484806
 40
0.673974371
 40
0.7055321669
 40
0.7354311896
 40
0.7636826523
 40
0.7903023096
 40
0.8153071106
 40
0.8387145414
 40
0.8605457022
 40
0.880837111
 40
0.8996292547
 40
0.9169586185
 40
0.9328510826
 40
0.9473338959
 40
0.9540569012
 40
0.9604400842
 40
0.9664884944
 40
0.9722075157
 40
0.9776029336
 40
0.9826813655
 40
0.9874504802
 40
0.9919192531
 40
0.9960982778
 40
1.0
 40
1.0
 40
1.0
 40
1.0
 10
10.7399904121
 20
5.7519316919
 30
0.0
 10
10.7416083211
 20
5.7419672281
 30
0.0
 10
10.7448120821
 20
5.7226212899
 30
0.0
 10
10.7496679409
 20
5.6945069083
 30
0.0
 10
10.7544180036
 20
5.668178233
 30
0.0
 10
10.7590480632
 20
5.6436618301
 30
0.0
 10
10.76286948
 20
5.624382096
 30
0.0
 10
10.765861452
 20
5.6098780341
 30
0.0
 10
10.7680216753
 20
5.5996854741
 30
0.0
 10
10.7701435526
 20
5.5899540753
 30
0.0
 10
10.7722265985
 20
5.5806829791
 30
0.0
 10
10.7742703828
 20
5.5718707725
 30
0.0
 10
10.7762748765
 20
5.5635157688
 30
0.0
 10
10.778240147
 20
5.5556158475
 30
0.0
 10
10.7801664498
 20
5.5481683249
 30
0.0
 10
10.7820545418
 20
5.5411700434
 30
0.0
 10
10.7839052078
 20
5.5346174106
 30
0.0
 10
10.7857194635
 20
5.5285065726
 30
0.0
 10
10.7874993681
 20
5.522832388
 30
0.0
 10
10.7892460862
 20
5.5175875583
 30
0.0
 10
10.7909610737
 20
5.5127637577
 30
0.0
 10
10.792645419
 20
5.5083539504
 30
0.0
 10
10.7943011008
 20
5.5043534616
 30
0.0
 10
10.7956901672
 20
5.5012859875
 30
0.0
 10
10.7967920779
 20
5.4990377655
 30
0.0
 10
10.7975913615
 20
5.4974940707
 30
0.0
 10
10.79838423
 20
5.496050176
 30
0.0
 10
10.7991707628
 20
5.4947056798
 30
0.0
 10
10.7999509823
 20
5.493460205
 30
0.0
 10
10.8007249158
 20
5.4923133953
 30
0.0
 10
10.8014925931
 20
5.4912648951
 30
0.0
 10
10.8022540786
 20
5.490314327
 30
0.0
 10
10.8030093832
 20
5.4894613886
 30
0.0
 10
10.8035260497
 20
5.488940277
 30
0.0
 10
10.8037835856
 20
5.4886973045
 30
0.0
  0
SPLINE
  5
371
100
AcDbEntity
  8
0
100
AcDbSpline
 62
9
  6
CONTINUOUS
 70
0
 71
3
 72
15
 73
11
 74
0
 42
0.0000001
 43
0.0000001
 44
0.0000000001
 40
0.0
 40
0.0
 40
0.0
 40
0.0
 40
0.127122351
 40
0.2535357636
 40
0.379272645
 40
0.5043790127
 40
0.628919203
 40
0.7529727818
 40
0.8766310258
 40
1.0
 40
1.0
 40
1.0
 40
1.0
 10
10.8117851395
 20
5.6529487933
 30
0.0
 10
10.8105909006
 20
5.6539013749
 30
0.0
 10
10.8082833789
 20
5.6558966823
 30
0.0
 10
10.8050833255
 20
5.6591486698
 30
0.0
 10
10.8021733979
 20
5.662631631
 30
0.0
 10
10.7995723256
 20
5.6663234273
 30
0.0
 10
10.7972965346
 20
5.6702008015
 30
0.0
 10
10.7953604709
 20
5.6742393697
 30
0.0
 10
10.7937764951
 20
5.6784132221
 30
0.0
 10
10.7929610087
 20
5.6812719158
 30
0.0
 10
10.7926153864
 20
5.6827135796
 30
0.0
  0
SPLINE
  5
372
100
AcDbEntity
  8
0
100
AcDbSpline
 62
9
  6
CONTINUOUS
 70
0
 71
3
 72
15
 73
11
 74
0
 42
0.0000001
 43
0.0000001
 44
0.0000000001
 40
0.0
 40
0.0
 40
0.0
 40
0.0
 40
0.1271260137
 40
0.2535460673
 40
0.379290976
 40
0.5044048157
 40
0.6289495802
 40
0.7530022227
 40
0.8766512877
 40
1.0
 40
1.0
 40
1.0
 40
1.0
 10
10.8113779501
 20
5.6566501645
 30
0.0
 10
10.8101974876
 20
5.6575930607
 30
0.0
 10
10.8079158261
 20
5.6595668766
 30
0.0
 10
10.8047487019
 20
5.6627808048
 30
0.0
 10
10.801865071
 20
5.6662206745
 30
0.0
 10
10.7992830828
 20
5.6698651017
 30
0.0
 10
10.7970186827
 20
5.6736916337
 30
0.0
 10
10.795085926
 20
5.6776767372
 30
0.0
 10
10.7934968818
 20
5.6817954093
 30
0.0
 10
10.7926722552
 20
5.6846168675
 30
0.0
 10
10.7923206254
 20
5.6860399887
 30
0.0
  0
SPLINE
  5
373
100
AcDbEntity
  8
0
100
AcDbSpline
 62
9
  6
CONTINUOUS
 70
0
 71
3
 72
15
 73
11
 74
0
 42
0.0000001
 43
0.0000001
 44
0.0000000001
 40
0.0
 40
0.0
 40
0.0
 40
0.0
 40
0.1272285247
 40
0.2537222922
 40
0.3795116134
 40
0.5046401025
 40
0.6291697913
 40
0.7531779027
 40
0.8767532964
 40
1.0
 40
1.0
 40
1.0
 40
1.0
 10
10.8107587868
 20
5.6617407106
 30
0.0
 10
10.8096029058
 20
5.6626658792
 30
0.0
 10
10.8073678533
 20
5.6646004806
 30
0.0
 10
10.8042613966
 20
5.6677456516
 30
0.0
 10
10.8014283609
 20
5.6711077426
 30
0.0
 10
10.7988859433
 20
5.6746666037
 30
0.0
 10
10.7966492731
 20
5.6784010883
 30
0.0
 10
10.7947317489
 20
5.6822890618
 30
0.0
 10
10.7931449189
 20
5.6863069981
 30
0.0
 10
10.7923127503
 20
5.6890600936
 30
0.0
 10
10.7919551009
 20
5.690448988
 30
0.0
  0
SPLINE
  5
374
100
AcDbEntity
  8
0
100
AcDbSpline
 62
9
  6
CONTINUOUS
 70
0
 71
3
 72
15
 73
11
 74
0
 42
0.0000001
 43
0.0000001
 44
0.0000000001
 40
0.0
 40
0.0
 40
0.0
 40
0.0
 40
0.1273117494
 40
0.2538647448
 40
0.3796891568
 40
0.5048286904
 40
0.6293455844
 40
0.75331748
 40
0.8768339656
 40
1.0
 40
1.0
 40
1.0
 40
1.0
 10
10.8103074082
 20
5.6655811329
 30
0.0
 10
10.8091697092
 20
5.6664926661
 30
0.0
 10
10.8069691451
 20
5.6683972584
 30
0.0
 10
10.8039076358
 20
5.6714901937
 30
0.0
 10
10.8011121991
 20
5.6747934696
 30
0.0
 10
10.7985993446
 20
5.678287825
 30
0.0
 10
10.7963836231
 20
5.6819530599
 30
0.0
 10
10.7944779489
 20
5.6857680394
 30
0.0
 10
10.792893493
 20
5.6897103022
 30
0.0
 10
10.7920563354
 20
5.6924120265
 30
0.0
 10
10.7916945528
 20
5.6937751873
 30
0.0
  0
SPLINE
  5
375
100
AcDbEntity
  8
0
100
AcDbSpline
 62
9
  6
CONTINUOUS
 70
0
 71
3
 72
9
 73
5
 74
0
 42
0.0000001
 43
0.0000001
 44
0.0000000001
 40
0.0
 40
0.0
 40
0.0
 40
0.0
 40
0.5128948712
 40
1.0
 40
1.0
 40
1.0
 40
1.0
 10
10.7913765585
 20
5.9592426138
 30
0.0
 10
10.7896417088
 20
5.960394658
 30
0.0
 10
10.7863870719
 20
5.9628419854
 30
0.0
 10
10.78348415
 20
5.9657030096
 30
0.0
 10
10.7821845979
 20
5.9671939475
 30
0.0
  0
SPLINE
  5
376
100
AcDbEntity
  8
0
100
AcDbSpline
 62
9
  6
CONTINUOUS
 70
0
 71
3
 72
9
 73
5
 74
0
 42
0.0000001
 43
0.0000001
 44
0.0000000001
 40
0.0
 40
0.0
 40
0.0
 40
0.0
 40
0.5129048638
 40
1.0
 40
1.0
 40
1.0
 40
1.0
 10
10.7912828978
 20
5.9616124314
 30
0.0
 10
10.7895612536
 20
5.9627522843
 30
0.0
 10
10.7863300428
 20
5.9651725716
 30
0.0
 10
10.7834436629
 20
5.9680004135
 30
0.0
 10
10.7821499396
 20
5.9694739576
 30
0.0
  0
LINE
  5
377
100
AcDbEntity
  8
0
100
AcDbLine
 62
9
  6
CONTINUOUS
 10
10.6703325844
 20
6.4011535457
 11
10.6866530691
 21
6.4011535582
  0
LINE
  5
378
100
AcDbEntity
  8
0
100
AcDbLine
 62
9
  6
CONTINUOUS
 10
10.686995334
 20
6.4011527578
 11
10.686653191
 21
6.4011527583
  0
SPLINE
  5
379
100
AcDbEntity
  8
0
100
AcDbSpline
 62
9
  6
CONTINUOUS
 70
0
 71
3
 72
18
 73
14
 74
0
 42
0.0000001
 43
0.0000001
 44
0.0000000001
 40
0.0
 40
0.0
 40
0.0
 40
0.0
 40
0.145077787
 40
0.2832813727
 40
0.4149578233
 40
0.5405897649
 40
0.6608451859
 40
0.7192628407
 40
0.7767003199
 40
0.8333190494
 40
0.8892912961
 40
0.9447924152
 40
1.0
 40
1.0
 40
1.0
 40
1.0
 10
10.7130089826
 20
6.0141998301
 30
0.0
 10
10.7110671754
 20
6.0153696712
 30
0.0
 10
10.7073719831
 20
6.0178200573
 30
0.0
 10
10.7023249143
 20
6.0219067305
 30
0.0
 10
10.697936956
 20
6.0262758514
 30
0.0
 10
10.6942373656
 20
6.0308879782
 30
0.0
 10
10.6917274161
 20
6.0349433794
 30
0.0
 10
10.6901094534
 20
6.0382618762
 30
0.0
 10
10.6890981373
 20
6.0407624748
 30
0.0
 10
10.6882794252
 20
6.0432924104
 30
0.0
 10
10.6876531071
 20
6.0458456642
 30
0.0
 10
10.6872193904
 20
6.0484161113
 30
0.0
 10
10.687058409
 20
6.0501404141
 30
0.0
 10
10.6870102548
 20
6.0510017361
 30
0.0
  0
SPLINE
  5
37A
100
AcDbEntity
  8
0
100
AcDbSpline
 62
9
  6
CONTINUOUS
 70
0
 71
3
 72
15
 73
11
 74
0
 42
0.0000001
 43
0.0000001
 44
0.0000000001
 40
0.0
 40
0.0
 40
0.0
 40
0.0
 40
0.1271223445
 40
0.2535357535
 40
0.3792726337
 40
0.5043790025
 40
0.6289191954
 40
0.7529727774
 40
0.8766310242
 40
1.0
 40
1.0
 40
1.0
 40
1.0
 10
11.2828516277
 20
5.6529487636
 30
0.0
 10
11.2840458614
 20
5.6539013415
 30
0.0
 10
11.2863533734
 20
5.6558966406
 30
0.0
 10
11.2895534145
 20
5.6591486137
 30
0.0
 10
11.2924633324
 20
5.6626315587
 30
0.0
 10
11.2950643975
 20
5.6663233372
 30
0.0
 10
11.2973401844
 20
5.6702006925
 30
0.0
 10
11.299276247
 20
5.674239241
 30
0.0
 10
11.3008602248
 20
5.678413073
 30
0.0
 10
11.3016757147
 20
5.681271753
 30
0.0
 10
11.3020213393
 20
5.68271341
 30
0.0
  0
SPLINE
  5
37B
100
AcDbEntity
  8
0
100
AcDbSpline
 62
9
  6
CONTINUOUS
 70
0
 71
3
 72
18
 73
14
 74
0
 42
0.0000001
 43
0.0000001
 44
0.0000000001
 40
0.0
 40
0.0
 40
0.0
 40
0.0
 40
0.1297482517
 40
0.1940477283
 40
0.2579701517
 40
0.3846999105
 40
0.5100446126
 40
0.6341002079
 40
0.7569876416
 40
0.818054772
 40
0.878893311
 40
0.9395311182
 40
1.0
 40
1.0
 40
1.0
 40
1.0
 10
10.7387681656
 20
5.7595523656
 30
0.0
 10
10.7368652848
 20
5.7611193724
 30
0.0
 10
10.7341069036
 20
5.7635725155
 30
0.0
 10
10.7306384458
 20
5.7670365033
 30
0.0
 10
10.7273451349
 20
5.7705898711
 30
0.0
 10
10.7235224351
 20
5.7752276014
 30
0.0
 10
10.7194210138
 20
5.7810884486
 30
0.0
 10
10.7158393236
 20
5.7871963073
 30
0.0
 10
10.7132999397
 20
5.7924766099
 30
0.0
 10
10.7115531703
 20
5.7967881155
 30
0.0
 10
10.7103889823
 20
5.8000561687
 30
0.0
 10
10.7093711394
 20
5.8033607235
 30
0.0
 10
10.7087904011
 20
5.8055879937
 30
0.0
 10
10.7085247968
 20
5.8067056993
 30
0.0
  0
SPLINE
  5
37C
100
AcDbEntity
  8
0
100
AcDbSpline
 62
9
  6
CONTINUOUS
 70
0
 71
3
 72
15
 73
11
 74
0
 42
0.0000001
 43
0.0000001
 44
0.0000000001
 40
0.0
 40
0.0
 40
0.0
 40
0.0
 40
0.127126007
 40
0.2535460567
 40
0.3792909641
 40
0.5044048048
 40
0.6289495718
 40
0.7530022175
 40
0.8766512856
 40
1.0
 40
1.0
 40
1.0
 40
1.0
 10
11.2832588168
 20
5.6566501118
 30
0.0
 10
11.2844392744
 20
5.6575930044
 30
0.0
 10
11.2867209265
 20
5.6595668126
 30
0.0
 10
11.2898880388
 20
5.6627807271
 30
0.0
 10
11.2927716601
 20
5.6662205814
 30
0.0
 10
11.2953536412
 20
5.6698649918
 30
0.0
 10
11.2976180371
 20
5.6736915058
 30
0.0
 10
11.2995507924
 20
5.6776765905
 30
0.0
 10
11.3011398382
 20
5.6817952433
 30
0.0
 10
11.3019644679
 20
5.6846166883
 30
0.0
 10
11.3023160998
 20
5.686039803
 30
0.0
  0
SPLINE
  5
37D
100
AcDbEntity
  8
0
100
AcDbSpline
 62
9
  6
CONTINUOUS
 70
0
 71
3
 72
15
 73
11
 74
0
 42
0.0000001
 43
0.0000001
 44
0.0000000001
 40
0.0
 40
0.0
 40
0.0
 40
0.0
 40
0.1272285181
 40
0.2537222818
 40
0.3795116018
 40
0.5046400917
 40
0.6291697829
 40
0.7531778975
 40
0.8767532944
 40
1.0
 40
1.0
 40
1.0
 40
1.0
 10
11.2838779858
 20
5.661740682
 30
0.0
 10
11.2850338618
 20
5.6626658471
 30
0.0
 10
11.287268905
 20
5.6646004409
 30
0.0
 10
11.2903753497
 20
5.6677455985
 30
0.0
 10
11.2932083757
 20
5.6711076745
 30
0.0
 10
11.2957507861
 20
5.6746665191
 30
0.0
 10
11.2979874517
 20
5.6784009862
 30
0.0
 10
11.2999049741
 20
5.6822889412
 30
0.0
 10
11.3014918052
 20
5.6863068584
 30
0.0
 10
11.3023239764
 20
5.6890599411
 30
0.0
 10
11.3026816277
 20
5.6904488291
 30
0.0
  0
SPLINE
  5
37E
100
AcDbEntity
  8
0
100
AcDbSpline
 62
9
  6
CONTINUOUS
 70
0
 71
3
 72
17
 73
13
 74
0
 42
0.0000001
 43
0.0000001
 44
0.0000000001
 40
0.0
 40
0.0
 40
0.0
 40
0.0
 40
0.1299574582
 40
0.2582448489
 40
0.3849627403
 40
0.5102160859
 40
0.6341336386
 40
0.6956604551
 40
0.7569232078
 40
0.8179538737
 40
0.8787900038
 40
1.0
 40
1.0
 40
1.0
 40
1.0
 10
10.7399904121
 20
5.7519316919
 30
0.0
 10
10.7378302868
 20
5.7537166497
 30
0.0
 10
10.7336879312
 20
5.757450204
 30
0.0
 10
10.7280214811
 20
5.7635296312
 30
0.0
 10
10.7229726064
 20
5.7700038884
 30
0.0
 10
10.7185731622
 20
5.7768236914
 30
0.0
 10
10.7154658691
 20
5.7827707198
 30
0.0
 10
10.7133406362
 20
5.7876491419
 30
0.0
 10
10.7119320872
 20
5.7913556657
 30
0.0
 10
10.7107094418
 20
5.7951120916
 30
0.0
 10
10.7093339059
 20
5.8001711437
 30
0.0
 10
10.7085827849
 20
5.8040323138
 30
0.0
 10
10.7082091208
 20
5.8066190295
 30
0.0
  0
SPLINE
  5
37F
100
AcDbEntity
  8
0
100
AcDbSpline
 62
9
  6
CONTINUOUS
 70
0
 71
3
 72
15
 73
11
 74
0
 42
0.0000001
 43
0.0000001
 44
0.0000000001
 40
0.0
 40
0.0
 40
0.0
 40
0.0
 40
0.1273117422
 40
0.2538647333
 40
0.3796891437
 40
0.504828678
 40
0.6293455745
 40
0.7533174736
 40
0.8768339628
 40
1.0
 40
1.0
 40
1.0
 40
1.0
 10
11.2843293636
 20
5.665581082
 30
0.0
 10
11.2854670578
 20
5.6664926118
 30
0.0
 10
11.2876676131
 20
5.6683971969
 30
0.0
 10
11.2907291109
 20
5.6714901197
 30
0.0
 10
11.2935245382
 20
5.6747933814
 30
0.0
 10
11.2960373856
 20
5.6782877213
 30
0.0
 10
11.2982531026
 20
5.6819529395
 30
0.0
 10
11.3001587748
 20
5.6857679017
 30
0.0
 10
11.3017432314
 20
5.6897101464
 30
0.0
 10
11.3025803914
 20
5.6924118586
 30
0.0
 10
11.3029421756
 20
5.6937750133
 30
0.0
  0
SPLINE
  5
380
100
AcDbEntity
  8
0
100
AcDbSpline
 62
9
  6
CONTINUOUS
 70
0
 71
3
 72
9
 73
5
 74
0
 42
0.0000001
 43
0.0000001
 44
0.0000000001
 40
0.0
 40
0.0
 40
0.0
 40
0.0
 40
0.5128948775
 40
1.0
 40
1.0
 40
1.0
 40
1.0
 10
11.303260345
 20
5.9592426079
 30
0.0
 10
11.3049951916
 20
5.9603946525
 30
0.0
 10
11.3082498222
 20
5.9628419802
 30
0.0
 10
11.3111527376
 20
5.9657030042
 30
0.0
 10
11.3124522865
 20
5.9671939419
 30
0.0
  0
SPLINE
  5
381
100
AcDbEntity
  8
0
100
AcDbSpline
 62
9
  6
CONTINUOUS
 70
0
 71
3
 72
9
 73
5
 74
0
 42
0.0000001
 43
0.0000001
 44
0.0000000001
 40
0.0
 40
0.0
 40
0.0
 40
0.0
 40
0.5129048706
 40
1.0
 40
1.0
 40
1.0
 40
1.0
 10
11.3033540058
 20
5.9616124212
 30
0.0
 10
11.305075647
 20
5.9627522745
 30
0.0
 10
11.3083068517
 20
5.9651725622
 30
0.0
 10
11.3111932252
 20
5.9680004041
 30
0.0
 10
11.3124869453
 20
5.969473948
 30
0.0
  0
SPLINE
  5
382
100
AcDbEntity
  8
0
100
AcDbSpline
 62
7
  6
CONTINUOUS
 70
0
 71
3
 72
39
 73
35
 74
0
 42
0.0000001
 43
0.0000001
 44
0.0000000001
 40
0.0
 40
0.0
 40
0.0
 40
0.0
 40
0.0313954669
 40
0.0625127716
 40
0.0933704335
 40
0.1239937486
 40
0.1544142022
 40
0.1846675354
 40
0.2147926656
 40
0.2448305013
 40
0.2748224779
 40
0.3048090738
 40
0.3348286904
 40
0.3649167301
 40
0.3951048653
 40
0.4254205108
 40
0.4558864946
 40
0.4865209093
 40
0.5173371388
 40
0.5483440386
 40
0.5795462227
 40
0.6109444359
 40
0.6425359893
 40
0.6743152267
 40
0.7062740124
 40
0.7384022473
 40
0.7706883413
 40
0.8031196845
 40
0.8356828406
 40
0.8683638456
 40
0.9011488351
 40
0.9340247306
 40
0.9669788927
 40
1.0
 40
1.0
 40
1.0
 40
1.0
 10
11.2660467765
 20
6.8233944319
 30
0.0
 10
11.2651589425
 20
6.8218604938
 30
0.0
 10
11.2632951069
 20
6.8188605695
 30
0.0
 10
11.2602316075
 20
6.8145670049
 30
0.0
 10
11.2569241933
 20
6.8105141333
 30
0.0
 10
11.2533851894
 20
6.8067154224
 30
0.0
 10
11.2496273376
 20
6.8031826022
 30
0.0
 10
11.2456639386
 20
6.7999261231
 30
0.0
 10
11.2415087762
 20
6.7969551325
 30
0.0
 10
11.2371760787
 20
6.794277579
 30
0.0
 10
11.2326804975
 20
6.7919003003
 30
0.0
 10
11.2280371079
 20
6.789829123
 30
0.0
 10
11.2232614183
 20
6.7880689306
 30
0.0
 10
11.2183693595
 20
6.7866237404
 30
0.0
 10
11.2133772873
 20
6.7854967465
 30
0.0
 10
11.2083019768
 20
6.7846903689
 30
0.0
 10
11.2031606204
 20
6.7842062894
 30
0.0
 10
11.197970823
 20
6.7840454746
 30
0.0
 10
11.1927505942
 20
6.7842081925
 30
0.0
 10
11.1875183373
 20
6.7846940229
 30
0.0
 10
11.182292836
 20
6.7855018547
 30
0.0
 10
11.177093239
 20
6.7866298764
 30
0.0
 10
11.1719390431
 20
6.7880755608
 30
0.0
 10
11.1668500741
 20
6.7898356362
 30
0.0
 10
11.1618464604
 20
6.7919060448
 30
0.0
 10
11.1569486074
 20
6.7942819023
 30
0.0
 10
11.1521771562
 20
6.7969574275
 30
0.0
 10
11.1475529524
 20
6.7999258716
 30
0.0
 10
11.1430969997
 20
6.8031794167
 30
0.0
 10
11.1388303774
 20
6.8067090823
 30
0.0
 10
11.1347741277
 20
6.8105046076
 30
0.0
 10
11.1309490724
 20
6.8145544724
 30
0.0
 10
11.1273758974
 20
6.8188453974
 30
0.0
 10
11.1251766405
 20
6.8218549026
 30
0.0
 10
11.1241255517
 20
6.8233944319
 30
0.0
  0
SPLINE
  5
383
100
AcDbEntity
  8
0
100
AcDbSpline
 62
7
  6
CONTINUOUS
 70
0
 71
3
 72
39
 73
35
 74
0
 42
0.0000001
 43
0.0000001
 44
0.0000000001
 40
0.0
 40
0.0
 40
0.0
 40
0.0
 40
0.0330211073
 40
0.0659752694
 40
0.0988511649
 40
0.1316361544
 40
0.1643171594
 40
0.1968803155
 40
0.2293116586
 40
0.2615977527
 40
0.2937259875
 40
0.3256847732
 40
0.3574640106
 40
0.3890555641
 40
0.4204537773
 40
0.4516559614
 40
0.4826628612
 40
0.5134790907
 40
0.5441135054
 40
0.5745794892
 40
0.6048951347
 40
0.6350832699
 40
0.6651713097
 40
0.6951909262
 40
0.7251775221
 40
0.7551694987
 40
0.7852073345
 40
0.8153324647
 40
0.8455857978
 40
0.8760062514
 40
0.9066295665
 40
0.9374872284
 40
0.9686045331
 40
1.0
 40
1.0
 40
1.0
 40
1.0
 10
11.1241255517
 20
6.9174949934
 30
0.0
 10
11.1251766405
 20
6.9190345227
 30
0.0
 10
11.1273758974
 20
6.9220440279
 30
0.0
 10
11.1309490724
 20
6.9263349528
 30
0.0
 10
11.1347741277
 20
6.9303848177
 30
0.0
 10
11.1388303774
 20
6.934180343
 30
0.0
 10
11.1430969997
 20
6.9377100085
 30
0.0
 10
11.1475529524
 20
6.9409635537
 30
0.0
 10
11.1521771562
 20
6.9439319978
 30
0.0
 10
11.1569486074
 20
6.946607523
 30
0.0
 10
11.1618464603
 20
6.9489833804
 30
0.0
 10
11.1668500741
 20
6.951053789
 30
0.0
 10
11.1719390431
 20
6.9528138645
 30
0.0
 10
11.177093239
 20
6.9542595489
 30
0.0
 10
11.182292836
 20
6.9553875706
 30
0.0
 10
11.1875183373
 20
6.9561954023
 30
0.0
 10
11.1927505942
 20
6.9566812328
 30
0.0
 10
11.197970823
 20
6.9568439507
 30
0.0
 10
11.2031606204
 20
6.9566831359
 30
0.0
 10
11.2083019768
 20
6.9561990564
 30
0.0
 10
11.2133772873
 20
6.9553926788
 30
0.0
 10
11.2183693595
 20
6.9542656848
 30
0.0
 10
11.2232614183
 20
6.9528204947
 30
0.0
 10
11.2280371079
 20
6.9510603022
 30
0.0
 10
11.2326804975
 20
6.948989125
 30
0.0
 10
11.2371760787
 20
6.9466118463
 30
0.0
 10
11.2415087762
 20
6.9439342928
 30
0.0
 10
11.2456639386
 20
6.9409633022
 30
0.0
 10
11.2496273376
 20
6.9377068231
 30
0.0
 10
11.2533851894
 20
6.9341740028
 30
0.0
 10
11.2569241933
 20
6.930375292
 30
0.0
 10
11.2602316075
 20
6.9263224204
 30
0.0
 10
11.2632951069
 20
6.9220288558
 30
0.0
 10
11.2651589425
 20
6.9190289315
 30
0.0
 10
11.2660467765
 20
6.9174949934
 30
0.0
  0
SPLINE
  5
384
100
AcDbEntity
  8
0
100
AcDbSpline
 62
7
  6
CONTINUOUS
 70
0
 71
3
 72
31
 73
27
 74
0
 42
0.0000001
 43
0.0000001
 44
0.0000000001
 40
0.0
 40
0.0
 40
0.0
 40
0.0
 40
0.0749475225
 40
0.1483369365
 40
0.219994131
 40
0.2897694356
 40
0.3575451128
 40
0.4232475112
 40
0.4553222763
 40
0.486875959
 40
0.5179160839
 40
0.5484549299
 40
0.6080808279
 40
0.6659810679
 40
0.6943872493
 40
0.7224826198
 40
0.7503195845
 40
0.777956036
 40
0.8054548277
 40
0.8328830358
 40
0.8603110439
 40
0.8878114755
 40
0.9154580065
 40
0.9433240946
 40
0.9714816948
 40
1.0
 40
1.0
 40
1.0
 40
1.0
 10
11.2660467765
 20
6.9174949934
 30
0.0
 10
11.2673862943
 20
6.9198093196
 30
0.0
 10
11.2702387943
 20
6.9242768625
 30
0.0
 10
11.2750335519
 20
6.9305034682
 30
0.0
 10
11.2802347758
 20
6.9361469844
 30
0.0
 10
11.2857717674
 20
6.9411679262
 30
0.0
 10
11.2915744899
 20
6.9455341309
 30
0.0
 10
11.2966163281
 20
6.9486304881
 30
0.0
 10
11.3007178501
 20
6.9507481856
 30
0.0
 10
11.3037943252
 20
6.9521459717
 30
0.0
 10
11.3068876157
 20
6.9533638785
 30
0.0
 10
11.3109907751
 20
6.9547346235
 30
0.0
 10
11.3161306459
 20
6.9560032563
 30
0.0
 10
11.3213076648
 20
6.956668414
 30
0.0
 10
11.3253887236
 20
6.956819981
 30
0.0
 10
11.3283989184
 20
6.9567467875
 30
0.0
 10
11.3313712149
 20
6.9564873611
 30
0.0
 10
11.334299926
 20
6.9560419848
 30
0.0
 10
11.3371794687
 20
6.9554111588
 30
0.0
 10
11.3400045375
 20
6.9545956481
 30
0.0
 10
11.3427700622
 20
6.9535964805
 30
0.0
 10
11.3454712285
 20
6.9524149565
 30
0.0
 10
11.3481034672
 20
6.9510526689
 30
0.0
 10
11.3506625036
 20
6.9495114691
 30
0.0
 10
11.3531441836
 20
6.9477936215
 30
0.0
 10
11.3547334806
 20
6.9465409787
 30
0.0
 10
11.3555133893
 20
6.9458874978
 30
0.0
  0
SPLINE
  5
385
100
AcDbEntity
  8
0
100
AcDbSpline
 62
7
  6
CONTINUOUS
 70
0
 71
3
 72
23
 73
19
 74
0
 42
0.0000001
 43
0.0000001
 44
0.0000000001
 40
0.0
 40
0.0
 40
0.0
 40
0.0
 40
0.056633885
 40
0.1155033956
 40
0.1763697984
 40
0.2389552186
 40
0.3029514134
 40
0.3680261239
 40
0.4338294674
 40
0.5
 40
0.5661705326
 40
0.6319738761
 40
0.6970485866
 40
0.7610447814
 40
0.8236302016
 40
0.8844966044
 40
0.943366115
 40
1.0
 40
1.0
 40
1.0
 40
1.0
 10
11.2660467765
 20
6.8233944319
 30
0.0
 10
11.2668449412
 20
6.8250402788
 30
0.0
 10
11.2683516441
 20
6.8284567978
 30
0.0
 10
11.2703067372
 20
6.8338109461
 30
0.0
 10
11.2719882694
 20
6.8394580246
 30
0.0
 10
11.2733827269
 20
6.8453526749
 30
0.0
 10
11.2744790395
 20
6.8514479551
 30
0.0
 10
11.2752684413
 20
6.857695151
 30
0.0
 10
11.2757446294
 20
6.8640443308
 30
0.0
 10
11.2759037783
 20
6.8704447126
 30
0.0
 10
11.2757446294
 20
6.8768450945
 30
0.0
 10
11.2752684413
 20
6.8831942743
 30
0.0
 10
11.2744790395
 20
6.8894414702
 30
0.0
 10
11.2733827269
 20
6.8955367504
 30
0.0
 10
11.2719882694
 20
6.9014314007
 30
0.0
 10
11.2703067372
 20
6.9070784792
 30
0.0
 10
11.2683516441
 20
6.9124326275
 30
0.0
 10
11.2668449412
 20
6.9158491465
 30
0.0
 10
11.2660467765
 20
6.9174949934
 30
0.0
  0
SPLINE
  5
386
100
AcDbEntity
  8
0
100
AcDbSpline
 62
7
  6
CONTINUOUS
 70
0
 71
3
 72
27
 73
23
 74
0
 42
0.0000001
 43
0.0000001
 44
0.0000000001
 40
0.0
 40
0.0
 40
0.0
 40
0.0
 40
0.0929218206
 40
0.1820312415
 40
0.2670699054
 40
0.3478179619
 40
0.4240969975
 40
0.4957793119
 40
0.5627980294
 40
0.6251590242
 40
0.6829599904
 40
0.7364153747
 40
0.7858877882
 40
0.8319229752
 40
0.8538978089
 40
0.8753165776
 40
0.8963080864
 40
0.9170126123
 40
0.9375792752
 40
0.9581625789
 40
0.978918423
 40
1.0
 40
1.0
 40
1.0
 40
1.0
 10
11.3763513315
 20
6.9216066921
 30
0.0
 10
11.3770769835
 20
6.9232845528
 30
0.0
 10
11.3785800482
 20
6.9265369827
 30
0.0
 10
11.3810293058
 20
6.9311878919
 30
0.0
 10
11.3836025859
 20
6.935494865
 30
0.0
 10
11.3862739045
 20
6.9394404885
 30
0.0
 10
11.3890179618
 20
6.9430099704
 30
0.0
 10
11.3918103679
 20
6.9461907099
 30
0.0
 10
11.3946279819
 20
6.9489721594
 30
0.0
 10
11.397449213
 20
6.9513455572
 30
0.0
 10
11.4002541702
 20
6.9533036335
 30
0.0
 10
11.4030252035
 20
6.9548402302
 30
0.0
 10
11.4057458842
 20
6.955949697
 30
0.0
 10
11.4079948255
 20
6.9565220984
 30
0.0
 10
11.409741159
 20
6.9567494049
 30
0.0
 10
11.4110080159
 20
6.9568081558
 30
0.0
 10
11.4122502649
 20
6.9567575168
 30
0.0
 10
11.4134663734
 20
6.9565974142
 30
0.0
 10
11.414654795
 20
6.9563278948
 30
0.0
 10
11.4158141302
 20
6.9559491522
 30
0.0
 10
11.4169429766
 20
6.9554616158
 30
0.0
 10
11.4176673829
 20
6.955068241
 30
0.0
 10
11.4180230661
 20
6.9548549388
 30
0.0
  0
SPLINE
  5
387
100
AcDbEntity
  8
0
100
AcDbSpline
 62
7
  6
CONTINUOUS
 70
0
 71
3
 72
27
 73
23
 74
0
 42
0.0000001
 43
0.0000001
 44
0.0000000001
 40
0.0
 40
0.0
 40
0.0
 40
0.0
 40
0.0929218206
 40
0.1820312417
 40
0.2670699056
 40
0.3478179608
 40
0.4240969954
 40
0.4957793099
 40
0.5627980276
 40
0.6251590225
 40
0.682959989
 40
0.7364153735
 40
0.7858877873
 40
0.8319229745
 40
0.8538978083
 40
0.8753165772
 40
0.896308086
 40
0.917012612
 40
0.937579275
 40
0.9581625788
 40
0.9789184229
 40
1.0
 40
1.0
 40
1.0
 40
1.0
 10
10.7182853451
 20
6.8192827332
 30
0.0
 10
10.717559693
 20
6.8176048726
 30
0.0
 10
10.7160566284
 20
6.8143524426
 30
0.0
 10
10.7136073707
 20
6.8097015334
 30
0.0
 10
10.7110340907
 20
6.8053945603
 30
0.0
 10
10.7083627721
 20
6.8014489368
 30
0.0
 10
10.7056187148
 20
6.797879455
 30
0.0
 10
10.7028263087
 20
6.7946987155
 30
0.0
 10
10.7000086948
 20
6.791917266
 30
0.0
 10
10.6971874636
 20
6.7895438682
 30
0.0
 10
10.6943825064
 20
6.7875857918
 30
0.0
 10
10.6916114732
 20
6.7860491951
 30
0.0
 10
10.6888907925
 20
6.7849397283
 30
0.0
 10
10.6866418511
 20
6.7843673269
 30
0.0
 10
10.6848955176
 20
6.7841400204
 30
0.0
 10
10.6836286607
 20
6.7840812695
 30
0.0
 10
10.6823864117
 20
6.7841319085
 30
0.0
 10
10.6811703032
 20
6.784292011
 30
0.0
 10
10.6799818816
 20
6.7845615304
 30
0.0
 10
10.6788225464
 20
6.7849402731
 30
0.0
 10
10.6776937
 20
6.7854278095
 30
0.0
 10
10.6769692937
 20
6.7858211843
 30
0.0
 10
10.6766136105
 20
6.7860344864
 30
0.0
  0
SPLINE
  5
388
100
AcDbEntity
  8
0
100
AcDbSpline
 62
7
  6
CONTINUOUS
 70
0
 71
3
 72
31
 73
27
 74
0
 42
0.0000001
 43
0.0000001
 44
0.0000000001
 40
0.0
 40
0.0
 40
0.0
 40
0.0
 40
0.0749475226
 40
0.1483369366
 40
0.219994131
 40
0.2897694341
 40
0.357545111
 40
0.4232475095
 40
0.4553222747
 40
0.4868759574
 40
0.5179160824
 40
0.5484549285
 40
0.6080808268
 40
0.665981067
 40
0.6943872486
 40
0.7224826192
 40
0.7503195839
 40
0.7779560356
 40
0.8054548274
 40
0.8328830355
 40
0.8603110438
 40
0.8878114753
 40
0.9154580065
 40
0.9433240946
 40
0.9714816947
 40
1.0
 40
1.0
 40
1.0
 40
1.0
 10
10.8285899001
 20
6.8233944319
 30
0.0
 10
10.8272503823
 20
6.8210801056
 30
0.0
 10
10.8243978822
 20
6.8166125627
 30
0.0
 10
10.8196031246
 20
6.8103859571
 30
0.0
 10
10.8144019007
 20
6.804742441
 30
0.0
 10
10.8088649092
 20
6.7997214992
 30
0.0
 10
10.8030621868
 20
6.7953552945
 30
0.0
 10
10.7980203486
 20
6.7922589373
 30
0.0
 10
10.7939188266
 20
6.7901412397
 30
0.0
 10
10.7908423515
 20
6.7887434536
 30
0.0
 10
10.787749061
 20
6.7875255468
 30
0.0
 10
10.7836459016
 20
6.7861548018
 30
0.0
 10
10.7785060308
 20
6.784886169
 30
0.0
 10
10.7733290119
 20
6.7842210113
 30
0.0
 10
10.7692479531
 20
6.7840694443
 30
0.0
 10
10.7662377582
 20
6.7841426378
 30
0.0
 10
10.7632654617
 20
6.7844020642
 30
0.0
 10
10.7603367506
 20
6.7848474405
 30
0.0
 10
10.7574572079
 20
6.7854782664
 30
0.0
 10
10.7546321391
 20
6.7862937772
 30
0.0
 10
10.7518666144
 20
6.7872929448
 30
0.0
 10
10.7491654481
 20
6.7884744687
 30
0.0
 10
10.7465332094
 20
6.7898367564
 30
0.0
 10
10.743974173
 20
6.7913779562
 30
0.0
 10
10.741492493
 20
6.7930958037
 30
0.0
 10
10.739903196
 20
6.7943484465
 30
0.0
 10
10.7391232873
 20
6.7950019274
 30
0.0
  0
SPLINE
  5
389
100
AcDbEntity
  8
0
100
AcDbSpline
 62
7
  6
CONTINUOUS
 70
0
 71
3
 72
39
 73
35
 74
0
 42
0.0000001
 43
0.0000001
 44
0.0000000001
 40
0.0
 40
0.0
 40
0.0
 40
0.0
 40
0.0330210992
 40
0.0659752472
 40
0.0988511405
 40
0.1316361048
 40
0.1643171046
 40
0.1968803377
 40
0.2293116971
 40
0.2615977754
 40
0.2937260047
 40
0.3256847849
 40
0.3574640194
 40
0.389055571
 40
0.4204537831
 40
0.4516559659
 40
0.4826628634
 40
0.5134790898
 40
0.5441135014
 40
0.574579483
 40
0.6048951273
 40
0.6350832615
 40
0.6651712996
 40
0.6951909134
 40
0.7251775043
 40
0.7551694758
 40
0.785207297
 40
0.8153324424
 40
0.8455858481
 40
0.8760062979
 40
0.9066295893
 40
0.9374872494
 40
0.9686045408
 40
1.0
 40
1.0
 40
1.0
 40
1.0
 10
10.9705111249
 20
6.8233944319
 30
0.0
 10
10.9694600363
 20
6.821854903
 30
0.0
 10
10.9672607802
 20
6.8188453988
 30
0.0
 10
10.9636876062
 20
6.8145544748
 30
0.0
 10
10.9598625526
 20
6.8105046115
 30
0.0
 10
10.9558063047
 20
6.8067090871
 30
0.0
 10
10.9515396805
 20
6.8031794197
 30
0.0
 10
10.9470837241
 20
6.7999258712
 30
0.0
 10
10.9424595163
 20
6.796957425
 30
0.0
 10
10.9376880652
 20
6.7942819003
 30
0.0
 10
10.9327902136
 20
6.7919060436
 30
0.0
 10
10.9277866005
 20
6.7898356355
 30
0.0
 10
10.922697632
 20
6.7880755604
 30
0.0
 10
10.9175434364
 20
6.7866298761
 30
0.0
 10
10.9123438396
 20
6.7855018545
 30
0.0
 10
10.9071183386
 20
6.7846940229
 30
0.0
 10
10.901886082
 20
6.7842081925
 30
0.0
 10
10.8966658537
 20
6.7840454746
 30
0.0
 10
10.8914760568
 20
6.7842062894
 30
0.0
 10
10.8863347007
 20
6.7846903688
 30
0.0
 10
10.8812593905
 20
6.7854967463
 30
0.0
 10
10.8762673185
 20
6.7866237401
 30
0.0
 10
10.87137526
 20
6.78806893
 30
0.0
 10
10.8665995708
 20
6.7898291222
 30
0.0
 10
10.8619561818
 20
6.791900299
 30
0.0
 10
10.8574606017
 20
6.7942775769
 30
0.0
 10
10.8531279043
 20
6.7969551299
 30
0.0
 10
10.8489727382
 20
6.7999261226
 30
0.0
 10
10.8450093359
 20
6.8031826051
 30
0.0
 10
10.8412514824
 20
6.8067154272
 30
0.0
 10
10.83771248
 20
6.8105141372
 30
0.0
 10
10.8344050673
 20
6.8145670072
 30
0.0
 10
10.8313415688
 20
6.8188605708
 30
0.0
 10
10.8294777338
 20
6.8218604941
 30
0.0
 10
10.8285899001
 20
6.8233944319
 30
0.0
  0
SPLINE
  5
38A
100
AcDbEntity
  8
0
100
AcDbSpline
 62
7
  6
CONTINUOUS
 70
0
 71
3
 72
39
 73
35
 74
0
 42
0.0000001
 43
0.0000001
 44
0.0000000001
 40
0.0
 40
0.0
 40
0.0
 40
0.0
 40
0.0313954592
 40
0.0625127506
 40
0.0933704108
 40
0.1239937023
 40
0.1544141519
 40
0.1846675573
 40
0.2147927027
 40
0.244830524
 40
0.2748224956
 40
0.3048090865
 40
0.3348287003
 40
0.3649167384
 40
0.3951048725
 40
0.4254205168
 40
0.4558864983
 40
0.4865209098
 40
0.5173371361
 40
0.5483440336
 40
0.5795462163
 40
0.6109444284
 40
0.64253598
 40
0.6743152144
 40
0.7062739947
 40
0.7384022241
 40
0.7706883025
 40
0.803119662
 40
0.8356828952
 40
0.8683638951
 40
0.9011488594
 40
0.9340247527
 40
0.9669789008
 40
1.0
 40
1.0
 40
1.0
 40
1.0
 10
10.8285899001
 20
6.9174949934
 30
0.0
 10
10.8294777338
 20
6.9190289311
 30
0.0
 10
10.8313415688
 20
6.9220288545
 30
0.0
 10
10.8344050673
 20
6.9263224181
 30
0.0
 10
10.83771248
 20
6.9303752881
 30
0.0
 10
10.8412514824
 20
6.9341739981
 30
0.0
 10
10.8450093359
 20
6.9377068202
 30
0.0
 10
10.8489727382
 20
6.9409633027
 30
0.0
 10
10.8531279042
 20
6.9439342954
 30
0.0
 10
10.8574606017
 20
6.9466118484
 30
0.0
 10
10.8619561818
 20
6.9489891263
 30
0.0
 10
10.8665995708
 20
6.9510603031
 30
0.0
 10
10.87137526
 20
6.9528204953
 30
0.0
 10
10.8762673185
 20
6.9542656852
 30
0.0
 10
10.8812593905
 20
6.955392679
 30
0.0
 10
10.8863347007
 20
6.9561990565
 30
0.0
 10
10.8914760567
 20
6.9566831359
 30
0.0
 10
10.8966658536
 20
6.9568439507
 30
0.0
 10
10.901886082
 20
6.9566812328
 30
0.0
 10
10.9071183385
 20
6.9561954024
 30
0.0
 10
10.9123438395
 20
6.9553875708
 30
0.0
 10
10.9175434363
 20
6.9542595492
 30
0.0
 10
10.9226976319
 20
6.952813865
 30
0.0
 10
10.9277866004
 20
6.9510537898
 30
0.0
 10
10.9327902135
 20
6.9489833817
 30
0.0
 10
10.9376880651
 20
6.946607525
 30
0.0
 10
10.9424595162
 20
6.9439320003
 30
0.0
 10
10.947083724
 20
6.9409635541
 30
0.0
 10
10.9515396804
 20
6.9377100056
 30
0.0
 10
10.9558063047
 20
6.9341803382
 30
0.0
 10
10.9598625526
 20
6.9303848138
 30
0.0
 10
10.9636876062
 20
6.9263349505
 30
0.0
 10
10.9672607802
 20
6.9220440265
 30
0.0
 10
10.9694600363
 20
6.9190345223
 30
0.0
 10
10.9705111249
 20
6.9174949934
 30
0.0
  0
SPLINE
  5
38B
100
AcDbEntity
  8
0
100
AcDbSpline
 62
7
  6
CONTINUOUS
 70
0
 71
3
 72
23
 73
19
 74
0
 42
0.0000001
 43
0.0000001
 44
0.0000000001
 40
0.0
 40
0.0
 40
0.0
 40
0.0
 40
0.056633885
 40
0.1155033956
 40
0.1763697984
 40
0.2389552186
 40
0.3029514134
 40
0.3680261239
 40
0.4338294674
 40
0.5
 40
0.5661705326
 40
0.6319738761
 40
0.6970485866
 40
0.7610447814
 40
0.8236302016
 40
0.8844966044
 40
0.943366115
 40
1.0
 40
1.0
 40
1.0
 40
1.0
 10
10.8285899001
 20
6.8233944319
 30
0.0
 10
10.8277917354
 20
6.8250402788
 30
0.0
 10
10.8262850325
 20
6.8284567978
 30
0.0
 10
10.8243299394
 20
6.8338109461
 30
0.0
 10
10.8226484071
 20
6.8394580246
 30
0.0
 10
10.8212539497
 20
6.8453526749
 30
0.0
 10
10.8201576371
 20
6.8514479551
 30
0.0
 10
10.8193682352
 20
6.857695151
 30
0.0
 10
10.8188920472
 20
6.8640443308
 30
0.0
 10
10.8187328983
 20
6.8704447126
 30
0.0
 10
10.8188920472
 20
6.8768450945
 30
0.0
 10
10.8193682352
 20
6.8831942743
 30
0.0
 10
10.8201576371
 20
6.8894414702
 30
0.0
 10
10.8212539497
 20
6.8955367504
 30
0.0
 10
10.8226484071
 20
6.9014314007
 30
0.0
 10
10.8243299394
 20
6.9070784792
 30
0.0
 10
10.8262850325
 20
6.9124326275
 30
0.0
 10
10.8277917354
 20
6.9158491465
 30
0.0
 10
10.8285899001
 20
6.9174949934
 30
0.0
  0
SPLINE
  5
38C
100
AcDbEntity
  8
0
100
AcDbSpline
 62
7
  6
CONTINUOUS
 70
0
 71
3
 72
23
 73
19
 74
0
 42
0.0000001
 43
0.0000001
 44
0.0000000001
 40
0.0
 40
0.0
 40
0.0
 40
0.0
 40
0.0537627206
 40
0.1109336506
 40
0.1710883536
 40
0.2337726812
 40
0.2985091249
 40
0.3648011849
 40
0.4321381774
 40
0.5
 40
0.5678618226
 40
0.6351988151
 40
0.7014908751
 40
0.7662273188
 40
0.8289116464
 40
0.8890663494
 40
0.9462372794
 40
1.0
 40
1.0
 40
1.0
 40
1.0
 10
10.9705111249
 20
6.8233944319
 30
0.0
 10
10.9702269584
 20
6.8250631119
 30
0.0
 10
10.9696936036
 20
6.8285154123
 30
0.0
 10
10.9690097192
 20
6.8338589891
 30
0.0
 10
10.9684212164
 20
6.8394963909
 30
0.0
 10
10.9679329607
 20
6.8453823398
 30
0.0
 10
10.9675489819
 20
6.8514696068
 30
0.0
 10
10.9672724379
 20
6.8577093083
 30
0.0
 10
10.9671055973
 20
6.864051327
 30
0.0
 10
10.9670498332
 20
6.8704447126
 30
0.0
 10
10.9671055973
 20
6.8768380983
 30
0.0
 10
10.9672724379
 20
6.883180117
 30
0.0
 10
10.9675489819
 20
6.8894198185
 30
0.0
 10
10.9679329607
 20
6.8955070855
 30
0.0
 10
10.9684212164
 20
6.9013930344
 30
0.0
 10
10.9690097192
 20
6.9070304362
 30
0.0
 10
10.9696936036
 20
6.912374013
 30
0.0
 10
10.9702269584
 20
6.9158263134
 30
0.0
 10
10.9705111249
 20
6.9174949934
 30
0.0
  0
SPLINE
  5
38D
100
AcDbEntity
  8
0
100
AcDbSpline
 62
7
  6
CONTINUOUS
 70
0
 71
3
 72
23
 73
19
 74
0
 42
0.0000001
 43
0.0000001
 44
0.0000000001
 40
0.0
 40
0.0
 40
0.0
 40
0.0
 40
0.0537627206
 40
0.1109336505
 40
0.1710883535
 40
0.2337726811
 40
0.2985091248
 40
0.3648011848
 40
0.4321381774
 40
0.5
 40
0.5678618226
 40
0.6351988152
 40
0.7014908752
 40
0.7662273189
 40
0.8289116465
 40
0.8890663495
 40
0.9462372794
 40
1.0
 40
1.0
 40
1.0
 40
1.0
 10
11.1241255517
 20
6.9174949934
 30
0.0
 10
11.1244097182
 20
6.9158263134
 30
0.0
 10
11.124943073
 20
6.912374013
 30
0.0
 10
11.1256269574
 20
6.9070304362
 30
0.0
 10
11.1262154602
 20
6.9013930344
 30
0.0
 10
11.1267037158
 20
6.8955070855
 30
0.0
 10
11.1270876946
 20
6.8894198185
 30
0.0
 10
11.1273642387
 20
6.883180117
 30
0.0
 10
11.1275310793
 20
6.8768380983
 30
0.0
 10
11.1275868434
 20
6.8704447126
 30
0.0
 10
11.1275310793
 20
6.864051327
 30
0.0
 10
11.1273642387
 20
6.8577093083
 30
0.0
 10
11.1270876946
 20
6.8514696068
 30
0.0
 10
11.1267037158
 20
6.8453823398
 30
0.0
 10
11.1262154602
 20
6.8394963909
 30
0.0
 10
11.1256269574
 20
6.8338589891
 30
0.0
 10
11.124943073
 20
6.8285154123
 30
0.0
 10
11.1244097182
 20
6.8250631119
 30
0.0
 10
11.1241255517
 20
6.8233944319
 30
0.0
  0
SPLINE
  5
38E
100
AcDbEntity
  8
0
100
AcDbSpline
 62
9
  6
CONTINUOUS
 70
0
 71
3
 72
13
 73
9
 74
0
 42
0.0000001
 43
0.0000001
 44
0.0000000001
 40
0.0
 40
0.0
 40
0.0
 40
0.0
 40
0.1099468475
 40
0.2249594233
 40
0.4687051856
 40
0.7281515842
 40
0.8627388991
 40
1.0
 40
1.0
 40
1.0
 40
1.0
 10
11.1711313238
 20
5.9290878839
 30
0.0
 10
11.1712963499
 20
5.9463881169
 30
0.0
 10
11.1716070185
 20
5.9817859403
 30
0.0
 10
11.1721642308
 20
6.0555383758
 30
0.0
 10
11.1727550381
 20
6.1528161182
 30
0.0
 10
11.1732318057
 20
6.2531747206
 30
0.0
 10
11.1736091959
 20
6.336777377
 30
0.0
 10
11.1738065621
 20
6.3795544554
 30
0.0
 10
11.1739099369
 20
6.4011533454
 30
0.0
  0
SPLINE
  5
38F
100
AcDbEntity
  8
0
100
AcDbSpline
 62
9
  6
CONTINUOUS
 70
0
 71
3
 72
15
 73
11
 74
0
 42
0.0000001
 43
0.0000001
 44
0.0000000001
 40
0.0
 40
0.0
 40
0.0
 40
0.0
 40
0.1261705955
 40
0.2524297281
 40
0.3785657019
 40
0.50436639
 40
0.6296200328
 40
0.754116487
 40
0.8776461508
 40
1.0
 40
1.0
 40
1.0
 40
1.0
 10
11.0473183383
 20
5.9197156608
 30
0.0
 10
11.0525453802
 20
5.9197156608
 30
0.0
 10
11.0630034006
 20
5.9198158596
 30
0.0
 10
11.0786812648
 20
5.9202631897
 30
0.0
 10
11.0943326573
 20
5.9210052516
 30
0.0
 10
11.1099256989
 20
5.9220395793
 30
0.0
 10
11.1254286365
 20
5.9233638093
 30
0.0
 10
11.1408099798
 20
5.9249733518
 30
0.0
 10
11.1560382723
 20
5.9268634844
 30
0.0
 10
11.1661216259
 20
5.9283153032
 30
0.0
 10
11.1711313238
 20
5.9290878839
 30
0.0
  0
SPLINE
  5
390
100
AcDbEntity
  8
0
100
AcDbSpline
 62
9
  6
CONTINUOUS
 70
0
 71
3
 72
17
 73
13
 74
0
 42
0.0000001
 43
0.0000001
 44
0.0000000001
 40
0.0
 40
0.0
 40
0.0
 40
0.0
 40
0.0425563736
 40
0.0879773759
 40
0.1362257858
 40
0.1872625637
 40
0.2975333261
 40
0.4184318313
 40
0.5495672335
 40
0.6905156659
 40
0.8408222909
 40
1.0
 40
1.0
 40
1.0
 40
1.0
 10
11.1654504635
 20
5.6158661072
 30
0.0
 10
11.1656035603
 20
5.6203069587
 30
0.0
 10
11.1659060175
 20
5.6294880798
 30
0.0
 10
11.1663371016
 20
5.6437054658
 30
0.0
 10
11.1667595263
 20
5.658808954
 30
0.0
 10
11.167324423
 20
5.6806822919
 30
0.0
 10
11.167996875
 20
5.7101410077
 30
0.0
 10
11.1687372552
 20
5.7479635682
 30
0.0
 10
11.1694246726
 20
5.7889907939
 30
0.0
 10
11.1700582817
 20
5.8330898403
 30
0.0
 10
11.1706363145
 20
5.8801178948
 30
0.0
 10
11.1709723277
 20
5.9124307282
 30
0.0
 10
11.1711309659
 20
5.9290503844
 30
0.0
  0
SPLINE
  5
391
100
AcDbEntity
  8
0
100
AcDbSpline
 62
9
  6
CONTINUOUS
 70
0
 71
3
 72
13
 73
9
 74
0
 42
0.0000001
 43
0.0000001
 44
0.0000000001
 40
0.0
 40
0.0
 40
0.0
 40
0.0
 40
0.2515661969
 40
0.3772887395
 40
0.502789521
 40
0.7525835658
 40
0.8766558376
 40
1.0
 40
1.0
 40
1.0
 40
1.0
 10
11.0473183383
 20
5.6007842021
 30
0.0
 10
11.0573307886
 20
5.6007842021
 30
0.0
 10
11.0723526862
 20
5.601265809
 30
0.0
 10
11.0923030499
 20
5.6028565419
 30
0.0
 10
11.1121231871
 20
5.60507106
 30
0.0
 10
11.1317637019
 20
5.6082192221
 30
0.0
 10
11.1511325236
 20
5.6122882711
 30
0.0
 10
11.1607010927
 20
5.6146238214
 30
0.0
 10
11.1654504635
 20
5.6158661072
 30
0.0
  0
LINE
  5
392
100
AcDbEntity
  8
0
100
AcDbLine
 62
9
  6
CONTINUOUS
 10
11.1654454074
 20
5.6156883789
 11
11.1654493694
 21
5.6158657652
  0
SPLINE
  5
393
100
AcDbEntity
  8
0
100
AcDbSpline
 62
9
  6
CONTINUOUS
 70
0
 71
3
 72
13
 73
9
 74
0
 42
0.0000001
 43
0.0000001
 44
0.0000000001
 40
0.0
 40
0.0
 40
0.0
 40
0.0
 40
0.2515317462
 40
0.3772384669
 40
0.5027280866
 40
0.7525250954
 40
0.876618246
 40
1.0
 40
1.0
 40
1.0
 40
1.0
 10
11.0473183383
 20
5.5914992059
 30
0.0
 10
11.0573041198
 20
5.5914992059
 30
0.0
 10
11.0722861887
 20
5.5919848064
 30
0.0
 10
11.0921823484
 20
5.5935889661
 30
0.0
 10
11.1119487518
 20
5.5958223844
 30
0.0
 10
11.1315348494
 20
5.5989977481
 30
0.0
 10
11.1508476765
 20
5.6031019383
 30
0.0
 10
11.1603880872
 20
5.6054577334
 30
0.0
 10
11.1651233396
 20
5.6067107912
 30
0.0
  0
SPLINE
  5
394
100
AcDbEntity
  8
0
100
AcDbSpline
 62
9
  6
CONTINUOUS
 70
0
 71
3
 72
12
 73
8
 74
0
 42
0.0000001
 43
0.0000001
 44
0.0000000001
 40
0.0
 40
0.0
 40
0.0
 40
0.0
 40
0.2721327575
 40
0.5316038263
 40
0.7752086052
 40
0.8901313459
 40
1.0
 40
1.0
 40
1.0
 40
1.0
 10
11.1956836143
 20
6.4011531598
 30
0.0
 10
11.1946783567
 20
6.3590716266
 30
0.0
 10
11.1927638205
 20
6.2768653433
 30
0.0
 10
11.1900035896
 20
6.1569877287
 30
0.0
 10
11.1877467722
 20
6.0614222401
 30
0.0
 10
11.1859845783
 20
5.9889920756
 30
0.0
 10
11.1851151448
 20
5.9542321737
 30
0.0
 10
11.1846822008
 20
5.9372431884
 30
0.0
  0
SPLINE
  5
395
100
AcDbEntity
  8
0
100
AcDbSpline
 62
9
  6
CONTINUOUS
 70
0
 71
3
 72
15
 73
11
 74
0
 42
0.0000001
 43
0.0000001
 44
0.0000000001
 40
0.0
 40
0.0
 40
0.0
 40
0.0
 40
0.1096564457
 40
0.2244769033
 40
0.3440906169
 40
0.4681140606
 40
0.5961406104
 40
0.7277539424
 40
0.8625205088
 40
1.0
 40
1.0
 40
1.0
 40
1.0
 10
11.1742835978
 20
5.9303261299
 30
0.0
 10
11.1742940487
 20
5.9475358825
 30
0.0
 10
11.1742915363
 20
5.982765856
 30
0.0
 10
11.1742398925
 20
6.0367682731
 30
0.0
 10
11.1741592874
 20
6.0930254477
 30
0.0
 10
11.1740645521
 20
6.1513551989
 30
0.0
 10
11.1739712071
 20
6.2115682053
 30
0.0
 10
11.1738993983
 20
6.2734672974
 30
0.0
 10
11.173868661
 20
6.3368499951
 30
0.0
 10
11.1738878889
 20
6.379576975
 30
0.0
 10
11.1739099369
 20
6.4011533377
 30
0.0
  0
SPLINE
  5
396
100
AcDbEntity
  8
0
100
AcDbSpline
 62
9
  6
CONTINUOUS
 70
0
 71
3
 72
17
 73
13
 74
0
 42
0.0000001
 43
0.0000001
 44
0.0000000001
 40
0.0
 40
0.0
 40
0.0
 40
0.0
 40
0.1590663345
 40
0.3092608434
 40
0.4501157282
 40
0.5811914881
 40
0.7020798727
 40
0.8124018572
 40
0.8634915686
 40
0.9118127156
 40
0.9573274903
 40
1.0
 40
1.0
 40
1.0
 40
1.0
 10
11.1846734457
 20
5.9368997824
 30
0.0
 10
11.1842550315
 20
5.9204934353
 30
0.0
 10
11.1834192384
 20
5.8885963578
 30
0.0
 10
11.1821320654
 20
5.8421734544
 30
0.0
 10
11.1808517974
 20
5.798639456
 30
0.0
 10
11.1795794926
 20
5.7581302624
 30
0.0
 10
11.178314086
 20
5.7207727462
 30
0.0
 10
11.1772423372
 20
5.6916660776
 30
0.0
 10
11.1763851865
 20
5.6700438452
 30
0.0
 10
11.1757622945
 20
5.6551040991
 30
0.0
 10
11.1751434691
 20
5.6410334196
 30
0.0
 10
11.1747202599
 20
5.6319445233
 30
0.0
 10
11.1745087765
 20
5.6275468659
 30
0.0
  0
LINE
  5
397
100
AcDbEntity
  8
0
100
AcDbLine
 62
9
  6
CONTINUOUS
 10
11.1714126835
 20
5.620784654
 11
11.1714179863
 21
5.6209606862
  0
SPLINE
  5
398
100
AcDbEntity
  8
0
100
AcDbSpline
 62
9
  6
CONTINUOUS
 70
0
 71
3
 72
16
 73
12
 74
0
 42
0.0000001
 43
0.0000001
 44
0.0000000001
 40
0.0
 40
0.0
 40
0.0
 40
0.0
 40
0.042302427
 40
0.0874944708
 40
0.1864026316
 40
0.2964162467
 40
0.4171943773
 40
0.5483646093
 40
0.6895213609
 40
0.8402252466
 40
1.0
 40
1.0
 40
1.0
 40
1.0
 10
11.1714176232
 20
5.6209599022
 30
0.0
 10
11.1715319366
 20
5.6253204833
 30
0.0
 10
11.171754649
 20
5.6343398741
 30
0.0
 10
11.1721781249
 20
5.6535564173
 30
0.0
 10
11.1726582978
 20
5.6797554494
 30
0.0
 10
11.1731429514
 20
5.7137495776
 30
0.0
 10
11.1735448054
 20
5.7510717421
 30
0.0
 10
11.1738588035
 20
5.79160621
 30
0.0
 10
11.174086343
 20
5.8352271277
 30
0.0
 10
11.1742311986
 20
5.8817980017
 30
0.0
 10
11.1742736323
 20
5.9138134679
 30
0.0
 10
11.1742835752
 20
5.930288882
 30
0.0
  0
LINE
  5
399
100
AcDbEntity
  8
0
100
AcDbLine
 62
9
  6
CONTINUOUS
 10
11.1846811908
 20
5.9372425498
 11
11.184674456
 21
5.9369004219
  0
LINE
  5
39A
100
AcDbEntity
  8
0
100
AcDbLine
 62
9
  6
CONTINUOUS
 10
11.1711659774
 20
5.611807281
 11
11.1711719708
 21
5.6119933018
  0
LINE
  5
39B
100
AcDbEntity
  8
0
100
AcDbLine
 62
9
  6
CONTINUOUS
 10
11.1711715921
 20
5.6119924391
 11
11.1714130469
 21
5.6207854394
  0
LINE
  5
39C
100
AcDbEntity
  8
0
100
AcDbLine
 62
9
  6
CONTINUOUS
 10
11.1745087765
 20
5.6275468659
 11
11.1744814819
 21
5.6269804654
  0
SPLINE
  5
39D
100
AcDbEntity
  8
0
100
AcDbSpline
 62
7
  6
CONTINUOUS
 70
0
 71
3
 72
23
 73
19
 74
0
 42
0.0000001
 43
0.0000001
 44
0.0000000001
 40
0.0
 40
0.0
 40
0.0
 40
0.0
 40
0.0623575798
 40
0.1246860403
 40
0.186999785
 40
0.2493129629
 40
0.3116393733
 40
0.3739911575
 40
0.4363794396
 40
0.4988132482
 40
0.5612985771
 40
0.6238382942
 40
0.6864320405
 40
0.7490763642
 40
0.8117649799
 40
0.8744891481
 40
0.9372380636
 40
1.0
 40
1.0
 40
1.0
 40
1.0
 10
11.1241255517
 20
6.9174949934
 30
0.0
 10
11.1230738383
 20
6.9190354375
 30
0.0
 10
11.1208691134
 20
6.9220474893
 30
0.0
 10
11.1172763557
 20
6.9263394456
 30
0.0
 10
11.1134154432
 20
6.9303902697
 30
0.0
 10
11.1093043154
 20
6.934186599
 30
0.0
 10
11.1049611846
 20
6.9377168559
 30
0.0
 10
11.1004046633
 20
6.9409707459
 30
0.0
 10
11.0956536033
 20
6.9439392855
 30
0.0
 10
11.0907270351
 20
6.9466146636
 30
0.0
 10
11.0856441336
 20
6.9489901332
 30
0.0
 10
11.0804242037
 20
6.9510599308
 30
0.0
 10
11.0750866469
 20
6.9528191932
 30
0.0
 10
11.0696509411
 20
6.9542639058
 30
0.0
 10
11.0641366502
 20
6.9553908433
 30
0.0
 10
11.0585633125
 20
6.9561975395
 30
0.0
 10
11.0529508063
 20
6.9566822501
 30
0.0
 10
11.0491956596
 20
6.9567900363
 30
0.0
 10
11.0473183383
 20
6.9567900363
 30
0.0
  0
SPLINE
  5
39E
100
AcDbEntity
  8
0
100
AcDbSpline
 62
7
  6
CONTINUOUS
 70
0
 71
3
 72
23
 73
19
 74
0
 42
0.0000001
 43
0.0000001
 44
0.0000000001
 40
0.0
 40
0.0
 40
0.0
 40
0.0
 40
0.0627621603
 40
0.1255112646
 40
0.1882356165
 40
0.2509243858
 40
0.3135688302
 40
0.3761626586
 40
0.4387024151
 40
0.5011877281
 40
0.5636214527
 40
0.6260095762
 40
0.6883610684
 40
0.7506871726
 40
0.8130002386
 40
0.8753139936
 40
0.9376424251
 40
1.0
 40
1.0
 40
1.0
 40
1.0
 10
11.0473183383
 20
6.9567900363
 30
0.0
 10
11.0454410103
 20
6.9567900363
 30
0.0
 10
11.0416858513
 20
6.9566822494
 30
0.0
 10
11.0360733273
 20
6.9561975355
 30
0.0
 10
11.0304999745
 20
6.9553908345
 30
0.0
 10
11.0249856708
 20
6.954263891
 30
0.0
 10
11.0195499559
 20
6.9528191712
 30
0.0
 10
11.0142123935
 20
6.9510599025
 30
0.0
 10
11.0089924627
 20
6.9489900983
 30
0.0
 10
11.003909565
 20
6.9466146251
 30
0.0
 10
10.9989830059
 20
6.9439392463
 30
0.0
 10
10.9942319622
 20
6.940970711
 30
0.0
 10
10.9896754612
 20
6.9377168315
 30
0.0
 10
10.9853323479
 20
6.9341865869
 30
0.0
 10
10.9812212293
 20
6.9303902655
 30
0.0
 10
10.9773603198
 20
6.9263394441
 30
0.0
 10
10.9737675624
 20
6.9220474885
 30
0.0
 10
10.9715628382
 20
6.9190354374
 30
0.0
 10
10.9705111249
 20
6.9174949934
 30
0.0
  0
LINE
  5
39F
100
AcDbEntity
  8
0
100
AcDbLine
 62
9
  6
CONTINUOUS
 10
11.174059116
 20
5.6184491313
 11
11.1740308805
 21
5.6178852671
  0
SPLINE
  5
3A0
100
AcDbEntity
  8
0
100
AcDbSpline
 62
9
  6
CONTINUOUS
 70
0
 71
3
 72
15
 73
11
 74
0
 42
0.0000001
 43
0.0000001
 44
0.0000000001
 40
0.0
 40
0.0
 40
0.0
 40
0.0
 40
0.1548774784
 40
0.3013548845
 40
0.439352561
 40
0.5687830421
 40
0.6896033819
 40
0.8017841802
 40
0.9052624602
 40
1.0
 40
1.0
 40
1.0
 40
1.0
 10
11.1740308805
 20
5.6178852671
 30
0.0
 10
11.1735213738
 20
5.6076046319
 30
0.0
 10
11.1725230521
 20
5.5876012936
 30
0.0
 10
11.1710376311
 20
5.558439451
 30
0.0
 10
11.1696000578
 20
5.5309686088
 30
0.0
 10
11.1682046736
 20
5.5052031127
 30
0.0
 10
11.1668464654
 20
5.4811539801
 30
0.0
 10
11.1655213663
 20
5.4588306041
 30
0.0
 10
11.1642255119
 20
5.438242146
 30
0.0
 10
11.1633394535
 20
5.4250983638
 30
0.0
 10
11.1628974174
 20
5.4188175842
 30
0.0
  0
SPLINE
  5
3A1
100
AcDbEntity
  8
0
100
AcDbSpline
 62
9
  6
CONTINUOUS
 70
0
 71
3
 72
20
 73
16
 74
0
 42
0.0000001
 43
0.0000001
 44
0.0000000001
 40
0.0
 40
0.0
 40
0.0
 40
0.0
 40
0.013430291
 40
0.0284687521
 40
0.0632614844
 40
0.1040690903
 40
0.1505626387
 40
0.20241304
 40
0.2592562212
 40
0.3206403266
 40
0.3861147838
 40
0.5275352038
 40
0.6796849585
 40
0.8385330688
 40
1.0
 40
1.0
 40
1.0
 40
1.0
 10
10.6818379003
 20
6.5162059362
 30
0.0
 10
10.683473936
 20
6.5162280277
 30
0.0
 10
10.6869419556
 20
6.5162714633
 30
0.0
 10
10.6946485021
 20
6.5163567767
 30
0.0
 10
10.705690376
 20
6.5164590246
 30
0.0
 10
10.7205643866
 20
6.5165735266
 30
0.0
 10
10.7375165788
 20
6.5166839664
 30
0.0
 10
10.7564224159
 20
6.5167895725
 30
0.0
 10
10.7771423924
 20
6.5168895242
 30
0.0
 10
10.7995222042
 20
6.5169832308
 30
0.0
 10
10.8322058683
 20
6.51710192
 30
0.0
 10
10.8759473654
 20
6.5172276688
 30
0.0
 10
10.9310644487
 20
6.5173398852
 30
0.0
 10
10.988623827
 20
6.5174115047
 30
0.0
 10
11.0276471532
 20
6.5174286869
 30
0.0
 10
11.0473183383
 20
6.5174286868
 30
0.0
  0
LINE
  5
3A2
100
AcDbEntity
  8
0
100
AcDbLine
 62
7
  6
CONTINUOUS
 10
10.7669910252
 20
6.7554841096
 11
10.6714937623
 21
6.7554840827
  0
SPLINE
  5
3A3
100
AcDbEntity
  8
0
100
AcDbSpline
 62
9
  6
CONTINUOUS
 70
0
 71
3
 72
17
 73
13
 74
0
 42
0.0000001
 43
0.0000001
 44
0.0000000001
 40
0.0
 40
0.0
 40
0.0
 40
0.0
 40
0.0280165601
 40
0.062185806
 40
0.1022747026
 40
0.1480082761
 40
0.2551961438
 40
0.3809451663
 40
0.5220138783
 40
0.6748147244
 40
0.8354868516
 40
1.0
 40
1.0
 40
1.0
 40
1.0
 10
10.6737902045
 20
6.7019476335
 30
0.0
 10
10.6772784877
 20
6.7019655159
 30
0.0
 10
10.6850211417
 20
6.7019994292
 30
0.0
 10
10.6977552392
 20
6.702044445
 30
0.0
 10
10.7126952895
 20
6.7020882308
 30
0.0
 10
10.7367268452
 20
6.7021477462
 30
0.0
 10
10.7714239151
 20
6.702214565
 30
0.0
 10
10.8179911334
 20
6.7022822269
 30
0.0
 10
10.8702376217
 20
6.7023385253
 30
0.0
 10
10.9268323835
 20
6.7023813902
 30
0.0
 10
10.9863462113
 20
6.7024087208
 30
0.0
 10
11.0268348815
 20
6.7024152219
 30
0.0
 10
11.0473183383
 20
6.7024152219
 30
0.0
  0
LINE
  5
3A4
100
AcDbEntity
  8
0
100
AcDbLine
 62
9
  6
CONTINUOUS
 10
10.6869953495
 20
6.4011525499
 11
10.6818379003
 21
6.5162059362
  0
LINE
  5
3A5
100
AcDbEntity
  8
0
100
AcDbLine
 62
9
  6
CONTINUOUS
 10
11.1884571823
 20
5.938733841
 11
11.1884497162
 21
5.9383924689
  0
SPLINE
  5
3A6
100
AcDbEntity
  8
0
100
AcDbSpline
 62
9
  6
CONTINUOUS
 70
0
 71
3
 72
15
 73
11
 74
0
 42
0.0000001
 43
0.0000001
 44
0.0000000001
 40
0.0
 40
0.0
 40
0.0
 40
0.0
 40
0.1376885845
 40
0.2725802922
 40
0.4042407046
 40
0.5322477684
 40
0.6562025217
 40
0.7757183541
 40
0.8904341151
 40
1.0
 40
1.0
 40
1.0
 40
1.0
 10
11.1956836155
 20
6.4011532147
 30
0.0
 10
11.1952780378
 20
6.3799311745
 30
0.0
 10
11.1945076962
 20
6.3379175509
 30
0.0
 10
11.1934478993
 20
6.275609263
 30
0.0
 10
11.1924779699
 20
6.2147921935
 30
0.0
 10
11.1915815908
 20
6.1556602172
 30
0.0
 10
11.1907429176
 20
6.0983997858
 30
0.0
 10
11.1899521841
 20
6.0431878479
 30
0.0
 10
11.1892003844
 20
5.9901937529
 30
0.0
 10
11.1887034754
 20
5.9556223196
 30
0.0
 10
11.1884559479
 20
5.9387335814
 30
0.0
  0
SPLINE
  5
3A7
100
AcDbEntity
  8
0
100
AcDbSpline
 62
9
  6
CONTINUOUS
 70
0
 71
3
 72
18
 73
14
 74
0
 42
0.0000001
 43
0.0000001
 44
0.0000000001
 40
0.0
 40
0.0
 40
0.0
 40
0.0
 40
0.1101029821
 40
0.2251504945
 40
0.2844263142
 40
0.3448153704
 40
0.4062755864
 40
0.4687620384
 40
0.5322295074
 40
0.5966325288
 40
0.7280580348
 40
0.8626481655
 40
1.0
 40
1.0
 40
1.0
 40
1.0
 10
11.3033540061
 20
5.961612421
 30
0.0
 10
11.3039877828
 20
5.97773966
 30
0.0
 10
11.3052250955
 20
6.0107207028
 30
0.0
 10
11.3066744301
 20
6.0523887967
 30
0.0
 10
11.3078173736
 20
6.0867756423
 30
0.0
 10
11.3086750535
 20
6.1133124086
 30
0.0
 10
11.3095258161
 20
6.1403202719
 30
0.0
 10
11.3103702921
 20
6.1677798047
 30
0.0
 10
11.311211134
 20
6.1956710249
 30
0.0
 10
11.3123375301
 20
6.2336638053
 30
0.0
 10
11.3137481031
 20
6.2820784074
 30
0.0
 10
11.3154616799
 20
6.3411820777
 30
0.0
 10
11.3166317787
 20
6.3810281145
 30
0.0
 10
11.3172310037
 20
6.4011532158
 30
0.0
  0
SPLINE
  5
3A8
100
AcDbEntity
  8
0
100
AcDbSpline
 62
9
  6
CONTINUOUS
 70
0
 71
3
 72
16
 73
12
 74
0
 42
0.0000001
 43
0.0000001
 44
0.0000000001
 40
0.0
 40
0.0
 40
0.0
 40
0.0
 40
0.1345503791
 40
0.267317804
 40
0.3978032517
 40
0.462040034
 40
0.5255226912
 40
0.6499897494
 40
0.770810807
 40
0.8876054441
 40
1.0
 40
1.0
 40
1.0
 40
1.0
 10
11.18845095
 20
5.9383927284
 30
0.0
 10
11.1937376537
 20
5.938520985
 30
0.0
 10
11.2042370403
 20
5.9389991485
 30
0.0
 10
11.219815336
 20
5.9403807268
 30
0.0
 10
11.2325790799
 20
5.9420778912
 30
0.0
 10
11.2425881354
 20
5.9437578369
 30
0.0
 10
11.2523233434
 20
5.9456241914
 30
0.0
 10
11.2641584695
 20
5.9483309981
 30
0.0
 10
11.2778659832
 20
5.9521767659
 30
0.0
 10
11.2909129579
 20
5.9565557697
 30
0.0
 10
11.2992944901
 20
5.9598704901
 30
0.0
 10
11.3033540061
 20
5.961612421
 30
0.0
  0
LINE
  5
3A9
100
AcDbEntity
  8
0
100
AcDbLine
 62
9
  6
CONTINUOUS
 10
11.1821075729
 20
5.6330696773
 11
11.1820884445
 21
5.6325148335
  0
SPLINE
  5
3AA
100
AcDbEntity
  8
0
100
AcDbSpline
 62
9
  6
CONTINUOUS
 70
0
 71
3
 72
17
 73
13
 74
0
 42
0.0000001
 43
0.0000001
 44
0.0000000001
 40
0.0
 40
0.0
 40
0.0
 40
0.0
 40
0.1596489345
 40
0.3102318621
 40
0.4512916411
 40
0.5824030681
 40
0.7031750085
 40
0.8132456244
 40
0.8641643356
 40
0.9122868051
 40
0.9575768202
 40
1.0
 40
1.0
 40
1.0
 40
1.0
 10
11.18845095
 20
5.9383927284
 30
0.0
 10
11.1882129234
 20
5.9221425776
 30
0.0
 10
11.1877360332
 20
5.8905652829
 30
0.0
 10
11.1869903996
 20
5.8446308731
 30
0.0
 10
11.1862330924
 20
5.8016021231
 30
0.0
 10
11.1854592355
 20
5.761608875
 30
0.0
 10
11.1846643999
 20
5.7247713329
 30
0.0
 10
11.1839682761
 20
5.6960970837
 30
0.0
 10
11.1833971026
 20
5.6748176385
 30
0.0
 10
11.1829757293
 20
5.6601310891
 30
0.0
 10
11.1825508119
 20
5.6463098516
 30
0.0
 10
11.1822559704
 20
5.6373857089
 30
0.0
 10
11.1821075729
 20
5.6330696773
 30
0.0
  0
LINE
  5
3AB
100
AcDbEntity
  8
0
100
AcDbLine
 62
9
  6
CONTINUOUS
 10
11.303260345
 20
5.9592426079
 11
11.3033540061
 21
5.961612421
  0
SPLINE
  5
3AC
100
AcDbEntity
  8
0
100
AcDbSpline
 62
9
  6
CONTINUOUS
 70
0
 71
3
 72
21
 73
17
 74
0
 42
0.0000001
 43
0.0000001
 44
0.0000000001
 40
0.0
 40
0.0
 40
0.0
 40
0.0
 40
0.0438308409
 40
0.0903165716
 40
0.1394284399
 40
0.1911339444
 40
0.2453989531
 40
0.3021900516
 40
0.4232019839
 40
0.4873412137
 40
0.5538476666
 40
0.6226786216
 40
0.6937866848
 40
0.7671230693
 40
0.8426386693
 40
1.0
 40
1.0
 40
1.0
 40
1.0
 10
11.2843293638
 20
5.6655810818
 30
0.0
 10
11.2848263533
 20
5.669852521
 30
0.0
 10
11.2858049135
 20
5.6786594616
 30
0.0
 10
11.2871960974
 20
5.6922680394
 30
0.0
 10
11.2885538621
 20
5.7066561954
 30
0.0
 10
11.2898780072
 20
5.7218137469
 30
0.0
 10
11.2911686117
 20
5.7377301851
 30
0.0
 10
11.2928818258
 20
5.7604339857
 30
0.0
 10
11.2944852626
 20
5.7841171921
 30
0.0
 10
11.296002173
 20
5.8087607749
 30
0.0
 10
11.2971300592
 20
5.8282990003
 30
0.0
 10
11.2982275375
 20
5.8485236972
 30
0.0
 10
11.2992951689
 20
5.8694209783
 30
0.0
 10
11.3003337644
 20
5.8909763364
 30
0.0
 10
11.3016991869
 20
5.9209879831
 30
0.0
 10
11.3026505382
 20
5.943815896
 30
0.0
 10
11.303260345
 20
5.9592426079
 30
0.0
  0
SPLINE
  5
3AD
100
AcDbEntity
  8
0
100
AcDbSpline
 62
9
  6
CONTINUOUS
 70
0
 71
3
 72
18
 73
14
 74
0
 42
0.0000001
 43
0.0000001
 44
0.0000000001
 40
0.0
 40
0.0
 40
0.0
 40
0.0
 40
0.1293334711
 40
0.257926632
 40
0.3855070502
 40
0.4488428847
 40
0.5118278092
 40
0.5744323711
 40
0.6366306417
 40
0.6984005803
 40
0.7597198818
 40
0.8808965026
 40
1.0
 40
1.0
 40
1.0
 40
1.0
 10
11.1820884445
 20
5.6325148335
 30
0.0
 10
11.1867719521
 20
5.6327507027
 30
0.0
 10
11.196099786
 20
5.6335243892
 30
0.0
 10
11.2099348325
 20
5.635580404
 30
0.0
 10
11.2212676384
 20
5.6380285509
 30
0.0
 10
11.2301592488
 20
5.6404196358
 30
0.0
 10
11.2367120775
 20
5.6424206093
 30
0.0
 10
11.2431535838
 20
5.6446311645
 30
0.0
 10
11.2494732278
 20
5.6470485443
 30
0.0
 10
11.2556621149
 20
5.6496661136
 30
0.0
 10
11.2636951228
 20
5.6533996542
 30
0.0
 10
11.2733647197
 20
5.658527213
 30
0.0
 10
11.2807569467
 20
5.6631546759
 30
0.0
 10
11.2843293638
 20
5.6655810818
 30
0.0
  0
LINE
  5
3AE
100
AcDbEntity
  8
0
100
AcDbLine
 62
9
  6
CONTINUOUS
 10
11.1817907901
 20
5.6241621307
 11
11.1817711246
 21
5.6236118107
  0
LINE
  5
3AF
100
AcDbEntity
  8
0
100
AcDbLine
 62
9
  6
CONTINUOUS
 10
11.1820884445
 20
5.6325148335
 11
11.1817907901
 21
5.6241621307
  0
LINE
  5
3B0
100
AcDbEntity
  8
0
100
AcDbLine
 62
9
  6
CONTINUOUS
 10
11.2838779858
 20
5.661740682
 11
11.2843293638
 21
5.6655810818
  0
SPLINE
  5
3B1
100
AcDbEntity
  8
0
100
AcDbSpline
 62
9
  6
CONTINUOUS
 70
0
 71
3
 72
18
 73
14
 74
0
 42
0.0000001
 43
0.0000001
 44
0.0000000001
 40
0.0
 40
0.0
 40
0.0
 40
0.0
 40
0.1291626632
 40
0.2576150973
 40
0.3850947569
 40
0.4483983197
 40
0.5113645551
 40
0.5739651698
 40
0.6361752304
 40
0.6979736844
 40
0.7593392396
 40
0.880665235
 40
1.0
 40
1.0
 40
1.0
 40
1.0
 10
11.1817711246
 20
5.6236118107
 30
0.0
 10
11.1864174568
 20
5.6238466171
 30
0.0
 10
11.1956721713
 20
5.6246180736
 30
0.0
 10
11.2093993259
 20
5.6266701979
 30
0.0
 10
11.2206444534
 20
5.6291146538
 30
0.0
 10
11.2294681835
 20
5.6315025234
 30
0.0
 10
11.2359722315
 20
5.6335012501
 30
0.0
 10
11.242366463
 20
5.635709532
 30
0.0
 10
11.2486403919
 20
5.6381247722
 30
0.0
 10
11.2547851877
 20
5.6407404393
 30
0.0
 10
11.2627631893
 20
5.6444723898
 30
0.0
 10
11.2723686986
 20
5.6495991357
 30
0.0
 10
11.2797102805
 20
5.6542246118
 30
0.0
 10
11.2832588168
 20
5.6566501118
 30
0.0
  0
SPLINE
  5
3B2
100
AcDbEntity
  8
0
100
AcDbSpline
 62
9
  6
CONTINUOUS
 70
0
 71
3
 72
46
 73
42
 74
0
 42
0.0000001
 43
0.0000001
 44
0.0000000001
 40
0.0
 40
0.0
 40
0.0
 40
0.0
 40
0.1188694136
 40
0.2304077071
 40
0.334545203
 40
0.4312074457
 40
0.5203700333
 40
0.6019751846
 40
0.639925878
 40
0.6759700843
 40
0.7101059809
 40
0.7423303341
 40
0.7726391855
 40
0.8010301217
 40
0.8275019471
 40
0.8520538798
 40
0.8746857106
 40
0.8953985563
 40
0.9141947371
 40
0.931077665
 40
0.938803261
 40
0.9460526155
 40
0.9528267624
 40
0.9591270054
 40
0.9649550125
 40
0.9703130032
 40
0.9752038861
 40
0.9796314858
 40
0.9836009556
 40
0.9871193973
 40
0.9901969987
 40
0.9915753065
 40
0.992849789
 40
0.9940237719
 40
0.9951015192
 40
0.9960885612
 40
0.9969920822
 40
0.9978214175
 40
0.9985885916
 40
0.9993087238
 40
1.0
 40
1.0
 40
1.0
 40
1.0
 10
11.1817711246
 20
5.6236118107
 30
0.0
 10
11.1813205547
 20
5.6121860954
 30
0.0
 10
11.180423455
 20
5.5900402566
 30
0.0
 10
11.1790399881
 20
5.557888528
 30
0.0
 10
11.1776624901
 20
5.5278748423
 30
0.0
 10
11.1762906952
 20
5.5000157233
 30
0.0
 10
11.1749250611
 20
5.474326605
 30
0.0
 10
11.1737668519
 20
5.4542823528
 30
0.0
 10
11.1728384124
 20
5.4393432696
 30
0.0
 10
11.172160106
 20
5.4289637911
 30
0.0
 10
11.1714825742
 20
5.4191363394
 30
0.0
 10
11.1708053226
 20
5.4098619596
 30
0.0
 10
11.1701278234
 20
5.4011417911
 30
0.0
 10
11.1694493993
 20
5.3929768329
 30
0.0
 10
11.168769349
 20
5.3853678396
 30
0.0
 10
11.1680866637
 20
5.3783154587
 30
0.0
 10
11.1674000458
 20
5.3718202632
 30
0.0
 10
11.1667085907
 20
5.3658826335
 30
0.0
 10
11.1660114088
 20
5.3605028507
 30
0.0
 10
11.1654089389
 20
5.3563709854
 30
0.0
 10
11.1649195782
 20
5.3533456965
 30
0.0
 10
11.1645616368
 20
5.3512843436
 30
0.0
 10
11.164201748
 20
5.3493626533
 30
0.0
 10
11.1638398185
 20
5.3475806463
 30
0.0
 10
11.1634757656
 20
5.345938327
 30
0.0
 10
11.1631095603
 20
5.3444356651
 30
0.0
 10
11.1627412029
 20
5.3430725874
 30
0.0
 10
11.1623706936
 20
5.3418489958
 30
0.0
 10
11.1619980444
 20
5.3407646976
 30
0.0
 10
11.1616232536
 20
5.3398195422
 30
0.0
 10
11.1612982808
 20
5.3391239025
 30
0.0
 10
11.1610345018
 20
5.3386396926
 30
0.0
 10
11.1608433684
 20
5.3383249027
 30
0.0
 10
11.1606515804
 20
5.3380448833
 30
0.0
 10
11.1604590699
 20
5.3377995968
 30
0.0
 10
11.1602657606
 20
5.3375889938
 30
0.0
 10
11.1600715222
 20
5.3374130474
 30
0.0
 10
11.159876186
 20
5.3372717949
 30
0.0
 10
11.1596795329
 20
5.3371653951
 30
0.0
 10
11.1594815357
 20
5.3370941823
 30
0.0
 10
11.1593470812
 20
5.3370701845
 30
0.0
 10
11.1592808357
 20
5.3370644067
 30
0.0
  0
LINE
  5
3B3
100
AcDbEntity
  8
0
100
AcDbLine
 62
9
  6
CONTINUOUS
 10
10.6737902045
 20
6.7019476335
 11
10.6818379003
 21
6.5162059362
  0
LINE
  5
3B4
100
AcDbEntity
  8
0
100
AcDbLine
 62
7
  6
CONTINUOUS
 10
10.6714937623
 20
6.7554840827
 11
10.6536175531
 21
6.7554972253
  0
SPLINE
  5
3B5
100
AcDbEntity
  8
0
100
AcDbSpline
 62
9
  6
CONTINUOUS
 70
0
 71
3
 72
34
 73
30
 74
0
 42
0.0000001
 43
0.0000001
 44
0.0000000001
 40
0.0
 40
0.0
 40
0.0
 40
0.0
 40
0.119826896
 40
0.2321954293
 40
0.3370806928
 40
0.4344536073
 40
0.5242546701
 40
0.6064110087
 40
0.6808518083
 40
0.7475354084
 40
0.8064419894
 40
0.8575525388
 40
0.8801785182
 40
0.9008486145
 40
0.9195606674
 40
0.936312633
 40
0.9511026465
 40
0.9639291394
 40
0.9747912721
 40
0.9836894076
 40
0.9874026939
 40
0.9906262021
 40
0.9933610816
 40
0.9956093943
 40
0.9973751142
 40
0.9986669617
 40
0.9991421095
 40
0.9995113886
 40
1.0
 40
1.0
 40
1.0
 40
1.0
 10
11.4127987349
 20
6.5162059384
 30
0.0
 10
11.4134836854
 20
6.5161966896
 30
0.0
 10
11.4148109456
 20
6.5161782075
 30
0.0
 10
11.4167377168
 20
6.5161494815
 30
0.0
 10
11.4185361087
 20
6.5161206511
 30
0.0
 10
11.4202054702
 20
6.5160917325
 30
0.0
 10
11.421744875
 20
6.5160627351
 30
0.0
 10
11.4231531576
 20
6.5160336714
 30
0.0
 10
11.4244292527
 20
6.5160045497
 30
0.0
 10
11.4255723973
 20
6.5159753907
 30
0.0
 10
11.4265821209
 20
6.5159462161
 30
0.0
 10
11.427339985
 20
6.5159210107
 30
0.0
 10
11.4278792914
 20
6.5159005588
 30
0.0
 10
11.4282334681
 20
6.5158858497
 30
0.0
 10
11.4285540334
 20
6.5158711453
 30
0.0
 10
11.4288409457
 20
6.5158564512
 30
0.0
 10
11.4290941637
 20
6.5158417753
 30
0.0
 10
11.4293136506
 20
6.5158271363
 30
0.0
 10
11.4294993708
 20
6.5158125431
 30
0.0
 10
11.4296329702
 20
6.5157998276
 30
0.0
 10
11.4297228925
 20
6.515789385
 30
0.0
 10
11.429777698
 20
6.5157820536
 30
0.0
 10
11.4298240456
 20
6.5157747425
 30
0.0
 10
11.4298619516
 20
6.515767503
 30
0.0
 10
11.4298914313
 20
6.5157602719
 30
0.0
 10
11.429910649
 20
6.5157539919
 30
0.0
 10
11.4299216611
 20
6.515748488
 30
0.0
 10
11.4299278922
 20
6.5157443636
 30
0.0
 10
11.4299312411
 20
6.5157397401
 30
0.0
 10
11.4299311097
 20
6.5157369499
 30
0.0
  0
LINE
  5
3B6
100
AcDbEntity
  8
0
100
AcDbLine
 62
9
  6
CONTINUOUS
 10
11.4208463662
 20
6.7019476343
 11
11.4385531157
 21
6.7017632889
  0
LINE
  5
3B7
100
AcDbEntity
  8
0
100
AcDbLine
 62
9
  6
CONTINUOUS
 10
11.407641327
 20
6.4011525498
 11
11.4127987349
 21
6.5162059384
  0
SPLINE
  5
3B8
100
AcDbEntity
  8
0
100
AcDbSpline
 62
9
  6
CONTINUOUS
 70
0
 71
3
 72
20
 73
16
 74
0
 42
0.0000001
 43
0.0000001
 44
0.0000000001
 40
0.0
 40
0.0
 40
0.0
 40
0.0
 40
0.1614670992
 40
0.3203152531
 40
0.4724651061
 40
0.6138853137
 40
0.679359717
 40
0.740743797
 40
0.7975869289
 40
0.8494373172
 40
0.8959309025
 40
0.9367385403
 40
0.9715312567
 40
0.9865697081
 40
1.0
 40
1.0
 40
1.0
 40
1.0
 10
11.0473183383
 20
6.5174286868
 30
0.0
 10
11.0669895416
 20
6.5174286867
 30
0.0
 10
11.1060128892
 20
6.5174115045
 30
0.0
 10
11.1635722987
 20
6.5173398849
 30
0.0
 10
11.2186893672
 20
6.5172276688
 30
0.0
 10
11.2624308389
 20
6.5171019201
 30
0.0
 10
11.2951144637
 20
6.5169832311
 30
0.0
 10
11.3174942573
 20
6.5168895248
 30
0.0
 10
11.3382142208
 20
6.5167895733
 30
0.0
 10
11.3571200526
 20
6.5166839674
 30
0.0
 10
11.3740722497
 20
6.516573528
 30
0.0
 10
11.3889462651
 20
6.5164590263
 30
0.0
 10
11.3999881385
 20
6.5163567786
 30
0.0
 10
11.4076946812
 20
6.5162714653
 30
0.0
 10
11.4111626993
 20
6.5162280299
 30
0.0
 10
11.4127987349
 20
6.5162059384
 30
0.0
  0
LINE
  5
3B9
100
AcDbEntity
  8
0
100
AcDbLine
 62
9
  6
CONTINUOUS
 10
11.4208463662
 20
6.7019476343
 11
11.4127987349
 21
6.5162059384
  0
SPLINE
  5
3BA
100
AcDbEntity
  8
0
100
AcDbSpline
 62
9
  6
CONTINUOUS
 70
0
 71
3
 72
17
 73
13
 74
0
 42
0.0000001
 43
0.0000001
 44
0.0000000001
 40
0.0
 40
0.0
 40
0.0
 40
0.0
 40
0.164512991
 40
0.325185019
 40
0.4779858504
 40
0.6190545352
 40
0.7448035959
 40
0.8519915262
 40
0.8977251504
 40
0.9378140993
 40
0.9719833898
 40
1.0
 40
1.0
 40
1.0
 40
1.0
 10
11.0473183383
 20
6.7024152219
 30
0.0
 10
11.0678017697
 20
6.7024152219
 30
0.0
 10
11.1082903964
 20
6.7024087207
 30
0.0
 10
11.1678041736
 20
6.7023813901
 30
0.0
 10
11.2243989018
 20
6.7023385252
 30
0.0
 10
11.2766453748
 20
6.7022822269
 30
0.0
 10
11.323212589
 20
6.7022145652
 30
0.0
 10
11.357909668
 20
6.7021477466
 30
0.0
 10
11.3819412375
 20
6.7020882313
 30
0.0
 10
11.3968813019
 20
6.7020444456
 30
0.0
 10
11.4096154142
 20
6.7019994299
 30
0.0
 10
11.4173580777
 20
6.7019655167
 30
0.0
 10
11.4208463662
 20
6.7019476343
 30
0.0
  0
LINE
  5
3BB
100
AcDbEntity
  8
0
100
AcDbLine
 62
7
  6
CONTINUOUS
 10
11.42314279
 20
6.7554840827
 11
11.3276569694
 21
6.7554841069
  0
SPLINE
  5
3BC
100
AcDbEntity
  8
0
100
AcDbSpline
 62
9
  6
CONTINUOUS
 70
0
 71
3
 72
15
 73
11
 74
0
 42
0.0000001
 43
0.0000001
 44
0.0000000001
 40
0.0
 40
0.0
 40
0.0
 40
0.0
 40
0.1382791631
 40
0.2735021383
 40
0.4052696665
 40
0.5332063509
 40
0.6569644859
 40
0.7762159812
 40
0.8906571378
 40
1.0
 40
1.0
 40
1.0
 40
1.0
 10
11.3758780764
 20
6.4011391275
 30
0.0
 10
11.3739490014
 20
6.3825957342
 30
0.0
 10
11.3701915701
 20
6.3459127268
 30
0.0
 10
11.3647637396
 20
6.2915425339
 30
0.0
 10
11.3595749793
 20
6.2385499439
 30
0.0
 10
11.354598232
 20
6.1870897861
 30
0.0
 10
11.3498061421
 20
6.1373071249
 30
0.0
 10
11.3451878258
 20
6.0893356781
 30
0.0
 10
11.3407320515
 20
6.0433011091
 30
0.0
 10
11.3377863888
 20
6.0132735851
 30
0.0
 10
11.336330883
 20
5.9986034802
 30
0.0
  0
SPLINE
  5
3BD
100
AcDbEntity
  8
0
100
AcDbSpline
 62
9
  6
CONTINUOUS
 70
0
 71
3
 72
15
 73
11
 74
0
 42
0.0000001
 43
0.0000001
 44
0.0000000001
 40
0.0
 40
0.0
 40
0.0
 40
0.0
 40
0.1527691461
 40
0.2976570369
 40
0.4345832497
 40
0.5634754092
 40
0.6843295421
 40
0.7972629145
 40
0.9024249884
 40
1.0
 40
1.0
 40
1.0
 40
1.0
 10
11.3124522865
 20
5.9671939419
 30
0.0
 10
11.3139884798
 20
5.9685204389
 30
0.0
 10
11.3169213162
 20
5.9711760549
 30
0.0
 10
11.3210012961
 20
5.9752649273
 30
0.0
 10
11.324644915
 20
5.9793304507
 30
0.0
 10
11.3278503707
 20
5.9833488511
 30
0.0
 10
11.3306177278
 20
5.9872974113
 30
0.0
 10
11.3329525779
 20
5.9911523555
 30
0.0
 10
11.3348610761
 20
5.9948910718
 30
0.0
 10
11.3358916277
 20
5.9973838104
 30
0.0
 10
11.336330883
 20
5.9986034802
 30
0.0
  0
LINE
  5
3BE
100
AcDbEntity
  8
0
100
AcDbLine
 62
9
  6
CONTINUOUS
 10
11.3124522865
 20
5.9671939419
 11
11.3124869456
 21
5.9694739479
  0
SPLINE
  5
3BF
100
AcDbEntity
  8
0
100
AcDbSpline
 62
9
  6
CONTINUOUS
 70
0
 71
3
 72
17
 73
13
 74
0
 42
0.0000001
 43
0.0000001
 44
0.0000000001
 40
0.0
 40
0.0
 40
0.0
 40
0.0
 40
0.1088036777
 40
0.2229610932
 40
0.3421292493
 40
0.4034832929
 40
0.4659551548
 40
0.5294968941
 40
0.5940599858
 40
0.7260504336
 40
0.8615082705
 40
1.0
 40
1.0
 40
1.0
 40
1.0
 10
11.3124869456
 20
5.9694739479
 30
0.0
 10
11.3127251565
 20
5.9851291936
 30
0.0
 10
11.3131680198
 20
6.017210703
 30
0.0
 10
11.3137501205
 20
6.0664403345
 30
0.0
 10
11.3141959411
 20
6.1088429611
 30
0.0
 10
11.3145422862
 20
6.1438085576
 30
0.0
 10
11.3148008529
 20
6.1707698816
 30
0.0
 10
11.3150594055
 20
6.1981930145
 30
0.0
 10
11.3154111673
 20
6.2356195707
 30
0.0
 10
11.3158717137
 20
6.2833944281
 30
0.0
 10
11.3164901319
 20
6.341806714
 30
0.0
 10
11.3169685931
 20
6.3812257053
 30
0.0
 10
11.3172310035
 20
6.4011532031
 30
0.0
  0
SPLINE
  5
3C0
100
AcDbEntity
  8
0
100
AcDbSpline
 62
9
  6
CONTINUOUS
 70
0
 71
3
 72
20
 73
16
 74
0
 42
0.0000001
 43
0.0000001
 44
0.0000000001
 40
0.0
 40
0.0
 40
0.0
 40
0.0
 40
0.0413805619
 40
0.0858113723
 40
0.1332428749
 40
0.1836247225
 40
0.2369053706
 40
0.2930363708
 40
0.3519702979
 40
0.4136558691
 40
0.5450788923
 40
0.614716331
 40
0.686900659
 40
0.8386905783
 40
1.0
 40
1.0
 40
1.0
 40
1.0
 10
11.3029421757
 20
5.6937750133
 30
0.0
 10
11.3032318553
 20
5.6975380543
 30
0.0
 10
11.303798579
 20
5.705344156
 30
0.0
 10
11.3045911755
 20
5.7174709758
 30
0.0
 10
11.3053556817
 20
5.7304220944
 30
0.0
 10
11.3060909806
 20
5.7441832749
 30
0.0
 10
11.3067957922
 20
5.7587404757
 30
0.0
 10
11.3074693124
 20
5.7740799457
 30
0.0
 10
11.3081111477
 20
5.7901879912
 30
0.0
 10
11.3089412924
 20
5.8131609443
 30
0.0
 10
11.3096835666
 20
5.8371137618
 30
0.0
 10
11.310354273
 20
5.8620264384
 30
0.0
 10
11.3110074207
 20
5.8887977807
 30
0.0
 10
11.3117417862
 20
5.9239305779
 30
0.0
 10
11.3122265448
 20
5.9524832133
 30
0.0
 10
11.3124522865
 20
5.9671939419
 30
0.0
  0
LINE
  5
3C1
100
AcDbEntity
  8
0
100
AcDbLine
 62
9
  6
CONTINUOUS
 10
11.336330883
 20
5.9986034802
 11
11.3361201671
 21
5.9964817189
  0
LINE
  5
3C2
100
AcDbEntity
  8
0
100
AcDbLine
 62
9
  6
CONTINUOUS
 10
11.3391922428
 20
6.0022464273
 11
11.3389981478
 21
6.0001578905
  0
SPLINE
  5
3C3
100
AcDbEntity
  8
0
100
AcDbSpline
 62
9
  6
CONTINUOUS
 70
0
 71
3
 72
15
 73
11
 74
0
 42
0.0000001
 43
0.0000001
 44
0.0000000001
 40
0.0
 40
0.0
 40
0.0
 40
0.0
 40
0.1387224005
 40
0.2742625472
 40
0.4062184362
 40
0.5342139332
 40
0.6579026234
 40
0.7769594451
 40
0.8910858988
 40
1.0
 40
1.0
 40
1.0
 40
1.0
 10
11.3758780764
 20
6.4011391276
 30
0.0
 10
11.374074588
 20
6.3827041341
 30
0.0
 10
11.3705673883
 20
6.3462513105
 30
0.0
 10
11.3655128697
 20
6.2922467039
 30
0.0
 10
11.3606928322
 20
6.2396588446
 30
0.0
 10
11.3560789872
 20
6.1886412485
 30
0.0
 10
11.3516430127
 20
6.1393369622
 30
0.0
 10
11.3473728679
 20
6.0918771087
 30
0.0
 10
11.3432570182
 20
6.0463841319
 30
0.0
 10
11.3405364428
 20
6.0167269993
 30
0.0
 10
11.3391922428
 20
6.0022464273
 30
0.0
  0
LINE
  5
3C4
100
AcDbEntity
  8
0
100
AcDbLine
 62
7
  6
CONTINUOUS
 10
11.4076413107
 20
6.4011525498
 11
11.3758780764
 21
6.4011391276
  0
SPLINE
  5
3C5
100
AcDbEntity
  8
0
100
AcDbSpline
 62
9
  6
CONTINUOUS
 70
0
 71
3
 72
15
 73
11
 74
0
 42
0.0000001
 43
0.0000001
 44
0.0000000001
 40
0.0
 40
0.0
 40
0.0
 40
0.0
 40
0.1375074844
 40
0.2720814876
 40
0.4033893173
 40
0.5311127426
 40
0.6549390773
 40
0.7745635316
 40
0.8896839013
 40
1.0
 40
1.0
 40
1.0
 40
1.0
 10
11.4076413107
 20
6.4011525498
 30
0.0
 10
11.406401616
 20
6.3834194489
 30
0.0
 10
11.4039974512
 20
6.3483281331
 30
0.0
 10
11.4005385762
 20
6.2962945006
 30
0.0
 10
11.3972252703
 20
6.2455188758
 30
0.0
 10
11.3940197096
 20
6.1961285966
 30
0.0
 10
11.3908835983
 20
6.1482473666
 30
0.0
 10
11.3877988555
 20
6.1019955529
 30
0.0
 10
11.3847477069
 20
6.0574919877
 30
0.0
 10
11.3826720063
 20
6.0284224668
 30
0.0
 10
11.3816273808
 20
6.0141995829
 30
0.0
  0
SPLINE
  5
3C6
100
AcDbEntity
  8
0
100
AcDbSpline
 62
9
  6
CONTINUOUS
 70
0
 71
3
 72
15
 73
11
 74
0
 42
0.0000001
 43
0.0000001
 44
0.0000000001
 40
0.0
 40
0.0
 40
0.0
 40
0.0
 40
0.136862895
 40
0.2706172924
 40
0.4010963003
 40
0.5281506044
 40
0.6516526523
 40
0.7714945855
 40
0.887608097
 40
1.0
 40
1.0
 40
1.0
 40
1.0
 10
11.3389981478
 20
6.0001578905
 30
0.0
 10
11.3410400275
 20
6.0004392016
 30
0.0
 10
11.345066491
 20
6.0010789052
 30
0.0
 10
11.3509874673
 20
6.0022842661
 30
0.0
 10
11.3567049693
 20
6.0037197331
 30
0.0
 10
11.3622002496
 20
6.0053803251
 30
0.0
 10
11.3674547107
 20
6.0072603546
 30
0.0
 10
11.3724511946
 20
6.0093507718
 30
0.0
 10
11.3771730259
 20
6.0116430475
 30
0.0
 10
11.380177526
 20
6.0133261283
 30
0.0
 10
11.3816273808
 20
6.0141995829
 30
0.0
  0
SPLINE
  5
3C7
100
AcDbEntity
  8
0
100
AcDbSpline
 62
9
  6
CONTINUOUS
 70
0
 71
3
 72
20
 73
16
 74
0
 42
0.0000001
 43
0.0000001
 44
0.0000000001
 40
0.0
 40
0.0
 40
0.0
 40
0.0
 40
0.1586540047
 40
0.3082923941
 40
0.3796276253
 40
0.4485870022
 40
0.5792298459
 40
0.6408470509
 40
0.6999494593
 40
0.756502829
 40
0.8104772814
 40
0.8618444769
 40
0.9105735541
 40
0.9566344538
 40
1.0
 40
1.0
 40
1.0
 40
1.0
 10
11.3389981478
 20
6.0001578905
 30
0.0
 10
11.3377209917
 20
5.9864122288
 30
0.0
 10
11.3351892537
 20
5.959706621
 30
0.0
 10
11.3319292424
 20
5.9268354424
 30
0.0
 10
11.3293450851
 20
5.9017403458
 30
0.0
 10
11.3268673887
 20
5.8782959726
 30
0.0
 10
11.3243815456
 20
5.8557027965
 30
0.0
 10
11.321873819
 20
5.833975341
 30
0.0
 10
11.3200473186
 20
5.8186588728
 30
0.0
 10
11.3182395086
 20
5.8040100224
 30
0.0
 10
11.3164512557
 20
5.7900370606
 30
0.0
 10
11.3146843518
 20
5.7767478858
 30
0.0
 10
11.3129407067
 20
5.7641504288
 30
0.0
 10
11.3112223116
 20
5.7522525655
 30
0.0
 10
11.3100596676
 20
5.744558629
 30
0.0
 10
11.3094817522
 20
5.7408298072
 30
0.0
  0
SPLINE
  5
3C8
100
AcDbEntity
  8
0
100
AcDbSpline
 62
9
  6
CONTINUOUS
 70
0
 71
3
 72
21
 73
17
 74
0
 42
0.0000001
 43
0.0000001
 44
0.0000000001
 40
0.0
 40
0.0
 40
0.0
 40
0.0
 40
0.1587891397
 40
0.3081535402
 40
0.3792762052
 40
0.4480090208
 40
0.5143381443
 40
0.5782498818
 40
0.6397291181
 40
0.6987545389
 40
0.7553034172
 40
0.8093532416
 40
0.8608798602
 40
0.9098518084
 40
0.9562360563
 40
1.0
 40
1.0
 40
1.0
 40
1.0
 10
11.3816273808
 20
6.0141995829
 30
0.0
 10
11.3806348215
 20
6.0006855967
 30
0.0
 10
11.3786430627
 20
5.9744644832
 30
0.0
 10
11.3760050302
 20
5.9422061348
 30
0.0
 10
11.3738701816
 20
5.9176178045
 30
0.0
 10
11.3722856506
 20
5.9000943427
 30
0.0
 10
11.3706909897
 20
5.8831897807
 30
0.0
 10
11.3690857065
 20
5.8669080975
 30
0.0
 10
11.367469386
 20
5.8512539523
 30
0.0
 10
11.3658427084
 20
5.8362327129
 30
0.0
 10
11.3642064335
 20
5.8218504179
 30
0.0
 10
11.3625613579
 20
5.8081133991
 30
0.0
 10
11.3609083815
 20
5.7950287962
 30
0.0
 10
11.3592492738
 20
5.7826046136
 30
0.0
 10
11.3575859125
 20
5.7708496731
 30
0.0
 10
11.3564419216
 20
5.7632422146
 30
0.0
 10
11.3558679957
 20
5.7595519495
 30
0.0
  0
SPLINE
  5
3C9
100
AcDbEntity
  8
0
100
AcDbSpline
 62
9
  6
CONTINUOUS
 70
0
 71
3
 72
14
 73
10
 74
0
 42
0.0000001
 43
0.0000001
 44
0.0000000001
 40
0.0
 40
0.0
 40
0.0
 40
0.0
 40
0.2569159501
 40
0.3837882537
 40
0.5094947924
 40
0.6339937577
 40
0.7572492524
 40
0.8792465212
 40
1.0
 40
1.0
 40
1.0
 40
1.0
 10
11.3090883152
 20
5.7371855416
 30
0.0
 10
11.3134598135
 20
5.7381663251
 30
0.0
 10
11.3199189364
 20
5.739986445
 30
0.0
 10
11.3282398669
 20
5.7431104806
 30
0.0
 10
11.3342566085
 20
5.7457731136
 30
0.0
 10
11.3400507106
 20
5.748754625
 30
0.0
 10
11.3456016964
 20
5.7520428218
 30
0.0
 10
11.35088861
 20
5.7556251829
 30
0.0
 10
11.3542424788
 20
5.7582133667
 30
0.0
 10
11.3558679957
 20
5.7595519495
 30
0.0
  0
LINE
  5
3CA
100
AcDbEntity
  8
0
100
AcDbLine
 62
9
  6
CONTINUOUS
 10
11.3558679957
 20
5.7595519495
 11
11.3546457427
 21
5.7519312717
  0
SPLINE
  5
3CB
100
AcDbEntity
  8
0
100
AcDbSpline
 62
9
  6
CONTINUOUS
 70
0
 71
3
 72
14
 73
10
 74
0
 42
0.0000001
 43
0.0000001
 44
0.0000000001
 40
0.0
 40
0.0
 40
0.0
 40
0.0
 40
0.2565815872
 40
0.3833618615
 40
0.5090322688
 40
0.6335538809
 40
0.756893172
 40
0.8790371764
 40
1.0
 40
1.0
 40
1.0
 40
1.0
 10
11.3082505599
 20
5.7295419457
 30
0.0
 10
11.3125830368
 20
5.7305349105
 30
0.0
 10
11.3189841811
 20
5.7323694501
 30
0.0
 10
11.3272299084
 20
5.7355037917
 30
0.0
 10
11.333195077
 20
5.738170916
 30
0.0
 10
11.3389417152
 20
5.7411531439
 30
0.0
 10
11.3444498228
 20
5.7444386138
 30
0.0
 10
11.3496989902
 20
5.7480149838
 30
0.0
 10
11.3530303998
 20
5.7505964965
 30
0.0
 10
11.3546457427
 20
5.7519312717
 30
0.0
  0
SPLINE
  5
3CC
100
AcDbEntity
  8
0
100
AcDbSpline
 62
9
  6
CONTINUOUS
 70
0
 71
3
 72
39
 73
35
 74
0
 42
0.0000001
 43
0.0000001
 44
0.0000000001
 40
0.0
 40
0.0
 40
0.0
 40
0.0
 40
0.111166817
 40
0.2159457458
 40
0.3141998261
 40
0.405818566
 40
0.4907523137
 40
0.5306997756
 40
0.5689615829
 40
0.6055394026
 40
0.6404380372
 40
0.673663001
 40
0.7052225628
 40
0.7351260138
 40
0.7633844679
 40
0.7900135912
 40
0.8150302776
 40
0.8384519571
 40
0.8602994681
 40
0.8806089643
 40
0.8994208506
 40
0.9167717317
 40
0.9326875455
 40
0.9471953532
 40
0.9539314016
 40
0.9603279487
 40
0.9663900056
 40
0.97212293
 40
0.9775324553
 40
0.9826251286
 40
0.9874085316
 40
0.9918915316
 40
0.9960845904
 40
1.0
 40
1.0
 40
1.0
 40
1.0
 10
11.3546457427
 20
5.7519312717
 30
0.0
 10
11.3530293402
 20
5.741976135
 30
0.0
 10
11.3498285245
 20
5.7226477169
 30
0.0
 10
11.3449771702
 20
5.6945578438
 30
0.0
 10
11.340231383
 20
5.668250185
 30
0.0
 10
11.3356053321
 20
5.6437512528
 30
0.0
 10
11.3317871635
 20
5.6244838285
 30
0.0
 10
11.3287976484
 20
5.6099878187
 30
0.0
 10
11.326639082
 20
5.599799972
 30
0.0
 10
11.3245187824
 20
5.5900724037
 30
0.0
 10
11.322437234
 20
5.580804267
 30
0.0
 10
11.320394869
 20
5.5719941573
 30
0.0
 10
11.3183917208
 20
5.5636403967
 30
0.0
 10
11.3164277221
 20
5.5557408798
 30
0.0
 10
11.3145026256
 20
5.5482929386
 30
0.0
 10
11.3126156818
 20
5.5412934328
 30
0.0
 10
11.3107661047
 20
5.5347387848
 30
0.0
 10
11.308952901
 20
5.5286251636
 30
0.0
 10
11.3071740192
 20
5.522947482
 30
0.0
 10
11.305428285
 20
5.5176985029
 30
0.0
 10
11.3037142488
 20
5.5128699183
 30
0.0
 10
11.3020308292
 20
5.5084546648
 30
0.0
 10
11.3003760614
 20
5.504448036
 30
0.0
 10
11.2989878336
 20
5.5013749396
 30
0.0
 10
11.2978866035
 20
5.4991218434
 30
0.0
 10
11.2970877513
 20
5.4975742924
 30
0.0
 10
11.2962953068
 20
5.4961263717
 30
0.0
 10
11.2955091882
 20
5.49477768
 30
0.0
 10
11.2947293722
 20
5.4935278393
 30
0.0
 10
11.2939558319
 20
5.4923764943
 30
0.0
 10
11.2931885384
 20
5.4913232907
 30
0.0
 10
11.2924274288
 20
5.4903678524
 30
0.0
 10
11.2916724917
 20
5.4895098763
 30
0.0
 10
11.2911561039
 20
5.4889852056
 30
0.0
 10
11.2908986981
 20
5.4887404098
 30
0.0
  0
SPLINE
  5
3CD
100
AcDbEntity
  8
0
100
AcDbSpline
 62
9
  6
CONTINUOUS
 70
0
 71
3
 72
8
 73
4
 74
0
 42
0.0000001
 43
0.0000001
 44
0.0000000001
 40
0.0
 40
0.0
 40
0.0
 40
0.0
 40
1.0
 40
1.0
 40
1.0
 40
1.0
 10
11.2908986981
 20
5.4887404098
 30
0.0
 10
11.2908833004
 20
5.4887258247
 30
0.0
 10
11.2908679027
 20
5.4887112396
 30
0.0
 10
11.290852505
 20
5.4886966545
 30
0.0
  0
SPLINE
  5
3CE
100
AcDbEntity
  8
0
100
AcDbSpline
 62
9
  6
CONTINUOUS
 70
0
 71
3
 72
18
 73
14
 74
0
 42
0.0000001
 43
0.0000001
 44
0.0000000001
 40
0.0
 40
0.0
 40
0.0
 40
0.0
 40
0.1450780179
 40
0.2832817649
 40
0.4149582941
 40
0.5405902269
 40
0.6608455583
 40
0.7192631449
 40
0.7767005456
 40
0.8333191964
 40
0.8892913756
 40
0.944792445
 40
1.0
 40
1.0
 40
1.0
 40
1.0
 10
11.3816273808
 20
6.0141995829
 30
0.0
 10
11.3835692022
 20
6.0153694194
 30
0.0
 10
11.3872644222
 20
6.0178197971
 30
0.0
 10
11.3923115304
 20
6.0219064617
 30
0.0
 10
11.3966995228
 20
6.0262755778
 30
0.0
 10
11.4003991406
 20
6.0308877033
 30
0.0
 10
11.4029091067
 20
6.0349431069
 30
0.0
 10
11.4045270772
 20
6.0382616071
 30
0.0
 10
11.4055383963
 20
6.0407622088
 30
0.0
 10
11.4063571091
 20
6.0432921482
 30
0.0
 10
11.4069834266
 20
6.0458454064
 30
0.0
 10
11.4074171425
 20
6.0484158585
 30
0.0
 10
11.407578124
 20
6.0501401649
 30
0.0
 10
11.4076262785
 20
6.0510014887
 30
0.0
  0
LINE
  5
3CF
100
AcDbEntity
  8
0
100
AcDbLine
 62
9
  6
CONTINUOUS
 10
11.4079836168
 20
6.4011527584
 11
11.4076413426
 21
6.4011527578
  0
LINE
  5
3D0
100
AcDbEntity
  8
0
100
AcDbLine
 62
9
  6
CONTINUOUS
 10
11.4079837387
 20
6.401153558
 11
11.4243040718
 21
6.4011535455
  0
SPLINE
  5
3D1
100
AcDbEntity
  8
0
100
AcDbSpline
 62
9
  6
CONTINUOUS
 70
0
 71
3
 72
18
 73
14
 74
0
 42
0.0000001
 43
0.0000001
 44
0.0000000001
 40
0.0
 40
0.0
 40
0.0
 40
0.0
 40
0.1297483618
 40
0.1940478894
 40
0.2579703584
 40
0.384700185
 40
0.5100449154
 40
0.6341004935
 40
0.7569878645
 40
0.8180549488
 40
0.8788934334
 40
0.9395311802
 40
1.0
 40
1.0
 40
1.0
 40
1.0
 10
11.3558679957
 20
5.7595519495
 30
0.0
 10
11.3577708949
 20
5.7611189516
 30
0.0
 10
11.3605293039
 20
5.7635720886
 30
0.0
 10
11.3639977984
 20
5.7670360709
 30
0.0
 10
11.3672911448
 20
5.7705894346
 30
0.0
 10
11.3711138872
 20
5.7752271622
 30
0.0
 10
11.3752153552
 20
5.781088011
 30
0.0
 10
11.378797086
 20
5.7871958754
 30
0.0
 10
11.3813364972
 20
5.7924761864
 30
0.0
 10
11.3830832834
 20
5.7967877005
 30
0.0
 10
11.3842474813
 20
5.8000557606
 30
0.0
 10
11.3852653312
 20
5.8033603232
 30
0.0
 10
11.3858460723
 20
5.8055875991
 30
0.0
 10
11.3861116777
 20
5.8067053076
 30
0.0
  0
SPLINE
  5
3D2
100
AcDbEntity
  8
0
100
AcDbSpline
 62
9
  6
CONTINUOUS
 70
0
 71
3
 72
17
 73
13
 74
0
 42
0.0000001
 43
0.0000001
 44
0.0000000001
 40
0.0
 40
0.0
 40
0.0
 40
0.0
 40
0.1299575777
 40
0.2582450713
 40
0.3849630306
 40
0.5102163968
 40
0.6341339185
 40
0.6956607017
 40
0.7569234106
 40
0.8179540247
 40
0.8787900992
 40
1.0
 40
1.0
 40
1.0
 40
1.0
 10
11.3546457427
 20
5.7519312717
 30
0.0
 10
11.3568058884
 20
5.7537162235
 30
0.0
 10
11.3609482848
 20
5.7574497676
 30
0.0
 10
11.3666147952
 20
5.7635291855
 30
0.0
 10
11.3716637264
 20
5.7700034389
 30
0.0
 10
11.3760632207
 20
5.7768232436
 30
0.0
 10
11.3791705489
 20
5.7827702785
 30
0.0
 10
11.3812958038
 20
5.7876487079
 30
0.0
 10
11.3827043661
 20
5.791355238
 30
0.0
 10
11.3839270213
 20
5.7951116713
 30
0.0
 10
11.3853025655
 20
5.8001707348
 30
0.0
 10
11.3860536888
 20
5.8040319148
 30
0.0
 10
11.3864273539
 20
5.8066186371
 30
0.0
  0
ENDSEC
  0
SECTION
  2
OBJECTS
  0
DICTIONARY
  5
C
100
AcDbDictionary
280
0
281
1
  3
ACAD_GROUP
350
D
  3
ACAD_MLINESTYLE
350
17
  3
ACAD_LAYOUT
350
1A
  3
ACAD_PLOTSETTINGS
350
19
  3
ACAD_PLOTSTYLENAME
350
E
  0
DICTIONARY
  5
D
102
{ACAD_REACTORS
330
C
102
}
100
AcDbDictionary
280
0
281
1
  0
ACDBDICTIONARYWDFLT
  5
E
102
{ACAD_REACTORS
330
C
102
}
100
AcDbDictionary
281
1
  3
Normal
350
F
100
AcDbDictionaryWithDefault
340
F
  0
DICTIONARY
  5
17
102
{ACAD_REACTORS
330
C
102
}
100
AcDbDictionary
280
0
281
1
  3
Standard
350
18
  0
DICTIONARY
  5
19
102
{ACAD_REACTORS
330
C
102
}
100
AcDbDictionary
281
1
  0
DICTIONARY
  5
1A
102
{ACAD_REACTORS
330
C
102
}
100
AcDbDictionary
281
1
  3
Model
350
3D3
  3
Layout1
350
3D4
  0
ACDBPLACEHOLDER
  5
F
102
{ACAD_REACTORS
330
E
102
}
  0
MLINESTYLE
  5
18
102
{ACAD_REACTORS
330
17
102
}
100
AcDbMlineStyle
  2
STANDARD
 70
0
  3

 62
256
 51
90.0
 52
90.0
 71
2
 49
0.5
 62
256
  6
BYLAYER
 49
-0.5
 62
256
  6
BYLAYER
  0
LAYOUT
  5
3D3
102
{ACAD_REACTORS
330
1A
102
}
100
AcDbPlotSettings
  1

  2
none_device
  4
ANSI_C_(22.00_x_17.00_Inches)
  6

 40
0.0
 41
0.0
 42
0.0
 43
0.0
 44
558.8
 45
431.8
 46
0.0
 47
0.0
 48
0.0
 49
0.0
140
0.0
141
0.0
142
1.0
143
1.0
 70
1024
 72
0
 73
0
 74
0
  7

 75
0
147
1.0
148
0.0
149
0.0
100
AcDbLayout
  1
Model
 70
0
 71
0
 10
0.0
 20
0.0
 11
22.0
 21
17.0
 12
0.0
 22
0.0
 32
0.0
 14
0.0
 24
0.0
 34
0.0
 15
0.0
 25
0.0
 35
0.0
146
0.0
 13
0.0
 23
0.0
 33
0.0
 16
1.0
 26
0.0
 36
0.0
 17
0.0
 27
1.0
 37
0.0
 76
0
330
205
345
0
346
0
  0
LAYOUT
  5
3D4
102
{ACAD_REACTORS
330
1A
102
}
100
AcDbPlotSettings
  1

  2
none_device
  4
ANSI_C_(22.00_x_17.00_Inches)
  6

 40
0.0
 41
0.0
 42
0.0
 43
0.0
 44
558.8
 45
431.8
 46
0.0
 47
0.0
 48
0.0
 49
0.0
140
0.0
141
0.0
142
1.0
143
1.0
 70
0
 72
0
 73
0
 74
0
  7

 75
0
147
1.0
148
0.0
149
0.0
100
AcDbLayout
  1
Layout1
 70
0
 71
1
 10
0.0
 20
0.0
 11
22.0
 21
17.0
 12
0.0
 22
0.0
 32
0.0
 14
0.0
 24
0.0
 34
0.0
 15
0.0
 25
0.0
 35
0.0
146
0.0
 13
0.0
 23
0.0
 33
0.0
 16
1.0
 26
0.0
 36
0.0
 17
0.0
 27
1.0
 37
0.0
 76
0
330
206
345
0
346
0
  0
ENDSEC
  0
EOF
