999
DXF file: 40-28_front.dxf
999
Pro/ENGINEER 2013150 by Parametric Technology Corporation
  0
SECTION
  2
HEADER
  9
$ACADVER
  1
AC1021
  9
$DWGCODEPAGE
  3
ANSI_1252
  9
$EXTMAX
 10
11.0
 20
8.5
 30
0.0
  9
$EXTMIN
 10
0.0
 20
0.0
 30
0.0
  9
$LIMMIN
 10
0.0
 20
0.0
  9
$LIMMAX
 10
11.0
 20
8.5
  9
$VIEWCTR
 10
5.5
 20
4.25
  9
$VIEWSIZE
 40
8.5
  9
$CLAYER
  8
0
  9
$LTSCALE
 40
0.605
  9
$CELTYPE
  6
BYLAYER
  9
$DIMSCALE
 40
1.0
  9
$DIMASZ
 40
0.1
  9
$DIMEXO
 40
0.0625
  9
$DIMDLI
 40
0.418
  9
$DIMEXE
 40
0.125
  9
$DIMCEN
 40
0.099
  9
$DIMLFAC
 40
1.0
  9
$DIMBLK
  1
_FILLED
  9
$DIMTXT
 40
0.08
  9
$DIMTOL
 70
1
  9
$DIMLIM
 70
0
  9
$DIMTFAC
 40
1.0
  9
$DIMTP
 40
0.001
  9
$DIMTM
 40
0.001
  9
$DIMGAP
 40
0.09
  9
$DIMDSEP
 70
46
  9
$PDMODE
 70
3
  9
$PDSIZE
 40
0.06
  9
$HANDSEED
  5
295
  9
$TILEMODE
 70
1
  9
$MEASUREMENT
 70
0
  9
$INSUNITS
 70
1
  0
ENDSEC
  0
SECTION
  2
CLASSES
  0
CLASS
  1
ACDBDICTIONARYWDFLT
  2
AcDbDictionaryWithDefault
  3
AutoCAD 2000
 90
0
 91
1
280
0
281
0
  0
CLASS
  1
ACDBPLACEHOLDER
  2
AcDbPlaceHolder
  3
AutoCAD 2000
 90
0
 91
1
280
0
281
0
  0
CLASS
  1
LAYOUT
  2
AcDbLayout
  3
AutoCAD 2000
 90
0
 91
0
280
0
281
0
  0
ENDSEC
  0
SECTION
  2
TABLES
  0
TABLE
  2
VPORT
  5
8
100
AcDbSymbolTable
 70
2
  0
VPORT
  5
1F4
100
AcDbSymbolTableRecord
100
AcDbViewportTableRecord
  2
*ACTIVE
 70
0
 10
0.0
 20
0.0
 11
1.0
 21
1.0
 12
5.5
 22
4.25
 13
0.0
 23
0.0
 14
1.0
 24
1.0
 15
0.0
 25
0.0
 16
0.0
 26
0.0
 36
1.0
 17
0.0
 27
0.0
 37
0.0
 40
8.5
 41
1.2941176471
 42
50.0
 43
0.0
 44
0.0
 50
0.0
 51
0.0
 71
0
 72
100
 73
1
 74
1
 75
0
 76
0
 77
0
 78
0
  0
ENDTAB
  0
TABLE
  2
LTYPE
  5
5
100
AcDbSymbolTable
 70
6
  0
LTYPE
  5
14
100
AcDbSymbolTableRecord
100
AcDbLinetypeTableRecord
  2
BYBLOCK
 70
0
  3

 72
65
 73
0
 40
0.0
  0
LTYPE
  5
15
100
AcDbSymbolTableRecord
100
AcDbLinetypeTableRecord
  2
BYLAYER
 70
0
  3

 72
65
 73
0
 40
0.0
  0
LTYPE
  5
16
100
AcDbSymbolTableRecord
100
AcDbLinetypeTableRecord
  2
CONTINUOUS
 70
64
  3
Solid line
 72
65
 73
0
 40
0.0
  0
LTYPE
  5
1F5
100
AcDbSymbolTableRecord
100
AcDbLinetypeTableRecord
  2
CENTER
 70
64
  3
____ _ ____ _ ____ _ ____ _ ____ _ ____ _ ____
 72
65
 73
4
 40
0.6
 49
0.375
 74
0
 49
-0.075
 74
0
 49
0.075
 74
0
 49
-0.075
 74
0
  0
LTYPE
  5
1F6
100
AcDbSymbolTableRecord
100
AcDbLinetypeTableRecord
  2
HIDDEN
 70
64
  3
- - - - - - - - - - - - - - - - - - - -
 72
65
 73
2
 40
0.2
 49
0.1
 74
0
 49
-0.1
 74
0
  0
LTYPE
  5
1F7
100
AcDbSymbolTableRecord
100
AcDbLinetypeTableRecord
  2
PHANTOM
 70
64
  3
_____ _ _ _____ _ _ _____ _ _ _____
 72
65
 73
6
 40
0.8
 49
0.45
 74
0
 49
-0.05
 74
0
 49
0.1
 74
0
 49
-0.05
 74
0
 49
0.1
 74
0
 49
-0.05
 74
0
  0
LTYPE
  5
1F8
100
AcDbSymbolTableRecord
100
AcDbLinetypeTableRecord
  2
DOT
 70
64
  3
. . . . . . . . . . . . . . . . . . . .
 72
65
 73
2
 40
0.2
 49
0.1
 74
0
 49
-0.1
 74
0
  0
LTYPE
  5
1F9
100
AcDbSymbolTableRecord
100
AcDbLinetypeTableRecord
  2
DASHED
 70
64
  3
- - - - - - - - - - - - - - - - - - - -
 72
65
 73
2
 40
0.2
 49
0.1
 74
0
 49
-0.1
 74
0
  0
ENDTAB
  0
TABLE
  2
LAYER
  5
2
100
AcDbSymbolTable
 70
36
  0
LAYER
  5
10
100
AcDbSymbolTableRecord
100
AcDbLayerTableRecord
  2
0
 70
0
 62
7
  6
CONTINUOUS
370
-3
390
F
  0
LAYER
  5
1FA
100
AcDbSymbolTableRecord
100
AcDbLayerTableRecord
  2
DEFAULT_1
 70
0
 62
7
  6
CENTER
370
-3
390
F
  0
LAYER
  5
1FB
100
AcDbSymbolTableRecord
100
AcDbLayerTableRecord
  2
DEFAULT_2
 70
0
 62
8
  6
HIDDEN
370
-3
390
F
  0
LAYER
  5
1FC
100
AcDbSymbolTableRecord
100
AcDbLayerTableRecord
  2
DEFAULT_3
 70
0
 62
7
  6
PHANTOM
370
-3
390
F
  0
LAYER
  5
1FD
100
AcDbSymbolTableRecord
100
AcDbLayerTableRecord
  2
01_ALL_DTM_PLN
 70
0
 62
7
  6
CONTINUOUS
370
-3
390
F
  0
LAYER
  5
1FE
100
AcDbSymbolTableRecord
100
AcDbLayerTableRecord
  2
01__ASM_ALL_DTM_PLN
 70
0
 62
7
  6
CONTINUOUS
370
-3
390
F
  0
LAYER
  5
1FF
100
AcDbSymbolTableRecord
100
AcDbLayerTableRecord
  2
01__ASM_DEF_DTM_PLN
 70
0
 62
7
  6
CONTINUOUS
370
-3
390
F
  0
LAYER
  5
200
100
AcDbSymbolTableRecord
100
AcDbLayerTableRecord
  2
01___PRT_ALL_DTM_PLN
 70
0
 62
7
  6
CONTINUOUS
370
-3
390
F
  0
LAYER
  5
201
100
AcDbSymbolTableRecord
100
AcDbLayerTableRecord
  2
01___PRT_DEF_DTM_PLN
 70
0
 62
7
  6
CONTINUOUS
370
-3
390
F
  0
LAYER
  5
202
100
AcDbSymbolTableRecord
100
AcDbLayerTableRecord
  2
02_ALL_AXES
 70
0
 62
7
  6
CONTINUOUS
370
-3
390
F
  0
LAYER
  5
203
100
AcDbSymbolTableRecord
100
AcDbLayerTableRecord
  2
02__ASM_ALL_AXES
 70
0
 62
7
  6
CONTINUOUS
370
-3
390
F
  0
LAYER
  5
204
100
AcDbSymbolTableRecord
100
AcDbLayerTableRecord
  2
02___PRT_ALL_AXES
 70
0
 62
7
  6
CONTINUOUS
370
-3
390
F
  0
LAYER
  5
205
100
AcDbSymbolTableRecord
100
AcDbLayerTableRecord
  2
03_ALL_CURVES
 70
0
 62
7
  6
CONTINUOUS
370
-3
390
F
  0
LAYER
  5
206
100
AcDbSymbolTableRecord
100
AcDbLayerTableRecord
  2
03__ASM_ALL_CURVES
 70
0
 62
7
  6
CONTINUOUS
370
-3
390
F
  0
LAYER
  5
207
100
AcDbSymbolTableRecord
100
AcDbLayerTableRecord
  2
03___PRT_ALL_CURVES
 70
0
 62
7
  6
CONTINUOUS
370
-3
390
F
  0
LAYER
  5
208
100
AcDbSymbolTableRecord
100
AcDbLayerTableRecord
  2
04_ALL_DTM_PNT
 70
0
 62
7
  6
CONTINUOUS
370
-3
390
F
  0
LAYER
  5
209
100
AcDbSymbolTableRecord
100
AcDbLayerTableRecord
  2
04__ASM_ALL_DTM_PNT
 70
0
 62
7
  6
CONTINUOUS
370
-3
390
F
  0
LAYER
  5
20A
100
AcDbSymbolTableRecord
100
AcDbLayerTableRecord
  2
04___PRT_ALL_DTM_PNT
 70
0
 62
7
  6
CONTINUOUS
370
-3
390
F
  0
LAYER
  5
20B
100
AcDbSymbolTableRecord
100
AcDbLayerTableRecord
  2
05_ALL_DTM_CSYS
 70
0
 62
7
  6
CONTINUOUS
370
-3
390
F
  0
LAYER
  5
20C
100
AcDbSymbolTableRecord
100
AcDbLayerTableRecord
  2
05__ASM_ALL_DTM_CSYS
 70
0
 62
7
  6
CONTINUOUS
370
-3
390
F
  0
LAYER
  5
20D
100
AcDbSymbolTableRecord
100
AcDbLayerTableRecord
  2
05__ASM_DEF_DTM_CSYS
 70
0
 62
7
  6
CONTINUOUS
370
-3
390
F
  0
LAYER
  5
20E
100
AcDbSymbolTableRecord
100
AcDbLayerTableRecord
  2
05___PRT_ALL_DTM_CSYS
 70
0
 62
7
  6
CONTINUOUS
370
-3
390
F
  0
LAYER
  5
20F
100
AcDbSymbolTableRecord
100
AcDbLayerTableRecord
  2
05___PRT_DEF_DTM_CSYS
 70
0
 62
7
  6
CONTINUOUS
370
-3
390
F
  0
LAYER
  5
210
100
AcDbSymbolTableRecord
100
AcDbLayerTableRecord
  2
06_ALL_SURFS
 70
0
 62
7
  6
CONTINUOUS
370
-3
390
F
  0
LAYER
  5
211
100
AcDbSymbolTableRecord
100
AcDbLayerTableRecord
  2
06__ASM_ALL_SURFS
 70
0
 62
7
  6
CONTINUOUS
370
-3
390
F
  0
LAYER
  5
212
100
AcDbSymbolTableRecord
100
AcDbLayerTableRecord
  2
06___PRT_ALL_SURFS
 70
0
 62
7
  6
CONTINUOUS
370
-3
390
F
  0
LAYER
  5
213
100
AcDbSymbolTableRecord
100
AcDbLayerTableRecord
  2
07__ASM_ALL_SKELETONS
 70
0
 62
7
  6
CONTINUOUS
370
-3
390
F
  0
LAYER
  5
214
100
AcDbSymbolTableRecord
100
AcDbLayerTableRecord
  2
2-184_ASSY_PLANES
 70
0
 62
7
  6
CONTINUOUS
370
-3
390
F
  0
LAYER
  5
215
100
AcDbSymbolTableRecord
100
AcDbLayerTableRecord
  2
ALL_ASSEMBLY_MEMBERS
 70
0
 62
7
  6
CONTINUOUS
370
-3
390
F
  0
LAYER
  5
216
100
AcDbSymbolTableRecord
100
AcDbLayerTableRecord
  2
ALL_FEATURES
 70
0
 62
7
  6
CONTINUOUS
370
-3
390
F
  0
LAYER
  5
217
100
AcDbSymbolTableRecord
100
AcDbLayerTableRecord
  2
AXES_FEATURES
 70
0
 62
7
  6
CONTINUOUS
370
-3
390
F
  0
LAYER
  5
218
100
AcDbSymbolTableRecord
100
AcDbLayerTableRecord
  2
CHAMFER_FEATURES
 70
0
 62
7
  6
CONTINUOUS
370
-3
390
F
  0
LAYER
  5
219
100
AcDbSymbolTableRecord
100
AcDbLayerTableRecord
  2
CUT_FEATURES
 70
0
 62
7
  6
CONTINUOUS
370
-3
390
F
  0
LAYER
  5
21A
100
AcDbSymbolTableRecord
100
AcDbLayerTableRecord
  2
DATUM_PLANES
 70
0
 62
7
  6
CONTINUOUS
370
-3
390
F
  0
LAYER
  5
21B
100
AcDbSymbolTableRecord
100
AcDbLayerTableRecord
  2
DEFAULT_COORDINATE_SYSTEM
 70
0
 62
7
  6
CONTINUOUS
370
-3
390
F
  0
LAYER
  5
21C
100
AcDbSymbolTableRecord
100
AcDbLayerTableRecord
  2
DEFAULT_DATUM_AXES
 70
0
 62
7
  6
CONTINUOUS
370
-3
390
F
  0
LAYER
  5
21D
100
AcDbSymbolTableRecord
100
AcDbLayerTableRecord
  2
DEFAULT_DATUM_CURVES
 70
0
 62
7
  6
CONTINUOUS
370
-3
390
F
  0
LAYER
  5
21E
100
AcDbSymbolTableRecord
100
AcDbLayerTableRecord
  2
DEFAULT_DATUM_PLANES
 70
0
 62
7
  6
CONTINUOUS
370
-3
390
F
  0
LAYER
  5
21F
100
AcDbSymbolTableRecord
100
AcDbLayerTableRecord
  2
DEFAULT_SURFACES
 70
0
 62
7
  6
CONTINUOUS
370
-3
390
F
  0
LAYER
  5
220
100
AcDbSymbolTableRecord
100
AcDbLayerTableRecord
  2
DIMENSIONS
 70
0
 62
7
  6
CONTINUOUS
370
-3
390
F
  0
LAYER
  5
221
100
AcDbSymbolTableRecord
100
AcDbLayerTableRecord
  2
PART_REFERENCE_DIMENSIONS
 70
0
 62
7
  6
CONTINUOUS
370
-3
390
F
  0
LAYER
  5
222
100
AcDbSymbolTableRecord
100
AcDbLayerTableRecord
  2
PLATED_SURFACE
 70
0
 62
7
  6
CONTINUOUS
370
-3
390
F
  0
LAYER
  5
223
100
AcDbSymbolTableRecord
100
AcDbLayerTableRecord
  2
PLATED_SURFACES
 70
0
 62
7
  6
CONTINUOUS
370
-3
390
F
  0
LAYER
  5
224
100
AcDbSymbolTableRecord
100
AcDbLayerTableRecord
  2
PROTRUSION_FEATURES
 70
0
 62
7
  6
CONTINUOUS
370
-3
390
F
  0
LAYER
  5
225
100
AcDbSymbolTableRecord
100
AcDbLayerTableRecord
  2
QUILTS
 70
0
 62
7
  6
CONTINUOUS
370
-3
390
F
  0
LAYER
  5
226
100
AcDbSymbolTableRecord
100
AcDbLayerTableRecord
  2
REFERENCE_DIMENSIONS
 70
0
 62
7
  6
CONTINUOUS
370
-3
390
F
  0
LAYER
  5
227
100
AcDbSymbolTableRecord
100
AcDbLayerTableRecord
  2
ROUND_FEATURES
 70
0
 62
7
  6
CONTINUOUS
370
-3
390
F
  0
LAYER
  5
228
100
AcDbSymbolTableRecord
100
AcDbLayerTableRecord
  2
SHELL_FEATURES
 70
0
 62
7
  6
CONTINUOUS
370
-3
390
F
  0
ENDTAB
  0
TABLE
  2
STYLE
  5
3
100
AcDbSymbolTable
 70
1
  0
STYLE
  5
11
100
AcDbSymbolTableRecord
100
AcDbTextStyleTableRecord
  2
STANDARD
 70
0
 40
0.0
 41
0.8
 50
0.0
 71
0
 42
0.2
  3
txt
  4

  0
STYLE
  5
229
100
AcDbSymbolTableRecord
100
AcDbTextStyleTableRecord
  2
TEXTSTYLE_1
 70
0
 40
0.0
 41
0.8
 50
0.0
 71
0
 42
0.2
  3
gdt
  4

  0
ENDTAB
  0
TABLE
  2
VIEW
  5
6
100
AcDbSymbolTable
 70
0
  0
ENDTAB
  0
TABLE
  2
UCS
  5
7
100
AcDbSymbolTable
 70
0
  0
ENDTAB
  0
TABLE
  2
APPID
  5
9
100
AcDbSymbolTable
 70
1
  0
APPID
  5
22A
100
AcDbSymbolTableRecord
100
AcDbRegAppTableRecord
  2
ACAD
 70
0
  0
ENDTAB
  0
TABLE
  2
BLOCK_RECORD
  5
1
100
AcDbSymbolTable
 70
0
  0
BLOCK_RECORD
  5
22B
100
AcDbSymbolTableRecord
100
AcDbBlockTableRecord
  2
*Model_Space
  0
BLOCK_RECORD
  5
22C
100
AcDbSymbolTableRecord
100
AcDbBlockTableRecord
  2
*Paper_Space
  0
ENDTAB
  0
TABLE
  2
DIMSTYLE
  5
A
100
AcDbSymbolTable
 70
1
100
AcDbDimStyleTable
 71
0
  0
DIMSTYLE
105
22D
100
AcDbSymbolTableRecord
100
AcDbDimStyleTableRecord
  2
STANDARD
 70
0
  3

  4

 40
1.0
 41
0.1
 42
0.0625
 43
0.38
 44
0.125
 45
0.0
 46
0.0
 47
0.001
 48
0.001
140
0.08
141
0.09
142
0.0
143
25.4
144
1.0
145
0.0
146
1.0
147
0.09
 71
1.0
 72
0.0
 73
1
 74
1
 75
0
 76
0
 77
0
 78
4
170
0
171
2
172
0
173
0
174
0
175
0
176
0
177
0
178
0
270
2
271
3
272
3
273
2
274
2
275
0
280
0
281
0
282
0
283
1
284
4
285
0
286
0
287
3
288
0
340
11
278
46
  0
ENDTAB
  0
ENDSEC
  0
SECTION
  2
BLOCKS
  0
BLOCK
  5
20
100
AcDbEntity
  8
0
100
AcDbBlockBegin
  2
*Model_Space
 70
0
 10
0.0
 20
0.0
 30
0.0
  3
*Model_Space
  1

  0
ENDBLK
  5
21
100
AcDbEntity
  8
0
100
AcDbBlockEnd
  0
BLOCK
  5
1C
100
AcDbEntity
  8
0
100
AcDbBlockBegin
  2
*Paper_Space
 70
0
 10
0.0
 20
0.0
 30
0.0
  3
*Paper_Space
  1

  0
ENDBLK
  5
1D
100
AcDbEntity
  8
0
100
AcDbBlockEnd
  0
ENDSEC
  0
SECTION
  2
ENTITIES
  0
LINE
  5
22E
100
AcDbEntity
  8
0
100
AcDbLine
 62
7
  6
CONTINUOUS
 10
0.0
 20
0.0
 11
0.0
 21
8.5
  0
LINE
  5
22F
100
AcDbEntity
  8
0
100
AcDbLine
 62
7
  6
CONTINUOUS
 10
0.0
 20
0.0
 11
11.0
 21
0.0
  0
LINE
  5
230
100
AcDbEntity
  8
0
100
AcDbLine
 62
7
  6
CONTINUOUS
 10
0.0
 20
8.5
 11
11.0
 21
8.5
  0
LINE
  5
231
100
AcDbEntity
  8
0
100
AcDbLine
 62
7
  6
CONTINUOUS
 10
11.0
 20
0.0
 11
11.0
 21
8.5
  0
LINE
  5
232
100
AcDbEntity
  8
ALL_FEATURES
100
AcDbLine
 62
7
  6
CONTINUOUS
 10
3.3924074523
 20
4.4399240074
 11
3.3326285531
 21
4.3363839168
  0
LINE
  5
233
100
AcDbEntity
  8
ALL_FEATURES
100
AcDbLine
 62
7
  6
CONTINUOUS
 10
3.3090072529
 20
4.2954706247
 11
3.2495132607
 21
4.1924240074
  0
LINE
  5
234
100
AcDbEntity
  8
ALL_FEATURES
100
AcDbLine
 62
7
  6
CONTINUOUS
 10
3.2495132607
 20
4.1924240074
 11
3.3090300848
 21
4.0893378442
  0
LINE
  5
235
100
AcDbEntity
  8
ALL_FEATURES
100
AcDbLine
 62
7
  6
CONTINUOUS
 10
3.3326396124
 20
4.0484449429
 11
3.3924074523
 21
3.9449240074
  0
LINE
  5
236
100
AcDbEntity
  8
0
100
AcDbLine
 62
9
  6
CONTINUOUS
 10
3.7853016439
 20
4.02706279
 11
3.7853016439
 21
4.3577852249
  0
LINE
  5
237
100
AcDbEntity
  8
0
100
AcDbLine
 62
9
  6
CONTINUOUS
 10
3.9556185184
 20
4.3861455366
 11
3.9556185184
 21
3.9987024783
  0
LWPOLYLINE
  5
238
100
AcDbEntity
  8
0
100
AcDbPolyline
 62
7
  6
CONTINUOUS
 90
28
 70
0
 10
4.0103016439
 20
4.3849240074
 10
4.010248244
 20
4.3861612989
 10
4.0100899239
 20
4.3873925292
 10
4.009829527
 20
4.3886095774
 10
4.0094700078
 20
4.3898040134
 10
4.0090142293
 20
4.3909678061
 10
4.0084647789
 20
4.392093251
 10
4.0078240977
 20
4.393172397
 10
4.0070953222
 20
4.3941959736
 10
4.0062822487
 20
4.3951542642
 10
4.0053883861
 20
4.3960386446
 10
4.0044195021
 20
4.3968433181
 10
4.0033842531
 20
4.3975641087
 10
4.0022912672
 20
4.3981972016
 10
4.001148634
 20
4.3987391302
 10
3.999964383
 20
4.3991863308
 10
3.998746411
 20
4.3995351384
 10
3.9975036403
 20
4.3997815433
 10
3.9962457226
 20
4.399921638
 10
3.9949813456
 20
4.3999518969
 10
3.9937189228
 20
4.3998709471
 10
3.9924677365
 20
4.3996819306
 10
3.9912366471
 20
4.3993886695
 10
3.9900337607
 20
4.3989948312
 10
3.988867199
 20
4.3985039606
 10
3.9877453109
 20
4.3979196045
 10
3.9866766432
 20
4.3972454034
 10
3.9865074887
 20
4.3971268245
  0
LINE
  5
239
100
AcDbEntity
  8
0
100
AcDbLine
 62
9
  6
CONTINUOUS
 10
3.9865074887
 20
4.3971268245
 11
3.9865074887
 21
3.9877211904
  0
LINE
  5
23A
100
AcDbEntity
  8
0
100
AcDbLine
 62
7
  6
CONTINUOUS
 10
4.0103016439
 20
3.9999240074
 11
4.0103016439
 21
4.3849240074
  0
LINE
  5
23B
100
AcDbEntity
  8
ALL_ASSEMBLY_MEMBERS
100
AcDbLine
 62
9
  6
CONTINUOUS
 10
4.0311108628
 20
4.0205490074
 11
4.0311108628
 21
4.3642990074
  0
LINE
  5
23C
100
AcDbEntity
  8
ALL_ASSEMBLY_MEMBERS
100
AcDbLine
 62
9
  6
CONTINUOUS
 10
4.0674200817
 20
4.0049240074
 11
4.0674200817
 21
4.3799240074
  0
LINE
  5
23D
100
AcDbEntity
  8
ALL_FEATURES
100
AcDbLine
 62
7
  6
CONTINUOUS
 10
3.6781958355
 20
3.9449240074
 11
3.7340959206
 21
4.0417457949
  0
LINE
  5
23E
100
AcDbEntity
  8
ALL_FEATURES
100
AcDbLine
 62
7
  6
CONTINUOUS
 10
3.7340959206
 20
4.34310222
 11
3.6781958355
 21
4.4399240074
  0
LWPOLYLINE
  5
23F
100
AcDbEntity
  8
0
100
AcDbPolyline
 62
7
  6
CONTINUOUS
 90
28
 70
0
 10
3.9865074887
 20
3.9877211904
 10
3.9866766432
 20
3.9876026115
 10
3.9877453109
 20
3.9869284104
 10
3.988867199
 20
3.9863440542
 10
3.9900337607
 20
3.9858531837
 10
3.9912366471
 20
3.9854593454
 10
3.9924677365
 20
3.9851660843
 10
3.9937189228
 20
3.9849770678
 10
3.9949813456
 20
3.984896118
 10
3.9962457226
 20
3.9849263768
 10
3.9975036403
 20
3.9850664716
 10
3.998746411
 20
3.9853128764
 10
3.999964383
 20
3.9856616841
 10
4.001148634
 20
3.9861088847
 10
4.0022912672
 20
3.9866508133
 10
4.0033842531
 20
3.9872839062
 10
4.0044195021
 20
3.9880046968
 10
4.0053883861
 20
3.9888093703
 10
4.0062822487
 20
3.9896937507
 10
4.0070953222
 20
3.9906520413
 10
4.0078240977
 20
3.9916756179
 10
4.0084647789
 20
3.9927547639
 10
4.0090142293
 20
3.9938802088
 10
4.0094700078
 20
3.9950440015
 10
4.009829527
 20
3.9962384375
 10
4.0100899239
 20
3.9974554857
 10
4.010248244
 20
3.998686716
 10
4.0103016439
 20
3.9999240074
  0
LINE
  5
240
100
AcDbEntity
  8
0
100
AcDbLine
 62
7
  6
CONTINUOUS
 10
3.7332747022
 20
4.3428667394
 11
3.7853016439
 21
4.3577852249
  0
LINE
  5
241
100
AcDbEntity
  8
0
100
AcDbLine
 62
7
  6
CONTINUOUS
 10
3.7332803153
 20
4.0419796659
 11
3.7853016439
 21
4.02706279
  0
LINE
  5
242
100
AcDbEntity
  8
ALL_ASSEMBLY_MEMBERS
100
AcDbLine
 62
7
  6
CONTINUOUS
 10
4.7898016439
 20
4.3924240074
 11
4.7898016439
 21
3.9924240074
  0
LINE
  5
243
100
AcDbEntity
  8
ALL_FEATURES
100
AcDbLine
 62
7
  6
CONTINUOUS
 10
3.3924074523
 20
3.9449240074
 11
3.5117490466
 21
3.9449240074
  0
LINE
  5
244
100
AcDbEntity
  8
ALL_FEATURES
100
AcDbLine
 62
7
  6
CONTINUOUS
 10
3.5588893189
 20
3.9449240074
 11
3.6781958355
 21
3.9449240074
  0
LINE
  5
245
100
AcDbEntity
  8
ALL_FEATURES
100
AcDbLine
 62
7
  6
CONTINUOUS
 10
6.6424074523
 20
3.9449240074
 11
6.7713393315
 21
3.9449240074
  0
LINE
  5
246
100
AcDbEntity
  8
ALL_FEATURES
100
AcDbLine
 62
7
  6
CONTINUOUS
 10
6.799260324
 20
3.9449240074
 11
6.9281958355
 21
3.9449240074
  0
LINE
  5
247
100
AcDbEntity
  8
ALL_ASSEMBLY_MEMBERS
100
AcDbLine
 62
7
  6
CONTINUOUS
 10
6.2396219154
 20
3.9924240074
 11
4.7898016439
 21
3.9924240074
  0
LINE
  5
248
100
AcDbEntity
  8
ALL_ASSEMBLY_MEMBERS
100
AcDbLine
 62
7
  6
CONTINUOUS
 10
4.7898016439
 20
4.0049240074
 11
4.0674200817
 21
4.0049240074
  0
LINE
  5
249
100
AcDbEntity
  8
0
100
AcDbLine
 62
9
  6
CONTINUOUS
 10
3.2866182135
 20
4.1924240074
 11
3.3637310141
 21
4.1924240074
  0
LINE
  5
24A
100
AcDbEntity
  8
0
100
AcDbLine
 62
9
  6
CONTINUOUS
 10
3.7068722737
 20
4.1924240074
 11
3.7839850743
 21
4.1924240074
  0
LINE
  5
24B
100
AcDbEntity
  8
0
100
AcDbLine
 62
9
  6
CONTINUOUS
 10
3.9556185198
 20
4.1924240074
 11
4.0103016439
 21
4.1924240074
  0
LINE
  5
24C
100
AcDbEntity
  8
0
100
AcDbLine
 62
9
  6
CONTINUOUS
 10
6.3103016439
 20
4.1924240074
 11
6.3649847681
 21
4.1924240074
  0
LINE
  5
24D
100
AcDbEntity
  8
0
100
AcDbLine
 62
9
  6
CONTINUOUS
 10
6.5373128269
 20
4.1924240074
 11
6.6132173631
 21
4.1924240074
  0
LINE
  5
24E
100
AcDbEntity
  8
0
100
AcDbLine
 62
9
  6
CONTINUOUS
 10
6.9573859247
 20
4.1924240074
 11
7.0332904609
 21
4.1924240074
  0
LINE
  5
24F
100
AcDbEntity
  8
ALL_ASSEMBLY_MEMBERS
100
AcDbLine
 62
7
  6
CONTINUOUS
 10
4.7898016439
 20
4.3799240074
 11
4.0674200817
 21
4.3799240074
  0
LINE
  5
250
100
AcDbEntity
  8
ALL_ASSEMBLY_MEMBERS
100
AcDbLine
 62
7
  6
CONTINUOUS
 10
6.2396219154
 20
4.3924240074
 11
4.7898016439
 21
4.3924240074
  0
LINE
  5
251
100
AcDbEntity
  8
ALL_FEATURES
100
AcDbLine
 62
7
  6
CONTINUOUS
 10
6.9281958355
 20
4.4399240074
 11
6.7992639564
 21
4.4399240074
  0
LINE
  5
252
100
AcDbEntity
  8
ALL_FEATURES
100
AcDbLine
 62
7
  6
CONTINUOUS
 10
6.7713429639
 20
4.4399240074
 11
6.6424074523
 21
4.4399240074
  0
LINE
  5
253
100
AcDbEntity
  8
ALL_FEATURES
100
AcDbLine
 62
7
  6
CONTINUOUS
 10
3.6781958355
 20
4.4399240074
 11
3.5588542412
 21
4.4399240074
  0
LINE
  5
254
100
AcDbEntity
  8
ALL_FEATURES
100
AcDbLine
 62
7
  6
CONTINUOUS
 10
3.511713969
 20
4.4399240074
 11
3.3924074523
 21
4.4399240074
  0
LINE
  5
255
100
AcDbEntity
  8
0
100
AcDbLine
 62
7
  6
CONTINUOUS
 10
6.5880386156
 20
4.0421848733
 11
6.5353016439
 21
4.02706279
  0
LINE
  5
256
100
AcDbEntity
  8
0
100
AcDbLine
 62
7
  6
CONTINUOUS
 10
6.5880327381
 20
4.342664827
 11
6.5353016439
 21
4.3577852249
  0
LWPOLYLINE
  5
257
100
AcDbEntity
  8
0
100
AcDbPolyline
 62
7
  6
CONTINUOUS
 90
28
 70
0
 10
6.3340957992
 20
4.3971268245
 10
6.3339266446
 20
4.3972454034
 10
6.3328579769
 20
4.3979196045
 10
6.3317360888
 20
4.3985039606
 10
6.3305695272
 20
4.3989948312
 10
6.3293666408
 20
4.3993886695
 10
6.3281355513
 20
4.3996819306
 10
6.3268843651
 20
4.3998709471
 10
6.3256219422
 20
4.3999518969
 10
6.3243575652
 20
4.399921638
 10
6.3230996475
 20
4.3997815433
 10
6.3218568768
 20
4.3995351384
 10
6.3206389048
 20
4.3991863308
 10
6.3194546538
 20
4.3987391302
 10
6.3183120206
 20
4.3981972016
 10
6.3172190347
 20
4.3975641087
 10
6.3161837857
 20
4.3968433181
 10
6.3152149018
 20
4.3960386446
 10
6.3143210391
 20
4.3951542642
 10
6.3135079657
 20
4.3941959736
 10
6.3127791902
 20
4.393172397
 10
6.312138509
 20
4.392093251
 10
6.3115890585
 20
4.3909678061
 10
6.31113328
 20
4.3898040134
 10
6.3107737608
 20
4.3886095774
 10
6.3105133639
 20
4.3873925292
 10
6.3103550439
 20
4.3861612989
 10
6.3103016439
 20
4.3849240074
  0
LWPOLYLINE
  5
258
100
AcDbEntity
  8
0
100
AcDbPolyline
 62
7
  6
CONTINUOUS
 90
28
 70
0
 10
6.3103016439
 20
3.9999240074
 10
6.3103550439
 20
3.998686716
 10
6.3105133639
 20
3.9974554857
 10
6.3107737608
 20
3.9962384375
 10
6.31113328
 20
3.9950440015
 10
6.3115890585
 20
3.9938802088
 10
6.312138509
 20
3.9927547639
 10
6.3127791902
 20
3.9916756179
 10
6.3135079657
 20
3.9906520413
 10
6.3143210391
 20
3.9896937507
 10
6.3152149018
 20
3.9888093703
 10
6.3161837857
 20
3.9880046968
 10
6.3172190347
 20
3.9872839062
 10
6.3183120206
 20
3.9866508133
 10
6.3194546538
 20
3.9861088847
 10
6.3206389048
 20
3.9856616841
 10
6.3218568768
 20
3.9853128764
 10
6.3230996475
 20
3.9850664716
 10
6.3243575652
 20
3.9849263768
 10
6.3256219422
 20
3.984896118
 10
6.3268843651
 20
3.9849770678
 10
6.3281355513
 20
3.9851660843
 10
6.3293666408
 20
3.9854593454
 10
6.3305695272
 20
3.9858531837
 10
6.3317360888
 20
3.9863440542
 10
6.3328579769
 20
3.9869284104
 10
6.3339266446
 20
3.9876026115
 10
6.3340957992
 20
3.9877211904
  0
LINE
  5
259
100
AcDbEntity
  8
ALL_ASSEMBLY_MEMBERS
100
AcDbLine
 62
9
  6
CONTINUOUS
 10
6.2396219154
 20
4.3924240074
 11
6.2396219154
 21
3.9924240074
  0
LINE
  5
25A
100
AcDbEntity
  8
ALL_ASSEMBLY_MEMBERS
100
AcDbLine
 62
9
  6
CONTINUOUS
 10
6.2809617797
 20
4.3705490074
 11
6.2809617797
 21
4.0142990074
  0
LINE
  5
25B
100
AcDbEntity
  8
0
100
AcDbLine
 62
7
  6
CONTINUOUS
 10
6.3103016439
 20
4.3849240074
 11
6.3103016439
 21
3.9999240074
  0
LINE
  5
25C
100
AcDbEntity
  8
0
100
AcDbLine
 62
9
  6
CONTINUOUS
 10
6.3340957992
 20
3.9877211904
 11
6.3340957992
 21
4.3971268245
  0
LINE
  5
25D
100
AcDbEntity
  8
0
100
AcDbLine
 62
9
  6
CONTINUOUS
 10
6.3649847694
 20
3.9987024783
 11
6.3649847694
 21
4.3861455366
  0
LINE
  5
25E
100
AcDbEntity
  8
ALL_FEATURES
100
AcDbLine
 62
7
  6
CONTINUOUS
 10
6.6424074523
 20
4.4399240074
 11
6.5865073673
 21
4.34310222
  0
LINE
  5
25F
100
AcDbEntity
  8
ALL_FEATURES
100
AcDbLine
 62
7
  6
CONTINUOUS
 10
6.5865073673
 20
4.0417457949
 11
6.6424074523
 21
3.9449240074
  0
LINE
  5
260
100
AcDbEntity
  8
0
100
AcDbLine
 62
9
  6
CONTINUOUS
 10
6.5353016439
 20
4.02706279
 11
6.5353016439
 21
4.3577852249
  0
LINE
  5
261
100
AcDbEntity
  8
ALL_FEATURES
100
AcDbLine
 62
7
  6
CONTINUOUS
 10
6.9281958355
 20
3.9449240074
 11
6.9925616948
 21
4.056408946
  0
LINE
  5
262
100
AcDbEntity
  8
ALL_FEATURES
100
AcDbLine
 62
7
  6
CONTINUOUS
 10
7.0066725918
 20
4.0808497364
 11
7.0710900272
 21
4.1924240074
  0
LINE
  5
263
100
AcDbEntity
  8
ALL_FEATURES
100
AcDbLine
 62
7
  6
CONTINUOUS
 10
7.0710900272
 20
4.1924240074
 11
7.0066604309
 21
4.3040193417
  0
LINE
  5
264
100
AcDbEntity
  8
ALL_FEATURES
100
AcDbLine
 62
7
  6
CONTINUOUS
 10
6.9925845636
 20
4.328399459
 11
6.9281958355
 21
4.4399240074
  0
ARC
  5
265
100
AcDbEntity
  8
0
100
AcDbCircle
 62
7
  6
CONTINUOUS
 10
3.9517293289
 20
3.9388286593
 40
0.06
100
AcDbArc
 50
54.5750553612
 51
86.2834919658
  0
ARC
  5
266
100
AcDbEntity
  8
ALL_ASSEMBLY_MEMBERS
100
AcDbCircle
 62
7
  6
CONTINUOUS
 10
4.0674200817
 20
4.0549240074
 40
0.05
100
AcDbArc
 50
223.4325365578
 51
270.0
  0
ARC
  5
267
100
AcDbEntity
  8
ALL_ASSEMBLY_MEMBERS
100
AcDbCircle
 62
7
  6
CONTINUOUS
 10
3.9948016439
 20
3.9861740074
 40
0.05
100
AcDbArc
 50
43.4325365578
 51
71.9313066134
  0
ARC
  5
268
100
AcDbEntity
  8
ALL_FEATURES
100
AcDbCircle
 62
7
  6
CONTINUOUS
 10
3.5353016439
 20
4.1924240074
 40
0.5677938968
100
AcDbArc
 50
19.2831330958
 51
340.7168669042
  0
ARC
  5
269
100
AcDbEntity
  8
ALL_FEATURES
100
AcDbCircle
 62
9
  6
CONTINUOUS
 10
3.5353016439
 20
4.1924240074
 40
0.5509475526
100
AcDbArc
 50
19.6944617203
 51
340.3056064332
  0
ARC
  5
26A
100
AcDbEntity
  8
ALL_FEATURES
100
AcDbCircle
 62
9
  6
CONTINUOUS
 10
3.5353016439
 20
4.1924240074
 40
0.5343470323
100
AcDbArc
 50
19.5225950983
 51
340.4815116516
  0
ARC
  5
26B
100
AcDbEntity
  8
ALL_FEATURES
100
AcDbCircle
 62
9
  6
CONTINUOUS
 10
3.5353016439
 20
4.1924240074
 40
0.4990631352
100
AcDbArc
 50
24.4321299537
 51
335.5678700463
  0
ARC
  5
26C
100
AcDbEntity
  8
ALL_FEATURES
100
AcDbCircle
 62
9
  6
CONTINUOUS
 10
3.5353016439
 20
4.1924240074
 40
0.4651140118
100
AcDbArc
 50
24.6459092772
 51
335.3540907228
  0
ARC
  5
26D
100
AcDbEntity
  8
ALL_FEATURES
100
AcDbCircle
 62
9
  6
CONTINUOUS
 10
3.5353016439
 20
4.1924240074
 40
0.3808242655
100
AcDbArc
 50
28.8512769711
 51
331.1487230289
  0
ARC
  5
26E
100
AcDbEntity
  8
ALL_FEATURES
100
AcDbCircle
 62
7
  6
CONTINUOUS
 10
3.5353016439
 20
4.1924240074
 40
0.3458601813
100
AcDbArc
 50
30.7847475115
 51
329.2152524885
  0
ARC
  5
26F
100
AcDbEntity
  8
ALL_FEATURES
100
AcDbCircle
 62
9
  6
CONTINUOUS
 10
3.5353016439
 20
4.1924240074
 40
0.2520769231
100
AcDbArc
 50
160.9349602625
 51
199.0650397375
  0
ARC
  5
270
100
AcDbEntity
  8
ALL_FEATURES
100
AcDbCircle
 62
9
  6
CONTINUOUS
 10
3.5353016439
 20
4.1924240074
 40
0.2520769231
100
AcDbArc
 50
280.9349602625
 51
319.0650397375
  0
ARC
  5
271
100
AcDbEntity
  8
ALL_FEATURES
100
AcDbCircle
 62
9
  6
CONTINUOUS
 10
3.5353016439
 20
4.1924240074
 40
0.2520769231
100
AcDbArc
 50
100.9349602625
 51
139.0650397375
  0
ARC
  5
272
100
AcDbEntity
  8
ALL_FEATURES
100
AcDbCircle
 62
9
  6
CONTINUOUS
 10
3.5353016439
 20
4.1924240074
 40
0.2520769231
100
AcDbArc
 50
220.9349602625
 51
259.0650397375
  0
ARC
  5
273
100
AcDbEntity
  8
ALL_FEATURES
100
AcDbCircle
 62
9
  6
CONTINUOUS
 10
3.5353016439
 20
4.1924240074
 40
0.2520769231
100
AcDbArc
 50
40.9349602625
 51
79.0650397375
  0
CIRCLE
  5
274
100
AcDbEntity
  8
0
100
AcDbCircle
 62
7
  6
CONTINUOUS
 10
3.5353016439
 20
4.1924240074
 40
0.2486834304
  0
CIRCLE
  5
275
100
AcDbEntity
  8
0
100
AcDbCircle
 62
9
  6
CONTINUOUS
 10
3.5353016439
 20
4.1924240074
 40
0.234693941
  0
CIRCLE
  5
276
100
AcDbEntity
  8
0
100
AcDbCircle
 62
9
  6
CONTINUOUS
 10
3.5353016439
 20
4.1924240074
 40
0.1715706269
  0
ARC
  5
277
100
AcDbEntity
  8
0
100
AcDbCircle
 62
7
  6
CONTINUOUS
 10
3.9517293289
 20
4.4460193556
 40
0.06
100
AcDbArc
 50
273.7165080342
 51
305.4249446388
  0
ARC
  5
278
100
AcDbEntity
  8
ALL_ASSEMBLY_MEMBERS
100
AcDbCircle
 62
7
  6
CONTINUOUS
 10
3.9948016439
 20
4.3986740074
 40
0.05
100
AcDbArc
 50
288.0686933866
 51
316.5674634422
  0
ARC
  5
279
100
AcDbEntity
  8
ALL_ASSEMBLY_MEMBERS
100
AcDbCircle
 62
7
  6
CONTINUOUS
 10
4.0674200817
 20
4.3299240074
 40
0.05
100
AcDbArc
 50
90.0
 51
136.5674634422
  0
ARC
  5
27A
100
AcDbEntity
  8
0
100
AcDbCircle
 62
7
  6
CONTINUOUS
 10
6.3688739589
 20
3.9388286593
 40
0.06
100
AcDbArc
 50
93.7165080342
 51
125.4249446388
  0
ARC
  5
27B
100
AcDbEntity
  8
ALL_ASSEMBLY_MEMBERS
100
AcDbCircle
 62
7
  6
CONTINUOUS
 10
6.3223016439
 20
3.9861740074
 40
0.05
100
AcDbArc
 50
103.887033452
 51
145.7711336722
  0
ARC
  5
27C
100
AcDbEntity
  8
ALL_ASSEMBLY_MEMBERS
100
AcDbCircle
 62
7
  6
CONTINUOUS
 10
6.2396219154
 20
4.0424240074
 40
0.05
100
AcDbArc
 50
270.0
 51
325.7711336722
  0
ARC
  5
27D
100
AcDbEntity
  8
ALL_FEATURES
100
AcDbCircle
 62
7
  6
CONTINUOUS
 10
6.7853016439
 20
4.1924240074
 40
0.5677938968
100
AcDbArc
 50
200.4190507413
 51
159.5842530359
  0
ARC
  5
27E
100
AcDbEntity
  8
ALL_FEATURES
100
AcDbCircle
 62
9
  6
CONTINUOUS
 10
6.7853016439
 20
4.1924240074
 40
0.5509475526
100
AcDbArc
 50
200.2615384723
 51
159.7408559077
  0
ARC
  5
27F
100
AcDbEntity
  8
ALL_FEATURES
100
AcDbCircle
 62
9
  6
CONTINUOUS
 10
6.7853016439
 20
4.1924240074
 40
0.5343470323
100
AcDbArc
 50
199.4102226375
 51
160.5885531842
  0
ARC
  5
280
100
AcDbEntity
  8
ALL_FEATURES
100
AcDbCircle
 62
9
  6
CONTINUOUS
 10
6.7853016439
 20
4.1924240074
 40
0.4990631352
100
AcDbArc
 50
204.4321299537
 51
155.5678700463
  0
ARC
  5
281
100
AcDbEntity
  8
ALL_FEATURES
100
AcDbCircle
 62
9
  6
CONTINUOUS
 10
6.7853016439
 20
4.1924240074
 40
0.4651140118
100
AcDbArc
 50
204.6459092772
 51
155.3540907228
  0
ARC
  5
282
100
AcDbEntity
  8
ALL_FEATURES
100
AcDbCircle
 62
9
  6
CONTINUOUS
 10
6.7853016439
 20
4.1924240074
 40
0.3808242655
100
AcDbArc
 50
208.8512769711
 51
151.1487230289
  0
ARC
  5
283
100
AcDbEntity
  8
ALL_FEATURES
100
AcDbCircle
 62
7
  6
CONTINUOUS
 10
6.7853016439
 20
4.1924240074
 40
0.3458601813
100
AcDbArc
 50
210.7847475115
 51
149.2152524885
  0
ARC
  5
284
100
AcDbEntity
  8
ALL_FEATURES
100
AcDbCircle
 62
9
  6
CONTINUOUS
 10
6.7853016439
 20
4.1924240074
 40
0.2520769231
100
AcDbArc
 50
220.9349602625
 51
259.0650397375
  0
ARC
  5
285
100
AcDbEntity
  8
ALL_FEATURES
100
AcDbCircle
 62
9
  6
CONTINUOUS
 10
6.7853016439
 20
4.1924240074
 40
0.2520769231
100
AcDbArc
 50
100.9349602625
 51
139.0650397375
  0
ARC
  5
286
100
AcDbEntity
  8
ALL_FEATURES
100
AcDbCircle
 62
9
  6
CONTINUOUS
 10
6.7853016439
 20
4.1924240074
 40
0.2520769231
100
AcDbArc
 50
340.9349602625
 51
19.0650397375
  0
ARC
  5
287
100
AcDbEntity
  8
ALL_FEATURES
100
AcDbCircle
 62
9
  6
CONTINUOUS
 10
6.7853016439
 20
4.1924240074
 40
0.2520769231
100
AcDbArc
 50
280.9349602625
 51
319.0650397375
  0
ARC
  5
288
100
AcDbEntity
  8
ALL_FEATURES
100
AcDbCircle
 62
9
  6
CONTINUOUS
 10
6.7853016439
 20
4.1924240074
 40
0.2520769231
100
AcDbArc
 50
40.9349602625
 51
79.0650397375
  0
CIRCLE
  5
289
100
AcDbEntity
  8
0
100
AcDbCircle
 62
7
  6
CONTINUOUS
 10
6.7853016439
 20
4.1924240074
 40
0.247988817
  0
CIRCLE
  5
28A
100
AcDbEntity
  8
0
100
AcDbCircle
 62
9
  6
CONTINUOUS
 10
6.7853016439
 20
4.1924240074
 40
0.2340802452
  0
CIRCLE
  5
28B
100
AcDbEntity
  8
0
100
AcDbCircle
 62
9
  6
CONTINUOUS
 10
6.7853016439
 20
4.1924240074
 40
0.1720842779
  0
ARC
  5
28C
100
AcDbEntity
  8
0
100
AcDbCircle
 62
7
  6
CONTINUOUS
 10
6.3688739589
 20
4.4460193556
 40
0.06
100
AcDbArc
 50
234.5750553612
 51
266.2834919658
  0
ARC
  5
28D
100
AcDbEntity
  8
ALL_ASSEMBLY_MEMBERS
100
AcDbCircle
 62
7
  6
CONTINUOUS
 10
6.2396219154
 20
4.3424240074
 40
0.05
100
AcDbArc
 50
34.2288663278
 51
90.0
  0
ARC
  5
28E
100
AcDbEntity
  8
ALL_ASSEMBLY_MEMBERS
100
AcDbCircle
 62
7
  6
CONTINUOUS
 10
6.3223016439
 20
4.3986740074
 40
0.05
100
AcDbArc
 50
214.2288663278
 51
256.112966548
  0
SPLINE
  5
28F
100
AcDbEntity
  8
0
100
AcDbSpline
 62
7
  6
CONTINUOUS
 70
0
 71
3
 72
21
 73
17
 74
0
 42
0.0000001
 43
0.0000001
 44
0.0000000001
 40
0.0
 40
0.0
 40
0.0
 40
0.0
 40
0.1254076743
 40
0.2507031432
 40
0.3759155115
 40
0.5010461054
 40
0.6260709371
 40
0.6885308467
 40
0.7509449943
 40
0.8133043517
 40
0.8444604397
 40
0.8755989299
 40
0.9067184575
 40
0.9378206645
 40
0.9689118836
 40
1.0
 40
1.0
 40
1.0
 40
1.0
 10
3.7853016439
 20
4.3577852249
 30
0.0
 10
3.7922518046
 20
4.3597781514
 30
0.0
 10
3.8062165487
 20
4.3635197655
 30
0.0
 10
3.8273257161
 20
4.3684458595
 30
0.0
 10
3.8485575756
 20
4.3727317191
 30
0.0
 10
3.869883813
 20
4.3764263014
 30
0.0
 10
3.88771662
 20
4.3790540626
 30
0.0
 10
3.9020045113
 20
4.3809096873
 30
0.0
 10
3.9127240107
 20
4.3821838323
 30
0.0
 10
3.9216617051
 20
4.383153254
 30
0.0
 10
3.9288120483
 20
4.3838763688
 30
0.0
 10
3.9341729345
 20
4.3843928927
 30
0.0
 10
3.9395329545
 20
4.3848854373
 30
0.0
 10
3.9448926905
 20
4.3853507262
 30
0.0
 10
3.9502538471
 20
4.3857773361
 30
0.0
 10
3.9538299349
 20
4.3860293566
 30
0.0
 10
3.9556185184
 20
4.3861455366
 30
0.0
  0
SPLINE
  5
290
100
AcDbEntity
  8
0
100
AcDbSpline
 62
7
  6
CONTINUOUS
 70
0
 71
3
 72
21
 73
17
 74
0
 42
0.0000001
 43
0.0000001
 44
0.0000000001
 40
0.0
 40
0.0
 40
0.0
 40
0.0
 40
0.1254076743
 40
0.2507031432
 40
0.3759155115
 40
0.5010461054
 40
0.6260709371
 40
0.6885308467
 40
0.7509449943
 40
0.8133043517
 40
0.8444604397
 40
0.8755989299
 40
0.9067184575
 40
0.9378206645
 40
0.9689118836
 40
1.0
 40
1.0
 40
1.0
 40
1.0
 10
3.7853016439
 20
4.02706279
 30
0.0
 10
3.7922518046
 20
4.0250698635
 30
0.0
 10
3.8062165487
 20
4.0213282494
 30
0.0
 10
3.8273257161
 20
4.0164021554
 30
0.0
 10
3.8485575756
 20
4.0121162958
 30
0.0
 10
3.869883813
 20
4.0084217135
 30
0.0
 10
3.88771662
 20
4.0057939522
 30
0.0
 10
3.9020045113
 20
4.0039383276
 30
0.0
 10
3.9127240107
 20
4.0026641826
 30
0.0
 10
3.9216617051
 20
4.0016947609
 30
0.0
 10
3.9288120483
 20
4.0009716461
 30
0.0
 10
3.9341729345
 20
4.0004551222
 30
0.0
 10
3.9395329545
 20
3.9999625775
 30
0.0
 10
3.9448926905
 20
3.9994972887
 30
0.0
 10
3.9502538471
 20
3.9990706788
 30
0.0
 10
3.9538299349
 20
3.9988186583
 30
0.0
 10
3.9556185184
 20
3.9987024783
 30
0.0
  0
SPLINE
  5
291
100
AcDbEntity
  8
0
100
AcDbSpline
 62
7
  6
CONTINUOUS
 70
0
 71
3
 72
21
 73
17
 74
0
 42
0.0000001
 43
0.0000001
 44
0.0000000001
 40
0.0
 40
0.0
 40
0.0
 40
0.0
 40
0.1254076743
 40
0.2507031432
 40
0.3759155115
 40
0.5010461054
 40
0.6260709371
 40
0.6885308467
 40
0.7509449943
 40
0.8133043517
 40
0.8444604397
 40
0.8755989299
 40
0.9067184575
 40
0.9378206645
 40
0.9689118836
 40
1.0
 40
1.0
 40
1.0
 40
1.0
 10
6.5353016439
 20
4.3577852249
 30
0.0
 10
6.5283514832
 20
4.3597781514
 30
0.0
 10
6.5143867392
 20
4.3635197655
 30
0.0
 10
6.4932775718
 20
4.3684458595
 30
0.0
 10
6.4720457122
 20
4.3727317191
 30
0.0
 10
6.4507194748
 20
4.3764263014
 30
0.0
 10
6.4328866679
 20
4.3790540626
 30
0.0
 10
6.4185987765
 20
4.3809096873
 30
0.0
 10
6.4078792772
 20
4.3821838323
 30
0.0
 10
6.3989415827
 20
4.383153254
 30
0.0
 10
6.3917912395
 20
4.3838763688
 30
0.0
 10
6.3864303533
 20
4.3843928927
 30
0.0
 10
6.3810703334
 20
4.3848854373
 30
0.0
 10
6.3757105974
 20
4.3853507262
 30
0.0
 10
6.3703494407
 20
4.3857773361
 30
0.0
 10
6.3667733529
 20
4.3860293566
 30
0.0
 10
6.3649847694
 20
4.3861455366
 30
0.0
  0
SPLINE
  5
292
100
AcDbEntity
  8
0
100
AcDbSpline
 62
7
  6
CONTINUOUS
 70
0
 71
3
 72
21
 73
17
 74
0
 42
0.0000001
 43
0.0000001
 44
0.0000000001
 40
0.0
 40
0.0
 40
0.0
 40
0.0
 40
0.1254076743
 40
0.2507031432
 40
0.3759155115
 40
0.5010461054
 40
0.6260709371
 40
0.6885308467
 40
0.7509449943
 40
0.8133043517
 40
0.8444604397
 40
0.8755989299
 40
0.9067184575
 40
0.9378206645
 40
0.9689118836
 40
1.0
 40
1.0
 40
1.0
 40
1.0
 10
6.5353016439
 20
4.02706279
 30
0.0
 10
6.5283514832
 20
4.0250698635
 30
0.0
 10
6.5143867392
 20
4.0213282494
 30
0.0
 10
6.4932775718
 20
4.0164021554
 30
0.0
 10
6.4720457122
 20
4.0121162958
 30
0.0
 10
6.4507194748
 20
4.0084217135
 30
0.0
 10
6.4328866679
 20
4.0057939522
 30
0.0
 10
6.4185987765
 20
4.0039383276
 30
0.0
 10
6.4078792772
 20
4.0026641826
 30
0.0
 10
6.3989415827
 20
4.0016947609
 30
0.0
 10
6.3917912395
 20
4.0009716461
 30
0.0
 10
6.3864303533
 20
4.0004551222
 30
0.0
 10
6.3810703334
 20
3.9999625775
 30
0.0
 10
6.3757105974
 20
3.9994972887
 30
0.0
 10
6.3703494407
 20
3.9990706788
 30
0.0
 10
6.3667733529
 20
3.9988186583
 30
0.0
 10
6.3649847694
 20
3.9987024783
 30
0.0
  0
ENDSEC
  0
SECTION
  2
OBJECTS
  0
DICTIONARY
  5
C
100
AcDbDictionary
280
0
281
1
  3
ACAD_GROUP
350
D
  3
ACAD_MLINESTYLE
350
17
  3
ACAD_LAYOUT
350
1A
  3
ACAD_PLOTSETTINGS
350
19
  3
ACAD_PLOTSTYLENAME
350
E
  0
DICTIONARY
  5
D
102
{ACAD_REACTORS
330
C
102
}
100
AcDbDictionary
280
0
281
1
  0
ACDBDICTIONARYWDFLT
  5
E
102
{ACAD_REACTORS
330
C
102
}
100
AcDbDictionary
281
1
  3
Normal
350
F
100
AcDbDictionaryWithDefault
340
F
  0
DICTIONARY
  5
17
102
{ACAD_REACTORS
330
C
102
}
100
AcDbDictionary
280
0
281
1
  3
Standard
350
18
  0
DICTIONARY
  5
19
102
{ACAD_REACTORS
330
C
102
}
100
AcDbDictionary
281
1
  0
DICTIONARY
  5
1A
102
{ACAD_REACTORS
330
C
102
}
100
AcDbDictionary
281
1
  3
Model
350
293
  3
Layout1
350
294
  0
ACDBPLACEHOLDER
  5
F
102
{ACAD_REACTORS
330
E
102
}
  0
MLINESTYLE
  5
18
102
{ACAD_REACTORS
330
17
102
}
100
AcDbMlineStyle
  2
STANDARD
 70
0
  3

 62
256
 51
90.0
 52
90.0
 71
2
 49
0.5
 62
256
  6
BYLAYER
 49
-0.5
 62
256
  6
BYLAYER
  0
LAYOUT
  5
293
102
{ACAD_REACTORS
330
1A
102
}
100
AcDbPlotSettings
  1

  2
none_device
  4
ANSI_A_(11.00_x_8.50_Inches)
  6

 40
0.0
 41
0.0
 42
0.0
 43
0.0
 44
279.4
 45
215.9
 46
0.0
 47
0.0
 48
0.0
 49
0.0
140
0.0
141
0.0
142
1.0
143
1.0
 70
1024
 72
0
 73
0
 74
0
  7

 75
0
147
1.0
148
0.0
149
0.0
100
AcDbLayout
  1
Model
 70
0
 71
0
 10
0.0
 20
0.0
 11
11.0
 21
8.5
 12
0.0
 22
0.0
 32
0.0
 14
0.0
 24
0.0
 34
0.0
 15
0.0
 25
0.0
 35
0.0
146
0.0
 13
0.0
 23
0.0
 33
0.0
 16
1.0
 26
0.0
 36
0.0
 17
0.0
 27
1.0
 37
0.0
 76
0
330
22B
345
0
346
0
  0
LAYOUT
  5
294
102
{ACAD_REACTORS
330
1A
102
}
100
AcDbPlotSettings
  1

  2
none_device
  4
ANSI_A_(11.00_x_8.50_Inches)
  6

 40
0.0
 41
0.0
 42
0.0
 43
0.0
 44
279.4
 45
215.9
 46
0.0
 47
0.0
 48
0.0
 49
0.0
140
0.0
141
0.0
142
1.0
143
1.0
 70
0
 72
0
 73
0
 74
0
  7

 75
0
147
1.0
148
0.0
149
0.0
100
AcDbLayout
  1
Layout1
 70
0
 71
1
 10
0.0
 20
0.0
 11
11.0
 21
8.5
 12
0.0
 22
0.0
 32
0.0
 14
0.0
 24
0.0
 34
0.0
 15
0.0
 25
0.0
 35
0.0
146
0.0
 13
0.0
 23
0.0
 33
0.0
 16
1.0
 26
0.0
 36
0.0
 17
0.0
 27
1.0
 37
0.0
 76
0
330
22C
345
0
346
0
  0
ENDSEC
  0
EOF
