999
DXF file: C:\Prowork\plots\401x_top.dxf
999
Pro/ENGINEER 2018500 by Parametric Technology Corporation
  0
SECTION
  2
HEADER
  9
$ACADVER
  1
AC1032
  9
$DWGCODEPAGE
  3
ANSI_1252
  9
$EXTMAX
 10
11.0
 20
8.5
 30
0.0
  9
$EXTMIN
 10
0.0
 20
0.0
 30
0.0
  9
$LIMMIN
 10
0.0
 20
0.0
  9
$LIMMAX
 10
11.0
 20
8.5
  9
$VIEWCTR
 10
5.5
 20
4.25
  9
$VIEWSIZE
 40
8.5
  9
$CLAYER
  8
0
  9
$LTSCALE
 40
0.605
  9
$CELTYPE
  6
BYLAYER
  9
$DIMSCALE
 40
1.0
  9
$DIMASZ
 40
0.1
  9
$DIMEXO
 40
0.0625
  9
$DIMDLI
 40
0.418
  9
$DIMEXE
 40
0.125
  9
$DIMCEN
 40
0.099
  9
$DIMLFAC
 40
1.0
  9
$DIMBLK
  1
_FILLED
  9
$DIMALT
 70
1
  9
$DIMALTD
 70
2
  9
$DIMALTTD
 70
2
  9
$DIMALTF
 40
25.4
  9
$DIMTXT
 40
0.08
  9
$DIMTOL
 70
1
  9
$DIMLIM
 70
0
  9
$DIMTFAC
 40
1.0
  9
$DIMTP
 40
0.001
  9
$DIMTM
 40
0.001
  9
$DIMGAP
 40
0.09
  9
$DIMDSEP
 70
46
  9
$AUNITS
 70
0
  9
$PDMODE
 70
3
  9
$PDSIZE
 40
0.06
  9
$HANDSEED
  5
3A2
  9
$TILEMODE
 70
1
  9
$MEASUREMENT
 70
0
  9
$INSUNITS
 70
1
  0
ENDSEC
  0
SECTION
  2
CLASSES
  0
CLASS
  1
ACDBDICTIONARYWDFLT
  2
AcDbDictionaryWithDefault
  3
AutoCAD 2000
 90
0
 91
1
280
0
281
0
  0
CLASS
  1
ACDBPLACEHOLDER
  2
AcDbPlaceHolder
  3
AutoCAD 2000
 90
0
 91
1
280
0
281
0
  0
CLASS
  1
LAYOUT
  2
AcDbLayout
  3
AutoCAD 2000
 90
0
 91
0
280
0
281
0
  0
ENDSEC
  0
SECTION
  2
TABLES
  0
TABLE
  2
VPORT
  5
8
100
AcDbSymbolTable
 70
2
  0
VPORT
  5
1F4
100
AcDbSymbolTableRecord
100
AcDbViewportTableRecord
  2
*ACTIVE
 70
0
 10
0.0
 20
0.0
 11
1.0
 21
1.0
 12
5.5
 22
4.25
 13
0.0
 23
0.0
 14
1.0
 24
1.0
 15
0.0
 25
0.0
 16
0.0
 26
0.0
 36
1.0
 17
0.0
 27
0.0
 37
0.0
 40
8.5
 41
1.2941176471
 42
50.0
 43
0.0
 44
0.0
 50
0.0
 51
0.0
 71
0
 72
100
 73
1
 74
1
 75
0
 76
0
 77
0
 78
0
  0
ENDTAB
  0
TABLE
  2
LTYPE
  5
5
100
AcDbSymbolTable
 70
6
  0
LTYPE
  5
14
100
AcDbSymbolTableRecord
100
AcDbLinetypeTableRecord
  2
BYBLOCK
 70
0
  3

 72
65
 73
0
 40
0.0
  0
LTYPE
  5
15
100
AcDbSymbolTableRecord
100
AcDbLinetypeTableRecord
  2
BYLAYER
 70
0
  3

 72
65
 73
0
 40
0.0
  0
LTYPE
  5
16
100
AcDbSymbolTableRecord
100
AcDbLinetypeTableRecord
  2
CONTINUOUS
 70
64
  3
Solid line
 72
65
 73
0
 40
0.0
  0
LTYPE
  5
1F5
100
AcDbSymbolTableRecord
100
AcDbLinetypeTableRecord
  2
CENTER
 70
64
  3
____ _ ____ _ ____ _ ____ _ ____ _ ____ _ ____
 72
65
 73
4
 40
0.6
 49
0.375
 74
0
 49
-0.075
 74
0
 49
0.075
 74
0
 49
-0.075
 74
0
  0
LTYPE
  5
1F6
100
AcDbSymbolTableRecord
100
AcDbLinetypeTableRecord
  2
HIDDEN
 70
64
  3
- - - - - - - - - - - - - - - - - - - -
 72
65
 73
2
 40
0.2
 49
0.1
 74
0
 49
-0.1
 74
0
  0
LTYPE
  5
1F7
100
AcDbSymbolTableRecord
100
AcDbLinetypeTableRecord
  2
PHANTOM
 70
64
  3
_____ _ _ _____ _ _ _____ _ _ _____
 72
65
 73
6
 40
0.8
 49
0.45
 74
0
 49
-0.05
 74
0
 49
0.1
 74
0
 49
-0.05
 74
0
 49
0.1
 74
0
 49
-0.05
 74
0
  0
LTYPE
  5
1F8
100
AcDbSymbolTableRecord
100
AcDbLinetypeTableRecord
  2
DOT
 70
64
  3
. . . . . . . . . . . . . . . . . . . .
 72
65
 73
2
 40
0.2
 49
0.1
 74
0
 49
-0.1
 74
0
  0
LTYPE
  5
1F9
100
AcDbSymbolTableRecord
100
AcDbLinetypeTableRecord
  2
DASHED
 70
64
  3
- - - - - - - - - - - - - - - - - - - -
 72
65
 73
2
 40
0.2
 49
0.1
 74
0
 49
-0.1
 74
0
  0
ENDTAB
  0
TABLE
  2
LAYER
  5
2
100
AcDbSymbolTable
 70
36
  0
LAYER
  5
10
100
AcDbSymbolTableRecord
100
AcDbLayerTableRecord
  2
0
 70
0
 62
7
  6
CONTINUOUS
370
-3
390
F
  0
LAYER
  5
1FA
100
AcDbSymbolTableRecord
100
AcDbLayerTableRecord
  2
DEFAULT_1
 70
0
 62
7
  6
CENTER
370
-3
390
F
  0
LAYER
  5
1FB
100
AcDbSymbolTableRecord
100
AcDbLayerTableRecord
  2
DEFAULT_2
 70
0
 62
8
  6
HIDDEN
370
-3
390
F
  0
LAYER
  5
1FC
100
AcDbSymbolTableRecord
100
AcDbLayerTableRecord
  2
DEFAULT_3
 70
0
 62
7
  6
PHANTOM
370
-3
390
F
  0
LAYER
  5
1FD
100
AcDbSymbolTableRecord
100
AcDbLayerTableRecord
  2
50350
 70
0
 62
7
  6
CONTINUOUS
370
-3
390
F
  0
LAYER
  5
1FE
100
AcDbSymbolTableRecord
100
AcDbLayerTableRecord
  2
50356
 70
0
 62
7
  6
CONTINUOUS
370
-3
390
F
  0
LAYER
  5
1FF
100
AcDbSymbolTableRecord
100
AcDbLayerTableRecord
  2
50359
 70
0
 62
7
  6
CONTINUOUS
370
-3
390
F
  0
LAYER
  5
200
100
AcDbSymbolTableRecord
100
AcDbLayerTableRecord
  2
50663
 70
0
 62
7
  6
CONTINUOUS
370
-3
390
F
  0
LAYER
  5
201
100
AcDbSymbolTableRecord
100
AcDbLayerTableRecord
  2
50664
 70
0
 62
7
  6
CONTINUOUS
370
-3
390
F
  0
LAYER
  5
202
100
AcDbSymbolTableRecord
100
AcDbLayerTableRecord
  2
50666
 70
0
 62
7
  6
CONTINUOUS
370
-3
390
F
  0
LAYER
  5
203
100
AcDbSymbolTableRecord
100
AcDbLayerTableRecord
  2
50675
 70
0
 62
7
  6
CONTINUOUS
370
-3
390
F
  0
LAYER
  5
204
100
AcDbSymbolTableRecord
100
AcDbLayerTableRecord
  2
50677
 70
0
 62
7
  6
CONTINUOUS
370
-3
390
F
  0
LAYER
  5
205
100
AcDbSymbolTableRecord
100
AcDbLayerTableRecord
  2
6-401
 70
0
 62
7
  6
CONTINUOUS
370
-3
390
F
  0
LAYER
  5
206
100
AcDbSymbolTableRecord
100
AcDbLayerTableRecord
  2
92000
 70
0
 62
7
  6
CONTINUOUS
370
-3
390
F
  0
LAYER
  5
207
100
AcDbSymbolTableRecord
100
AcDbLayerTableRecord
  2
ALL_FEATURES_8
 70
0
 62
7
  6
CONTINUOUS
370
-3
390
F
  0
LAYER
  5
208
100
AcDbSymbolTableRecord
100
AcDbLayerTableRecord
  2
DEFAULT_COORDINATE_SYSTEM
 70
0
 62
7
  6
CONTINUOUS
370
-3
390
F
  0
LAYER
  5
209
100
AcDbSymbolTableRecord
100
AcDbLayerTableRecord
  2
DEFAULT_DATUM_AXES
 70
0
 62
7
  6
CONTINUOUS
370
-3
390
F
  0
LAYER
  5
20A
100
AcDbSymbolTableRecord
100
AcDbLayerTableRecord
  2
DEFAULT_DATUM_PLANES
 70
0
 62
7
  6
CONTINUOUS
370
-3
390
F
  0
LAYER
  5
20B
100
AcDbSymbolTableRecord
100
AcDbLayerTableRecord
  2
DEFAULT_SURFACES
 70
0
 62
7
  6
CONTINUOUS
370
-3
390
F
  0
LAYER
  5
20C
100
AcDbSymbolTableRecord
100
AcDbLayerTableRecord
  2
INTF_50350
 70
0
 62
7
  6
CONTINUOUS
370
-3
390
F
  0
LAYER
  5
20D
100
AcDbSymbolTableRecord
100
AcDbLayerTableRecord
  2
INTF_50356
 70
0
 62
7
  6
CONTINUOUS
370
-3
390
F
  0
LAYER
  5
20E
100
AcDbSymbolTableRecord
100
AcDbLayerTableRecord
  2
INTF_50359
 70
0
 62
7
  6
CONTINUOUS
370
-3
390
F
  0
LAYER
  5
20F
100
AcDbSymbolTableRecord
100
AcDbLayerTableRecord
  2
INTF_50663
 70
0
 62
7
  6
CONTINUOUS
370
-3
390
F
  0
LAYER
  5
210
100
AcDbSymbolTableRecord
100
AcDbLayerTableRecord
  2
INTF_50664
 70
0
 62
7
  6
CONTINUOUS
370
-3
390
F
  0
LAYER
  5
211
100
AcDbSymbolTableRecord
100
AcDbLayerTableRecord
  2
INTF_50666
 70
0
 62
7
  6
CONTINUOUS
370
-3
390
F
  0
LAYER
  5
212
100
AcDbSymbolTableRecord
100
AcDbLayerTableRecord
  2
INTF_50675
 70
0
 62
7
  6
CONTINUOUS
370
-3
390
F
  0
LAYER
  5
213
100
AcDbSymbolTableRecord
100
AcDbLayerTableRecord
  2
INTF_50677
 70
0
 62
7
  6
CONTINUOUS
370
-3
390
F
  0
LAYER
  5
214
100
AcDbSymbolTableRecord
100
AcDbLayerTableRecord
  2
INTF_92000
 70
0
 62
7
  6
CONTINUOUS
370
-3
390
F
  0
LAYER
  5
215
100
AcDbSymbolTableRecord
100
AcDbLayerTableRecord
  2
INTF_BLANK
 70
0
 62
7
  6
CONTINUOUS
370
-3
390
F
  0
LAYER
  5
216
100
AcDbSymbolTableRecord
100
AcDbLayerTableRecord
  2
PLATED_SURFACE
 70
0
 62
7
  6
CONTINUOUS
370
-3
390
F
  0
LAYER
  5
217
100
AcDbSymbolTableRecord
100
AcDbLayerTableRecord
  2
PLATED_SURFACE_1
 70
0
 62
7
  6
CONTINUOUS
370
-3
390
F
  0
LAYER
  5
218
100
AcDbSymbolTableRecord
100
AcDbLayerTableRecord
  2
_BLACK_HOLE
 70
0
 62
7
  6
CONTINUOUS
370
-3
390
F
  0
ENDTAB
  0
TABLE
  2
STYLE
  5
3
100
AcDbSymbolTable
 70
1
  0
STYLE
  5
11
100
AcDbSymbolTableRecord
100
AcDbTextStyleTableRecord
  2
STANDARD
 70
0
 40
0.0
 41
0.8
 50
0.0
 71
0
 42
0.2
  3
txt
  4

  0
STYLE
  5
219
100
AcDbSymbolTableRecord
100
AcDbTextStyleTableRecord
  2
TEXTSTYLE_1
 70
0
 40
0.0
 41
0.8
 50
0.0
 71
0
 42
0.2
  3
gdt
  4

  0
ENDTAB
  0
TABLE
  2
VIEW
  5
6
100
AcDbSymbolTable
 70
0
  0
ENDTAB
  0
TABLE
  2
UCS
  5
7
100
AcDbSymbolTable
 70
0
  0
ENDTAB
  0
TABLE
  2
APPID
  5
9
100
AcDbSymbolTable
 70
1
  0
APPID
  5
21A
100
AcDbSymbolTableRecord
100
AcDbRegAppTableRecord
  2
ACAD
 70
0
  0
ENDTAB
  0
TABLE
  2
BLOCK_RECORD
  5
1
100
AcDbSymbolTable
 70
0
  0
BLOCK_RECORD
  5
21B
100
AcDbSymbolTableRecord
100
AcDbBlockTableRecord
  2
*Model_Space
  0
BLOCK_RECORD
  5
21C
100
AcDbSymbolTableRecord
100
AcDbBlockTableRecord
  2
*Paper_Space
  0
BLOCK_RECORD
  5
21D
100
AcDbSymbolTableRecord
100
AcDbBlockTableRecord
  2
_FILLED
  0
ENDTAB
  0
TABLE
  2
DIMSTYLE
  5
A
100
AcDbSymbolTable
 70
1
100
AcDbDimStyleTable
 71
0
  0
DIMSTYLE
105
21E
100
AcDbSymbolTableRecord
100
AcDbDimStyleTableRecord
  2
STANDARD
 70
0
  3

  4

 40
1.0
 41
0.1
 42
0.0625
 43
0.38
 44
0.125
 45
0.0
 46
0.0
 47
0.001
 48
0.001
140
0.08
141
0.09
142
0.0
143
25.4
144
1.0
145
0.0
146
1.0
147
0.09
 71
1.0
 72
0.0
 73
1
 74
1
 75
0
 76
0
 77
0
 78
4
 79
1
170
1
171
2
172
0
173
0
174
0
175
0
176
0
177
0
178
0
270
2
179
3
271
3
272
3
273
2
274
2
275
0
280
0
281
0
282
0
283
1
284
4
285
0
286
0
287
3
288
0
340
11
278
46
341
21D
342
21D
343
21D
344
21D
  0
ENDTAB
  0
ENDSEC
  0
SECTION
  2
BLOCKS
  0
BLOCK
  5
20
100
AcDbEntity
  8
0
100
AcDbBlockBegin
  2
*Model_Space
 70
0
 10
0.0
 20
0.0
 30
0.0
  3
*Model_Space
  1

  0
ENDBLK
  5
21
100
AcDbEntity
  8
0
100
AcDbBlockEnd
  0
BLOCK
  5
1C
100
AcDbEntity
  8
0
100
AcDbBlockBegin
  2
*Paper_Space
 70
0
 10
0.0
 20
0.0
 30
0.0
  3
*Paper_Space
  1

  0
ENDBLK
  5
1D
100
AcDbEntity
  8
0
100
AcDbBlockEnd
  0
BLOCK
  5
21F
100
AcDbEntity
  8
0
100
AcDbBlockBegin
  2
_FILLED
 70
64
 10
0.0
 20
0.0
  3
_FILLED
  1

  0
SOLID
  5
220
100
AcDbEntity
  8
0
  6
BYBLOCK
 62
0
100
AcDbTrace
 10
0.0
 20
0.0
 11
-1.0
 21
0.2
 12
-1.0
 22
-0.2
 13
-1.0
 23
-0.2
  0
ENDBLK
  5
221
100
AcDbEntity
  8
0
  6
BYBLOCK
 62
0
100
AcDbBlockEnd
  0
ENDSEC
  0
SECTION
  2
ENTITIES
  0
MTEXT
  5
222
100
AcDbEntity
  8
0
100
AcDbMText
 62
7
  6
CONTINUOUS
  7
STANDARD
 71
1
 72
1
 10
9.6217973602
 20
0.3642041925
 30
0.0
 11
1.0
 21
0.0
 31
0.0
 73
2
 44
0.9
  1
SCALE: 3.00
 40
0.08
 41
0.704
  0
LINE
  5
223
100
AcDbEntity
  8
0
100
AcDbLine
 62
7
  6
CONTINUOUS
 10
0.0
 20
0.0
 11
0.0
 21
8.5
  0
LINE
  5
224
100
AcDbEntity
  8
0
100
AcDbLine
 62
7
  6
CONTINUOUS
 10
0.0
 20
0.0
 11
11.0
 21
0.0
  0
LINE
  5
225
100
AcDbEntity
  8
0
100
AcDbLine
 62
7
  6
CONTINUOUS
 10
0.0
 20
8.5
 11
11.0
 21
8.5
  0
LINE
  5
226
100
AcDbEntity
  8
0
100
AcDbLine
 62
7
  6
CONTINUOUS
 10
11.0
 20
0.0
 11
11.0
 21
8.5
  0
LINE
  5
227
100
AcDbEntity
  8
0
100
AcDbLine
 62
7
  6
CONTINUOUS
 10
5.574927514
 20
0.9967072981
 11
5.5749417702
 21
0.9967072981
  0
LINE
  5
228
100
AcDbEntity
  8
0
100
AcDbLine
 62
9
  6
CONTINUOUS
 10
2.962961648
 20
2.4263853194
 11
2.962961648
 21
1.1840292768
  0
LINE
  5
229
100
AcDbEntity
  8
0
100
AcDbLine
 62
7
  6
CONTINUOUS
 10
6.2879048326
 20
1.8832072981
 11
6.2654872451
 21
1.8832072981
  0
LINE
  5
22A
100
AcDbEntity
  8
0
100
AcDbLine
 62
7
  6
CONTINUOUS
 10
6.3368946274
 20
2.0032072981
 11
6.2291787915
 21
2.0032072981
  0
LINE
  5
22B
100
AcDbEntity
  8
0
100
AcDbLine
 62
7
  6
CONTINUOUS
 10
6.1899252429
 20
2.1232072981
 11
6.2879048326
 21
2.1232072981
  0
LINE
  5
22C
100
AcDbEntity
  8
0
100
AcDbLine
 62
7
  6
CONTINUOUS
 10
6.2671410987
 20
1.0764559539
 11
6.2709265542
 21
1.0737077402
  0
LINE
  5
22D
100
AcDbEntity
  8
0
100
AcDbLine
 62
7
  6
CONTINUOUS
 10
6.267275985
 20
1.0763583208
 11
6.2709417702
 21
1.0736633588
  0
LINE
  5
22E
100
AcDbEntity
  8
0
100
AcDbLine
 62
7
  6
CONTINUOUS
 10
6.0436581426
 20
2.4907072981
 11
5.9570851024
 21
2.4907072981
  0
LINE
  5
22F
100
AcDbEntity
  8
0
100
AcDbLine
 62
7
  6
CONTINUOUS
 10
5.192798438
 20
2.4907072981
 11
5.1050897299
 21
2.4907072981
  0
LINE
  5
230
100
AcDbEntity
  8
0
100
AcDbLine
 62
7
  6
CONTINUOUS
 10
4.2624417702
 20
2.884774824
 11
4.6314417702
 21
2.7127072981
  0
LINE
  5
231
100
AcDbEntity
  8
0
100
AcDbLine
 62
7
  6
CONTINUOUS
 10
4.6374417702
 20
5.9269731755
 11
5.5749417702
 21
6.4682390528
  0
LINE
  5
232
100
AcDbEntity
  8
0
100
AcDbLine
 62
7
  6
CONTINUOUS
 10
4.6314430078
 20
2.6377072981
 11
6.5184405326
 21
2.6377072981
  0
LINE
  5
233
100
AcDbEntity
  8
0
100
AcDbLine
 62
7
  6
CONTINUOUS
 10
6.5184417702
 20
2.7127072981
 11
4.6314417702
 21
2.7127072981
  0
LINE
  5
234
100
AcDbEntity
  8
0
100
AcDbLine
 62
7
  6
CONTINUOUS
 10
4.9786565175
 20
2.554425524
 11
4.9749530832
 21
2.5566648784
  0
LINE
  5
235
100
AcDbEntity
  8
0
100
AcDbLine
 62
7
  6
CONTINUOUS
 10
4.9752995972
 20
2.5564599793
 11
4.9749417702
 21
2.5566785612
  0
LINE
  5
236
100
AcDbEntity
  8
0
100
AcDbLine
 62
7
  6
CONTINUOUS
 10
4.2249417702
 20
6.3607072981
 11
4.2249417702
 21
4.4107072981
  0
LINE
  5
237
100
AcDbEntity
  8
0
100
AcDbLine
 62
7
  6
CONTINUOUS
 10
4.2249417702
 20
6.9525484311
 11
4.2249417702
 21
7.7938611027
  0
LINE
  5
238
100
AcDbEntity
  8
0
100
AcDbLine
 62
7
  6
CONTINUOUS
 10
4.2549417702
 20
6.3607072981
 11
4.2549417702
 21
6.8857072981
  0
LINE
  5
239
100
AcDbEntity
  8
0
100
AcDbLine
 62
7
  6
CONTINUOUS
 10
4.2624417702
 20
2.884775884
 11
4.2624417702
 21
3.5572143157
  0
LINE
  5
23A
100
AcDbEntity
  8
0
100
AcDbLine
 62
7
  6
CONTINUOUS
 10
4.2849417702
 20
3.5677072981
 11
4.2849417702
 21
3.6427072981
  0
LINE
  5
23B
100
AcDbEntity
  8
0
100
AcDbLine
 62
9
  6
CONTINUOUS
 10
4.3374417702
 20
3.4818356709
 11
4.3374417702
 21
2.9601545288
  0
LINE
  5
23C
100
AcDbEntity
  8
0
100
AcDbLine
 62
7
  6
CONTINUOUS
 10
4.3561917702
 20
4.1107072981
 11
4.3561917702
 21
3.9852366426
  0
LINE
  5
23D
100
AcDbEntity
  8
0
100
AcDbLine
 62
7
  6
CONTINUOUS
 10
4.3561917702
 20
3.8611779535
 11
4.3561917702
 21
3.8352366426
  0
LINE
  5
23E
100
AcDbEntity
  8
0
100
AcDbLine
 62
7
  6
CONTINUOUS
 10
4.3561917702
 20
3.7111779535
 11
4.3561917702
 21
3.6852366426
  0
LINE
  5
23F
100
AcDbEntity
  8
0
100
AcDbLine
 62
7
  6
CONTINUOUS
 10
4.4474145095
 20
3.9325947488
 11
4.4474145104
 21
3.9138437958
  0
LINE
  5
240
100
AcDbEntity
  8
0
100
AcDbLine
 62
7
  6
CONTINUOUS
 10
4.4475456499
 20
3.7825594718
 11
4.4475456517
 21
3.7638108133
  0
LINE
  5
241
100
AcDbEntity
  8
0
100
AcDbLine
 62
7
  6
CONTINUOUS
 10
4.4499417702
 20
4.1107072981
 11
4.4499417702
 21
4.4107072981
  0
LINE
  5
242
100
AcDbEntity
  8
0
100
AcDbLine
 62
9
  6
CONTINUOUS
 10
4.498836786
 20
1.1840292768
 11
4.498836786
 21
1.5933686167
  0
LINE
  5
243
100
AcDbEntity
  8
0
100
AcDbLine
 62
9
  6
CONTINUOUS
 10
4.498836786
 20
2.0170459794
 11
4.498836786
 21
2.4263853194
  0
LINE
  5
244
100
AcDbEntity
  8
0
100
AcDbLine
 62
7
  6
CONTINUOUS
 10
4.6314417702
 20
2.7127072981
 11
4.6314417702
 21
2.6377072981
  0
LINE
  5
245
100
AcDbEntity
  8
0
100
AcDbLine
 62
7
  6
CONTINUOUS
 10
4.6374417702
 20
4.8444414207
 11
4.6374417702
 21
5.9269731755
  0
LINE
  5
246
100
AcDbEntity
  8
0
100
AcDbLine
 62
7
  6
CONTINUOUS
 10
4.3568677537
 20
3.6844489605
 11
4.4291229329
 21
3.6427072981
  0
LINE
  5
247
100
AcDbEntity
  8
0
100
AcDbLine
 62
7
  6
CONTINUOUS
 10
4.3569397936
 20
3.8344709925
 11
4.4483054379
 21
3.7816808956
  0
LINE
  5
248
100
AcDbEntity
  8
0
100
AcDbLine
 62
7
  6
CONTINUOUS
 10
4.3568694874
 20
3.9844676566
 11
4.4481718962
 21
3.9317203452
  0
LINE
  5
249
100
AcDbEntity
  8
0
100
AcDbLine
 62
7
  6
CONTINUOUS
 10
4.4481718962
 20
3.9317203452
 11
4.4474145095
 21
3.9325947488
  0
LINE
  5
24A
100
AcDbEntity
  8
0
100
AcDbLine
 62
7
  6
CONTINUOUS
 10
4.2849417702
 20
3.5677072981
 11
6.8649417702
 21
3.5677072981
  0
LINE
  5
24B
100
AcDbEntity
  8
0
100
AcDbLine
 62
7
  6
CONTINUOUS
 10
4.2849417702
 20
3.6427072981
 11
6.8649417702
 21
3.6427072981
  0
LINE
  5
24C
100
AcDbEntity
  8
0
100
AcDbLine
 62
7
  6
CONTINUOUS
 10
5.0124417702
 20
2.5343867766
 11
5.0124417702
 21
2.6377072981
  0
LINE
  5
24D
100
AcDbEntity
  8
0
100
AcDbLine
 62
7
  6
CONTINUOUS
 10
5.015753461
 20
4.4107072981
 11
5.015753461
 21
4.6260230642
  0
LINE
  5
24E
100
AcDbEntity
  8
0
100
AcDbLine
 62
7
  6
CONTINUOUS
 10
5.015753461
 20
6.145391532
 11
5.015753461
 21
6.3607072981
  0
LINE
  5
24F
100
AcDbEntity
  8
0
100
AcDbLine
 62
7
  6
CONTINUOUS
 10
5.015753461
 20
7.1857072044
 11
5.015753461
 21
7.5607072981
  0
LINE
  5
250
100
AcDbEntity
  8
0
100
AcDbLine
 62
7
  6
CONTINUOUS
 10
5.0499417702
 20
1.1708882902
 11
5.0499417702
 21
1.0402800405
  0
LINE
  5
251
100
AcDbEntity
  8
0
100
AcDbLine
 62
7
  6
CONTINUOUS
 10
4.3561917702
 20
3.7111779535
 11
4.3568628952
 21
3.7119702555
  0
LINE
  5
252
100
AcDbEntity
  8
0
100
AcDbLine
 62
7
  6
CONTINUOUS
 10
4.4481667024
 20
3.9147146494
 11
4.4474145104
 21
3.9138437958
  0
LINE
  5
253
100
AcDbEntity
  8
0
100
AcDbLine
 62
7
  6
CONTINUOUS
 10
4.44830917
 20
3.7646912842
 11
4.4475456517
 21
3.7638108133
  0
LINE
  5
254
100
AcDbEntity
  8
0
100
AcDbLine
 62
7
  6
CONTINUOUS
 10
4.3561917702
 20
3.8611779535
 11
4.3569064065
 21
3.8619955384
  0
LINE
  5
255
100
AcDbEntity
  8
0
100
AcDbLine
 62
7
  6
CONTINUOUS
 10
4.3561917702
 20
4.1107072981
 11
6.7936917702
 21
4.1107072981
  0
LINE
  5
256
100
AcDbEntity
  8
0
100
AcDbLine
 62
9
  6
CONTINUOUS
 10
6.107671167
 20
2.1986524703
 11
6.1081490075
 21
2.1975111069
  0
LINE
  5
257
100
AcDbEntity
  8
0
100
AcDbLine
 62
9
  6
CONTINUOUS
 10
6.1076695877
 20
2.1986952349
 11
6.1081296735
 21
2.1975263162
  0
LINE
  5
258
100
AcDbEntity
  8
0
100
AcDbLine
 62
9
  6
CONTINUOUS
 10
5.4999417702
 20
2.9601545288
 11
5.4999417702
 21
3.4818356709
  0
LINE
  5
259
100
AcDbEntity
  8
0
100
AcDbLine
 62
7
  6
CONTINUOUS
 10
5.5749417702
 20
3.8986779535
 11
5.5749417702
 21
4.0227366426
  0
LINE
  5
25A
100
AcDbEntity
  8
0
100
AcDbLine
 62
7
  6
CONTINUOUS
 10
5.5749417702
 20
5.4922723369
 11
5.5749417702
 21
5.5425239325
  0
LINE
  5
25B
100
AcDbEntity
  8
0
100
AcDbLine
 62
9
  6
CONTINUOUS
 10
5.5749440638
 20
3.7486779535
 11
5.5749440638
 21
3.8727366426
  0
LINE
  5
25C
100
AcDbEntity
  8
0
100
AcDbLine
 62
7
  6
CONTINUOUS
 10
4.44830917
 20
3.7646912842
 11
4.3568629704
 21
3.7118544895
  0
LINE
  5
25D
100
AcDbEntity
  8
0
100
AcDbLine
 62
7
  6
CONTINUOUS
 10
4.4481667024
 20
3.9147146494
 11
4.356906409
 21
3.8619918842
  0
LINE
  5
25E
100
AcDbEntity
  8
0
100
AcDbLine
 62
7
  6
CONTINUOUS
 10
4.2249417702
 20
4.4107072981
 11
5.3886913076
 21
4.4107072981
  0
LINE
  5
25F
100
AcDbEntity
  8
0
100
AcDbLine
 62
7
  6
CONTINUOUS
 10
5.7611922328
 20
4.4107072981
 11
6.9249417702
 21
4.4107072981
  0
LINE
  5
260
100
AcDbEntity
  8
0
100
AcDbLine
 62
7
  6
CONTINUOUS
 10
6.8649417702
 20
3.5677072981
 11
6.8874417702
 21
3.5572153758
  0
LINE
  5
261
100
AcDbEntity
  8
0
100
AcDbLine
 62
7
  6
CONTINUOUS
 10
5.5749417702
 20
4.3031755434
 11
4.6374417702
 21
4.8444414207
  0
LINE
  5
262
100
AcDbEntity
  8
0
100
AcDbLine
 62
7
  6
CONTINUOUS
 10
6.782984566
 20
3.6427072981
 11
6.701678666
 21
3.6896810298
  0
LINE
  5
263
100
AcDbEntity
  8
0
100
AcDbLine
 62
7
  6
CONTINUOUS
 10
6.3368946274
 20
2.0032072981
 11
6.2879048326
 21
2.1232072981
  0
LINE
  5
264
100
AcDbEntity
  8
0
100
AcDbLine
 62
9
  6
CONTINUOUS
 10
5.6499417702
 20
3.4818356709
 11
5.6499417702
 21
2.9601545288
  0
LINE
  5
265
100
AcDbEntity
  8
0
100
AcDbLine
 62
7
  6
CONTINUOUS
 10
6.5124417702
 20
4.8444414207
 11
5.5749417702
 21
4.3031755434
  0
LINE
  5
266
100
AcDbEntity
  8
0
100
AcDbLine
 62
7
  6
CONTINUOUS
 10
4.2849417702
 20
3.5677072981
 11
4.2624417702
 21
3.5572153758
  0
LINE
  5
267
100
AcDbEntity
  8
0
100
AcDbLine
 62
7
  6
CONTINUOUS
 10
6.793014053
 20
3.7869469396
 11
6.7017116441
 21
3.839694251
  0
LINE
  5
268
100
AcDbEntity
  8
0
100
AcDbLine
 62
7
  6
CONTINUOUS
 10
6.701678666
 20
3.6896810298
 11
6.7024352744
 21
3.6888076875
  0
LINE
  5
269
100
AcDbEntity
  8
0
100
AcDbLine
 62
7
  6
CONTINUOUS
 10
5.969520917
 20
2.4907072981
 11
5.969520917
 21
2.4878030754
  0
LINE
  5
26A
100
AcDbEntity
  8
0
100
AcDbLine
 62
7
  6
CONTINUOUS
 10
6.0999417702
 20
1.1708889554
 11
6.0999417702
 21
1.0402800405
  0
LINE
  5
26B
100
AcDbEntity
  8
0
100
AcDbLine
 62
7
  6
CONTINUOUS
 10
6.1341300794
 20
7.5607072981
 11
6.1341300794
 21
7.1857074275
  0
LINE
  5
26C
100
AcDbEntity
  8
0
100
AcDbLine
 62
7
  6
CONTINUOUS
 10
6.1341300794
 20
6.3607072981
 11
6.1341300794
 21
6.145391532
  0
LINE
  5
26D
100
AcDbEntity
  8
0
100
AcDbLine
 62
7
  6
CONTINUOUS
 10
6.1341300794
 20
4.6260230642
 11
6.1341300794
 21
4.4107072981
  0
LINE
  5
26E
100
AcDbEntity
  8
0
100
AcDbLine
 62
7
  6
CONTINUOUS
 10
6.1374417702
 20
2.6377072981
 11
6.1374417702
 21
2.5343866081
  0
LINE
  5
26F
100
AcDbEntity
  8
0
100
AcDbLine
 62
7
  6
CONTINUOUS
 10
5.5187489057
 20
4.9396483377
 11
5.5749417702
 21
4.9425418013
  0
LINE
  5
270
100
AcDbEntity
  8
0
100
AcDbLine
 62
7
  6
CONTINUOUS
 10
5.5987247791
 20
4.943765593
 11
5.676587063
 21
4.9477579365
  0
LINE
  5
271
100
AcDbEntity
  8
0
100
AcDbLine
 62
7
  6
CONTINUOUS
 10
5.6011595428
 20
4.9421714185
 11
5.5279698462
 21
4.938440233
  0
LINE
  5
272
100
AcDbEntity
  8
0
100
AcDbLine
 62
7
  6
CONTINUOUS
 10
6.7017116441
 20
3.839694251
 11
6.7024690299
 21
3.8388208082
  0
LINE
  5
273
100
AcDbEntity
  8
0
100
AcDbLine
 62
7
  6
CONTINUOUS
 10
6.5124417702
 20
5.9269731755
 11
6.5124417702
 21
4.8444414207
  0
LINE
  5
274
100
AcDbEntity
  8
0
100
AcDbLine
 62
7
  6
CONTINUOUS
 10
6.5184417702
 20
2.7127072981
 11
6.5184417702
 21
2.6377072981
  0
LINE
  5
275
100
AcDbEntity
  8
0
100
AcDbLine
 62
7
  6
CONTINUOUS
 10
5.5746810541
 20
5.240821707
 11
5.568207539
 21
5.2404917598
  0
LINE
  5
276
100
AcDbEntity
  8
0
100
AcDbLine
 62
9
  6
CONTINUOUS
 10
6.6510467543
 20
2.4263853194
 11
6.6510467543
 21
2.0170459794
  0
LINE
  5
277
100
AcDbEntity
  8
0
100
AcDbLine
 62
9
  6
CONTINUOUS
 10
6.6510467543
 20
1.5933686167
 11
6.6510467543
 21
1.1840292768
  0
LINE
  5
278
100
AcDbEntity
  8
0
100
AcDbLine
 62
7
  6
CONTINUOUS
 10
6.6999417702
 20
4.1107072981
 11
6.6999417702
 21
4.4107072981
  0
LINE
  5
279
100
AcDbEntity
  8
0
100
AcDbLine
 62
7
  6
CONTINUOUS
 10
6.7024352744
 20
3.6888076875
 11
6.7024352744
 21
3.7075576875
  0
LINE
  5
27A
100
AcDbEntity
  8
0
100
AcDbLine
 62
7
  6
CONTINUOUS
 10
6.7024690299
 20
3.8388208082
 11
6.7024690309
 21
3.8575698474
  0
LINE
  5
27B
100
AcDbEntity
  8
0
100
AcDbLine
 62
7
  6
CONTINUOUS
 10
6.7936917702
 20
3.7602366426
 11
6.7936917702
 21
3.7861779535
  0
LINE
  5
27C
100
AcDbEntity
  8
0
100
AcDbLine
 62
7
  6
CONTINUOUS
 10
6.7936917702
 20
3.9102366426
 11
6.7936917702
 21
4.1107072981
  0
LINE
  5
27D
100
AcDbEntity
  8
0
100
AcDbLine
 62
9
  6
CONTINUOUS
 10
6.8124417702
 20
2.9601545288
 11
6.8124417702
 21
3.4818356709
  0
LINE
  5
27E
100
AcDbEntity
  8
0
100
AcDbLine
 62
7
  6
CONTINUOUS
 10
6.8649417702
 20
3.6427072981
 11
6.8649417702
 21
3.5677072981
  0
LINE
  5
27F
100
AcDbEntity
  8
0
100
AcDbLine
 62
7
  6
CONTINUOUS
 10
6.8874417702
 20
3.5572143157
 11
6.8874417702
 21
2.884775884
  0
LINE
  5
280
100
AcDbEntity
  8
0
100
AcDbLine
 62
7
  6
CONTINUOUS
 10
6.8949417702
 20
6.3607072981
 11
6.8949417702
 21
6.8857072981
  0
LINE
  5
281
100
AcDbEntity
  8
0
100
AcDbLine
 62
7
  6
CONTINUOUS
 10
6.9249417702
 20
7.7938707285
 11
6.9249417702
 21
6.9525428215
  0
LINE
  5
282
100
AcDbEntity
  8
0
100
AcDbLine
 62
7
  6
CONTINUOUS
 10
6.9249417702
 20
6.3607072981
 11
6.9249417702
 21
4.4107072981
  0
LINE
  5
283
100
AcDbEntity
  8
0
100
AcDbLine
 62
7
  6
CONTINUOUS
 10
6.7017168379
 20
3.8566999468
 11
6.7024690309
 21
3.8575698474
  0
LINE
  5
284
100
AcDbEntity
  8
0
100
AcDbLine
 62
7
  6
CONTINUOUS
 10
6.7936917702
 20
3.9102366426
 11
6.7929771339
 21
3.9094190578
  0
LINE
  5
285
100
AcDbEntity
  8
0
100
AcDbLine
 62
7
  6
CONTINUOUS
 10
6.7017168379
 20
3.8566999468
 11
6.7929771314
 21
3.909422712
  0
LINE
  5
286
100
AcDbEntity
  8
0
100
AcDbLine
 62
7
  6
CONTINUOUS
 10
6.7016851341
 20
3.7066899533
 11
6.7929587297
 21
3.7594218947
  0
LINE
  5
287
100
AcDbEntity
  8
0
100
AcDbLine
 62
7
  6
CONTINUOUS
 10
6.2879048326
 20
1.8832072981
 11
6.3368946274
 21
2.0032072981
  0
LINE
  5
288
100
AcDbEntity
  8
0
100
AcDbLine
 62
7
  6
CONTINUOUS
 10
6.7936917702
 20
3.7602366426
 11
6.7929587387
 21
3.759408601
  0
LINE
  5
289
100
AcDbEntity
  8
0
100
AcDbLine
 62
7
  6
CONTINUOUS
 10
6.8874417702
 20
2.884774824
 11
6.5184417702
 21
2.7127072981
  0
LINE
  5
28A
100
AcDbEntity
  8
0
100
AcDbLine
 62
7
  6
CONTINUOUS
 10
4.2249417702
 20
6.3607072981
 11
5.3886913076
 21
6.3607072981
  0
LINE
  5
28B
100
AcDbEntity
  8
0
100
AcDbLine
 62
7
  6
CONTINUOUS
 10
5.7611922328
 20
6.3607072981
 11
6.9249417702
 21
6.3607072981
  0
LINE
  5
28C
100
AcDbEntity
  8
0
100
AcDbLine
 62
7
  6
CONTINUOUS
 10
5.5749417702
 20
6.4682390528
 11
6.5124417702
 21
5.9269731755
  0
LINE
  5
28D
100
AcDbEntity
  8
0
100
AcDbLine
 62
7
  6
CONTINUOUS
 10
4.8789417702
 20
1.0736631841
 11
4.882200044
 21
1.076058803
  0
LINE
  5
28E
100
AcDbEntity
  8
0
100
AcDbLine
 62
7
  6
CONTINUOUS
 10
4.8789569906
 20
1.0737075147
 11
4.8820229476
 21
1.0759336328
  0
LINE
  5
28F
100
AcDbEntity
  8
0
100
AcDbLine
 62
9
  6
CONTINUOUS
 10
8.1869218924
 20
1.1840292768
 11
8.1869218924
 21
2.4263853194
  0
LINE
  5
290
100
AcDbEntity
  8
0
100
AcDbLine
 62
7
  6
CONTINUOUS
 10
6.8949417701
 20
6.8857072981
 11
4.2549417702
 21
6.8857072981
  0
LINE
  5
291
100
AcDbEntity
  8
0
100
AcDbLine
 62
9
  6
CONTINUOUS
 10
4.4137273219
 20
7.8607072981
 11
6.7361562184
 21
7.8607072981
  0
ARC
  5
292
100
AcDbEntity
  8
0
100
AcDbCircle
 62
7
  6
CONTINUOUS
 10
5.4283684673
 20
-17.8401351081
 40
21.7824397452
100
AcDbArc
 50
91.673094151
 51
91.9433198997
  0
ARC
  5
293
100
AcDbEntity
  8
0
100
AcDbCircle
 62
7
  6
CONTINUOUS
 10
5.4194813159
 20
-17.9053797918
 40
21.5662586191
100
AcDbArc
 50
91.7570272853
 51
91.8998028459
  0
ARC
  5
294
100
AcDbEntity
  8
0
100
AcDbCircle
 62
7
  6
CONTINUOUS
 10
5.4009275201
 20
-17.1387197731
 40
20.9305801896
100
AcDbArc
 50
91.7427302117
 51
91.9482721146
  0
ARC
  5
295
100
AcDbEntity
  8
0
100
AcDbCircle
 62
7
  6
CONTINUOUS
 10
5.3985977531
 20
-17.0468856429
 40
20.8574589733
100
AcDbArc
 50
91.744090438
 51
91.9504395973
  0
ARC
  5
296
100
AcDbEntity
  8
0
100
AcDbCircle
 62
7
  6
CONTINUOUS
 10
5.3524520684
 20
-15.4829272868
 40
19.4427527313
100
AcDbArc
 50
91.7354992405
 51
91.9551667943
  0
ARC
  5
297
100
AcDbEntity
  8
0
100
AcDbCircle
 62
7
  6
CONTINUOUS
 10
5.5749417702
 20
-0.5708935394
 40
3.1846008375
100
AcDbArc
 50
100.859813151
 51
109.7495244142
  0
ARC
  5
298
100
AcDbEntity
  8
0
100
AcDbCircle
 62
7
  6
CONTINUOUS
 10
5.5749417702
 20
-0.5708935394
 40
3.1846008375
100
AcDbArc
 50
70.2504755858
 51
79.140186849
  0
ARC
  5
299
100
AcDbEntity
  8
0
100
AcDbCircle
 62
7
  6
CONTINUOUS
 10
3.730899217
 20
-0.9549098364
 40
2.2726171344
100
AcDbArc
 50
70.2504755858
 51
109.7495244142
  0
ARC
  5
29A
100
AcDbEntity
  8
0
100
AcDbCircle
 62
7
  6
CONTINUOUS
 10
4.9214477851
 20
1.3809809815
 40
2.1762930904
100
AcDbArc
 50
93.4241702788
 51
94.1305028008
  0
ARC
  5
29B
100
AcDbEntity
  8
0
100
AcDbCircle
 62
9
  6
CONTINUOUS
 10
5.575683523
 20
2.3066163399
 40
1.3099171635
100
AcDbArc
 50
249.8397814811
 51
269.9670852075
  0
ARC
  5
29C
100
AcDbEntity
  8
0
100
AcDbCircle
 62
7
  6
CONTINUOUS
 10
5.5745593727
 20
2.0451360853
 40
1.0048494326
100
AcDbArc
 50
254.4828577508
 51
270.0218038777
  0
ARC
  5
29D
100
AcDbEntity
  8
0
100
AcDbCircle
 62
7
  6
CONTINUOUS
 10
5.5754411528
 20
2.0442909876
 40
1.0039993312
100
AcDbArc
 50
269.971501792
 51
285.5236385866
  0
ARC
  5
29E
100
AcDbEntity
  8
0
100
AcDbCircle
 62
9
  6
CONTINUOUS
 10
5.2895545043
 20
1.876033462
 40
0.8794447278
100
AcDbArc
 50
20.8831189894
 51
21.1528374822
  0
ARC
  5
29F
100
AcDbEntity
  8
0
100
AcDbCircle
 62
9
  6
CONTINUOUS
 10
5.2929192955
 20
1.8773371984
 40
0.8758361899
100
AcDbArc
 50
21.1527273404
 51
21.4433461496
  0
ARC
  5
2A0
100
AcDbEntity
  8
0
100
AcDbCircle
 62
7
  6
CONTINUOUS
 10
2.7399417702
 20
1.8052072981
 40
0.66
100
AcDbArc
 50
70.2504755858
 51
289.7495244142
  0
CIRCLE
  5
2A1
100
AcDbEntity
  8
0
100
AcDbCircle
 62
7
  6
CONTINUOUS
 10
5.5749417702
 20
1.8052072981
 40
0.66
  0
ARC
  5
2A2
100
AcDbEntity
  8
0
100
AcDbCircle
 62
9
  6
CONTINUOUS
 10
5.6378537906
 20
2.0190209901
 40
0.6126042012
100
AcDbArc
 50
130.5302512953
 51
130.8312860285
  0
ARC
  5
2A3
100
AcDbEntity
  8
0
100
AcDbCircle
 62
9
  6
CONTINUOUS
 10
5.6318456085
 20
2.026124946
 40
0.6033003357
100
AcDbArc
 50
127.036056016
 51
130.5349908156
  0
ARC
  5
2A4
100
AcDbEntity
  8
0
100
AcDbCircle
 62
9
  6
CONTINUOUS
 10
5.5185561972
 20
2.0263556309
 40
0.602819885
100
AcDbArc
 50
49.1749854227
 51
49.4808167225
  0
ARC
  5
2A5
100
AcDbEntity
  8
0
100
AcDbCircle
 62
9
  6
CONTINUOUS
 10
5.5276453949
 20
2.037262265
 40
0.5886235385
100
AcDbArc
 50
49.4636301169
 51
53.0574422999
  0
ARC
  5
2A6
100
AcDbEntity
  8
0
100
AcDbCircle
 62
7
  6
CONTINUOUS
 10
5.1474703269
 20
2.6879613667
 40
0.20182134
100
AcDbArc
 50
258.5740187043
 51
264.6679033267
  0
ARC
  5
2A7
100
AcDbEntity
  8
0
100
AcDbCircle
 62
7
  6
CONTINUOUS
 10
2.026366277
 20
76.2201579633
 40
71.1164727669
100
AcDbArc
 50
272.8601367012
 51
273.195444123
  0
ARC
  5
2A8
100
AcDbEntity
  8
0
100
AcDbCircle
 62
7
  6
CONTINUOUS
 10
5.5749417702
 20
4.1813081356
 40
3.1846008375
100
AcDbArc
 50
250.2504755858
 51
257.3760170471
  0
ARC
  5
2A9
100
AcDbEntity
  8
0
100
AcDbCircle
 62
7
  6
CONTINUOUS
 10
5.5749417702
 20
4.1813081356
 40
3.1846008375
100
AcDbArc
 50
282.6239829529
 51
289.7495244142
  0
ARC
  5
2AA
100
AcDbEntity
  8
0
100
AcDbCircle
 62
7
  6
CONTINUOUS
 10
5.5749417702
 20
4.1813081356
 40
3.1846008375
100
AcDbArc
 50
260.5111408153
 51
279.4888591847
  0
ARC
  5
2AB
100
AcDbEntity
  8
0
100
AcDbCircle
 62
7
  6
CONTINUOUS
 10
3.730899217
 20
4.5653244325
 40
2.2726171344
100
AcDbArc
 50
250.2504755858
 51
289.7495244142
  0
CIRCLE
  5
2AC
100
AcDbEntity
  8
0
100
AcDbCircle
 62
7
  6
CONTINUOUS
 10
5.5749417702
 20
5.3857072981
 40
0.9375
  0
ARC
  5
2AD
100
AcDbEntity
  8
0
100
AcDbCircle
 62
7
  6
CONTINUOUS
 10
4.6178341581
 20
7.7349432983
 40
0.7823353374
100
AcDbArc
 50
264.5428583549
 51
266.3586467683
  0
CIRCLE
  5
2AE
100
AcDbEntity
  8
0
100
AcDbCircle
 62
7
  6
CONTINUOUS
 10
5.5749417702
 20
5.3857072981
 40
0.573
  0
CIRCLE
  5
2AF
100
AcDbEntity
  8
0
100
AcDbCircle
 62
7
  6
CONTINUOUS
 10
5.5749417702
 20
5.3857072981
 40
0.57
  0
CIRCLE
  5
2B0
100
AcDbEntity
  8
0
100
AcDbCircle
 62
7
  6
CONTINUOUS
 10
5.5749417702
 20
5.3857072981
 40
0.45
  0
ARC
  5
2B1
100
AcDbEntity
  8
0
100
AcDbCircle
 62
7
  6
CONTINUOUS
 10
4.4137122998
 20
7.1857072981
 40
0.3
100
AcDbArc
 50
231.0062879763
 51
270.0
  0
ARC
  5
2B2
100
AcDbEntity
  8
0
100
AcDbCircle
 62
7
  6
CONTINUOUS
 10
4.4137122998
 20
7.5607072981
 40
0.3
100
AcDbArc
 50
90.0
 51
128.9937120237
  0
ARC
  5
2B3
100
AcDbEntity
  8
0
100
AcDbCircle
 62
7
  6
CONTINUOUS
 10
7.4189843234
 20
-0.9549098364
 40
2.2726171344
100
AcDbArc
 50
70.2504755858
 51
109.7495244142
  0
ARC
  5
2B4
100
AcDbEntity
  8
0
100
AcDbCircle
 62
7
  6
CONTINUOUS
 10
6.2282513493
 20
1.3781893371
 40
2.1790907669
100
AcDbArc
 50
85.8699470579
 51
86.5748391855
  0
ARC
  5
2B5
100
AcDbEntity
  8
0
100
AcDbCircle
 62
7
  6
CONTINUOUS
 10
6.0523125388
 20
3.0250923046
 40
0.5448731114
100
AcDbArc
 50
251.7210405618
 51
254.894422385
  0
ARC
  5
2B6
100
AcDbEntity
  8
0
100
AcDbCircle
 62
9
  6
CONTINUOUS
 10
6.3033660087
 20
2.5087071916
 40
0.5131628815
100
AcDbArc
 50
258.8024585717
 51
260.9637433307
  0
ARC
  5
2B7
100
AcDbEntity
  8
0
100
AcDbCircle
 62
7
  6
CONTINUOUS
 10
6.5652293395
 20
2.1876597753
 40
0.388811801
100
AcDbArc
 50
184.8078607907
 51
186.986829737
  0
ARC
  5
2B8
100
AcDbEntity
  8
0
100
AcDbCircle
 62
7
  6
CONTINUOUS
 10
6.1803680388
 20
2.0179672697
 40
0.3487224823
100
AcDbArc
 50
358.1530964565
 51
0.6612894252
  0
ARC
  5
2B9
100
AcDbEntity
  8
0
100
AcDbCircle
 62
7
  6
CONTINUOUS
 10
6.1832215319
 20
2.0180220714
 40
0.3458685475
100
AcDbArc
 50
0.6576673631
 51
4.9331525797
  0
ARC
  5
2BA
100
AcDbEntity
  8
0
100
AcDbCircle
 62
7
  6
CONTINUOUS
 10
6.1974260691
 20
2.0192181329
 40
0.3316137761
100
AcDbArc
 50
4.9383127458
 51
9.3502145302
  0
ARC
  5
2BB
100
AcDbEntity
  8
0
100
AcDbCircle
 62
7
  6
CONTINUOUS
 10
6.5072217176
 20
2.0182986591
 40
0.2784706714
100
AcDbArc
 50
183.2567788708
 51
187.0156934702
  0
ARC
  5
2BC
100
AcDbEntity
  8
0
100
AcDbCircle
 62
7
  6
CONTINUOUS
 10
6.2896210476
 20
1.9243755225
 40
0.2781473913
100
AcDbArc
 50
27.8784089017
 51
32.3256604862
  0
ARC
  5
2BD
100
AcDbEntity
  8
0
100
AcDbCircle
 62
7
  6
CONTINUOUS
 10
6.5016804699
 20
2.0180642898
 40
0.2729250702
100
AcDbArc
 50
178.9201734169
 51
183.2737440309
  0
ARC
  5
2BE
100
AcDbEntity
  8
0
100
AcDbCircle
 62
7
  6
CONTINUOUS
 10
6.4994424991
 20
2.017157199
 40
0.2706103403
100
AcDbArc
 50
186.9770000601
 51
195.2180559609
  0
ARC
  5
2BF
100
AcDbEntity
  8
0
100
AcDbCircle
 62
7
  6
CONTINUOUS
 10
6.1093686176
 20
2.003222978
 40
0.2610682819
100
AcDbArc
 50
355.7503500749
 51
359.9965587937
  0
ARC
  5
2C0
100
AcDbEntity
  8
0
100
AcDbCircle
 62
7
  6
CONTINUOUS
 10
6.464738815
 20
1.9445778559
 40
0.2486509131
100
AcDbArc
 50
161.5687102995
 51
166.6712200561
  0
ARC
  5
2C1
100
AcDbEntity
  8
0
100
AcDbCircle
 62
7
  6
CONTINUOUS
 10
6.1529331712
 20
1.9716406096
 40
0.2049998911
100
AcDbArc
 50
318.6312705127
 51
321.3859229213
  0
ARC
  5
2C2
100
AcDbEntity
  8
0
100
AcDbCircle
 62
7
  6
CONTINUOUS
 10
6.0044314216
 20
2.6760373473
 40
0.1897301372
100
AcDbArc
 50
278.5363981035
 51
284.9252951215
  0
ARC
  5
2C3
100
AcDbEntity
  8
0
100
AcDbCircle
 62
7
  6
CONTINUOUS
 10
6.2131325218
 20
1.9778511868
 40
0.1829703597
100
AcDbArc
 50
317.287809089
 51
322.4987678525
  0
ARC
  5
2C4
100
AcDbEntity
  8
0
100
AcDbCircle
 62
7
  6
CONTINUOUS
 10
6.3499433016
 20
2.044006807
 40
0.1829418823
100
AcDbArc
 50
150.4720184442
 51
152.6997155536
  0
ARC
  5
2C5
100
AcDbEntity
  8
0
100
AcDbCircle
 62
7
  6
CONTINUOUS
 10
6.3425182549
 20
2.0482376888
 40
0.1743960543
100
AcDbArc
 50
148.4303728311
 51
150.4792234857
  0
ARC
  5
2C6
100
AcDbEntity
  8
0
100
AcDbCircle
 62
7
  6
CONTINUOUS
 10
6.3546022722
 20
1.9691280367
 40
0.1666422746
100
AcDbArc
 50
281.4085656211
 51
286.5313396934
  0
ARC
  5
2C7
100
AcDbEntity
  8
0
100
AcDbCircle
 62
7
  6
CONTINUOUS
 10
6.4097913683
 20
1.9664895753
 40
0.1662805066
100
AcDbArc
 50
224.0854633951
 51
229.8470804722
  0
ARC
  5
2C8
100
AcDbEntity
  8
0
100
AcDbCircle
 62
7
  6
CONTINUOUS
 10
6.3556568762
 20
1.9632858783
 40
0.1607069892
100
AcDbArc
 50
270.9241042693
 51
281.4520026199
  0
ARC
  5
2C9
100
AcDbEntity
  8
0
100
AcDbCircle
 62
7
  6
CONTINUOUS
 10
6.2839116033
 20
1.9561971984
 40
0.1526710313
100
AcDbArc
 50
307.6021174896
 51
308.3355928378
  0
ARC
  5
2CA
100
AcDbEntity
  8
0
100
AcDbCircle
 62
7
  6
CONTINUOUS
 10
6.4000921538
 20
1.9551625896
 40
0.1513686917
100
AcDbArc
 50
229.8884845804
 51
236.0381931025
  0
ARC
  5
2CB
100
AcDbEntity
  8
0
100
AcDbCircle
 62
7
  6
CONTINUOUS
 10
6.2877906021
 20
1.9510614051
 40
0.1462352578
100
AcDbArc
 50
301.0038982461
 51
307.6258321775
  0
ARC
  5
2CC
100
AcDbEntity
  8
0
100
AcDbCircle
 62
7
  6
CONTINUOUS
 10
6.2391339154
 20
1.9496963754
 40
0.1445416972
100
AcDbArc
 50
302.8498622671
 51
305.8366407991
  0
ARC
  5
2CD
100
AcDbEntity
  8
0
100
AcDbCircle
 62
7
  6
CONTINUOUS
 10
6.3535534243
 20
1.940601994
 40
0.1377679093
100
AcDbArc
 50
234.8424403837
 51
247.1314895277
  0
ARC
  5
2CE
100
AcDbEntity
  8
0
100
AcDbCircle
 62
7
  6
CONTINUOUS
 10
6.3157695459
 20
1.9291292039
 40
0.1214366178
100
AcDbArc
 50
286.7172157492
 51
289.787563277
  0
ARC
  5
2CF
100
AcDbEntity
  8
0
100
AcDbCircle
 62
7
  6
CONTINUOUS
 10
6.2205200575
 20
2.0926283745
 40
0.1207771177
100
AcDbArc
 50
57.79553312
 51
60.5854004377
  0
ARC
  5
2D0
100
AcDbEntity
  8
0
100
AcDbCircle
 62
7
  6
CONTINUOUS
 10
6.366124483
 20
1.9273117312
 40
0.1195090557
100
AcDbArc
 50
280.6125198268
 51
288.5739323594
  0
ARC
  5
2D1
100
AcDbEntity
  8
0
100
AcDbCircle
 62
7
  6
CONTINUOUS
 10
6.2369714678
 20
2.1314953327
 40
0.1177538443
100
AcDbArc
 50
69.9092749202
 51
78.6735125174
  0
ARC
  5
2D2
100
AcDbEntity
  8
0
100
AcDbCircle
 62
7
  6
CONTINUOUS
 10
6.367088575
 20
1.9226034205
 40
0.1147037553
100
AcDbArc
 50
273.9463903216
 51
280.5723142365
  0
ARC
  5
2D3
100
AcDbEntity
  8
0
100
AcDbCircle
 62
7
  6
CONTINUOUS
 10
6.3839111869
 20
1.9225332265
 40
0.1146187941
100
AcDbArc
 50
264.2447619241
 51
265.5292571958
  0
ARC
  5
2D4
100
AcDbEntity
  8
0
100
AcDbCircle
 62
7
  6
CONTINUOUS
 10
6.3838814257
 20
1.9221301526
 40
0.1142146268
100
AcDbArc
 50
265.5283798035
 51
269.9785035662
  0
ARC
  5
2D5
100
AcDbEntity
  8
0
100
AcDbCircle
 62
7
  6
CONTINUOUS
 10
6.3838850244
 20
1.921363474
 40
0.1134479497
100
AcDbArc
 50
269.9765408006
 51
279.197413017
  0
ARC
  5
2D6
100
AcDbEntity
  8
0
100
AcDbCircle
 62
7
  6
CONTINUOUS
 10
6.238886421
 20
2.0959233795
 40
0.0932839249
100
AcDbArc
 50
81.5303681217
 51
89.9786107091
  0
ARC
  5
2D7
100
AcDbEntity
  8
0
100
AcDbCircle
 62
7
  6
CONTINUOUS
 10
6.2726955024
 20
2.1052334039
 40
0.0932738946
100
AcDbArc
 50
89.9944579736
 51
91.9816167913
  0
ARC
  5
2D8
100
AcDbEntity
  8
0
100
AcDbCircle
 62
7
  6
CONTINUOUS
 10
6.2655752664
 20
2.106279141
 40
0.0925137549
100
AcDbArc
 50
66.1792175033
 51
73.788970501
  0
ARC
  5
2D9
100
AcDbEntity
  8
0
100
AcDbCircle
 62
7
  6
CONTINUOUS
 10
9.2945227479
 20
-69.0340259628
 40
74.6675491575
100
AcDbArc
 50
92.8553859358
 51
93.1683840135
  0
ARC
  5
2DA
100
AcDbEntity
  8
0
100
AcDbCircle
 62
7
  6
CONTINUOUS
 10
9.1956711162
 20
-67.4720361036
 40
72.8029389698
100
AcDbArc
 50
92.8559891214
 51
93.1740058035
  0
ARC
  5
2DB
100
AcDbEntity
  8
0
100
AcDbCircle
 62
7
  6
CONTINUOUS
 10
8.9419559261
 20
-62.4125759749
 40
67.6886118591
100
AcDbArc
 50
92.8512223815
 51
93.1864443256
  0
ARC
  5
2DC
100
AcDbEntity
  8
0
100
AcDbCircle
 62
7
  6
CONTINUOUS
 10
8.8139738023
 20
-59.6801746192
 40
65.2528472713
100
AcDbArc
 50
92.8452252658
 51
93.2341600252
  0
ARC
  5
2DD
100
AcDbEntity
  8
0
100
AcDbCircle
 62
7
  6
CONTINUOUS
 10
8.4099417702
 20
1.8052072981
 40
0.66
100
AcDbArc
 50
250.2504755858
 51
109.7495244142
  0
ARC
  5
2DE
100
AcDbEntity
  8
0
100
AcDbCircle
 62
7
  6
CONTINUOUS
 10
5.7219274447
 20
25.5794377868
 40
21.7690714823
100
AcDbArc
 50
271.6730601987
 51
271.9439315606
  0
ARC
  5
2DF
100
AcDbEntity
  8
0
100
AcDbCircle
 62
7
  6
CONTINUOUS
 10
5.7984942915
 20
23.0850528618
 40
19.4234395226
100
AcDbArc
 50
271.7340757249
 51
271.945477129
  0
ARC
  5
2E0
100
AcDbEntity
  8
0
100
AcDbCircle
 62
7
  6
CONTINUOUS
 10
5.8462747249
 20
21.673150427
 40
17.9919896838
100
AcDbArc
 50
271.8192889352
 51
271.9480742634
  0
ARC
  5
2E1
100
AcDbEntity
  8
0
100
AcDbCircle
 62
9
  6
CONTINUOUS
 10
6.2760775711
 20
4.5331766718
 40
2.5439173171
100
AcDbArc
 50
275.675951645
 51
278.4761874698
  0
ARC
  5
2E2
100
AcDbEntity
  8
0
100
AcDbCircle
 62
7
  6
CONTINUOUS
 10
7.4189843234
 20
4.5653244325
 40
2.2726171344
100
AcDbArc
 50
250.2504755858
 51
289.7495244142
  0
ARC
  5
2E3
100
AcDbEntity
  8
0
100
AcDbCircle
 62
7
  6
CONTINUOUS
 10
6.531401528
 20
7.7432973323
 40
0.7907153657
100
AcDbArc
 50
273.3896766282
 51
275.2358487242
  0
ARC
  5
2E4
100
AcDbEntity
  8
0
100
AcDbCircle
 62
7
  6
CONTINUOUS
 10
6.7361712406
 20
7.1857072981
 40
0.3
100
AcDbArc
 50
270.0
 51
308.9937120236
  0
ARC
  5
2E5
100
AcDbEntity
  8
0
100
AcDbCircle
 62
7
  6
CONTINUOUS
 10
6.7361712406
 20
7.5607072981
 40
0.3
100
AcDbArc
 50
51.0062879763
 51
90.0
  0
SPLINE
  5
2E6
100
AcDbEntity
  8
0
100
AcDbSpline
 62
7
  6
CONTINUOUS
 70
0
 71
3
 72
36
 73
32
 74
0
 42
0.0000001
 43
0.0000001
 44
0.0000000001
 40
0.0
 40
0.0
 40
0.0
 40
0.0
 40
0.2215626545
 40
0.3236616654
 40
0.4195910798
 40
0.5090644776
 40
0.5917951105
 40
0.6674962106
 40
0.7359144964
 40
0.7968622272
 40
0.8501591424
 40
0.873882191
 40
0.8956249
 40
0.9153647145
 40
0.9330790748
 40
0.9487454177
 40
0.9623411769
 40
0.9738480579
 40
0.9788169355
 40
0.9832627716
 40
0.9871855663
 40
0.9905853202
 40
0.9934620334
 40
0.9958157062
 40
0.997646339
 40
0.9983655155
 40
0.998953932
 40
0.9994115887
 40
0.9997384856
 40
0.9999346227
 40
1.0
 40
1.0
 40
1.0
 40
1.0
 10
4.9753416597
 20
1.1419406355
 30
0.0
 10
4.9681520779
 20
1.1370029342
 30
0.0
 10
4.9576737833
 20
1.1297543378
 30
0.0
 10
4.9441352318
 20
1.1202923358
 30
0.0
 10
4.9348774117
 20
1.1137822868
 30
0.0
 10
4.9262592881
 20
1.1076880997
 30
0.0
 10
4.9183046247
 20
1.1020349094
 30
0.0
 10
4.9110359903
 20
1.0968472266
 30
0.0
 10
4.9044731737
 20
1.0921466917
 30
0.0
 10
4.8986341242
 20
1.0879502823
 30
0.0
 10
4.8942285646
 20
1.08477408
 30
0.0
 10
4.8910772947
 20
1.0824971043
 30
0.0
 10
4.8889976921
 20
1.0809924824
 30
0.0
 10
4.8871105006
 20
1.0796254397
 30
0.0
 10
4.8854176242
 20
1.0783978901
 30
0.0
 10
4.8839209669
 20
1.0773117477
 30
0.0
 10
4.8826223014
 20
1.0763688207
 30
0.0
 10
4.8816643992
 20
1.0756733066
 30
0.0
 10
4.8809979583
 20
1.0751894182
 30
0.0
 10
4.8805731048
 20
1.0748809408
 30
0.0
 10
4.8801982269
 20
1.0746087508
 30
0.0
 10
4.8798733551
 20
1.0743728657
 30
0.0
 10
4.8795983987
 20
1.0741732335
 30
0.0
 10
4.8793736152
 20
1.0740100014
 30
0.0
 10
4.8792170997
 20
1.0738964082
 30
0.0
 10
4.8791176211
 20
1.0738241035
 30
0.0
 10
4.8790603697
 20
1.0737826926
 30
0.0
 10
4.8790192699
 20
1.0737524425
 30
0.0
 10
4.8789820703
 20
1.0737263563
 30
0.0
 10
4.8789737797
 20
1.0737187169
 30
0.0
 10
4.8789546301
 20
1.0737064893
 30
0.0
 10
4.8789569906
 20
1.0737075147
 30
0.0
  0
SPLINE
  5
2E7
100
AcDbEntity
  8
0
100
AcDbSpline
 62
7
  6
CONTINUOUS
 70
0
 71
3
 72
18
 73
14
 74
0
 42
0.0000001
 43
0.0000001
 44
0.0000000001
 40
0.0
 40
0.0
 40
0.0
 40
0.0
 40
0.1305258989
 40
0.19568016
 40
0.2606306918
 40
0.3252809546
 40
0.3895420196
 40
0.5166798734
 40
0.5794735054
 40
0.6416828121
 40
0.7641459678
 40
0.8837123167
 40
1.0
 40
1.0
 40
1.0
 40
1.0
 10
5.5749417702
 20
1.0736938587
 30
0.0
 10
5.5591859418
 20
1.0736938587
 30
0.0
 10
5.5355599434
 20
1.0742848342
 30
0.0
 10
5.5041571196
 20
1.076227959
 30
0.0
 10
5.4807331016
 20
1.0782540279
 30
0.0
 10
5.4574730289
 20
1.0808420615
 30
0.0
 10
5.4268463924
 20
1.0850191022
 30
0.0
 10
5.3966018805
 20
1.0902766467
 30
0.0
 10
5.3668220929
 20
1.0965739102
 30
0.0
 10
5.3377508909
 20
1.1034539718
 30
0.0
 10
5.3023248206
 20
1.1131916492
 30
0.0
 10
5.2611894711
 20
1.1266050126
 30
0.0
 10
5.2345466793
 20
1.1366739479
 30
0.0
 10
5.2215351527
 20
1.1419409341
 30
0.0
  0
SPLINE
  5
2E8
100
AcDbEntity
  8
0
100
AcDbSpline
 62
7
  6
CONTINUOUS
 70
0
 71
3
 72
22
 73
18
 74
0
 42
0.0000001
 43
0.0000001
 44
0.0000000001
 40
0.0
 40
0.0
 40
0.0
 40
0.0
 40
0.0758864021
 40
0.1502646389
 40
0.222959564
 40
0.2938234142
 40
0.3627434184
 40
0.4296503146
 40
0.4945075533
 40
0.5573123383
 40
0.676959868
 40
0.7341412334
 40
0.7897349534
 40
0.843918882
 40
0.8969032707
 40
0.9488770931
 40
1.0
 40
1.0
 40
1.0
 40
1.0
 10
5.2215351527
 20
1.1419409341
 30
0.0
 10
5.2155135804
 20
1.144378434
 30
0.0
 10
5.2035136321
 20
1.1490191791
 30
0.0
 10
5.185479706
 20
1.1552818933
 30
0.0
 10
5.1676280435
 20
1.1607197553
 30
0.0
 10
5.1500109865
 20
1.1652706547
 30
0.0
 10
5.1326793303
 20
1.1688685941
 30
0.0
 10
5.1156912511
 20
1.1714795811
 30
0.0
 10
5.0991011873
 20
1.1730761496
 30
0.0
 10
5.0779334701
 20
1.1738032217
 30
0.0
 10
5.0573822769
 20
1.1724580112
 30
0.0
 10
5.0377806345
 20
1.1689582843
 30
0.0
 10
5.0239278529
 20
1.165380026
 30
0.0
 10
5.0107401475
 20
1.1608397629
 30
0.0
 10
4.9982324234
 20
1.1554054609
 30
0.0
 10
4.9864163625
 20
1.1491412256
 30
0.0
 10
4.9789491544
 20
1.1444182115
 30
0.0
 10
4.9753416597
 20
1.1419406355
 30
0.0
  0
SPLINE
  5
2E9
100
AcDbEntity
  8
0
100
AcDbSpline
 62
7
  6
CONTINUOUS
 70
0
 71
3
 72
18
 73
14
 74
0
 42
0.0000001
 43
0.0000001
 44
0.0000000001
 40
0.0
 40
0.0
 40
0.0
 40
0.0
 40
0.1162875724
 40
0.2358537578
 40
0.3583170793
 40
0.4205266526
 40
0.4833205892
 40
0.6104588411
 40
0.6747198492
 40
0.7393699148
 40
0.8043202288
 40
0.8694742954
 40
1.0
 40
1.0
 40
1.0
 40
1.0
 10
5.928347634
 20
1.141940634
 30
0.0
 10
5.9153361417
 20
1.1366736699
 30
0.0
 10
5.8886934376
 20
1.1266047525
 30
0.0
 10
5.8475582035
 20
1.1131913451
 30
0.0
 10
5.8121321969
 20
1.1034535808
 30
0.0
 10
5.7830609918
 20
1.0965733941
 30
0.0
 10
5.7532811732
 20
1.0902759919
 30
0.0
 10
5.7230366576
 20
1.0850183458
 30
0.0
 10
5.6924100606
 20
1.0808413162
 30
0.0
 10
5.6691500757
 20
1.0782534036
 30
0.0
 10
5.6457261593
 20
1.0762275304
 30
0.0
 10
5.6143234513
 20
1.0742846835
 30
0.0
 10
5.5906975451
 20
1.0736938587
 30
0.0
 10
5.5749417702
 20
1.0736938587
 30
0.0
  0
SPLINE
  5
2EA
100
AcDbEntity
  8
0
100
AcDbSpline
 62
7
  6
CONTINUOUS
 70
0
 71
3
 72
22
 73
18
 74
0
 42
0.0000001
 43
0.0000001
 44
0.0000000001
 40
0.0
 40
0.0
 40
0.0
 40
0.0
 40
0.0511229763
 40
0.1030968965
 40
0.1560813723
 40
0.2102653471
 40
0.2658590756
 40
0.3230404574
 40
0.4426880195
 40
0.5054928009
 40
0.5703500515
 40
0.637256961
 40
0.7061769477
 40
0.7770407283
 40
0.8497355488
 40
0.9241136754
 40
1.0
 40
1.0
 40
1.0
 40
1.0
 10
6.1745414248
 20
1.1419409421
 30
0.0
 10
6.1709339213
 20
1.1444185241
 30
0.0
 10
6.1634666952
 20
1.1491415539
 30
0.0
 10
6.1516506074
 20
1.1554058158
 30
0.0
 10
6.139142854
 20
1.1608401371
 30
0.0
 10
6.1259551202
 20
1.1653804026
 30
0.0
 10
6.1121023048
 20
1.1689586216
 30
0.0
 10
6.092500611
 20
1.1724582169
 30
0.0
 10
6.0719493804
 20
1.173803259
 30
0.0
 10
6.0507816428
 20
1.1730760177
 30
0.0
 10
6.0341915729
 20
1.1714793097
 30
0.0
 10
6.0172034923
 20
1.1688682127
 30
0.0
 10
5.9998718338
 20
1.1652702278
 30
0.0
 10
5.9822547708
 20
1.1607193418
 30
0.0
 10
5.9644031013
 20
1.1552815182
 30
0.0
 10
5.9463691641
 20
1.1490188499
 30
0.0
 10
5.9343692093
 20
1.1443781274
 30
0.0
 10
5.928347634
 20
1.141940634
 30
0.0
  0
SPLINE
  5
2EB
100
AcDbEntity
  8
0
100
AcDbSpline
 62
7
  6
CONTINUOUS
 70
0
 71
3
 72
15
 73
11
 74
0
 42
0.0000001
 43
0.0000001
 44
0.0000000001
 40
0.0
 40
0.0
 40
0.0
 40
0.0
 40
0.1324487383
 40
0.265089426
 40
0.3964966936
 40
0.525449678
 40
0.651007513
 40
0.7723219908
 40
0.8887945284
 40
1.0
 40
1.0
 40
1.0
 40
1.0
 10
6.2171559159
 20
1.9690317577
 30
0.0
 10
6.2190559358
 20
1.96256948
 30
0.0
 10
6.2229697541
 20
1.9496678389
 30
0.0
 10
6.2291877191
 20
1.9304849067
 30
0.0
 10
6.2357548612
 20
1.9116063405
 30
0.0
 10
6.2426622542
 20
1.8932332331
 30
0.0
 10
6.2499176227
 20
1.875547328
 30
0.0
 10
6.2575370835
 20
1.8587078858
 30
0.0
 10
6.2655355625
 20
1.8428576051
 30
0.0
 10
6.2712715353
 20
1.8327911017
 30
0.0
 10
6.2742229591
 20
1.8279668568
 30
0.0
  0
SPLINE
  5
2EC
100
AcDbEntity
  8
0
100
AcDbSpline
 62
7
  6
CONTINUOUS
 70
0
 71
3
 72
15
 73
11
 74
0
 42
0.0000001
 43
0.0000001
 44
0.0000000001
 40
0.0
 40
0.0
 40
0.0
 40
0.0
 40
0.1245498776
 40
0.249283918
 40
0.3741332209
 40
0.4990620086
 40
0.6241010654
 40
0.7492894046
 40
0.8746099
 40
1.0
 40
1.0
 40
1.0
 40
1.0
 10
6.5162978707
 20
1.9606897829
 30
0.0
 10
6.5168863206
 20
1.9623585168
 30
0.0
 10
6.518029087
 20
1.9657108844
 30
0.0
 10
6.5196507752
 20
1.9707729132
 30
0.0
 10
6.5211946644
 20
1.9758647919
 30
0.0
 10
6.5226652927
 20
1.9809828292
 30
0.0
 10
6.5240527717
 20
1.9861290965
 30
0.0
 10
6.5253475249
 20
1.9913052227
 30
0.0
 10
6.5265550521
 20
1.9965074314
 30
0.0
 10
6.5273096477
 20
1.9999884886
 30
0.0
 10
6.5276761039
 20
2.0017317734
 30
0.0
  0
SPLINE
  5
2ED
100
AcDbEntity
  8
0
100
AcDbSpline
 62
7
  6
CONTINUOUS
 70
0
 71
3
 72
11
 73
7
 74
0
 42
0.0000001
 43
0.0000001
 44
0.0000000001
 40
0.0
 40
0.0
 40
0.0
 40
0.0
 40
0.2763816026
 40
0.534026905
 40
0.7742076336
 40
1.0
 40
1.0
 40
1.0
 40
1.0
 10
6.269470199
 20
2.1984515182
 30
0.0
 10
6.266822729
 20
2.1983591324
 30
0.0
 10
6.2617109805
 20
2.1979543925
 30
0.0
 10
6.2543976937
 20
2.1966126527
 30
0.0
 10
6.2477528999
 20
2.1945668348
 30
0.0
 10
6.2436748746
 20
2.1927075726
 30
0.0
 10
6.2417729759
 20
2.1916748572
 30
0.0
  0
SPLINE
  5
2EE
100
AcDbEntity
  8
0
100
AcDbSpline
 62
7
  6
CONTINUOUS
 70
0
 71
3
 72
11
 73
7
 74
0
 42
0.0000001
 43
0.0000001
 44
0.0000000001
 40
0.0
 40
0.0
 40
0.0
 40
0.0
 40
0.2575749029
 40
0.5073249046
 40
0.7535547683
 40
1.0
 40
1.0
 40
1.0
 40
1.0
 10
6.2417729759
 20
2.1916748572
 30
0.0
 10
6.2400324594
 20
2.190729771
 30
0.0
 10
6.2367186289
 20
2.1886461835
 30
0.0
 10
6.2322579874
 20
2.1849220301
 30
0.0
 10
6.2283829468
 20
2.1807092557
 30
0.0
 10
6.2261771729
 20
2.1776166288
 30
0.0
 10
6.2251654691
 20
2.1760143245
 30
0.0
  0
SPLINE
  5
2EF
100
AcDbEntity
  8
0
100
AcDbSpline
 62
7
  6
CONTINUOUS
 70
0
 71
3
 72
10
 73
6
 74
0
 42
0.0000001
 43
0.0000001
 44
0.0000000001
 40
0.0
 40
0.0
 40
0.0
 40
0.0
 40
0.4998497056
 40
0.7498467382
 40
1.0
 40
1.0
 40
1.0
 40
1.0
 10
6.1793048528
 20
2.1403642518
 30
0.0
 10
6.186292549
 20
2.1298448674
 30
0.0
 10
6.1964128822
 20
2.1138194719
 30
0.0
 10
6.2091902665
 20
2.092022208
 30
0.0
 10
6.2153516125
 20
2.0809884637
 30
0.0
 10
6.218379486
 20
2.0754408309
 30
0.0
  0
SPLINE
  5
2F0
100
AcDbEntity
  8
0
100
AcDbSpline
 62
7
  6
CONTINUOUS
 70
0
 71
3
 72
10
 73
6
 74
0
 42
0.0000001
 43
0.0000001
 44
0.0000000001
 40
0.0
 40
0.0
 40
0.0
 40
0.0
 40
0.2367394767
 40
0.4826940832
 40
1.0
 40
1.0
 40
1.0
 40
1.0
 10
6.2183797618
 20
2.0754405857
 30
0.0
 10
6.2190212959
 20
2.0712857047
 30
0.0
 10
6.2204355645
 20
2.0628303371
 30
0.0
 10
6.2237405537
 20
2.0453813003
 30
0.0
 10
6.2266667737
 20
2.0321421701
 30
0.0
 10
6.2288038686
 20
2.0232076756
 30
0.0
  0
SPLINE
  5
2F1
100
AcDbEntity
  8
0
100
AcDbSpline
 62
7
  6
CONTINUOUS
 70
0
 71
3
 72
9
 73
5
 74
0
 42
0.0000001
 43
0.0000001
 44
0.0000000001
 40
0.0
 40
0.0
 40
0.0
 40
0.0
 40
0.5115455882
 40
1.0
 40
1.0
 40
1.0
 40
1.0
 10
5.9103194266
 20
2.4990460484
 30
0.0
 10
5.9193078256
 20
2.4966325696
 30
0.0
 10
5.9370180004
 20
2.4924127279
 30
0.0
 10
5.9549811743
 20
2.4894048939
 30
0.0
 10
5.9637992121
 20
2.4883025407
 30
0.0
  0
SPLINE
  5
2F2
100
AcDbEntity
  8
0
100
AcDbSpline
 62
7
  6
CONTINUOUS
 70
0
 71
3
 72
11
 73
7
 74
0
 42
0.0000001
 43
0.0000001
 44
0.0000000001
 40
0.0
 40
0.0
 40
0.0
 40
0.0
 40
0.2651793141
 40
0.5201250938
 40
0.764973525
 40
1.0
 40
1.0
 40
1.0
 40
1.0
 10
5.9637992121
 20
2.4883025407
 30
0.0
 10
5.969850808
 20
2.4875460236
 30
0.0
 10
5.9817665416
 20
2.4864018866
 30
0.0
 10
5.9993623164
 20
2.4858209829
 30
0.0
 10
6.0162650278
 20
2.4864087096
 30
0.0
 10
6.0272495226
 20
2.4876043956
 30
0.0
 10
6.0325945211
 20
2.488409085
 30
0.0
  0
SPLINE
  5
2F3
100
AcDbEntity
  8
0
100
AcDbSpline
 62
7
  6
CONTINUOUS
 70
0
 71
3
 72
9
 73
5
 74
0
 42
0.0000001
 43
0.0000001
 44
0.0000000001
 40
0.0
 40
0.0
 40
0.0
 40
0.0
 40
0.5120122756
 40
1.0
 40
1.0
 40
1.0
 40
1.0
 10
6.0532982032
 20
2.4927082371
 30
0.0
 10
6.0599642065
 20
2.4944943657
 30
0.0
 10
6.072795822
 20
2.4987368167
 30
0.0
 10
6.0850143372
 20
2.5045204744
 30
0.0
 10
6.0907648782
 20
2.5077130604
 30
0.0
  0
SPLINE
  5
2F4
100
AcDbEntity
  8
0
100
AcDbSpline
 62
7
  6
CONTINUOUS
 70
0
 71
3
 72
10
 73
6
 74
0
 42
0.0000001
 43
0.0000001
 44
0.0000000001
 40
0.0
 40
0.0
 40
0.0
 40
0.0
 40
0.5014354357
 40
0.7511780373
 40
1.0
 40
1.0
 40
1.0
 40
1.0
 10
6.5276763215
 20
2.0017317413
 30
0.0
 10
6.5295091461
 20
2.0104506082
 30
0.0
 10
6.5318162638
 20
2.0236080588
 30
0.0
 10
6.5341333517
 20
2.0412251467
 30
0.0
 10
6.5350671844
 20
2.0500353029
 30
0.0
 10
6.5354871812
 20
2.0544363378
 30
0.0
  0
LINE
  5
2F5
100
AcDbEntity
  8
0
100
AcDbLine
 62
7
  6
CONTINUOUS
 10
6.4346495552
 20
2.1207209019
 11
6.4324708541
 21
2.1701716999
  0
SPLINE
  5
2F6
100
AcDbEntity
  8
0
100
AcDbSpline
 62
7
  6
CONTINUOUS
 70
0
 71
3
 72
9
 73
5
 74
0
 42
0.0000001
 43
0.0000001
 44
0.0000000001
 40
0.0
 40
0.0
 40
0.0
 40
0.0
 40
0.5048555625
 40
1.0
 40
1.0
 40
1.0
 40
1.0
 10
6.20051204
 20
2.23900588
 30
0.0
 10
6.2031439775
 20
2.2374678497
 30
0.0
 10
6.2083951539
 20
2.2344854366
 30
0.0
 10
6.2137567623
 20
2.2317028923
 30
0.0
 10
6.2164462707
 20
2.2303970904
 30
0.0
  0
SPLINE
  5
2F7
100
AcDbEntity
  8
0
100
AcDbSpline
 62
7
  6
CONTINUOUS
 70
0
 71
3
 72
23
 73
19
 74
0
 42
0.0000001
 43
0.0000001
 44
0.0000000001
 40
0.0
 40
0.0
 40
0.0
 40
0.0
 40
0.1568845183
 40
0.2333605626
 40
0.3079806426
 40
0.380253249
 40
0.4497568335
 40
0.5161665339
 40
0.5481526118
 40
0.5793220335
 40
0.6393536995
 40
0.6966012506
 40
0.7513730231
 40
0.803956763
 40
0.854635098
 40
0.9038740022
 40
0.9521978055
 40
1.0
 40
1.0
 40
1.0
 40
1.0
 10
6.2164462707
 20
2.2303970904
 30
0.0
 10
6.2189590718
 20
2.2291770828
 30
0.0
 10
6.2227437915
 20
2.2274547513
 30
0.0
 10
6.2278441454
 20
2.2254381
 30
0.0
 10
6.2315985133
 20
2.2241222264
 30
0.0
 10
6.2352916592
 20
2.2230183319
 30
0.0
 10
6.238898827
 20
2.2221557131
 30
0.0
 10
6.2418492921
 20
2.2216559028
 30
0.0
 10
6.2441439442
 20
2.2214119089
 30
0.0
 10
6.2463337302
 20
2.2212771873
 30
0.0
 10
6.248980809
 20
2.221291292
 30
0.0
 10
6.252033692
 20
2.2215945353
 30
0.0
 10
6.2549130409
 20
2.2221656882
 30
0.0
 10
6.2576096161
 20
2.2229860662
 30
0.0
 10
6.260116787
 20
2.2240410221
 30
0.0
 10
6.2624371807
 20
2.2253078403
 30
0.0
 10
6.2645854563
 20
2.2267572943
 30
0.0
 10
6.2659199531
 20
2.2278322283
 30
0.0
 10
6.2665626217
 20
2.2283902336
 30
0.0
  0
SPLINE
  5
2F8
100
AcDbEntity
  8
0
100
AcDbSpline
 62
7
  6
CONTINUOUS
 70
0
 71
3
 72
11
 73
7
 74
0
 42
0.0000001
 43
0.0000001
 44
0.0000000001
 40
0.0
 40
0.0
 40
0.0
 40
0.0
 40
0.2494200924
 40
0.498357227
 40
0.7483071329
 40
1.0
 40
1.0
 40
1.0
 40
1.0
 10
6.2665626217
 20
2.2283902336
 30
0.0
 10
6.2678423967
 20
2.2295014145
 30
0.0
 10
6.2702372217
 20
2.2319105005
 30
0.0
 10
6.2734386427
 20
2.2358689436
 30
0.0
 10
6.2762947173
 20
2.2401011197
 30
0.0
 10
6.2780029141
 20
2.24305362
 30
0.0
 10
6.2788203119
 20
2.2445559505
 30
0.0
  0
SPLINE
  5
2F9
100
AcDbEntity
  8
0
100
AcDbSpline
 62
7
  6
CONTINUOUS
 70
0
 71
3
 72
20
 73
16
 74
0
 42
0.0000001
 43
0.0000001
 44
0.0000000001
 40
0.0
 40
0.0
 40
0.0
 40
0.0
 40
0.1379045781
 40
0.2062079206
 40
0.2738033997
 40
0.3405089236
 40
0.4061848857
 40
0.4707624126
 40
0.5341901533
 40
0.6573970171
 40
0.7758153703
 40
0.8333484937
 40
0.8898208526
 40
0.9453269137
 40
1.0
 40
1.0
 40
1.0
 40
1.0
 10
6.5162979596
 20
1.9606897951
 30
0.0
 10
6.5144514471
 20
1.9520240166
 30
0.0
 10
6.5110401418
 20
1.9391909937
 30
0.0
 10
6.5052301929
 20
1.9225806335
 30
0.0
 10
6.500292526
 20
1.910529032
 30
0.0
 10
6.4947797353
 20
1.898916105
 30
0.0
 10
6.488709929
 20
1.887804422
 30
0.0
 10
6.4821148705
 20
1.8772427298
 30
0.0
 10
6.4727527832
 20
1.8640854322
 30
0.0
 10
6.4599153694
 20
1.849197866
 30
0.0
 10
6.4454333944
 20
1.8364516816
 30
0.0
 10
6.4331804472
 20
1.8278939381
 30
0.0
 10
6.4237856986
 20
1.8223609097
 30
0.0
 10
6.4141385982
 20
1.8176890087
 30
0.0
 10
6.4075215693
 20
1.8151453964
 30
0.0
 10
6.4041914724
 20
1.8140274925
 30
0.0
  0
SPLINE
  5
2FA
100
AcDbEntity
  8
0
100
AcDbSpline
 62
7
  6
CONTINUOUS
 70
0
 71
3
 72
15
 73
11
 74
0
 42
0.0000001
 43
0.0000001
 44
0.0000000001
 40
0.0
 40
0.0
 40
0.0
 40
0.0
 40
0.1314413287
 40
0.2615028155
 40
0.389920176
 40
0.5164569516
 40
0.6408984191
 40
0.7630564193
 40
0.8827825677
 40
1.0
 40
1.0
 40
1.0
 40
1.0
 10
6.2383214293
 20
1.946123804
 30
0.0
 10
6.2395861056
 20
1.9414861019
 30
0.0
 10
6.2423551572
 20
1.9323260794
 30
0.0
 10
6.2472432851
 20
1.9189221099
 30
0.0
 10
6.2528297699
 20
1.905987995
 30
0.0
 10
6.2590904465
 20
1.8935959552
 30
0.0
 10
6.2659892757
 20
1.881811583
 30
0.0
 10
6.2734923214
 20
1.8707006508
 30
0.0
 10
6.2815665041
 20
1.8603302692
 30
0.0
 10
6.2873679795
 20
1.8538813004
 30
0.0
 10
6.2903516089
 20
1.8508031424
 30
0.0
  0
SPLINE
  5
2FB
100
AcDbEntity
  8
0
100
AcDbSpline
 62
7
  6
CONTINUOUS
 70
0
 71
3
 72
11
 73
7
 74
0
 42
0.0000001
 43
0.0000001
 44
0.0000000001
 40
0.0
 40
0.0
 40
0.0
 40
0.0
 40
0.2577227993
 40
0.5093132137
 40
0.7561921008
 40
1.0
 40
1.0
 40
1.0
 40
1.0
 10
6.3155315257
 20
1.8296158612
 30
0.0
 10
6.319900513
 20
1.8266816929
 30
0.0
 10
6.3288644686
 20
1.8213550045
 30
0.0
 10
6.3430072151
 20
1.8150656187
 30
0.0
 10
6.3575478086
 20
1.8106483858
 30
0.0
 10
6.3674637383
 20
1.808991426
 30
0.0
 10
6.3724173262
 20
1.8084921851
 30
0.0
  0
SPLINE
  5
2FC
100
AcDbEntity
  8
0
100
AcDbSpline
 62
7
  6
CONTINUOUS
 70
0
 71
3
 72
9
 73
5
 74
0
 42
0.0000001
 43
0.0000001
 44
0.0000000001
 40
0.0
 40
0.0
 40
0.0
 40
0.0
 40
0.2450418024
 40
1.0
 40
1.0
 40
1.0
 40
1.0
 10
5.1506777015
 20
2.4860011007
 30
0.0
 10
5.152576516
 20
2.4860010976
 30
0.0
 10
5.16032532
 20
2.4860894367
 30
0.0
 10
5.1680692702
 20
2.486521409
 30
0.0
 10
5.1738982603
 20
2.4870182548
 30
0.0
  0
SPLINE
  5
2FD
100
AcDbEntity
  8
0
100
AcDbSpline
 62
7
  6
CONTINUOUS
 70
0
 71
3
 72
9
 73
5
 74
0
 42
0.0000001
 43
0.0000001
 44
0.0000000001
 40
0.0
 40
0.0
 40
0.0
 40
0.0
 40
0.2453462389
 40
1.0
 40
1.0
 40
1.0
 40
1.0
 10
5.1738982603
 20
2.4870182548
 30
0.0
 10
5.1759456909
 20
2.4871927717
 30
0.0
 10
5.18428331
 20
2.4879901227
 30
0.0
 10
5.192587806
 20
2.4891243881
 30
0.0
 10
5.1988253264
 20
2.4901450233
 30
0.0
  0
SPLINE
  5
2FE
100
AcDbEntity
  8
0
100
AcDbSpline
 62
7
  6
CONTINUOUS
 70
0
 71
3
 72
9
 73
5
 74
0
 42
0.0000001
 43
0.0000001
 44
0.0000000001
 40
0.0
 40
0.0
 40
0.0
 40
0.0
 40
0.4915205285
 40
1.0
 40
1.0
 40
1.0
 40
1.0
 10
5.1988253264
 20
2.4901450233
 30
0.0
 10
5.2055387627
 20
2.4912435319
 30
0.0
 10
5.2191357698
 20
2.4938662414
 30
0.0
 10
5.2325829923
 20
2.4971638543
 30
0.0
 10
5.2393798297
 20
2.4989882528
 30
0.0
  0
SPLINE
  5
2FF
100
AcDbEntity
  8
0
100
AcDbSpline
 62
7
  6
CONTINUOUS
 70
0
 71
3
 72
9
 73
5
 74
0
 42
0.0000001
 43
0.0000001
 44
0.0000000001
 40
0.0
 40
0.0
 40
0.0
 40
0.0
 40
0.2464033181
 40
1.0
 40
1.0
 40
1.0
 40
1.0
 10
5.2393798297
 20
2.4989882528
 30
0.0
 10
5.2417889934
 20
2.4996349175
 30
0.0
 10
5.2515459858
 20
2.5023347922
 30
0.0
 10
5.2612224389
 20
2.5053232404
 30
0.0
 10
5.2684674346
 20
2.5077130613
 30
0.0
  0
SPLINE
  5
300
100
AcDbEntity
  8
0
100
AcDbSpline
 62
7
  6
CONTINUOUS
 70
0
 71
3
 72
27
 73
23
 74
0
 42
0.0000001
 43
0.0000001
 44
0.0000000001
 40
0.0
 40
0.0
 40
0.0
 40
0.0
 40
0.05785863
 40
0.1175181427
 40
0.17874213
 40
0.2098721438
 40
0.2413085936
 40
0.3049697702
 40
0.3694752988
 40
0.4019692451
 40
0.4345809754
 40
0.5000001145
 40
0.5654192615
 40
0.5980310018
 40
0.6305249585
 40
0.6950304958
 40
0.7586916643
 40
0.7901281014
 40
0.8212580931
 40
0.8824820018
 40
0.9421414248
 40
1.0
 40
1.0
 40
1.0
 40
1.0
 10
5.2684674346
 20
2.5077130613
 30
0.0
 10
5.2798837431
 20
2.5114788235
 30
0.0
 10
5.3032201372
 20
2.518685256
 30
0.0
 10
5.3391011076
 20
2.5282959533
 30
0.0
 10
5.3699106602
 20
2.5352878016
 30
0.0
 10
5.3951522908
 20
2.5402334509
 30
0.0
 10
5.4209872952
 20
2.5447570034
 30
0.0
 10
5.4538183231
 20
2.5494896739
 30
0.0
 10
5.487032268
 20
2.5529184836
 30
0.0
 10
5.513893438
 20
2.5548591044
 30
0.0
 10
5.5409787968
 20
2.5562494232
 30
0.0
 10
5.5749420206
 20
2.5569421261
 30
0.0
 10
5.6089052464
 20
2.5562494201
 30
0.0
 10
5.6359906108
 20
2.5548590974
 30
0.0
 10
5.6628517861
 20
2.552918464
 30
0.0
 10
5.6960657297
 20
2.5494896167
 30
0.0
 10
5.7288967504
 20
2.5447569161
 30
0.0
 10
5.7547317456
 20
2.5402333636
 30
0.0
 10
5.7799733568
 20
2.5352877388
 30
0.0
 10
5.810782878
 20
2.528295931
 30
0.0
 10
5.8466638125
 20
2.5186852784
 30
0.0
 10
5.8700001801
 20
2.5114788604
 30
0.0
 10
5.8814164765
 20
2.507713098
 30
0.0
  0
SPLINE
  5
301
100
AcDbEntity
  8
0
100
AcDbSpline
 62
7
  6
CONTINUOUS
 70
0
 71
3
 72
11
 73
7
 74
0
 42
0.0000001
 43
0.0000001
 44
0.0000000001
 40
0.0
 40
0.0
 40
0.0
 40
0.0
 40
0.2389644871
 40
0.4847129487
 40
0.7380993939
 40
1.0
 40
1.0
 40
1.0
 40
1.0
 10
5.0591188781
 20
2.5077130983
 30
0.0
 10
5.0627161567
 20
2.5057159618
 30
0.0
 10
5.0701777575
 20
2.5019549526
 30
0.0
 10
5.081949597
 20
2.4971336199
 30
0.0
 10
5.0944347862
 20
2.4931152778
 30
0.0
 10
5.1030701115
 20
2.4910380298
 30
0.0
 10
5.1074891495
 20
2.4901398341
 30
0.0
  0
SPLINE
  5
302
100
AcDbEntity
  8
0
100
AcDbSpline
 62
7
  6
CONTINUOUS
 70
0
 71
3
 72
9
 73
5
 74
0
 42
0.0000001
 43
0.0000001
 44
0.0000000001
 40
0.0
 40
0.0
 40
0.0
 40
0.0
 40
0.2450934121
 40
1.0
 40
1.0
 40
1.0
 40
1.0
 10
5.1287153986
 20
2.4870133487
 30
0.0
 10
5.1305039673
 20
2.4868441419
 30
0.0
 10
5.1378098529
 20
2.4862443313
 30
0.0
 10
5.1451441745
 20
2.4860011097
 30
0.0
 10
5.1506777015
 20
2.4860011007
 30
0.0
  0
SPLINE
  5
303
100
AcDbEntity
  8
0
100
AcDbSpline
 62
7
  6
CONTINUOUS
 70
0
 71
3
 72
41
 73
37
 74
0
 42
0.0000001
 43
0.0000001
 44
0.0000000001
 40
0.0
 40
0.0
 40
0.0
 40
0.0
 40
0.1146327419
 40
0.2233793088
 40
0.3259867143
 40
0.4222011994
 40
0.5117682905
 40
0.5944328577
 40
0.6699398045
 40
0.7380722479
 40
0.7986736429
 40
0.8261028823
 40
0.8515925546
 40
0.8751237024
 40
0.8966773585
 40
0.9162345458
 40
0.9337762784
 40
0.9492835621
 40
0.9627374016
 40
0.9741232316
 40
0.9790398355
 40
0.9834388991
 40
0.9873204228
 40
0.9906844069
 40
0.9935308518
 40
0.9958597579
 40
0.9968301339
 40
0.9976711253
 40
0.9983827322
 40
0.9989649546
 40
0.9994177925
 40
0.9997412461
 40
0.9998544537
 40
0.9999353152
 40
0.9999838306
 40
1.0
 40
1.0
 40
1.0
 40
1.0
 10
6.0907648782
 20
2.5077130604
 30
0.0
 10
6.0940178458
 20
2.5095190432
 30
0.0
 10
6.1003482586
 20
2.5130535903
 30
0.0
 10
6.1095622913
 20
2.5182547811
 30
0.0
 10
6.1182341624
 20
2.5232001152
 30
0.0
 10
6.1263463455
 20
2.5278700845
 30
0.0
 10
6.1338813297
 20
2.5322451621
 30
0.0
 10
6.1408215653
 20
2.536305925
 30
0.0
 10
6.147150765
 20
2.5400333249
 30
0.0
 10
6.1528548187
 20
2.5434110239
 30
0.0
 10
6.1572101422
 20
2.5460037484
 30
0.0
 10
6.1603730177
 20
2.5478937794
 30
0.0
 10
6.1625017355
 20
2.5491688163
 30
0.0
 10
6.1644657024
 20
2.5503477743
 30
0.0
 10
6.1662636012
 20
2.5514292552
 30
0.0
 10
6.1678941147
 20
2.5524118611
 30
0.0
 10
6.1693559251
 20
2.5532941949
 30
0.0
 10
6.170647713
 20
2.5540748626
 30
0.0
 10
6.1717682833
 20
2.5547525429
 30
0.0
 10
6.1725947187
 20
2.5552523325
 30
0.0
 10
6.1731696711
 20
2.5556000377
 30
0.0
 10
6.173536203
 20
2.5558216993
 30
0.0
 10
6.1738596132
 20
2.5560172827
 30
0.0
 10
6.1741399024
 20
2.5561867885
 30
0.0
 10
6.1743770687
 20
2.5563302146
 30
0.0
 10
6.1745477596
 20
2.5564334413
 30
0.0
 10
6.1746627457
 20
2.5565029769
 30
0.0
 10
6.1747328268
 20
2.5565453633
 30
0.0
 10
6.1747920915
 20
2.5565811887
 30
0.0
 10
6.1748406772
 20
2.5566106112
 30
0.0
 10
6.1748782173
 20
2.5566332092
 30
0.0
 10
6.1749033174
 20
2.5566486036
 30
0.0
 10
6.1749171596
 20
2.5566566847
 30
0.0
 10
6.1749247704
 20
2.5566617631
 30
0.0
 10
6.1749272708
 20
2.5566624345
 30
0.0
 10
6.1749306642
 20
2.5566653568
 30
0.0
 10
6.1749304577
 20
2.5566648743
 30
0.0
  0
SPLINE
  5
304
100
AcDbEntity
  8
0
100
AcDbSpline
 62
7
  6
CONTINUOUS
 70
0
 71
3
 72
9
 73
5
 74
0
 42
0.0000001
 43
0.0000001
 44
0.0000000001
 40
0.0
 40
0.0
 40
0.0
 40
0.0
 40
0.5100897975
 40
1.0
 40
1.0
 40
1.0
 40
1.0
 10
6.3365956479
 20
1.8751436494
 30
0.0
 10
6.3322911564
 20
1.8679720987
 30
0.0
 10
6.3229792118
 20
1.854415399
 30
0.0
 10
6.3119439244
 20
1.8422038941
 30
0.0
 10
6.3061261904
 20
1.8366642273
 30
0.0
  0
SPLINE
  5
305
100
AcDbEntity
  8
0
100
AcDbSpline
 62
7
  6
CONTINUOUS
 70
0
 71
3
 72
11
 73
7
 74
0
 42
0.0000001
 43
0.0000001
 44
0.0000000001
 40
0.0
 40
0.0
 40
0.0
 40
0.0
 40
0.2409365804
 40
0.4884578713
 40
0.7417656075
 40
1.0
 40
1.0
 40
1.0
 40
1.0
 10
6.4346495555
 20
2.1207205224
 30
0.0
 10
6.4365816945
 20
2.1165787276
 30
0.0
 10
6.44020051
 20
2.108039939
 30
0.0
 10
6.4448313862
 20
2.0947437268
 30
0.0
 10
6.4487119813
 20
2.080868855
 30
0.0
 10
6.4507596349
 20
2.0713770969
 30
0.0
 10
6.4516521239
 20
2.0665606702
 30
0.0
  0
SPLINE
  5
306
100
AcDbEntity
  8
0
100
AcDbSpline
 62
7
  6
CONTINUOUS
 70
0
 71
3
 72
22
 73
18
 74
0
 42
0.0000001
 43
0.0000001
 44
0.0000000001
 40
0.0
 40
0.0
 40
0.0
 40
0.0
 40
0.0634660082
 40
0.1277778988
 40
0.2580334636
 40
0.3236033487
 40
0.389139278
 40
0.4544054381
 40
0.519176492
 40
0.5832517237
 40
0.6464487454
 40
0.7085994281
 40
0.7695614811
 40
0.8292364407
 40
0.8875541252
 40
0.9444732569
 40
1.0
 40
1.0
 40
1.0
 40
1.0
 10
6.4516521239
 20
2.0665606702
 30
0.0
 10
6.4526258058
 20
2.0613060763
 30
0.0
 10
6.4542488988
 20
2.0506610021
 30
0.0
 10
6.4562038395
 20
2.0290125238
 30
0.0
 10
6.4561982384
 20
2.0070447483
 30
0.0
 10
6.4542240195
 20
1.9851163483
 30
0.0
 10
6.4517623245
 20
1.9687548276
 30
0.0
 10
6.4483348063
 20
1.9526373154
 30
0.0
 10
6.4439499164
 20
1.9368803962
 30
0.0
 10
6.4386333653
 20
1.9215970119
 30
0.0
 10
6.4324244152
 20
1.9068926097
 30
0.0
 10
6.4253592415
 20
1.8928717593
 30
0.0
 10
6.4174711907
 20
1.8796397943
 30
0.0
 10
6.4088162155
 20
1.8672875311
 30
0.0
 10
6.3994527704
 20
1.8558988365
 30
0.0
 10
6.389437808
 20
1.8455590412
 30
0.0
 10
6.3822757801
 20
1.8393434407
 30
0.0
 10
6.378608318
 20
1.8364433842
 30
0.0
  0
SPLINE
  5
307
100
AcDbEntity
  8
0
100
AcDbSpline
 62
7
  6
CONTINUOUS
 70
0
 71
3
 72
9
 73
5
 74
0
 42
0.0000001
 43
0.0000001
 44
0.0000000001
 40
0.0
 40
0.0
 40
0.0
 40
0.0
 40
0.5044303812
 40
1.0
 40
1.0
 40
1.0
 40
1.0
 10
6.3631158559
 20
1.8257184485
 30
0.0
 10
6.3597562644
 20
1.8237055384
 30
0.0
 10
6.3529236404
 20
1.8199949351
 30
0.0
 10
6.3457845003
 20
1.8169117551
 30
0.0
 10
6.3421846685
 20
1.8155531779
 30
0.0
  0
SPLINE
  5
308
100
AcDbEntity
  8
0
100
AcDbSpline
 62
7
  6
CONTINUOUS
 70
0
 71
3
 72
11
 73
7
 74
0
 42
0.0000001
 43
0.0000001
 44
0.0000000001
 40
0.0
 40
0.0
 40
0.0
 40
0.0
 40
0.2371211765
 40
0.4829143371
 40
0.7372847947
 40
1.0
 40
1.0
 40
1.0
 40
1.0
 10
6.2251654691
 20
2.1760143245
 30
0.0
 10
6.222211794
 20
2.1736044611
 30
0.0
 10
6.2164325205
 20
2.1684011273
 30
0.0
 10
6.208350197
 20
2.1597126429
 30
0.0
 10
6.2007601574
 20
2.1500627133
 30
0.0
 10
6.1961434165
 20
2.1431382925
 30
0.0
 10
6.1939320175
 20
2.1395400097
 30
0.0
  0
SPLINE
  5
309
100
AcDbEntity
  8
0
100
AcDbSpline
 62
7
  6
CONTINUOUS
 70
0
 71
3
 72
43
 73
39
 74
0
 42
0.0000001
 43
0.0000001
 44
0.0000000001
 40
0.0
 40
0.0
 40
0.0
 40
0.0
 40
0.0000163438
 40
0.0000653775
 40
0.0001471011
 40
0.0002615144
 40
0.0004086177
 40
0.0005884107
 40
0.0010460665
 40
0.0016344816
 40
0.0023536562
 40
0.0032035902
 40
0.0041842836
 40
0.0065379489
 40
0.009414652
 40
0.0128143932
 40
0.0167371723
 40
0.0211829896
 40
0.0261518451
 40
0.0316437388
 40
0.0376586709
 40
0.0512543602
 40
0.0669206217
 40
0.0846348926
 40
0.1043746132
 40
0.1261172275
 40
0.1498401839
 40
0.1755209355
 40
0.2031369403
 40
0.2640845616
 40
0.3325028187
 40
0.4082039763
 40
0.4909347046
 40
0.5804082193
 40
0.6763377574
 40
0.7784368845
 40
0.8864195262
 40
1.0
 40
1.0
 40
1.0
 40
1.0
 10
6.2709265542
 20
1.0737077402
 30
0.0
 10
6.270926586
 20
1.0737070976
 30
0.0
 10
6.270923158
 20
1.0737110947
 30
0.0
 10
6.2709197719
 20
1.0737120959
 30
0.0
 10
6.2709112208
 20
1.0737191353
 30
0.0
 10
6.2709006147
 20
1.0737264686
 30
0.0
 10
6.27088643
 20
1.0737369098
 30
0.0
 10
6.270861499
 20
1.0737549433
 30
0.0
 10
6.2708224099
 20
1.0737833688
 30
0.0
 10
6.2707661962
 20
1.0738241641
 30
0.0
 10
6.2706974631
 20
1.0738740759
 30
0.0
 10
6.2706162425
 20
1.0739330449
 30
0.0
 10
6.2704829531
 20
1.0740298228
 30
0.0
 10
6.2702851035
 20
1.0741734742
 30
0.0
 10
6.2700101958
 20
1.0743730761
 30
0.0
 10
6.269685305
 20
1.0746089687
 30
0.0
 10
6.269310431
 20
1.0748811528
 30
0.0
 10
6.2688855737
 20
1.0751896282
 30
0.0
 10
6.2684107332
 20
1.075534395
 30
0.0
 10
6.2678859093
 20
1.075915453
 30
0.0
 10
6.2670862828
 20
1.0764960375
 30
0.0
 10
6.2659625542
 20
1.0773119355
 30
0.0
 10
6.2644658917
 20
1.0783980668
 30
0.0
 10
6.2627730094
 20
1.0796256043
 30
0.0
 10
6.2608858113
 20
1.0809926347
 30
0.0
 10
6.2588062014
 20
1.0824972445
 30
0.0
 10
6.2565360827
 20
1.084137519
 30
0.0
 10
6.2540773582
 20
1.0859115435
 30
0.0
 10
6.2504284169
 20
1.0885403674
 30
0.0
 10
6.2454102635
 20
1.0921467916
 30
0.0
 10
6.2388474136
 20
1.096847328
 30
0.0
 10
6.2315787419
 20
1.1020350267
 30
0.0
 10
6.2236240372
 20
1.1076882422
 30
0.0
 10
6.2150058692
 20
1.1137824612
 30
0.0
 10
6.2057480049
 20
1.1202925446
 30
0.0
 10
6.1958741804
 20
1.127193293
 30
0.0
 10
6.1854081416
 20
1.1344595164
 30
0.0
 10
6.1782270623
 20
1.1394097028
 30
0.0
 10
6.1745414248
 20
1.1419409421
 30
0.0
  0
SPLINE
  5
30A
100
AcDbEntity
  8
0
100
AcDbSpline
 62
7
  6
CONTINUOUS
 70
0
 71
3
 72
10
 73
6
 74
0
 42
0.0000001
 43
0.0000001
 44
0.0000000001
 40
0.0
 40
0.0
 40
0.0
 40
0.0
 40
0.2755809553
 40
0.5337372976
 40
1.0
 40
1.0
 40
1.0
 40
1.0
 10
6.240035962
 20
2.2492314054
 30
0.0
 10
6.2374749788
 20
2.2492166077
 30
0.0
 10
6.2325126053
 20
2.2490304728
 30
0.0
 10
6.2232731389
 20
2.2480098248
 30
0.0
 10
6.2166668719
 20
2.2464773536
 30
0.0
 10
6.2125763543
 20
2.2450479691
 30
0.0
  0
SPLINE
  5
30B
100
AcDbEntity
  8
0
100
AcDbSpline
 62
7
  6
CONTINUOUS
 70
0
 71
3
 72
9
 73
5
 74
0
 42
0.0000001
 43
0.0000001
 44
0.0000000001
 40
0.0
 40
0.0
 40
0.0
 40
0.0
 40
0.5166681742
 40
1.0
 40
1.0
 40
1.0
 40
1.0
 10
6.2125763543
 20
2.2450479691
 30
0.0
 10
6.2103776043
 20
2.244279641
 30
0.0
 10
6.2062035203
 20
2.2425414124
 30
0.0
 10
6.2023009505
 20
2.2402497344
 30
0.0
 10
6.20051204
 20
2.23900588
 30
0.0
  0
SPLINE
  5
30C
100
AcDbEntity
  8
0
100
AcDbSpline
 62
7
  6
CONTINUOUS
 70
0
 71
3
 72
43
 73
39
 74
0
 42
0.0000001
 43
0.0000001
 44
0.0000000001
 40
0.0
 40
0.0
 40
0.0
 40
0.0
 40
0.0000161721
 40
0.0000646904
 40
0.0001455547
 40
0.0002587652
 40
0.0004043219
 40
0.0005822247
 40
0.0010350686
 40
0.0016172971
 40
0.0023289101
 40
0.0031699076
 40
0.0041402896
 40
0.0064692073
 40
0.0093156632
 40
0.0126796571
 40
0.0165611892
 40
0.0209602595
 40
0.0258768678
 40
0.0313110143
 40
0.037262699
 40
0.0507165416
 40
0.0662238493
 40
0.0837656224
 40
0.1033228621
 40
0.1248765774
 40
0.1484077868
 40
0.1738975181
 40
0.2013268095
 40
0.2619282681
 40
0.3300606902
 40
0.4055675218
 40
0.4882319584
 40
0.5777989251
 40
0.674013308
 40
0.7766206488
 40
0.8853672034
 40
1.0
 40
1.0
 40
1.0
 40
1.0
 10
4.9749530832
 20
2.5566648784
 30
0.0
 10
4.9749532081
 20
2.5566653883
 30
0.0
 10
4.9749557947
 20
2.5566623994
 30
0.0
 10
4.9749590743
 20
2.5566617929
 30
0.0
 10
4.9749662473
 20
2.5566566704
 30
0.0
 10
4.9749754878
 20
2.5566514294
 30
0.0
 10
4.9749876903
 20
2.5566439158
 30
0.0
 10
4.9750092156
 20
2.5566309628
 30
0.0
 10
4.9750429277
 20
2.5566105337
 30
0.0
 10
4.9750914294
 20
2.556581221
 30
0.0
 10
4.9751507253
 20
2.5565453554
 30
0.0
 10
4.9752207966
 20
2.5565029822
 30
0.0
 10
4.9753357881
 20
2.5564334402
 30
0.0
 10
4.9755064773
 20
2.5563302164
 30
0.0
 10
4.9757436459
 20
2.5561867878
 30
0.0
 10
4.9760239359
 20
2.5560172816
 30
0.0
 10
4.9763473473
 20
2.5558216971
 30
0.0
 10
4.9767138802
 20
2.5556000345
 30
0.0
 10
4.9771235346
 20
2.5553522938
 30
0.0
 10
4.9775763103
 20
2.5550784747
 30
0.0
 10
4.9782661953
 20
2.5546612632
 30
0.0
 10
4.9792358427
 20
2.5540748535
 30
0.0
 10
4.9805276335
 20
2.5532941813
 30
0.0
 10
4.9819894481
 20
2.5524118414
 30
0.0
 10
4.9836199668
 20
2.5514292282
 30
0.0
 10
4.9854178719
 20
2.5503477397
 30
0.0
 10
4.9873818456
 20
2.549168774
 30
0.0
 10
4.9895105708
 20
2.54789373
 30
0.0
 10
4.9926734557
 20
2.5460036911
 30
0.0
 10
4.9970287901
 20
2.5434109617
 30
0.0
 10
5.0027328567
 20
2.5400332663
 30
0.0
 10
5.0090620703
 20
2.5363058818
 30
0.0
 10
5.0160023205
 20
2.5322451398
 30
0.0
 10
5.023537322
 20
2.5278700848
 30
0.0
 10
5.0316495248
 20
2.523200136
 30
0.0
 10
5.0403214181
 20
2.5182548174
 30
0.0
 10
5.049535475
 20
2.5130536336
 30
0.0
 10
5.0558659028
 20
2.5095190845
 30
0.0
 10
5.0591188781
 20
2.5077130983
 30
0.0
  0
SPLINE
  5
30D
100
AcDbEntity
  8
0
100
AcDbSpline
 62
7
  6
CONTINUOUS
 70
0
 71
3
 72
9
 73
5
 74
0
 42
0.0000001
 43
0.0000001
 44
0.0000000001
 40
0.0
 40
0.0
 40
0.0
 40
0.0
 40
0.4928957347
 40
1.0
 40
1.0
 40
1.0
 40
1.0
 10
6.3094066088
 20
1.8342250594
 30
0.0
 10
6.3135580678
 20
1.8373559281
 30
0.0
 10
6.3216554441
 20
1.8441487216
 30
0.0
 10
6.3290575014
 20
1.8516889462
 30
0.0
 10
6.3326315836
 20
1.8556694139
 30
0.0
  0
SPLINE
  5
30E
100
AcDbEntity
  8
0
100
AcDbSpline
 62
7
  6
CONTINUOUS
 70
0
 71
3
 72
9
 73
5
 74
0
 42
0.0000001
 43
0.0000001
 44
0.0000000001
 40
0.0
 40
0.0
 40
0.0
 40
0.0
 40
0.490879384
 40
1.0
 40
1.0
 40
1.0
 40
1.0
 10
6.3326315836
 20
1.8556694139
 30
0.0
 10
6.338099667
 20
1.8617592371
 30
0.0
 10
6.3484045858
 20
1.8749337465
 30
0.0
 10
6.3569965742
 20
1.8892734942
 30
0.0
 10
6.3609400165
 20
1.8967905467
 30
0.0
  0
SPLINE
  5
30F
100
AcDbEntity
  8
0
100
AcDbSpline
 62
7
  6
CONTINUOUS
 70
0
 71
3
 72
23
 73
19
 74
0
 42
0.0000001
 43
0.0000001
 44
0.0000000001
 40
0.0
 40
0.0
 40
0.0
 40
0.0
 40
0.0631756555
 40
0.1274312413
 40
0.1925631622
 40
0.2583401512
 40
0.3244999585
 40
0.3907608646
 40
0.4568311961
 40
0.5224240254
 40
0.587268457
 40
0.6511001719
 40
0.7136512133
 40
0.7746702839
 40
0.833957586
 40
0.891342251
 40
0.9467001322
 40
1.0
 40
1.0
 40
1.0
 40
1.0
 10
6.3609400165
 20
1.8967905467
 30
0.0
 10
6.363639122
 20
1.9019356246
 30
0.0
 10
6.368683015
 20
1.9125286786
 30
0.0
 10
6.3751019135
 20
1.9290499037
 30
0.0
 10
6.3803851263
 20
1.9462192043
 30
0.0
 10
6.3845204428
 20
1.9638788338
 30
0.0
 10
6.3874966815
 20
1.9818750406
 30
0.0
 10
6.3893020839
 20
2.000053007
 30
0.0
 10
6.3899219256
 20
2.0182578857
 30
0.0
 10
6.3893412073
 20
2.0363345272
 30
0.0
 10
6.3875443015
 20
2.0541244594
 30
0.0
 10
6.3845780804
 20
2.0714732716
 30
0.0
 10
6.3804896285
 20
2.0882311172
 30
0.0
 10
6.3753235728
 20
2.1042509835
 30
0.0
 10
6.3691432322
 20
2.1193964133
 30
0.0
 10
6.3620099539
 20
2.133538665
 30
0.0
 10
6.3539820905
 20
2.1465506366
 30
0.0
 10
6.3479672582
 20
2.1545533098
 30
0.0
 10
6.3448278882
 20
2.158317921
 30
0.0
  0
SPLINE
  5
310
100
AcDbEntity
  8
0
100
AcDbSpline
 62
7
  6
CONTINUOUS
 70
0
 71
3
 72
9
 73
5
 74
0
 42
0.0000001
 43
0.0000001
 44
0.0000000001
 40
0.0
 40
0.0
 40
0.0
 40
0.0
 40
0.2536841338
 40
1.0
 40
1.0
 40
1.0
 40
1.0
 10
6.3448278882
 20
2.158317921
 30
0.0
 10
6.344062945
 20
2.1592352113
 30
0.0
 10
6.3410031423
 20
2.1628136734
 30
0.0
 10
6.3377632627
 20
2.1662389526
 30
0.0
 10
6.33524569
 20
2.1686901696
 30
0.0
  0
SPLINE
  5
311
100
AcDbEntity
  8
0
100
AcDbSpline
 62
7
  6
CONTINUOUS
 70
0
 71
3
 72
9
 73
5
 74
0
 42
0.0000001
 43
0.0000001
 44
0.0000000001
 40
0.0
 40
0.0
 40
0.0
 40
0.0
 40
0.5092559901
 40
1.0
 40
1.0
 40
1.0
 40
1.0
 10
6.33524569
 20
2.1686901696
 30
0.0
 10
6.3319946855
 20
2.1718554873
 30
0.0
 10
6.3252746394
 20
2.1777368585
 30
0.0
 10
6.3179219153
 20
2.1828113485
 30
0.0
 10
6.3141758873
 20
2.1850665506
 30
0.0
  0
SPLINE
  5
312
100
AcDbEntity
  8
0
100
AcDbSpline
 62
7
  6
CONTINUOUS
 70
0
 71
3
 72
9
 73
5
 74
0
 42
0.0000001
 43
0.0000001
 44
0.0000000001
 40
0.0
 40
0.0
 40
0.0
 40
0.0
 40
0.253167217
 40
1.0
 40
1.0
 40
1.0
 40
1.0
 10
6.3141758873
 20
2.1850665506
 30
0.0
 10
6.3132598197
 20
2.1856180461
 30
0.0
 10
6.3096085261
 20
2.1877412146
 30
0.0
 10
6.305825537
 20
2.1896391283
 30
0.0
 10
6.3029394577
 20
2.1909119481
 30
0.0
  0
SPLINE
  5
313
100
AcDbEntity
  8
0
100
AcDbSpline
 62
7
  6
CONTINUOUS
 70
0
 71
3
 72
9
 73
5
 74
0
 42
0.0000001
 43
0.0000001
 44
0.0000000001
 40
0.0
 40
0.0
 40
0.0
 40
0.0
 40
0.2496550159
 40
1.0
 40
1.0
 40
1.0
 40
1.0
 10
6.4620736442
 20
2.0920611571
 30
0.0
 10
6.4599514856
 20
2.0945912822
 30
0.0
 10
6.4512787573
 20
2.1045804111
 30
0.0
 10
6.4419479823
 20
2.1139943965
 30
0.0
 10
6.4346495555
 20
2.1207205224
 30
0.0
  0
LINE
  5
314
100
AcDbEntity
  8
0
100
AcDbLine
 62
7
  6
CONTINUOUS
 10
6.4324708541
 20
2.1701716999
 11
6.4172316267
 21
2.181104391
  0
SPLINE
  5
315
100
AcDbEntity
  8
0
100
AcDbSpline
 62
7
  6
CONTINUOUS
 70
0
 71
3
 72
11
 73
7
 74
0
 42
0.0000001
 43
0.0000001
 44
0.0000000001
 40
0.0
 40
0.0
 40
0.0
 40
0.0
 40
0.2685204643
 40
0.5259228923
 40
0.7703027341
 40
1.0
 40
1.0
 40
1.0
 40
1.0
 10
6.2788203119
 20
2.2445559505
 30
0.0
 10
6.2754005933
 20
2.2453165902
 30
0.0
 10
6.2686691895
 20
2.2466610747
 30
0.0
 10
6.2587260965
 20
2.2481513006
 30
0.0
 10
6.2492204256
 20
2.2490532948
 30
0.0
 10
6.2430326906
 20
2.249248721
 30
0.0
 10
6.240035962
 20
2.2492314054
 30
0.0
  0
SPLINE
  5
316
100
AcDbEntity
  8
0
100
AcDbSpline
 62
7
  6
CONTINUOUS
 70
0
 71
3
 72
12
 73
8
 74
0
 42
0.0000001
 43
0.0000001
 44
0.0000000001
 40
0.0
 40
0.0
 40
0.0
 40
0.0
 40
0.2607295063
 40
0.5170575477
 40
0.7647102049
 40
0.8841484159
 40
1.0
 40
1.0
 40
1.0
 40
1.0
 10
5.5749417702
 20
3.4733548976
 30
0.0
 10
5.5683674011
 20
3.4733548976
 30
0.0
 10
5.5553266318
 20
3.4737138036
 30
0.0
 10
5.5361014922
 20
3.4753169622
 30
0.0
 10
5.5205283808
 20
3.4775372485
 30
0.0
 10
5.5085670241
 20
3.4798306338
 30
0.0
 10
5.5027789885
 20
3.4811401268
 30
0.0
 10
5.4999417702
 20
3.4818356709
 30
0.0
  0
SPLINE
  5
317
100
AcDbEntity
  8
0
100
AcDbSpline
 62
7
  6
CONTINUOUS
 70
0
 71
3
 72
20
 73
16
 74
0
 42
0.0000001
 43
0.0000001
 44
0.0000000001
 40
0.0
 40
0.0
 40
0.0
 40
0.0
 40
0.2507888694
 40
0.3133789817
 40
0.3759255999
 40
0.4384304037
 40
0.5008972085
 40
0.5633321675
 40
0.6257423527
 40
0.6881326582
 40
0.7505083531
 40
0.8128756933
 40
0.8752419264
 40
0.9376145131
 40
1.0
 40
1.0
 40
1.0
 40
1.0
 10
5.4999417702
 20
3.4818356709
 30
0.0
 10
5.4419031859
 20
3.4960638298
 30
0.0
 10
5.3688540225
 20
3.5118594346
 30
0.0
 10
5.2805795266
 20
3.5270747627
 30
0.0
 10
5.2363888904
 20
3.5338918511
 30
0.0
 10
5.1921104172
 20
3.5398961446
 30
0.0
 10
5.147752258
 20
3.5450574246
 30
0.0
 10
5.1033235974
 20
3.5493448195
 30
0.0
 10
5.0588352548
 20
3.5527300392
 30
0.0
 10
5.0143009617
 20
3.5552027559
 30
0.0
 10
4.9697350762
 20
3.5567506983
 30
0.0
 10
4.9251521613
 20
3.557362599
 30
0.0
 10
4.8805669929
 20
3.5570249714
 30
0.0
 10
4.8359948334
 20
3.5557469788
 30
0.0
 10
4.8063017666
 20
3.5542765718
 30
0.0
 10
4.7914632902
 20
3.5533887808
 30
0.0
  0
SPLINE
  5
318
100
AcDbEntity
  8
0
100
AcDbSpline
 62
7
  6
CONTINUOUS
 70
0
 71
3
 72
14
 73
10
 74
0
 42
0.0000001
 43
0.0000001
 44
0.0000000001
 40
0.0
 40
0.0
 40
0.0
 40
0.0
 40
0.1246741662
 40
0.2494169677
 40
0.3742481352
 40
0.4991799416
 40
0.6242176133
 40
0.7493676306
 40
1.0
 40
1.0
 40
1.0
 40
1.0
 10
4.7646927757
 20
3.5516213208
 30
0.0
 10
4.7467276198
 20
3.5503241623
 30
0.0
 10
4.7108180554
 20
3.5472836056
 30
0.0
 10
4.6570638294
 20
3.5414192847
 30
0.0
 10
4.6034229635
 20
3.5343071353
 30
0.0
 10
4.5499114649
 20
3.5260005691
 30
0.0
 10
4.4965430418
 20
3.5165521264
 30
0.0
 10
4.4255612031
 20
3.5025074938
 30
0.0
 10
4.3726097729
 20
3.4904571068
 30
0.0
 10
4.3374417702
 20
3.4818356709
 30
0.0
  0
SPLINE
  5
319
100
AcDbEntity
  8
0
100
AcDbSpline
 62
7
  6
CONTINUOUS
 70
0
 71
3
 72
27
 73
23
 74
0
 42
0.0000001
 43
0.0000001
 44
0.0000000001
 40
0.0
 40
0.0
 40
0.0
 40
0.0
 40
0.2080299737
 40
0.3050421521
 40
0.3966093243
 40
0.4821997898
 40
0.5614496141
 40
0.6340546615
 40
0.6997390628
 40
0.7583019485
 40
0.8097301215
 40
0.8328083347
 40
0.8541628763
 40
0.8738396159
 40
0.8919051847
 40
0.9084586783
 40
0.9236487543
 40
0.9506872004
 40
0.963132978
 40
0.9752673033
 40
0.9874416862
 40
1.0
 40
1.0
 40
1.0
 40
1.0
 10
4.3374417702
 20
3.4818356709
 30
0.0
 10
4.3320837526
 20
3.4805221529
 30
0.0
 10
4.324192534
 20
3.478730404
 30
0.0
 10
4.3138657489
 20
3.476732733
 30
0.0
 10
4.3066960463
 20
3.4755207716
 30
0.0
 10
4.2999624619
 20
3.4745690324
 30
0.0
 10
4.2937021742
 20
3.4738816344
 30
0.0
 10
4.2879471882
 20
3.4734612022
 30
0.0
 10
4.2827269622
 20
3.4733097558
 30
0.0
 10
4.2780672604
 20
3.4734302451
 30
0.0
 10
4.2745499835
 20
3.4737648908
 30
0.0
 10
4.2720416962
 20
3.4741842103
 30
0.0
 10
4.2703813769
 20
3.4745541706
 30
0.0
 10
4.2688749108
 20
3.474990608
 30
0.0
 10
4.267524131
 20
3.4754932886
 30
0.0
 10
4.2663297465
 20
3.4760632474
 30
0.0
 10
4.2649994388
 20
3.4768780023
 30
0.0
 10
4.2638997498
 20
3.4778587861
 30
0.0
 10
4.263129951
 20
3.4789979552
 30
0.0
 10
4.2627292742
 20
3.4798921141
 30
0.0
 10
4.26249128
 20
3.4808452627
 30
0.0
 10
4.2624417702
 20
3.4815026414
 30
0.0
 10
4.2624417702
 20
3.4818356709
 30
0.0
  0
SPLINE
  5
31A
100
AcDbEntity
  8
0
100
AcDbSpline
 62
7
  6
CONTINUOUS
 70
0
 71
3
 72
12
 73
8
 74
0
 42
0.0000001
 43
0.0000001
 44
0.0000000001
 40
0.0
 40
0.0
 40
0.0
 40
0.0
 40
0.2668861259
 40
0.396085103
 40
0.5224234491
 40
0.7665747383
 40
1.0
 40
1.0
 40
1.0
 40
1.0
 10
6.3387000221
 20
2.135262647
 30
0.0
 10
6.3352040355
 20
2.1415707423
 30
0.0
 10
6.3295259098
 20
2.1506772983
 30
0.0
 10
6.3210506837
 20
2.1619756006
 30
0.0
 10
6.3123169192
 20
2.1722832634
 30
0.0
 10
6.3006292705
 20
2.1837392471
 30
0.0
 10
6.2902250021
 20
2.1914628991
 30
0.0
 10
6.2848872858
 20
2.1948241283
 30
0.0
  0
SPLINE
  5
31B
100
AcDbEntity
  8
0
100
AcDbSpline
 62
7
  6
CONTINUOUS
 70
0
 71
3
 72
27
 73
23
 74
0
 42
0.0000001
 43
0.0000001
 44
0.0000000001
 40
0.0
 40
0.0
 40
0.0
 40
0.0
 40
0.0125583103
 40
0.0247326897
 40
0.036867026
 40
0.0493128355
 40
0.076351392
 40
0.0915415204
 40
0.1080950439
 40
0.1261606552
 40
0.1458375005
 40
0.1671921946
 40
0.1902705866
 40
0.2416991054
 40
0.3002621584
 40
0.3659466468
 40
0.4385518222
 40
0.5178016404
 40
0.6033917859
 40
0.6949584829
 40
0.791970302
 40
1.0
 40
1.0
 40
1.0
 40
1.0
 10
6.8874417702
 20
3.4818356709
 30
0.0
 10
6.8874417702
 20
3.4815026416
 30
0.0
 10
6.8873922591
 20
3.4808452632
 30
0.0
 10
6.8871542597
 20
3.4798921159
 30
0.0
 10
6.8867535757
 20
3.4789979593
 30
0.0
 10
6.8859837655
 20
3.4778587934
 30
0.0
 10
6.8848840676
 20
3.4768780133
 30
0.0
 10
6.8835537547
 20
3.4760632583
 30
0.0
 10
6.8823593686
 20
3.4754932961
 30
0.0
 10
6.8810085854
 20
3.474990612
 30
0.0
 10
6.8795021114
 20
3.4745541745
 30
0.0
 10
6.8778417806
 20
3.4741842146
 30
0.0
 10
6.8753334756
 20
3.4737648964
 30
0.0
 10
6.8718161813
 20
3.4734302521
 30
0.0
 10
6.8671564651
 20
3.4733097551
 30
0.0
 10
6.86193623
 20
3.4734611957
 30
0.0
 10
6.85618124
 20
3.473881629
 30
0.0
 10
6.8499209594
 20
3.4745690274
 30
0.0
 10
6.8431873977
 20
3.4755207626
 30
0.0
 10
6.8360177279
 20
3.4767327226
 30
0.0
 10
6.825690977
 20
3.4787304013
 30
0.0
 10
6.8177997792
 20
3.480522155
 30
0.0
 10
6.8124417702
 20
3.4818356709
 30
0.0
  0
SPLINE
  5
31C
100
AcDbEntity
  8
0
100
AcDbSpline
 62
7
  6
CONTINUOUS
 70
0
 71
3
 72
14
 73
10
 74
0
 42
0.0000001
 43
0.0000001
 44
0.0000000001
 40
0.0
 40
0.0
 40
0.0
 40
0.0
 40
0.2506323567
 40
0.3757823665
 40
0.5008200385
 40
0.6257518492
 40
0.7505830217
 40
0.8753258288
 40
1.0
 40
1.0
 40
1.0
 40
1.0
 10
6.8124417702
 20
3.4818356709
 30
0.0
 10
6.7772737726
 20
3.4904571055
 30
0.0
 10
6.7243223501
 20
3.5025074895
 30
0.0
 10
6.6533405206
 20
3.5165521174
 30
0.0
 10
6.5999721025
 20
3.5260005557
 30
0.0
 10
6.5464606083
 20
3.5343071243
 30
0.0
 10
6.4928197462
 20
3.541419279
 30
0.0
 10
6.4390655235
 20
3.5472836036
 30
0.0
 10
6.403155961
 20
3.5503241592
 30
0.0
 10
6.3851908063
 20
3.5516213183
 30
0.0
  0
SPLINE
  5
31D
100
AcDbEntity
  8
0
100
AcDbSpline
 62
7
  6
CONTINUOUS
 70
0
 71
3
 72
20
 73
16
 74
0
 42
0.0000001
 43
0.0000001
 44
0.0000000001
 40
0.0
 40
0.0
 40
0.0
 40
0.0
 40
0.062385496
 40
0.1247580885
 40
0.1871243251
 40
0.2494916671
 40
0.3118673621
 40
0.3742576655
 40
0.4366678464
 40
0.4991027992
 40
0.5615695973
 40
0.6240743946
 40
0.6866210075
 40
0.7492111167
 40
1.0
 40
1.0
 40
1.0
 40
1.0
 10
6.3584405474
 20
3.5533875678
 30
0.0
 10
6.3436016552
 20
3.5542755239
 30
0.0
 10
6.3139077537
 20
3.5557462456
 30
0.0
 10
6.2693343331
 20
3.5570246611
 30
0.0
 10
6.2247478965
 20
3.5573626581
 30
0.0
 10
6.1801637076
 20
3.556751073
 30
0.0
 10
6.1355965438
 20
3.5552033924
 30
0.0
 10
6.09106097
 20
3.5527308823
 30
0.0
 10
6.0465713462
 20
3.5493458124
 30
0.0
 10
6.0021414052
 20
3.5450585105
 30
0.0
 10
5.9577819672
 20
3.5398972703
 30
0.0
 10
5.9135022176
 20
3.533892963
 30
0.0
 10
5.8693103084
 20
3.5270758076
 30
0.0
 10
5.7810332676
 20
3.5118602367
 30
0.0
 10
5.7079820084
 20
3.4960642353
 30
0.0
 10
5.6499417702
 20
3.4818356709
 30
0.0
  0
SPLINE
  5
31E
100
AcDbEntity
  8
0
100
AcDbSpline
 62
7
  6
CONTINUOUS
 70
0
 71
3
 72
12
 73
8
 74
0
 42
0.0000001
 43
0.0000001
 44
0.0000000001
 40
0.0
 40
0.0
 40
0.0
 40
0.0
 40
0.1158516904
 40
0.2352901573
 40
0.4829432838
 40
0.7392708914
 40
1.0
 40
1.0
 40
1.0
 40
1.0
 10
5.6499417702
 20
3.4818356709
 30
0.0
 10
5.6471045493
 20
3.4811401262
 30
0.0
 10
5.6413165044
 20
3.4798306329
 30
0.0
 10
5.6293551265
 20
3.4775372481
 30
0.0
 10
5.6137820071
 20
3.4753169674
 30
0.0
 10
5.5945568773
 20
3.4737138068
 30
0.0
 10
5.5815161292
 20
3.4733548976
 30
0.0
 10
5.5749417702
 20
3.4733548976
 30
0.0
  0
LINE
  5
31F
100
AcDbEntity
  8
0
100
AcDbLine
 62
7
  6
CONTINUOUS
 10
5.6664925441
 20
4.9455058954
 11
5.6011756018
 21
4.9421711923
  0
SPLINE
  5
320
100
AcDbEntity
  8
0
100
AcDbSpline
 62
7
  6
CONTINUOUS
 70
0
 71
3
 72
15
 73
11
 74
0
 42
0.0000001
 43
0.0000001
 44
0.0000000001
 40
0.0
 40
0.0
 40
0.0
 40
0.0
 40
0.1200050257
 40
0.2446084887
 40
0.3722609089
 40
0.5013576984
 40
0.63028363
 40
0.7574189367
 40
0.8811688929
 40
1.0
 40
1.0
 40
1.0
 40
1.0
 10
5.1785963435
 20
5.1731170358
 30
0.0
 10
5.2111062225
 20
5.1749442887
 30
0.0
 10
5.2773772199
 20
5.1785710732
 30
0.0
 10
5.3782433884
 20
5.1838895751
 30
0.0
 10
5.4815798211
 20
5.1892070427
 30
0.0
 10
5.5860905136
 20
5.1945261221
 30
0.0
 10
5.6904606236
 20
5.1998470291
 30
0.0
 10
5.7933781514
 20
5.2051664591
 30
0.0
 10
5.893553071
 20
5.210482588
 30
0.0
 10
5.9592729527
 20
5.2141129023
 30
0.0
 10
5.9914636337
 20
5.2159431259
 30
0.0
  0
LINE
  5
321
100
AcDbEntity
  8
0
100
AcDbLine
 62
7
  6
CONTINUOUS
 10
6.008167431
 20
5.2637726533
 11
6.0031365648
 21
5.263484139
  0
SPLINE
  5
322
100
AcDbEntity
  8
0
100
AcDbSpline
 62
7
  6
CONTINUOUS
 70
0
 71
3
 72
11
 73
7
 74
0
 42
0.0000001
 43
0.0000001
 44
0.0000000001
 40
0.0
 40
0.0
 40
0.0
 40
0.0
 40
0.2374836632
 40
0.4856331056
 40
0.7410007578
 40
1.0
 40
1.0
 40
1.0
 40
1.0
 10
6.0031365648
 20
5.263484139
 30
0.0
 10
5.9692275766
 20
5.2615425374
 30
0.0
 10
5.8998796211
 20
5.2576954225
 30
0.0
 10
5.7940520433
 20
5.2520738941
 30
0.0
 10
5.6851433606
 20
5.2464483238
 30
0.0
 10
5.6116747043
 20
5.2427056966
 30
0.0
 10
5.5746810049
 20
5.2408214756
 30
0.0
  0
LINE
  5
323
100
AcDbEntity
  8
0
100
AcDbLine
 62
7
  6
CONTINUOUS
 10
5.1646808138
 20
5.2192068467
 11
5.1573471545
 21
5.2187905366
  0
SPLINE
  5
324
100
AcDbEntity
  8
0
100
AcDbSpline
 62
7
  6
CONTINUOUS
 70
0
 71
3
 72
11
 73
7
 74
0
 42
0.0000001
 43
0.0000001
 44
0.0000000001
 40
0.0
 40
0.0
 40
0.0
 40
0.0
 40
0.2365322855
 40
0.4845450419
 40
0.7404782259
 40
1.0
 40
1.0
 40
1.0
 40
1.0
 10
5.1329444682
 20
5.4705165538
 30
0.0
 10
5.1677841068
 20
5.4725283795
 30
0.0
 10
5.2391622322
 20
5.4765139525
 30
0.0
 10
5.3482565796
 20
5.4823303459
 30
0.0
 10
5.460747472
 20
5.488145519
 30
0.0
 10
5.5366986468
 20
5.4920130041
 30
0.0
 10
5.5749386063
 20
5.4939604736
 30
0.0
  0
SPLINE
  5
325
100
AcDbEntity
  8
0
100
AcDbSpline
 62
7
  6
CONTINUOUS
 70
0
 71
3
 72
13
 73
9
 74
0
 42
0.0000001
 43
0.0000001
 44
0.0000000001
 40
0.0
 40
0.0
 40
0.0
 40
0.0
 40
0.1175782533
 40
0.2380906563
 40
0.3611448487
 40
0.4863464074
 40
0.7415624764
 40
1.0
 40
1.0
 40
1.0
 40
1.0
 10
5.1579298225
 20
5.2204511676
 30
0.0
 10
5.1742696146
 20
5.221390432
 30
0.0
 10
5.2073585984
 20
5.2232639573
 30
0.0
 10
5.2575539416
 20
5.2260207921
 30
0.0
 10
5.3088125971
 20
5.2287664894
 30
0.0
 10
5.3787987393
 20
5.2324448814
 30
0.0
 10
5.4676088052
 20
5.2370224467
 30
0.0
 10
5.5390151996
 20
5.2406803388
 30
0.0
 10
5.5749417702
 20
5.24253137
 30
0.0
  0
LINE
  5
326
100
AcDbEntity
  8
0
100
AcDbLine
 62
7
  6
CONTINUOUS
 10
5.1462111948
 20
5.5197676915
 11
5.1567302303
 21
5.5203734503
  0
SPLINE
  5
327
100
AcDbEntity
  8
0
100
AcDbSpline
 62
7
  6
CONTINUOUS
 70
0
 71
3
 72
11
 73
7
 74
0
 42
0.0000001
 43
0.0000001
 44
0.0000000001
 40
0.0
 40
0.0
 40
0.0
 40
0.0
 40
0.4862596205
 40
0.6132251884
 40
0.7415087287
 40
1.0
 40
1.0
 40
1.0
 40
1.0
 10
5.1567302303
 20
5.5203734503
 30
0.0
 10
5.2245002068
 20
5.5242639378
 30
0.0
 10
5.3099825688
 20
5.5288704834
 30
0.0
 10
5.4133574029
 20
5.5342390323
 30
0.0
 10
5.484980845
 20
5.5379179486
 30
0.0
 10
5.538904203
 20
5.5406698855
 30
0.0
 10
5.5749417702
 20
5.5425239325
 30
0.0
  0
SPLINE
  5
328
100
AcDbEntity
  8
0
100
AcDbSpline
 62
7
  6
CONTINUOUS
 70
0
 71
3
 72
9
 73
5
 74
0
 42
0.0000001
 43
0.0000001
 44
0.0000000001
 40
0.0
 40
0.0
 40
0.0
 40
0.0
 40
0.5074393773
 40
1.0
 40
1.0
 40
1.0
 40
1.0
 10
6.4334734726
 20
2.1528667328
 30
0.0
 10
6.4310542069
 20
2.1577988735
 30
0.0
 10
6.4259592959
 20
2.1673619588
 30
0.0
 10
6.420193662
 20
2.1765381675
 30
0.0
 10
6.4171842911
 20
2.1809402951
 30
0.0
  0
SPLINE
  5
329
100
AcDbEntity
  8
0
100
AcDbSpline
 62
9
  6
CONTINUOUS
 70
0
 71
3
 72
15
 73
11
 74
0
 42
0.0000001
 43
0.0000001
 44
0.0000000001
 40
0.0
 40
0.0
 40
0.0
 40
0.0
 40
0.1161222423
 40
0.2345640885
 40
0.3554673671
 40
0.478939269
 40
0.6050661227
 40
0.7339288054
 40
0.8655716402
 40
1.0
 40
1.0
 40
1.0
 40
1.0
 10
5.9126503213
 20
2.4825152905
 30
0.0
 10
5.9228337498
 20
2.4737174687
 30
0.0
 10
5.9428156934
 20
2.455253087
 30
0.0
 10
5.9712162291
 20
2.4253754202
 30
0.0
 10
5.9982105603
 20
2.3931012856
 30
0.0
 10
6.023684844
 20
2.3585037341
 30
0.0
 10
6.0475288933
 20
2.3216600684
 30
0.0
 10
6.0696231721
 20
2.2826495967
 30
0.0
 10
6.0898690538
 20
2.2415759718
 30
0.0
 10
6.1019533483
 20
2.2131876334
 30
0.0
 10
6.1076695877
 20
2.1986952349
 30
0.0
  0
SPLINE
  5
32A
100
AcDbEntity
  8
0
100
AcDbSpline
 62
9
  6
CONTINUOUS
 70
0
 71
3
 72
16
 73
12
 74
0
 42
0.0000001
 43
0.0000001
 44
0.0000000001
 40
0.0
 40
0.0
 40
0.0
 40
0.0
 40
0.1415161542
 40
0.2773015974
 40
0.4079199642
 40
0.4714520573
 40
0.5338734782
 40
0.6556170206
 40
0.773652104
 40
0.8883943889
 40
1.0
 40
1.0
 40
1.0
 40
1.0
 10
5.0386647537
 20
2.1895409743
 30
0.0
 10
5.0446749523
 20
2.2053010187
 30
0.0
 10
5.057341419
 20
2.2358535527
 30
0.0
 10
5.0786045425
 20
2.2796069316
 30
0.0
 10
5.0979035183
 20
2.3139007373
 30
0.0
 10
5.114109943
 20
2.3398386222
 30
0.0
 10
5.1305102831
 20
2.364391644
 30
0.0
 10
5.151885519
 20
2.3934136411
 30
0.0
 10
5.1790557731
 20
2.425811966
 30
0.0
 10
5.2074031176
 20
2.4555349015
 30
0.0
 10
5.2272474919
 20
2.4738432984
 30
0.0
 10
5.2373124215
 20
2.4825406973
 30
0.0
  0
SPLINE
  5
32B
100
AcDbEntity
  8
0
100
AcDbSpline
 62
9
  6
CONTINUOUS
 70
0
 71
3
 72
22
 73
18
 74
0
 42
0.0000001
 43
0.0000001
 44
0.0000000001
 40
0.0
 40
0.0
 40
0.0
 40
0.0
 40
0.0438479113
 40
0.0906423628
 40
0.1403726255
 40
0.1929655148
 40
0.2483266664
 40
0.3063563886
 40
0.3669506657
 40
0.4299786244
 40
0.4952685372
 40
0.5626422313
 40
0.6319191252
 40
0.702915653
 40
0.7754329092
 40
0.8492611439
 40
1.0
 40
1.0
 40
1.0
 40
1.0
 10
4.9465489878
 20
2.0053920137
 30
0.0
 10
4.9401030486
 20
2.004104606
 30
0.0
 10
4.9267204775
 20
2.0017260182
 30
0.0
 10
4.9058769481
 20
1.99880496
 30
0.0
 10
4.8836448488
 20
1.9964359868
 30
0.0
 10
4.860072817
 20
1.9946248157
 30
0.0
 10
4.8352186749
 20
1.9933794619
 30
0.0
 10
4.8091428331
 20
1.9927076042
 30
0.0
 10
4.7819093884
 20
1.9926182528
 30
0.0
 10
4.7535920224
 20
1.9931139954
 30
0.0
 10
4.7242738217
 20
1.9941856663
 30
0.0
 10
4.6940439255
 20
1.9958265036
 30
0.0
 10
4.6629921547
 20
1.9980286271
 30
0.0
 10
4.631210817
 20
2.0007856096
 30
0.0
 10
4.5987949409
 20
2.0040809739
 30
0.0
 10
4.5545532164
 20
2.009200439
 30
0.0
 10
4.5211901974
 20
2.0137342805
 30
0.0
 10
4.4988368816
 20
2.0170458133
 30
0.0
  0
SPLINE
  5
32C
100
AcDbEntity
  8
0
100
AcDbSpline
 62
7
  6
CONTINUOUS
 70
0
 71
3
 72
13
 73
9
 74
0
 42
0.0000001
 43
0.0000001
 44
0.0000000001
 40
0.0
 40
0.0
 40
0.0
 40
0.0
 40
0.2295991628
 40
0.4714408239
 40
0.5975568416
 40
0.7275197609
 40
0.8615867319
 40
1.0
 40
1.0
 40
1.0
 40
1.0
 10
6.1777880074
 20
2.1550731711
 30
0.0
 10
6.1812683002
 20
2.1569830599
 30
0.0
 10
6.1884746688
 20
2.1607965201
 30
0.0
 10
6.1977908872
 20
2.1652723842
 30
0.0
 10
6.2056779123
 20
2.1687261783
 30
0.0
 10
6.2119249649
 20
2.1712741134
 30
0.0
 10
6.2184402199
 20
2.1737205354
 30
0.0
 10
6.2229011909
 20
2.1752390077
 30
0.0
 10
6.2251791901
 20
2.1759727237
 30
0.0
  0
SPLINE
  5
32D
100
AcDbEntity
  8
0
100
AcDbSpline
 62
7
  6
CONTINUOUS
 70
0
 71
3
 72
10
 73
6
 74
0
 42
0.0000001
 43
0.0000001
 44
0.0000000001
 40
0.0
 40
0.0
 40
0.0
 40
0.0
 40
0.496756281
 40
0.7477072987
 40
1.0
 40
1.0
 40
1.0
 40
1.0
 10
6.4620493655
 20
2.092030888
 30
0.0
 10
6.4724509028
 20
2.0890123294
 30
0.0
 10
6.4880652554
 20
2.0843250699
 30
0.0
 10
6.5089140309
 20
2.0779464009
 30
0.0
 10
6.5194025946
 20
2.0747249212
 30
0.0
 10
6.524661326
 20
2.073111438
 30
0.0
  0
SPLINE
  5
32E
100
AcDbEntity
  8
0
100
AcDbSpline
 62
9
  6
CONTINUOUS
 70
0
 71
3
 72
20
 73
16
 74
0
 42
0.0000001
 43
0.0000001
 44
0.0000000001
 40
0.0
 40
0.0
 40
0.0
 40
0.0
 40
0.1274299271
 40
0.2550910983
 40
0.3189473215
 40
0.3827401372
 40
0.5098529221
 40
0.5730726407
 40
0.6359281754
 40
0.698312064
 40
0.7601356757
 40
0.8213171645
 40
0.8817416233
 40
0.9413173859
 40
1.0
 40
1.0
 40
1.0
 40
1.0
 10
5.0591189527
 20
2.5077128358
 30
0.0
 10
5.0294290919
 20
2.4950452474
 30
0.0
 10
4.9708956069
 20
2.4675186342
 30
0.0
 10
4.9004247733
 20
2.4278500628
 30
0.0
 10
4.845913989
 20
2.3930222058
 30
0.0
 10
4.7928784875
 20
2.3562343125
 30
0.0
 10
4.7421360571
 20
2.3164911771
 30
0.0
 10
4.6941574152
 20
2.2739086782
 30
0.0
 10
4.6598341739
 20
2.2407055792
 30
0.0
 10
4.6272918013
 20
2.2062390525
 30
0.0
 10
4.5967161305
 20
2.1705702069
 30
0.0
 10
4.5683042464
 20
2.133777047
 30
0.0
 10
4.5422894887
 20
2.0959354785
 30
0.0
 10
4.5189226218
 20
2.0571388413
 30
0.0
 10
4.5051722999
 20
2.0304932095
 30
0.0
 10
4.4988377862
 20
2.0170455393
 30
0.0
  0
SPLINE
  5
32F
100
AcDbEntity
  8
0
100
AcDbSpline
 62
9
  6
CONTINUOUS
 70
0
 71
3
 72
25
 73
21
 74
0
 42
0.0000001
 43
0.0000001
 44
0.0000000001
 40
0.0
 40
0.0
 40
0.0
 40
0.0
 40
0.0657123765
 40
0.1311022882
 40
0.1960676408
 40
0.2605591419
 40
0.292641459
 40
0.3246128353
 40
0.3564689595
 40
0.3882062225
 40
0.4513313074
 40
0.5140065363
 40
0.5451764873
 40
0.5762317412
 40
0.6380036675
 40
0.6993429933
 40
0.7602591101
 40
0.8207570981
 40
0.8808618894
 40
1.0
 40
1.0
 40
1.0
 40
1.0
 10
6.6510467543
 20
2.0170459794
 30
0.0
 10
6.6439031579
 20
2.0320818737
 30
0.0
 10
6.6285035314
 20
2.0615472203
 30
0.0
 10
6.6024620939
 20
2.1038825863
 30
0.0
 10
6.5739524199
 20
2.1442138722
 30
0.0
 10
6.5484029571
 20
2.1762089039
 30
0.0
 10
6.5270829312
 20
2.2008266789
 30
0.0
 10
6.5107178696
 20
2.2187883924
 30
0.0
 10
6.4939905666
 20
2.2362920138
 30
0.0
 10
6.4712916441
 20
2.2589939409
 30
0.0
 10
6.4421442206
 20
2.2862733312
 30
0.0
 10
6.4119837751
 20
2.3122058284
 30
0.0
 10
6.3873814803
 20
2.3321044198
 30
0.0
 10
6.3625769927
 20
2.3513796044
 30
0.0
 10
6.3310558297
 20
2.374454273
 30
0.0
 10
6.2924331244
 20
2.4005798691
 30
0.0
 10
6.2531692858
 20
2.4251267232
 30
0.0
 10
6.2133455389
 20
2.4481366217
 30
0.0
 10
6.1597275737
 20
2.4766764608
 30
0.0
 10
6.1185425511
 20
2.4959118429
 30
0.0
 10
6.0907649459
 20
2.5077134387
 30
0.0
  0
SPLINE
  5
330
100
AcDbEntity
  8
0
100
AcDbSpline
 62
7
  6
CONTINUOUS
 70
0
 71
3
 72
43
 73
39
 74
0
 42
0.0000001
 43
0.0000001
 44
0.0000000001
 40
0.0
 40
0.0
 40
0.0
 40
0.0
 40
0.0000160482
 40
0.0000641935
 40
0.0001444359
 40
0.0002567754
 40
0.000401212
 40
0.0005777456
 40
0.0010271044
 40
0.0016048515
 40
0.0023109872
 40
0.0031455114
 40
0.0041084242
 40
0.0064194156
 40
0.0092439616
 40
0.0125820624
 40
0.0164337184
 40
0.0207989297
 40
0.0256776966
 40
0.0310700194
 40
0.0369758983
 40
0.0503268132
 40
0.0657184756
 40
0.0831345057
 40
0.102558516
 40
0.1239741295
 40
0.1473649806
 40
0.1727147157
 40
0.2000069943
 40
0.2603538738
 40
0.328275174
 40
0.4036367825
 40
0.4862491012
 40
0.5758813386
 40
0.6723024108
 40
0.7752820217
 40
0.8845907273
 40
1.0
 40
1.0
 40
1.0
 40
1.0
 10
5.0499506871
 20
1.0402873808
 30
0.0
 10
5.0499504193
 20
1.0402877337
 30
0.0
 10
5.0499536035
 20
1.0402881846
 30
0.0
 10
5.0499555892
 20
1.0402903677
 30
0.0
 10
5.0499623788
 20
1.0402932208
 30
0.0
 10
5.04997025
 20
1.0402975838
 30
0.0
 10
5.0499810264
 20
1.0403030453
 30
0.0
 10
5.0499998418
 20
1.040312832
 30
0.0
 10
5.0500294018
 20
1.0403280873
 30
0.0
 10
5.050071879
 20
1.040350075
 30
0.0
 10
5.0501238285
 20
1.0403769414
 30
0.0
 10
5.050185212
 20
1.0404086951
 30
0.0
 10
5.0502859492
 20
1.0404608025
 30
0.0
 10
5.0504354788
 20
1.04053815
 30
0.0
 10
5.0506432476
 20
1.040645622
 30
0.0
 10
5.0508887921
 20
1.0407726344
 30
0.0
 10
5.051172113
 20
1.0409191872
 30
0.0
 10
5.0514932101
 20
1.0410852804
 30
0.0
 10
5.0518520834
 20
1.041270914
 30
0.0
 10
5.0522487327
 20
1.0414760884
 30
0.0
 10
5.0528531148
 20
1.0417887144
 30
0.0
 10
5.0537026674
 20
1.042228177
 30
0.0
 10
5.054834636
 20
1.0428132489
 30
0.0
 10
5.0561159358
 20
1.0434745285
 30
0.0
 10
5.0575455843
 20
1.0442109598
 30
0.0
 10
5.0591226014
 20
1.0450214812
 30
0.0
 10
5.0608460071
 20
1.0459050312
 30
0.0
 10
5.0627148215
 20
1.0468605476
 30
0.0
 10
5.0654936243
 20
1.0482772736
 30
0.0
 10
5.0693230769
 20
1.0502205988
 30
0.0
 10
5.0743424744
 20
1.052751346
 30
0.0
 10
5.0799182355
 20
1.0555438328
 30
0.0
 10
5.0860394425
 20
1.0585855612
 30
0.0
 10
5.0926933668
 20
1.0618615528
 30
0.0
 10
5.0998660629
 20
1.0653566182
 30
0.0
 10
5.1075436152
 20
1.0690554479
 30
0.0
 10
5.1157120918
 20
1.0729427562
 30
0.0
 10
5.121327108
 20
1.0755799404
 30
0.0
 10
5.1242143572
 20
1.0769267595
 30
0.0
  0
SPLINE
  5
331
100
AcDbEntity
  8
0
100
AcDbSpline
 62
7
  6
CONTINUOUS
 70
0
 71
3
 72
43
 73
39
 74
0
 42
0.0000001
 43
0.0000001
 44
0.0000000001
 40
0.0
 40
0.0
 40
0.0
 40
0.0
 40
0.0000160415
 40
0.0000641804
 40
0.0001444166
 40
0.0002567502
 40
0.0004011812
 40
0.0005777095
 40
0.001027058
 40
0.0016047958
 40
0.0023109228
 40
0.0031454389
 40
0.0041083441
 40
0.0064193214
 40
0.0092438542
 40
0.012581942
 40
0.0164335842
 40
0.0207987804
 40
0.02567753
 40
0.0310698326
 40
0.0369756875
 40
0.0503265367
 40
0.065718106
 40
0.0831340229
 40
0.1025579079
 40
0.1239733914
 40
0.1473641155
 40
0.1727137343
 40
0.2000059148
 40
0.2603526836
 40
0.328274038
 40
0.4036358652
 40
0.4862483678
 40
0.5758807508
 40
0.6723019507
 40
0.77528169
 40
0.8845905433
 40
1.0
 40
1.0
 40
1.0
 40
1.0
 10
6.0999328512
 20
1.040287884
 30
0.0
 10
6.0999328368
 20
1.0402874414
 30
0.0
 10
6.0999303388
 20
1.0402898263
 30
0.0
 10
6.0999276901
 20
1.0402901384
 30
0.0
 10
6.0999212785
 20
1.0402940565
 30
0.0
 10
6.09991324
 20
1.0402979469
 30
0.0
 10
6.0999025282
 20
1.0403035899
 30
0.0
 10
6.0998836816
 20
1.0403132878
 30
0.0
 10
6.0998541417
 20
1.0403285984
 30
0.0
 10
6.0998116554
 20
1.0403505593
 30
0.0
 10
6.0997597088
 20
1.0403774331
 30
0.0
 10
6.099698324
 20
1.0404091823
 30
0.0
 10
6.0995975868
 20
1.0404612892
 30
0.0
 10
6.0994480565
 20
1.0405386341
 30
0.0
 10
6.0992402875
 20
1.0406461048
 30
0.0
 10
6.0989947426
 20
1.040773116
 30
0.0
 10
6.0987114215
 20
1.0409196679
 30
0.0
 10
6.0983903243
 20
1.0410857605
 30
0.0
 10
6.0980314509
 20
1.0412713934
 30
0.0
 10
6.0976348015
 20
1.0414765671
 30
0.0
 10
6.0970304198
 20
1.0417891919
 30
0.0
 10
6.0961808682
 20
1.0422286518
 30
0.0
 10
6.0950489012
 20
1.0428137188
 30
0.0
 10
6.0937676033
 20
1.0434749918
 30
0.0
 10
6.0923379565
 20
1.0442114151
 30
0.0
 10
6.0907609403
 20
1.0450219273
 30
0.0
 10
6.0890375344
 20
1.0459054672
 30
0.0
 10
6.087168718
 20
1.046860973
 30
0.0
 10
6.0843899072
 20
1.0482776849
 30
0.0
 10
6.080560436
 20
1.0502209932
 30
0.0
 10
6.0755410045
 20
1.0527517214
 30
0.0
 10
6.0699651981
 20
1.0555441887
 30
0.0
 10
6.0638439358
 20
1.0585858869
 30
0.0
 10
6.0571899542
 20
1.0618618424
 30
0.0
 10
6.0500172001
 20
1.0653568701
 30
0.0
 10
6.04233959
 20
1.0690556659
 30
0.0
 10
6.0341710566
 20
1.0729429493
 30
0.0
 10
6.0285560059
 20
1.0755801262
 30
0.0
 10
6.0256687399
 20
1.0769269446
 30
0.0
  0
SPLINE
  5
332
100
AcDbEntity
  8
0
100
AcDbSpline
 62
7
  6
CONTINUOUS
 70
0
 71
3
 72
21
 73
17
 74
0
 42
0.0000001
 43
0.0000001
 44
0.0000000001
 40
0.0
 40
0.0
 40
0.0
 40
0.0
 40
0.1499996689
 40
0.2226952035
 40
0.2936929212
 40
0.3628894313
 40
0.4301977701
 40
0.495575791
 40
0.5590144503
 40
0.6205148381
 40
0.6800894586
 40
0.7377648432
 40
0.793595697
 40
0.8476593294
 40
0.9000349496
 40
1.0
 40
1.0
 40
1.0
 40
1.0
 10
5.3057392075
 20
1.0769268551
 30
0.0
 10
5.2968166792
 20
1.0794127168
 30
0.0
 10
5.2834765009
 20
1.0827852251
 30
0.0
 10
5.2657172762
 20
1.0864693957
 30
0.0
 10
5.2527669573
 20
1.0887414493
 30
0.0
 10
5.2400769447
 20
1.0905319283
 30
0.0
 10
5.2276743917
 20
1.0918187355
 30
0.0
 10
5.2155853339
 20
1.0925932578
 30
0.0
 10
5.203832797
 20
1.0928569283
 30
0.0
 10
5.1924380017
 20
1.0926091028
 30
0.0
 10
5.1814220814
 20
1.0918502837
 30
0.0
 10
5.170805537
 20
1.090578253
 30
0.0
 10
5.1606071741
 20
1.0888003387
 30
0.0
 10
5.1508397426
 20
1.0865385376
 30
0.0
 10
5.138602597
 20
1.0829610892
 30
0.0
 10
5.1298084192
 20
1.0795362296
 30
0.0
 10
5.1242143572
 20
1.0769267595
 30
0.0
  0
SPLINE
  5
333
100
AcDbEntity
  8
0
100
AcDbSpline
 62
7
  6
CONTINUOUS
 70
0
 71
3
 72
9
 73
5
 74
0
 42
0.0000001
 43
0.0000001
 44
0.0000000001
 40
0.0
 40
0.0
 40
0.0
 40
0.0
 40
0.4937049683
 40
1.0
 40
1.0
 40
1.0
 40
1.0
 10
6.3568799314
 20
1.8148628994
 30
0.0
 10
6.3619355835
 20
1.8166807748
 30
0.0
 10
6.3719439835
 20
1.8210364892
 30
0.0
 10
6.381336621
 20
1.8265892822
 30
0.0
 10
6.3859091472
 20
1.8296629137
 30
0.0
  0
SPLINE
  5
334
100
AcDbEntity
  8
0
100
AcDbSpline
 62
7
  6
CONTINUOUS
 70
0
 71
3
 72
23
 73
19
 74
0
 42
0.0000001
 43
0.0000001
 44
0.0000000001
 40
0.0
 40
0.0
 40
0.0
 40
0.0
 40
0.0548863408
 40
0.1113509062
 40
0.1401982777
 40
0.1694514019
 40
0.2291460155
 40
0.2903673875
 40
0.3529700246
 40
0.4814650108
 40
0.5469484995
 40
0.6128419735
 40
0.6788542452
 40
0.7446965643
 40
0.8100775438
 40
0.8746815842
 40
0.9381213044
 40
1.0
 40
1.0
 40
1.0
 40
1.0
 10
6.3859091472
 20
1.8296629137
 30
0.0
 10
6.3903172006
 20
1.8326259873
 30
0.0
 10
6.3989298042
 20
1.8391412413
 30
0.0
 10
6.4088697677
 20
1.8484081644
 30
0.0
 10
6.4164175742
 20
1.8565334601
 30
0.0
 10
6.4237773934
 20
1.8652430985
 30
0.0
 10
6.4323776086
 20
1.876982809
 30
0.0
 10
6.441615253
 20
1.8921746448
 30
0.0
 10
6.45257994
 20
1.9140151214
 30
0.0
 10
6.4610679919
 20
1.9374673533
 30
0.0
 10
6.4670644461
 20
1.9619042582
 30
0.0
 10
6.470303235
 20
1.9807464837
 30
0.0
 10
6.4722263911
 20
1.9998006865
 30
0.0
 10
6.4728354788
 20
2.018892748
 30
0.0
 10
6.4721236547
 20
2.0378452075
 30
0.0
 10
6.4700992856
 20
2.056469214
 30
0.0
 10
6.4668225591
 20
2.0745686611
 30
0.0
 10
6.463793614
 20
2.0863254591
 30
0.0
 10
6.4620736442
 20
2.0920611571
 30
0.0
  0
SPLINE
  5
335
100
AcDbEntity
  8
0
100
AcDbSpline
 62
9
  6
CONTINUOUS
 70
0
 71
3
 72
15
 73
11
 74
0
 42
0.0000001
 43
0.0000001
 44
0.0000000001
 40
0.0
 40
0.0
 40
0.0
 40
0.0
 40
0.1296816119
 40
0.2575474879
 40
0.3838133268
 40
0.5086981506
 40
0.6324429167
 40
0.7553569171
 40
0.8777667495
 40
1.0
 40
1.0
 40
1.0
 40
1.0
 10
5.844145273
 20
1.0769270391
 30
0.0
 10
5.8337519573
 20
1.0703409449
 30
0.0
 10
5.8126676336
 20
1.0579446482
 30
0.0
 10
5.7800664018
 20
1.0416558174
 30
0.0
 10
5.7468362407
 20
1.0278315905
 30
0.0
 10
5.7130895355
 20
1.0164944225
 30
0.0
 10
5.678929685
 20
1.0076647102
 30
0.0
 10
5.6444547082
 20
1.0013505961
 30
0.0
 10
5.6097582384
 20
0.997556454
 30
0.0
 10
5.5865375457
 20
0.996709861
 30
0.0
 10
5.574939882
 20
0.9967072959
 30
0.0
  0
SPLINE
  5
336
100
AcDbEntity
  8
0
100
AcDbSpline
 62
9
  6
CONTINUOUS
 70
0
 71
3
 72
16
 73
12
 74
0
 42
0.0000001
 43
0.0000001
 44
0.0000000001
 40
0.0
 40
0.0
 40
0.0
 40
0.0
 40
0.1211318099
 40
0.243187974
 40
0.3659299301
 40
0.4894186192
 40
0.5516287408
 40
0.614246502
 40
0.6773488065
 40
0.7409789424
 40
1.0
 40
1.0
 40
1.0
 40
1.0
 10
5.574936697
 20
0.9967072981
 30
0.0
 10
5.5634450316
 20
0.9967073702
 30
0.0
 10
5.5403657191
 20
0.9975511927
 30
0.0
 10
5.5058254265
 20
1.0013049348
 30
0.0
 10
5.4714200818
 20
1.0075571697
 30
0.0
 10
5.4430549014
 20
1.0148541424
 30
0.0
 10
5.4205818647
 20
1.0219332748
 30
0.0
 10
5.4037733649
 20
1.027888855
 30
0.0
 10
5.3870574306
 20
1.0344785728
 30
0.0
 10
5.3534952963
 20
1.0490693643
 30
0.0
 10
5.3264694723
 20
1.0637355946
 30
0.0
 10
5.3057374747
 20
1.0769273047
 30
0.0
  0
SPLINE
  5
337
100
AcDbEntity
  8
0
100
AcDbSpline
 62
7
  6
CONTINUOUS
 70
0
 71
3
 72
21
 73
17
 74
0
 42
0.0000001
 43
0.0000001
 44
0.0000000001
 40
0.0
 40
0.0
 40
0.0
 40
0.0
 40
0.1499999989
 40
0.2226962536
 40
0.2936952734
 40
0.3628938202
 40
0.4302048729
 40
0.495585555
 40
0.5590267547
 40
0.6205294219
 40
0.6801057274
 40
0.7377814869
 40
0.793609786
 40
0.8476690126
 40
0.9000399205
 40
1.0
 40
1.0
 40
1.0
 40
1.0
 10
5.8441447864
 20
1.0769269775
 30
0.0
 10
5.8530672683
 20
1.0794128259
 30
0.0
 10
5.8664074387
 20
1.0827852298
 30
0.0
 10
5.8841667307
 20
1.0864691308
 30
0.0
 10
5.8971172453
 20
1.0887409598
 30
0.0
 10
5.9098075725
 20
1.0905312002
 30
0.0
 10
5.9222105202
 20
1.0918177668
 30
0.0
 10
5.9343000167
 20
1.0925917328
 30
0.0
 10
5.9460529377
 20
1.0928548555
 30
0.0
 10
5.957448041
 20
1.0926067536
 30
0.0
 10
5.968464143
 20
1.0918481011
 30
0.0
 10
5.9790807159
 20
1.0905772791
 30
0.0
 10
5.9892787287
 20
1.0888000958
 30
0.0
 10
5.999045427
 20
1.086538629
 30
0.0
 10
6.0112815969
 20
1.0829612429
 30
0.0
 10
6.0200749928
 20
1.0795362552
 30
0.0
 10
6.0256687399
 20
1.0769269446
 30
0.0
  0
SPLINE
  5
338
100
AcDbEntity
  8
0
100
AcDbSpline
 62
9
  6
CONTINUOUS
 70
0
 71
3
 72
16
 73
12
 74
0
 42
0.0000001
 43
0.0000001
 44
0.0000000001
 40
0.0
 40
0.0
 40
0.0
 40
0.0
 40
0.1270055847
 40
0.2531138876
 40
0.3159121989
 40
0.3785779174
 40
0.5035462609
 40
0.628065054
 40
0.7521724927
 40
0.8760579592
 40
1.0
 40
1.0
 40
1.0
 40
1.0
 10
6.0256678867
 20
1.0769273048
 30
0.0
 10
6.0073615639
 20
1.0702686333
 30
0.0
 10
5.9705997743
 20
1.0577496706
 30
0.0
 10
5.9240922323
 20
1.0440992293
 30
0.0
 10
5.8867283407
 20
1.0344560974
 30
0.0
 10
5.8493301119
 20
1.025684095
 30
0.0
 10
5.802364468
 20
1.0163000885
 30
0.0
 10
5.7457178713
 20
1.0075493908
 30
0.0
 10
5.6889079773
 20
1.0012947619
 30
0.0
 10
5.6319680373
 20
0.9975397111
 30
0.0
 10
5.5939516951
 20
0.9967072986
 30
0.0
 10
5.5749418553
 20
0.9967072981
 30
0.0
  0
SPLINE
  5
339
100
AcDbEntity
  8
0
100
AcDbSpline
 62
9
  6
CONTINUOUS
 70
0
 71
3
 72
22
 73
18
 74
0
 42
0.0000001
 43
0.0000001
 44
0.0000000001
 40
0.0
 40
0.0
 40
0.0
 40
0.0
 40
0.1507422986
 40
0.2245720648
 40
0.2970906775
 40
0.3680883521
 40
0.4373661554
 40
0.5047404926
 40
0.5700307522
 40
0.6330587326
 40
0.6936526892
 40
0.7516817607
 40
0.8070419187
 40
0.8596334583
 40
0.9093620049
 40
0.9561544125
 40
1.0
 40
1.0
 40
1.0
 40
1.0
 10
4.4988368808
 20
1.5933687821
 30
0.0
 10
4.5211918368
 20
1.5966805487
 30
0.0
 10
4.5545572853
 20
1.6012146771
 30
0.0
 10
4.5988022006
 20
1.6063343817
 30
0.0
 10
4.6312203285
 20
1.6096298411
 30
0.0
 10
4.6630037954
 20
1.6123868327
 30
0.0
 10
4.6940575527
 20
1.6145888803
 30
0.0
 10
4.7242892736
 20
1.6162295557
 30
0.0
 10
4.7536091174
 20
1.6173009773
 30
0.0
 10
4.7819279268
 20
1.6177963816
 30
0.0
 10
4.8091626029
 20
1.617706601
 30
0.0
 10
4.8352394546
 20
1.617034236
 30
0.0
 10
4.8600943764
 20
1.6157882966
 30
0.0
 10
4.8836669449
 20
1.6139764649
 30
0.0
 10
4.9058993313
 20
1.6116067541
 30
0.0
 10
4.9267429009
 20
1.6086848908
 30
0.0
 10
4.9401253983
 20
1.6063057012
 30
0.0
 10
4.9465712579
 20
1.6050179798
 30
0.0
  0
SPLINE
  5
33A
100
AcDbEntity
  8
0
100
AcDbSpline
 62
7
  6
CONTINUOUS
 70
0
 71
3
 72
14
 73
10
 74
0
 42
0.0000001
 43
0.0000001
 44
0.0000000001
 40
0.0
 40
0.0
 40
0.0
 40
0.0
 40
0.129221998
 40
0.2578512004
 40
0.3855184709
 40
0.5118807889
 40
0.6367020085
 40
0.7597934317
 40
1.0
 40
1.0
 40
1.0
 40
1.0
 10
6.3697191282
 20
1.9838771925
 30
0.0
 10
6.3694202383
 20
1.9798493947
 30
0.0
 10
6.3686381492
 20
1.971824784
 30
0.0
 10
6.3669122061
 20
1.9598953192
 30
0.0
 10
6.364640881
 20
1.9481480634
 30
0.0
 10
6.3618276959
 20
1.9366412349
 30
0.0
 10
6.3584875831
 20
1.9254244349
 30
0.0
 10
6.3533983266
 20
1.9110378846
 30
0.0
 10
6.3487846701
 20
1.9006306503
 30
0.0
 10
6.345355679
 20
1.8939517277
 30
0.0
  0
SPLINE
  5
33B
100
AcDbEntity
  8
0
100
AcDbSpline
 62
7
  6
CONTINUOUS
 70
0
 71
3
 72
10
 73
6
 74
0
 42
0.0000001
 43
0.0000001
 44
0.0000000001
 40
0.0
 40
0.0
 40
0.0
 40
0.0
 40
0.2596887641
 40
0.51313347
 40
1.0
 40
1.0
 40
1.0
 40
1.0
 10
6.345355679
 20
1.8939517277
 30
0.0
 10
6.3433557172
 20
1.8900562409
 30
0.0
 10
6.339144691
 20
1.8824870487
 30
0.0
 10
6.3299312782
 20
1.8683564603
 30
0.0
 10
6.3219774604
 20
1.8586486805
 30
0.0
 10
6.3162538957
 20
1.8527632817
 30
0.0
  0
SPLINE
  5
33C
100
AcDbEntity
  8
0
100
AcDbSpline
 62
7
  6
CONTINUOUS
 70
0
 71
3
 72
9
 73
5
 74
0
 42
0.0000001
 43
0.0000001
 44
0.0000000001
 40
0.0
 40
0.0
 40
0.0
 40
0.0
 40
0.2543693514
 40
1.0
 40
1.0
 40
1.0
 40
1.0
 10
6.3162538957
 20
1.8527632817
 30
0.0
 10
6.3151135918
 20
1.8515907356
 30
0.0
 10
6.3105526694
 20
1.8470579342
 30
0.0
 10
6.3056772629
 20
1.8428395004
 30
0.0
 10
6.3018803071
 20
1.8399121585
 30
0.0
  0
SPLINE
  5
33D
100
AcDbEntity
  8
0
100
AcDbSpline
 62
7
  6
CONTINUOUS
 70
0
 71
3
 72
11
 73
7
 74
0
 42
0.0000001
 43
0.0000001
 44
0.0000000001
 40
0.0
 40
0.0
 40
0.0
 40
0.0
 40
0.2438084354
 40
0.4909320363
 40
0.7426270999
 40
1.0
 40
1.0
 40
1.0
 40
1.0
 10
6.2526257615
 20
2.1881899561
 30
0.0
 10
6.2560675351
 20
2.187678749
 30
0.0
 10
6.2629465747
 20
2.1862658638
 30
0.0
 10
6.273058312
 20
2.1830280267
 30
0.0
 10
6.2829538095
 20
2.1786750891
 30
0.0
 10
6.2892879578
 20
2.1750891027
 30
0.0
 10
6.2923960785
 20
2.1731317119
 30
0.0
  0
SPLINE
  5
33E
100
AcDbEntity
  8
0
100
AcDbSpline
 62
7
  6
CONTINUOUS
 70
0
 71
3
 72
11
 73
7
 74
0
 42
0.0000001
 43
0.0000001
 44
0.0000000001
 40
0.0
 40
0.0
 40
0.0
 40
0.0
 40
0.2364867352
 40
0.4816900579
 40
0.7361907501
 40
1.0
 40
1.0
 40
1.0
 40
1.0
 10
6.2923960785
 20
2.1731317119
 30
0.0
 10
6.2966706969
 20
2.1704396997
 30
0.0
 10
6.3050307602
 20
2.1643886295
 30
0.0
 10
6.316615225
 20
2.1537050407
 30
0.0
 10
6.3273259869
 20
2.141365266
 30
0.0
 10
6.3337076434
 20
2.1322924141
 30
0.0
 10
6.3367312499
 20
2.1275369452
 30
0.0
  0
SPLINE
  5
33F
100
AcDbEntity
  8
0
100
AcDbSpline
 62
7
  6
CONTINUOUS
 70
0
 71
3
 72
15
 73
11
 74
0
 42
0.0000001
 43
0.0000001
 44
0.0000000001
 40
0.0
 40
0.0
 40
0.0
 40
0.0
 40
0.1165651479
 40
0.2362662681
 40
0.3588336098
 40
0.483933826
 40
0.6111963516
 40
0.7401041046
 40
0.8699509232
 40
1.0
 40
1.0
 40
1.0
 40
1.0
 10
6.3367312499
 20
2.1275369452
 30
0.0
 10
6.3394513871
 20
2.1232587669
 30
0.0
 10
6.3446027497
 20
2.1143519501
 30
0.0
 10
6.3513303608
 20
2.1002537959
 30
0.0
 10
6.3571208247
 20
2.0853467835
 30
0.0
 10
6.3619301977
 20
2.0697514838
 30
0.0
 10
6.3657084183
 20
2.0535919199
 30
0.0
 10
6.3684237424
 20
2.0370115567
 30
0.0
 10
6.3700669266
 20
2.0201703332
 30
0.0
 10
6.370436899
 20
2.0088634575
 30
0.0
 10
6.370436899
 20
2.0032072981
 30
0.0
  0
SPLINE
  5
340
100
AcDbEntity
  8
0
100
AcDbSpline
 62
7
  6
CONTINUOUS
 70
0
 71
3
 72
15
 73
11
 74
0
 42
0.0000001
 43
0.0000001
 44
0.0000000001
 40
0.0
 40
0.0
 40
0.0
 40
0.0
 40
0.1057631593
 40
0.1610701812
 40
0.2179150512
 40
0.3359241439
 40
0.4594201463
 40
0.7214728736
 40
0.8591261326
 40
1.0
 40
1.0
 40
1.0
 40
1.0
 10
6.3229672384
 20
2.1505541229
 30
0.0
 10
6.3262534411
 20
2.1470688558
 30
0.0
 10
6.330921274
 20
2.1414343551
 30
0.0
 10
6.336589407
 20
2.1333514533
 30
0.0
 10
6.3421306775
 20
2.1245166379
 30
0.0
 10
6.3484537299
 20
2.1125493752
 30
0.0
 10
6.3572852488
 20
2.0914970355
 30
0.0
 10
6.3637188141
 20
2.0685764313
 30
0.0
 10
6.3678730246
 20
2.0444375399
 30
0.0
 10
6.3691836693
 20
2.0318786516
 30
0.0
 10
6.3696420455
 20
2.0255146845
 30
0.0
  0
LINE
  5
341
100
AcDbEntity
  8
0
100
AcDbLine
 62
7
  6
CONTINUOUS
 10
5.1676068121
 20
5.5193719209
 11
5.1461727634
 21
5.518152243
  0
LINE
  5
342
100
AcDbEntity
  8
0
100
AcDbLine
 62
7
  6
CONTINUOUS
 10
5.5749417702
 20
4.9425418013
 11
5.5987247791
 21
4.943765593
  0
SPLINE
  5
343
100
AcDbEntity
  8
0
100
AcDbSpline
 62
7
  6
CONTINUOUS
 70
0
 71
3
 72
14
 73
10
 74
0
 42
0.0000001
 43
0.0000001
 44
0.0000000001
 40
0.0
 40
0.0
 40
0.0
 40
0.0
 40
0.2589492843
 40
0.38739988
 40
0.5144580461
 40
0.6396649873
 40
0.7626022824
 40
0.8828521771
 40
1.0
 40
1.0
 40
1.0
 40
1.0
 10
5.5749417702
 20
5.24253137
 30
0.0
 10
5.6118844674
 20
5.2444347547
 30
0.0
 10
5.6671530681
 20
5.2472696902
 30
0.0
 10
5.7405474925
 20
5.2510537427
 30
0.0
 10
5.7948607226
 20
5.2538740726
 30
0.0
 10
5.8483854874
 20
5.2566906193
 30
0.0
 10
5.9009360318
 20
5.259512308
 30
0.0
 10
5.9523327269
 20
5.2623502185
 30
0.0
 10
5.9861907153
 20
5.2642813028
 30
0.0
 10
6.0028976284
 20
5.2652491768
 30
0.0
  0
LINE
  5
344
100
AcDbEntity
  8
0
100
AcDbLine
 62
7
  6
CONTINUOUS
 10
6.0028976284
 20
5.2652491768
 11
6.0086665332
 21
5.2655839891
  0
SPLINE
  5
345
100
AcDbEntity
  8
0
100
AcDbSpline
 62
9
  6
CONTINUOUS
 70
0
 71
3
 72
27
 73
23
 74
0
 42
0.0000001
 43
0.0000001
 44
0.0000000001
 40
0.0
 40
0.0
 40
0.0
 40
0.0
 40
0.0709643525
 40
0.1394840557
 40
0.2053642433
 40
0.2685604785
 40
0.3292137012
 40
0.3876182863
 40
0.4161388469
 40
0.44430527
 40
0.4722195606
 40
0.5000002356
 40
0.527780924
 40
0.5556952485
 40
0.5838617162
 40
0.6123823217
 40
0.6707869558
 40
0.7314401047
 40
0.7946361055
 40
0.8605160156
 40
0.9290355524
 40
1.0
 40
1.0
 40
1.0
 40
1.0
 10
4.4988388168
 20
1.5933705183
 30
0.0
 10
4.4909297509
 20
1.6017897442
 30
0.0
 10
4.4756835371
 20
1.6186249103
 30
0.0
 10
4.4544572706
 20
1.6444709497
 30
0.0
 10
4.4355962001
 20
1.6705558127
 30
0.0
 10
4.4194603771
 20
1.6969346313
 30
0.0
 10
4.4064288672
 20
1.7236417388
 30
0.0
 10
4.3983081343
 20
1.7463160874
 30
0.0
 10
4.393690944
 20
1.7644847024
 30
0.0
 10
4.3911943233
 20
1.7780390474
 30
0.0
 10
4.3896703554
 20
1.7916163213
 30
0.0
 10
4.3891515709
 20
1.8052074123
 30
0.0
 10
4.3896703889
 20
1.8187985075
 30
0.0
 10
4.3911943883
 20
1.8323757928
 30
0.0
 10
4.3936910369
 20
1.845930153
 30
0.0
 10
4.3983082567
 20
1.8640987836
 30
0.0
 10
4.4064290034
 20
1.8867731298
 30
0.0
 10
4.4194604936
 20
1.9134801996
 30
0.0
 10
4.4355962702
 20
1.9398589351
 30
0.0
 10
4.4544572918
 20
1.9659436976
 30
0.0
 10
4.4756835401
 20
1.9917896781
 30
0.0
 10
4.4909297487
 20
2.0086248328
 30
0.0
 10
4.498838821
 20
2.017044074
 30
0.0
  0
SPLINE
  5
346
100
AcDbEntity
  8
0
100
AcDbSpline
 62
9
  6
CONTINUOUS
 70
0
 71
3
 72
18
 73
14
 74
0
 42
0.0000001
 43
0.0000001
 44
0.0000000001
 40
0.0
 40
0.0
 40
0.0
 40
0.0
 40
0.1183213411
 40
0.1786661327
 40
0.2397096785
 40
0.3013690856
 40
0.3635753897
 40
0.42625029
 40
0.4892996547
 40
0.6161751858
 40
0.743837195
 40
0.8719214621
 40
1.0
 40
1.0
 40
1.0
 40
1.0
 10
4.4988369182
 20
1.5933687299
 30
0.0
 10
4.5100538581
 20
1.5695560933
 30
0.0
 10
4.529310666
 20
1.5346491462
 30
0.0
 10
4.5587483213
 20
1.490169437
 30
0.0
 10
4.5829087351
 20
1.4573667327
 30
0.0
 10
4.6088341157
 20
1.4254117213
 30
0.0
 10
4.6363795787
 20
1.3943563798
 30
0.0
 10
4.6654033285
 20
1.3642483345
 30
0.0
 10
4.7059711559
 20
1.3253462113
 30
0.0
 10
4.7596824922
 20
1.2793418024
 30
0.0
 10
4.8281293694
 20
1.2286306303
 30
0.0
 10
4.9000584916
 20
1.1825062831
 30
0.0
 10
4.9499750631
 20
1.1549167982
 30
0.0
 10
4.9753416524
 20
1.1419406361
 30
0.0
  0
SPLINE
  5
347
100
AcDbEntity
  8
0
100
AcDbSpline
 62
9
  6
CONTINUOUS
 70
0
 71
3
 72
16
 73
12
 74
0
 42
0.0000001
 43
0.0000001
 44
0.0000000001
 40
0.0
 40
0.0
 40
0.0
 40
0.0
 40
0.1118103627
 40
0.2269833592
 40
0.3455927341
 40
0.4677574647
 40
0.5937921649
 40
0.7241614936
 40
0.7911297365
 40
0.8593712526
 40
1.0
 40
1.0
 40
1.0
 40
1.0
 10
5.221535253
 20
1.1419408958
 30
0.0
 10
5.2123595788
 20
1.1504710017
 30
0.0
 10
5.1942417849
 20
1.1683444538
 30
0.0
 10
5.1682918219
 20
1.197114143
 30
0.0
 10
5.1433321719
 20
1.2282512843
 30
0.0
 10
5.1195235947
 20
1.2617819842
 30
0.0
 10
5.0969989495
 20
1.2977526664
 30
0.0
 10
5.0795422669
 20
1.329527308
 30
0.0
 10
5.0663065832
 20
1.3561832193
 30
0.0
 10
5.0533287007
 20
1.3842370554
 30
0.0
 10
5.0443932634
 20
1.4058845887
 30
0.0
 10
5.0387723498
 20
1.4206052021
 30
0.0
  0
SPLINE
  5
348
100
AcDbEntity
  8
0
100
AcDbSpline
 62
7
  6
CONTINUOUS
 70
0
 71
3
 72
9
 73
5
 74
0
 42
0.0000001
 43
0.0000001
 44
0.0000000001
 40
0.0
 40
0.0
 40
0.0
 40
0.0
 40
0.4898733897
 40
1.0
 40
1.0
 40
1.0
 40
1.0
 10
6.325939004
 20
2.1878228654
 30
0.0
 10
6.3298299666
 20
2.1857544177
 30
0.0
 10
6.3374966787
 20
2.1809973493
 30
0.0
 10
6.3445320308
 20
2.1753567767
 30
0.0
 10
6.3479505838
 20
2.1722956681
 30
0.0
  0
SPLINE
  5
349
100
AcDbEntity
  8
0
100
AcDbSpline
 62
7
  6
CONTINUOUS
 70
0
 71
3
 72
26
 73
22
 74
0
 42
0.0000001
 43
0.0000001
 44
0.0000000001
 40
0.0
 40
0.0
 40
0.0
 40
0.0
 40
0.0516057947
 40
0.0783710308
 40
0.1057707629
 40
0.1624223991
 40
0.1916693433
 40
0.2214996213
 40
0.2518855978
 40
0.2827946715
 40
0.3460206108
 40
0.4108699294
 40
0.4769524779
 40
0.5438486154
 40
0.6111194694
 40
0.6783259594
 40
0.7450637122
 40
0.8109433786
 40
0.8755803463
 40
0.9386676202
 40
1.0
 40
1.0
 40
1.0
 40
1.0
 10
6.3479505838
 20
2.1722956681
 30
0.0
 10
6.3521964502
 20
2.1684937501
 30
0.0
 10
6.3582600756
 20
2.1622747387
 30
0.0
 10
6.3656277553
 20
2.1532046249
 30
0.0
 10
6.3727827813
 20
2.1432680121
 30
0.0
 10
6.3792268837
 20
2.1325089938
 30
0.0
 10
6.3849317444
 20
2.1210676022
 30
0.0
 10
6.3888909743
 20
2.1120105912
 30
0.0
 10
6.3924744451
 20
2.1026023621
 30
0.0
 10
6.396768291
 20
2.0895335872
 30
0.0
 10
6.4011084063
 20
2.0724945384
 30
0.0
 10
6.4046034684
 20
2.0513141676
 30
0.0
 10
6.406393991
 20
2.0295158731
 30
0.0
 10
6.4064389112
 20
2.0073772061
 30
0.0
 10
6.4047144026
 20
1.9851809549
 30
0.0
 10
6.4012036466
 20
1.9632122495
 30
0.0
 10
6.3958938463
 20
1.941765138
 30
0.0
 10
6.3888925414
 20
1.9211088706
 30
0.0
 10
6.3802963618
 20
1.9015006103
 30
0.0
 10
6.370201595
 20
1.8831913212
 30
0.0
 10
6.362415286
 20
1.8718353299
 30
0.0
 10
6.3582902725
 20
1.8664627676
 30
0.0
  0
SPLINE
  5
34A
100
AcDbEntity
  8
0
100
AcDbSpline
 62
7
  6
CONTINUOUS
 70
0
 71
3
 72
9
 73
5
 74
0
 42
0.0000001
 43
0.0000001
 44
0.0000000001
 40
0.0
 40
0.0
 40
0.0
 40
0.0
 40
0.5068513436
 40
1.0
 40
1.0
 40
1.0
 40
1.0
 10
6.3475737052
 20
1.8537394601
 30
0.0
 10
6.3439102519
 20
1.849777932
 30
0.0
 10
6.3363166198
 20
1.8422909893
 30
0.0
 10
6.3280159152
 20
1.8355913319
 30
0.0
 10
6.3237596437
 20
1.8325179289
 30
0.0
  0
SPLINE
  5
34B
100
AcDbEntity
  8
0
100
AcDbSpline
 62
9
  6
CONTINUOUS
 70
0
 71
3
 72
13
 73
9
 74
0
 42
0.0000001
 43
0.0000001
 44
0.0000000001
 40
0.0
 40
0.0
 40
0.0
 40
0.0
 40
0.1340818195
 40
0.265495365
 40
0.3942317136
 40
0.5203491604
 40
0.7649330817
 40
1.0
 40
1.0
 40
1.0
 40
1.0
 10
6.1111372141
 20
1.4206521837
 30
0.0
 10
6.1057787764
 20
1.4066177762
 30
0.0
 10
6.0944579707
 20
1.3790927872
 30
0.0
 10
6.0755065581
 20
1.3391727725
 30
0.0
 10
6.0548149124
 20
1.3011352973
 30
0.0
 10
6.0253494227
 20
1.2535357233
 30
0.0
 10
5.984770063
 20
1.1989360794
 30
0.0
 10
5.9476711894
 20
1.1598357899
 30
0.0
 10
5.9283476515
 20
1.141940636
 30
0.0
  0
SPLINE
  5
34C
100
AcDbEntity
  8
0
100
AcDbSpline
 62
9
  6
CONTINUOUS
 70
0
 71
3
 72
22
 73
18
 74
0
 42
0.0000001
 43
0.0000001
 44
0.0000000001
 40
0.0
 40
0.0
 40
0.0
 40
0.0
 40
0.065276676
 40
0.1302873353
 40
0.1949782553
 40
0.2592585935
 40
0.3231208793
 40
0.3865963965
 40
0.449683284
 40
0.5123600415
 40
0.5746359054
 40
0.6365236587
 40
0.6980257016
 40
0.7591372775
 40
0.8198704435
 40
0.8802475628
 40
1.0
 40
1.0
 40
1.0
 40
1.0
 10
6.6510467543
 20
1.5933686167
 30
0.0
 10
6.6447956543
 20
1.580259542
 30
0.0
 10
6.6314616145
 20
1.5544952552
 30
0.0
 10
6.609205956
 20
1.5172320403
 30
0.0
 10
6.5850076945
 20
1.4814693095
 30
0.0
 10
6.5591223377
 20
1.4472321763
 30
0.0
 10
6.5317698473
 20
1.4145103058
 30
0.0
 10
6.5031479326
 20
1.3832552354
 30
0.0
 10
6.4734412849
 20
1.3534035912
 30
0.0
 10
6.4428241622
 20
1.3248787615
 30
0.0
 10
6.4113925543
 20
1.2976607422
 30
0.0
 10
6.3792320037
 20
1.2717235296
 30
0.0
 10
6.3464247142
 20
1.247038979
 30
0.0
 10
6.3130511609
 20
1.2235705499
 30
0.0
 10
6.2791574019
 20
1.2013113681
 30
0.0
 10
6.2334489358
 20
1.1733266373
 30
0.0
 10
6.1982885611
 20
1.1540217557
 30
0.0
 10
6.1745415012
 20
1.1419408952
 30
0.0
  0
SPLINE
  5
34D
100
AcDbEntity
  8
0
100
AcDbSpline
 62
7
  6
CONTINUOUS
 70
0
 71
3
 72
15
 73
11
 74
0
 42
0.0000001
 43
0.0000001
 44
0.0000000001
 40
0.0
 40
0.0
 40
0.0
 40
0.0
 40
0.1180701333
 40
0.2377484486
 40
0.3594244571
 40
0.4832991949
 40
0.6092389651
 40
0.7370981549
 40
0.8671529538
 40
1.0
 40
1.0
 40
1.0
 40
1.0
 10
6.2227685147
 20
2.0019133231
 30
0.0
 10
6.2224654644
 20
2.0006350406
 30
0.0
 10
6.2218697116
 20
1.9980575933
 30
0.0
 10
6.2210255081
 20
1.9941483769
 30
0.0
 10
6.2202395211
 20
1.9901611128
 30
0.0
 10
6.2195173475
 20
1.9860910572
 30
0.0
 10
6.2188476077
 20
1.9819424406
 30
0.0
 10
6.2182180918
 20
1.9777180032
 30
0.0
 10
6.2176394804
 20
1.9734086603
 30
0.0
 10
6.2173069951
 20
1.9705021471
 30
0.0
 10
6.2171559159
 20
1.9690317577
 30
0.0
  0
SPLINE
  5
34E
100
AcDbEntity
  8
0
100
AcDbSpline
 62
7
  6
CONTINUOUS
 70
0
 71
3
 72
11
 73
7
 74
0
 42
0.0000001
 43
0.0000001
 44
0.0000000001
 40
0.0
 40
0.0
 40
0.0
 40
0.0
 40
0.2446651098
 40
0.4915573236
 40
0.7426841092
 40
1.0
 40
1.0
 40
1.0
 40
1.0
 10
6.3000143884
 20
1.8136627626
 30
0.0
 10
6.3044995721
 20
1.8117733486
 30
0.0
 10
6.3137208812
 20
1.8084573302
 30
0.0
 10
6.3280921002
 20
1.8049246018
 30
0.0
 10
6.343002281
 20
1.8028684275
 30
0.0
 10
6.3531307883
 20
1.8025220276
 30
0.0
 10
6.3582487526
 20
1.8025997913
 30
0.0
  0
SPLINE
  5
34F
100
AcDbEntity
  8
0
100
AcDbSpline
 62
7
  6
CONTINUOUS
 70
0
 71
3
 72
21
 73
17
 74
0
 42
0.0000001
 43
0.0000001
 44
0.0000000001
 40
0.0
 40
0.0
 40
0.0
 40
0.0
 40
0.1091562028
 40
0.1659119955
 40
0.2240028562
 40
0.283361151
 40
0.3439130022
 40
0.405591052
 40
0.4683349835
 40
0.5965097637
 40
0.6619215343
 40
0.7281201794
 40
0.7950886373
 40
0.862806261
 40
0.9311597207
 40
1.0
 40
1.0
 40
1.0
 40
1.0
 10
6.4020181609
 20
1.8093740699
 30
0.0
 10
6.4094059821
 20
1.8106299634
 30
0.0
 10
6.4204635345
 20
1.8137374709
 30
0.0
 10
6.4345665126
 20
1.8198990253
 30
0.0
 10
6.4450646562
 20
1.8256652513
 30
0.0
 10
6.455225759
 20
1.832480966
 30
0.0
 10
6.4649515154
 20
1.8403041347
 30
0.0
 10
6.4741390305
 20
1.8490947174
 30
0.0
 10
6.4856034689
 20
1.8621268691
 30
0.0
 10
6.4954786865
 20
1.8768221174
 30
0.0
 10
6.5033931582
 20
1.8928246098
 30
0.0
 10
6.5083369463
 20
1.9055500931
 30
0.0
 10
6.5121627352
 20
1.9188192866
 30
0.0
 10
6.5148026957
 20
1.9325251814
 30
0.0
 10
6.5162529229
 20
1.9465344397
 30
0.0
 10
6.5164170097
 20
1.9559652611
 30
0.0
 10
6.5162979596
 20
1.9606897951
 30
0.0
  0
SPLINE
  5
350
100
AcDbEntity
  8
0
100
AcDbSpline
 62
9
  6
CONTINUOUS
 70
0
 71
3
 72
39
 73
35
 74
0
 42
0.0000001
 43
0.0000001
 44
0.0000000001
 40
0.0
 40
0.0
 40
0.0
 40
0.0
 40
0.062444233
 40
0.093671637
 40
0.1249018103
 40
0.1561396546
 40
0.187378365
 40
0.2186133563
 40
0.2498539414
 40
0.2811143423
 40
0.3123749267
 40
0.3436272791
 40
0.3748939006
 40
0.4061763718
 40
0.4374482472
 40
0.453083871
 40
0.4687220646
 40
0.5000001698
 40
0.5312783075
 40
0.5469165279
 40
0.5625521384
 40
0.5938239017
 40
0.6251063046
 40
0.6563729859
 40
0.6876252955
 40
0.7188857863
 40
0.750146154
 40
0.7813867387
 40
0.8126217034
 40
0.8438603857
 40
0.8750982226
 40
0.9063283924
 40
0.9375557859
 40
1.0
 40
1.0
 40
1.0
 40
1.0
 10
6.6510467543
 20
2.0170459794
 30
0.0
 10
6.6580101542
 20
2.0096374724
 30
0.0
 10
6.6682767422
 20
1.9983518549
 30
0.0
 10
6.6814722558
 20
1.9828752263
 30
0.0
 10
6.6910889457
 20
1.9710300539
 30
0.0
 10
6.700389451
 20
1.95893228
 30
0.0
 10
6.709318588
 20
1.9465560615
 30
0.0
 10
6.7178128618
 20
1.9338759599
 30
0.0
 10
6.7258075011
 20
1.920869978
 30
0.0
 10
6.7332343324
 20
1.9075255626
 30
0.0
 10
6.7399969062
 20
1.8938286526
 30
0.0
 10
6.7459901802
 20
1.879775007
 30
0.0
 10
6.7511013042
 20
1.8653710583
 30
0.0
 10
6.7552283779
 20
1.8506503421
 30
0.0
 10
6.75776988
 20
1.8381619857
 30
0.0
 10
6.7592128748
 20
1.8280784088
 30
0.0
 10
6.7602449643
 20
1.8179434697
 30
0.0
 10
6.7607605598
 20
1.805207234
 30
0.0
 10
6.7602448587
 20
1.7924710025
 30
0.0
 10
6.7592128072
 20
1.7823360526
 30
0.0
 10
6.75776984
 20
1.7722524874
 30
0.0
 10
6.7552282972
 20
1.7597641694
 30
0.0
 10
6.7511011542
 20
1.7450434949
 30
0.0
 10
6.745990067
 20
1.7306395439
 30
0.0
 10
6.7399968501
 20
1.7165858873
 30
0.0
 10
6.7332343216
 20
1.7028889849
 30
0.0
 10
6.725807477
 20
1.6895445995
 30
0.0
 10
6.7178127949
 20
1.6765386553
 30
0.0
 10
6.7093184857
 20
1.6638585884
 30
0.0
 10
6.7003893203
 20
1.6514824029
 30
0.0
 10
6.691088793
 20
1.6393846543
 30
0.0
 10
6.6814721186
 20
1.6275394744
 30
0.0
 10
6.6682766606
 20
1.6120628058
 30
0.0
 10
6.6580101289
 20
1.6007771434
 30
0.0
 10
6.6510467543
 20
1.5933686167
 30
0.0
  0
SPLINE
  5
351
100
AcDbEntity
  8
0
100
AcDbSpline
 62
9
  6
CONTINUOUS
 70
0
 71
3
 72
22
 73
18
 74
0
 42
0.0000001
 43
0.0000001
 44
0.0000000001
 40
0.0
 40
0.0
 40
0.0
 40
0.0
 40
0.1528763709
 40
0.2274946836
 40
0.3006169358
 40
0.3720338706
 40
0.4415517243
 40
0.5089999343
 40
0.5742114813
 40
0.6370215165
 40
0.69727143
 40
0.7548476043
 40
0.8096675463
 40
0.8616527621
 40
0.9107294473
 40
0.956842775
 40
1.0
 40
1.0
 40
1.0
 40
1.0
 10
6.6510466786
 20
1.5933685212
 30
0.0
 10
6.6283751971
 20
1.596727207
 30
0.0
 10
6.5945744976
 20
1.6013144388
 30
0.0
 10
6.5498019117
 20
1.6064741893
 30
0.0
 10
6.5171114208
 20
1.6097765888
 30
0.0
 10
6.4851370506
 20
1.6125248009
 30
0.0
 10
6.4539714769
 20
1.6147051353
 30
0.0
 10
6.4237026939
 20
1.6163149001
 30
0.0
 10
6.3944148873
 20
1.6173500152
 30
0.0
 10
6.3661914392
 20
1.6178075381
 30
0.0
 10
6.3391089999
 20
1.6176821098
 30
0.0
 10
6.3132334436
 20
1.6169794419
 30
0.0
 10
6.2886196825
 20
1.6157121611
 30
0.0
 10
6.2653182356
 20
1.6138914486
 30
0.0
 10
6.2433772301
 20
1.6115289742
 30
0.0
 10
6.2228357189
 20
1.6086337097
 30
0.0
 10
6.2096559546
 20
1.6062862042
 30
0.0
 10
6.203311282
 20
1.6050186839
 30
0.0
  0
SPLINE
  5
352
100
AcDbEntity
  8
0
100
AcDbSpline
 62
7
  6
CONTINUOUS
 70
0
 71
3
 72
12
 73
8
 74
0
 42
0.0000001
 43
0.0000001
 44
0.0000000001
 40
0.0
 40
0.0
 40
0.0
 40
0.0
 40
0.2613015895
 40
0.3895944854
 40
0.5161059964
 40
0.762957781
 40
1.0
 40
1.0
 40
1.0
 40
1.0
 10
6.4172316267
 20
2.181104391
 30
0.0
 10
6.409297766
 20
2.1819134811
 30
0.0
 10
6.3974637419
 20
2.1830740105
 30
0.0
 10
6.381774611
 20
2.1844779167
 30
0.0
 10
6.3665158016
 20
2.1857388267
 30
0.0
 10
6.3479294886
 20
2.1870284502
 30
0.0
 10
6.3331710675
 20
2.1876569528
 30
0.0
 10
6.3259383766
 20
2.1878233793
 30
0.0
  0
SPLINE
  5
353
100
AcDbEntity
  8
0
100
AcDbSpline
 62
7
  6
CONTINUOUS
 70
0
 71
3
 72
11
 73
7
 74
0
 42
0.0000001
 43
0.0000001
 44
0.0000000001
 40
0.0
 40
0.0
 40
0.0
 40
0.0
 40
0.2605684094
 40
0.5148527704
 40
0.7616755571
 40
1.0
 40
1.0
 40
1.0
 40
1.0
 10
6.325939004
 20
2.1878228654
 30
0.0
 10
6.3232132015
 20
2.1887972103
 30
0.0
 10
6.3177924157
 20
2.1906265732
 30
0.0
 10
6.3096745976
 20
2.19302194
 30
0.0
 10
6.301702891
 20
2.1950146111
 30
0.0
 10
6.2964171884
 20
2.1960805386
 30
0.0
 10
6.2938091996
 20
2.1965367899
 30
0.0
  0
SPLINE
  5
354
100
AcDbEntity
  8
0
100
AcDbSpline
 62
7
  6
CONTINUOUS
 70
0
 71
3
 72
9
 73
5
 74
0
 42
0.0000001
 43
0.0000001
 44
0.0000000001
 40
0.0
 40
0.0
 40
0.0
 40
0.0
 40
0.5174866646
 40
1.0
 40
1.0
 40
1.0
 40
1.0
 10
6.2938091996
 20
2.1965367899
 30
0.0
 10
6.2902042635
 20
2.1971674508
 30
0.0
 10
6.2831912142
 20
2.1981376014
 30
0.0
 10
6.2761168771
 20
2.1985072981
 30
0.0
 10
6.2727045244
 20
2.1985072981
 30
0.0
  0
SPLINE
  5
355
100
AcDbEntity
  8
0
100
AcDbSpline
 62
7
  6
CONTINUOUS
 70
0
 71
3
 72
27
 73
23
 74
0
 42
0.0000001
 43
0.0000001
 44
0.0000000001
 40
0.0
 40
0.0
 40
0.0
 40
0.0
 40
0.0125583187
 40
0.024732726
 40
0.0368671069
 40
0.0493129707
 40
0.0763516292
 40
0.0915417857
 40
0.1080953107
 40
0.1261609078
 40
0.1458377449
 40
0.1671924386
 40
0.190270838
 40
0.2416993891
 40
0.3002624811
 40
0.3659470344
 40
0.4385522954
 40
0.5178021527
 40
0.6033922217
 40
0.6949587662
 40
0.7919704482
 40
1.0
 40
1.0
 40
1.0
 40
1.0
 10
4.2624417702
 20
2.9601545288
 30
0.0
 10
4.2624417702
 20
2.9604875584
 30
0.0
 10
4.2624912819
 20
2.9611449379
 30
0.0
 10
4.2627292835
 20
2.9620980869
 30
0.0
 10
4.2631299702
 20
2.962992246
 30
0.0
 10
4.2638997839
 20
2.964131416
 30
0.0
 10
4.264999484
 20
2.9651122009
 30
0.0
 10
4.2663297981
 20
2.9659269609
 30
0.0
 10
4.267524183
 20
2.9664969265
 30
0.0
 10
4.2688749651
 20
2.9669996126
 30
0.0
 10
4.2703814389
 20
2.9674360495
 30
0.0
 10
4.2720417702
 20
2.9678060073
 30
0.0
 10
4.2745500773
 20
2.9682253209
 30
0.0
 10
4.2780673748
 20
2.968559957
 30
0.0
 10
4.2827270951
 20
2.9686804441
 30
0.0
 10
4.2879473353
 20
2.9685289937
 30
0.0
 10
4.2937023301
 20
2.9681085515
 30
0.0
 10
4.2999626118
 20
2.9674211479
 30
0.0
 10
4.3066961691
 20
2.9664694143
 30
0.0
 10
4.3138658307
 20
2.9652574611
 30
0.0
 10
4.3241925725
 20
2.9632597922
 30
0.0
 10
4.3320837645
 20
2.9614680439
 30
0.0
 10
4.3374417702
 20
2.9601545288
 30
0.0
  0
SPLINE
  5
356
100
AcDbEntity
  8
0
100
AcDbSpline
 62
7
  6
CONTINUOUS
 70
0
 71
3
 72
27
 73
23
 74
0
 42
0.0000001
 43
0.0000001
 44
0.0000000001
 40
0.0
 40
0.0
 40
0.0
 40
0.0
 40
0.06273168
 40
0.1253865245
 40
0.1879641211
 40
0.2504698036
 40
0.281698391
 40
0.3129122379
 40
0.3441136634
 40
0.3753050579
 40
0.4376619734
 40
0.4999999976
 40
0.5623380228
 40
0.6246949387
 40
0.6558863326
 40
0.6870877571
 40
0.718301603
 40
0.7495301895
 40
0.8120358706
 40
0.8746134682
 40
0.9372683173
 40
1.0
 40
1.0
 40
1.0
 40
1.0
 10
4.3374417702
 20
2.9601545288
 30
0.0
 10
4.3613068782
 20
2.9543039976
 30
0.0
 10
4.4091421119
 20
2.9431485389
 30
0.0
 10
4.4812418406
 20
2.9282014417
 30
0.0
 10
4.553630995
 20
2.9152100433
 30
0.0
 10
4.6141922002
 20
2.9061390618
 30
0.0
 10
4.6627495725
 20
2.9000040286
 30
0.0
 10
4.6992098578
 20
2.8959809486
 30
0.0
 10
4.7357163224
 20
2.8925521999
 30
0.0
 10
4.7844374206
 20
2.8887933905
 30
0.0
 10
4.8454282974
 20
2.8856309164
 30
0.0
 10
4.9186917677
 20
2.8843484321
 30
0.0
 10
4.991955238
 20
2.8856309184
 30
0.0
 10
5.0529461154
 20
2.8887933874
 30
0.0
 10
5.1016672131
 20
2.8925521975
 30
0.0
 10
5.1381736763
 20
2.8959809489
 30
0.0
 10
5.1746339604
 20
2.9000040292
 30
0.0
 10
5.2231913315
 20
2.9061390622
 30
0.0
 10
5.2837525363
 20
2.9152100436
 30
0.0
 10
5.3561416917
 20
2.9282014454
 30
0.0
 10
5.4282414242
 20
2.9431485397
 30
0.0
 10
5.4760766611
 20
2.9543039974
 30
0.0
 10
5.4999417702
 20
2.9601545288
 30
0.0
  0
SPLINE
  5
357
100
AcDbEntity
  8
0
100
AcDbSpline
 62
7
  6
CONTINUOUS
 70
0
 71
3
 72
12
 73
8
 74
0
 42
0.0000001
 43
0.0000001
 44
0.0000000001
 40
0.0
 40
0.0
 40
0.0
 40
0.0
 40
0.1158516938
 40
0.2352901696
 40
0.4829433056
 40
0.7392708927
 40
1.0
 40
1.0
 40
1.0
 40
1.0
 10
5.4999417702
 20
2.9601545288
 30
0.0
 10
5.5027789912
 20
2.9608500736
 30
0.0
 10
5.5085670366
 20
2.9621595662
 30
0.0
 10
5.5205284155
 20
2.9644529495
 30
0.0
 10
5.5361015332
 20
2.9666732419
 30
0.0
 10
5.5553266631
 20
2.9682764073
 30
0.0
 10
5.5683674112
 20
2.9686353022
 30
0.0
 10
5.5749417702
 20
2.9686353022
 30
0.0
  0
SPLINE
  5
358
100
AcDbEntity
  8
0
100
AcDbSpline
 62
7
  6
CONTINUOUS
 70
0
 71
3
 72
12
 73
8
 74
0
 42
0.0000001
 43
0.0000001
 44
0.0000000001
 40
0.0
 40
0.0
 40
0.0
 40
0.0
 40
0.1158527777
 40
0.2352929283
 40
0.4829432676
 40
0.7392684141
 40
1.0
 40
1.0
 40
1.0
 40
1.0
 10
5.6499417702
 20
2.9601545288
 30
0.0
 10
5.6471045228
 20
2.96085008
 30
0.0
 10
5.6413164058
 20
2.9621595714
 30
0.0
 10
5.6293550231
 20
2.9644529218
 30
0.0
 10
5.6137820018
 20
2.96667325
 30
0.0
 10
5.5945569367
 20
2.9682763342
 30
0.0
 10
5.5815161913
 20
2.9686353022
 30
0.0
 10
5.5749417702
 20
2.9686353022
 30
0.0
  0
SPLINE
  5
359
100
AcDbEntity
  8
0
100
AcDbSpline
 62
7
  6
CONTINUOUS
 70
0
 71
3
 72
27
 73
23
 74
0
 42
0.0000001
 43
0.0000001
 44
0.0000000001
 40
0.0
 40
0.0
 40
0.0
 40
0.0
 40
0.06273168
 40
0.1253865245
 40
0.1879641211
 40
0.2504698036
 40
0.281698391
 40
0.3129122379
 40
0.3441136634
 40
0.3753050579
 40
0.4376619734
 40
0.4999999976
 40
0.5623380228
 40
0.6246949387
 40
0.6558863326
 40
0.6870877571
 40
0.718301603
 40
0.7495301895
 40
0.8120358706
 40
0.8746134682
 40
0.9372683173
 40
1.0
 40
1.0
 40
1.0
 40
1.0
 10
5.6499417702
 20
2.9601545288
 30
0.0
 10
5.6738068782
 20
2.9543039976
 30
0.0
 10
5.7216421119
 20
2.9431485389
 30
0.0
 10
5.7937418406
 20
2.9282014417
 30
0.0
 10
5.866130995
 20
2.9152100433
 30
0.0
 10
5.9266922002
 20
2.9061390618
 30
0.0
 10
5.9752495725
 20
2.9000040286
 30
0.0
 10
6.0117098578
 20
2.8959809486
 30
0.0
 10
6.0482163224
 20
2.8925521999
 30
0.0
 10
6.0969374206
 20
2.8887933905
 30
0.0
 10
6.1579282974
 20
2.8856309164
 30
0.0
 10
6.2311917677
 20
2.8843484321
 30
0.0
 10
6.304455238
 20
2.8856309184
 30
0.0
 10
6.3654461154
 20
2.8887933874
 30
0.0
 10
6.4141672131
 20
2.8925521975
 30
0.0
 10
6.4506736763
 20
2.8959809489
 30
0.0
 10
6.4871339604
 20
2.9000040292
 30
0.0
 10
6.5356913315
 20
2.9061390622
 30
0.0
 10
6.5962525363
 20
2.9152100436
 30
0.0
 10
6.6686416917
 20
2.9282014454
 30
0.0
 10
6.7407414242
 20
2.9431485397
 30
0.0
 10
6.7885766611
 20
2.9543039974
 30
0.0
 10
6.8124417702
 20
2.9601545288
 30
0.0
  0
SPLINE
  5
35A
100
AcDbEntity
  8
0
100
AcDbSpline
 62
7
  6
CONTINUOUS
 70
0
 71
3
 72
27
 73
23
 74
0
 42
0.0000001
 43
0.0000001
 44
0.0000000001
 40
0.0
 40
0.0
 40
0.0
 40
0.0
 40
0.2080301209
 40
0.3050424376
 40
0.3966097635
 40
0.4822003061
 40
0.5614500904
 40
0.6340550504
 40
0.6997393848
 40
0.7583022307
 40
0.8097303708
 40
0.8328085763
 40
0.8541631181
 40
0.8738398655
 40
0.8919054483
 40
0.9084589404
 40
0.9236489888
 40
0.9506873341
 40
0.9631330579
 40
0.9752673393
 40
0.9874416946
 40
1.0
 40
1.0
 40
1.0
 40
1.0
 10
6.8124417702
 20
2.9601545288
 30
0.0
 10
6.8177997912
 20
2.9614680477
 30
0.0
 10
6.8256910156
 20
2.9632598021
 30
0.0
 10
6.8360178099
 20
2.965257483
 30
0.0
 10
6.8431875207
 20
2.9664694512
 30
0.0
 10
6.8499211096
 20
2.967421192
 30
0.0
 10
6.8561813961
 20
2.9681085848
 30
0.0
 10
6.8619363772
 20
2.9685290081
 30
0.0
 10
6.8671565981
 20
2.9686804445
 30
0.0
 10
6.8718162956
 20
2.9685599455
 30
0.0
 10
6.8753335693
 20
2.9682252916
 30
0.0
 10
6.8778418546
 20
2.9678059676
 30
0.0
 10
6.8795021732
 20
2.9674360052
 30
0.0
 10
6.8810086396
 20
2.9669995672
 30
0.0
 10
6.8823594205
 20
2.9664968886
 30
0.0
 10
6.883553806
 20
2.9659269331
 30
0.0
 10
6.8848841126
 20
2.9651121832
 30
0.0
 10
6.8859837996
 20
2.9641314042
 30
0.0
 10
6.8867535948
 20
2.962992239
 30
0.0
 10
6.8871542689
 20
2.9620980827
 30
0.0
 10
6.887392261
 20
2.9611449358
 30
0.0
 10
6.8874417702
 20
2.9604875581
 30
0.0
 10
6.8874417702
 20
2.9601545288
 30
0.0
  0
SPLINE
  5
35B
100
AcDbEntity
  8
0
100
AcDbSpline
 62
7
  6
CONTINUOUS
 70
0
 71
3
 72
11
 73
7
 74
0
 42
0.0000001
 43
0.0000001
 44
0.0000000001
 40
0.0
 40
0.0
 40
0.0
 40
0.0
 40
0.1846322202
 40
0.4010735829
 40
0.6692933468
 40
1.0
 40
1.0
 40
1.0
 40
1.0
 10
6.7024476412
 20
3.7075577261
 30
0.0
 10
6.70244634
 20
3.7074834531
 30
0.0
 10
6.7024048
 20
3.7073218655
 30
0.0
 10
6.7022452479
 20
3.7071003069
 30
0.0
 10
6.7019959824
 20
3.7068843501
 30
0.0
 10
6.7017914546
 20
3.706755597
 30
0.0
 10
6.7016757298
 20
3.7066899342
 30
0.0
  0
SPLINE
  5
35C
100
AcDbEntity
  8
0
100
AcDbSpline
 62
7
  6
CONTINUOUS
 70
0
 71
3
 72
11
 73
7
 74
0
 42
0.0000001
 43
0.0000001
 44
0.0000000001
 40
0.0
 40
0.0
 40
0.0
 40
0.0
 40
0.1860590878
 40
0.4027010439
 40
0.6703057653
 40
1.0
 40
1.0
 40
1.0
 40
1.0
 10
4.4475505207
 20
3.782559551
 30
0.0
 10
4.447550505
 20
3.7824846598
 30
0.0
 10
4.4475889309
 20
3.7823215326
 30
0.0
 10
4.4477450735
 20
3.782096746
 30
0.0
 10
4.4479913018
 20
3.781877881
 30
0.0
 10
4.4481941492
 20
3.7817474538
 30
0.0
 10
4.4483090125
 20
3.7816809904
 30
0.0
  0
SPLINE
  5
35D
100
AcDbEntity
  8
0
100
AcDbSpline
 62
7
  6
CONTINUOUS
 70
0
 71
3
 72
14
 73
10
 74
0
 42
0.0000001
 43
0.0000001
 44
0.0000000001
 40
0.0
 40
0.0
 40
0.0
 40
0.0
 40
0.0639919413
 40
0.1448204033
 40
0.2429853007
 40
0.3587502432
 40
0.4922642971
 40
0.643614989
 40
1.0
 40
1.0
 40
1.0
 40
1.0
 10
6.7929548966
 20
3.759389934
 30
0.0
 10
6.7927426025
 20
3.7592687438
 30
0.0
 10
6.792238383
 20
3.7590367792
 30
0.0
 10
6.7913627789
 20
3.7587272896
 30
0.0
 10
6.7902796205
 20
3.7584175561
 30
0.0
 10
6.7889887675
 20
3.7581078338
 30
0.0
 10
6.787489785
 20
3.7577982365
 30
0.0
 10
6.7850792674
 20
3.7573615896
 30
0.0
 10
6.7831608525
 20
3.7570728886
 30
0.0
 10
6.7818124894
 20
3.7568849687
 30
0.0
  0
SPLINE
  5
35E
100
AcDbEntity
  8
0
100
AcDbSpline
 62
7
  6
CONTINUOUS
 70
0
 71
3
 72
29
 73
25
 74
0
 42
0.0000001
 43
0.0000001
 44
0.0000000001
 40
0.0
 40
0.0
 40
0.0
 40
0.0
 40
0.0034192304
 40
0.0073327831
 40
0.0117403524
 40
0.0166410974
 40
0.0279111784
 40
0.0411177687
 40
0.0562341369
 40
0.0732331238
 40
0.0920860874
 40
0.112753678
 40
0.1351910748
 40
0.1593533291
 40
0.2126691676
 40
0.2722762233
 40
0.3376930932
 40
0.4084079101
 40
0.4838446717
 40
0.5634106515
 40
0.6464641891
 40
0.7323436433
 40
0.8203646207
 40
1.0
 40
1.0
 40
1.0
 40
1.0
 10
6.7818124894
 20
3.7568849687
 30
0.0
 10
6.7804497224
 20
3.7566950413
 30
0.0
 10
6.7775224636
 20
3.7563213983
 30
0.0
 10
6.7728270251
 20
3.7557974556
 30
0.0
 10
6.7675322939
 20
3.7552719609
 30
0.0
 10
6.7592841775
 20
3.7545337642
 30
0.0
 10
6.7474971092
 20
3.7536228159
 30
0.0
 10
6.7315992865
 20
3.7525662757
 30
0.0
 10
6.7133919289
 20
3.7515052296
 30
0.0
 10
6.6929091639
 20
3.750441769
 30
0.0
 10
6.6701898161
 20
3.7493786755
 30
0.0
 10
6.645279814
 20
3.7483159287
 30
0.0
 10
6.6182315186
 20
3.747253087
 30
0.0
 10
6.5780510462
 20
3.7457871113
 30
0.0
 10
6.522915989
 20
3.7439745677
 30
0.0
 10
6.451181095
 20
3.7418584027
 30
0.0
 10
6.3724419831
 20
3.7397388192
 30
0.0
 10
6.2873307401
 20
3.7376178678
 30
0.0
 10
6.1965241327
 20
3.7354949352
 30
0.0
 10
6.1007510247
 20
3.7333710546
 30
0.0
 10
6.0007746964
 20
3.7312460212
 30
0.0
 10
5.8973952519
 20
3.7291203749
 30
0.0
 10
5.7551569212
 20
3.7262664566
 30
0.0
 10
5.6474695143
 20
3.7241573348
 30
0.0
 10
5.5751959961
 20
3.7227416249
 30
0.0
  0
SPLINE
  5
35F
100
AcDbEntity
  8
0
100
AcDbSpline
 62
7
  6
CONTINUOUS
 70
0
 71
3
 72
13
 73
9
 74
0
 42
0.0000001
 43
0.0000001
 44
0.0000000001
 40
0.0
 40
0.0
 40
0.0
 40
0.0
 40
0.2719642976
 40
0.5349709431
 40
0.6603846118
 40
0.7803468976
 40
0.893860211
 40
1.0
 40
1.0
 40
1.0
 40
1.0
 10
5.5751959961
 20
3.7227416249
 30
0.0
 10
5.5017096051
 20
3.7213021568
 30
0.0
 10
5.3571572357
 20
3.7184707054
 30
0.0
 10
5.1787195717
 20
3.7148611728
 30
0.0
 10
5.0413563503
 20
3.71193399
 30
0.0
 10
4.9443877286
 20
3.7097745135
 30
0.0
 10
4.8526293583
 20
3.7076160829
 30
0.0
 10
4.7932850802
 20
3.7061245817
 30
0.0
 10
4.7646098269
 20
3.7053725943
 30
0.0
  0
LINE
  5
360
100
AcDbEntity
  8
0
100
AcDbLine
 62
7
  6
CONTINUOUS
 10
4.7646098269
 20
3.7053725943
 11
4.7594088367
 21
3.7052358517
  0
LINE
  5
361
100
AcDbEntity
  8
0
100
AcDbLine
 62
7
  6
CONTINUOUS
 10
4.7594088367
 20
3.7052358517
 11
4.6982218093
 21
3.703569193
  0
LINE
  5
362
100
AcDbEntity
  8
0
100
AcDbLine
 62
7
  6
CONTINUOUS
 10
4.6982218093
 20
3.703569193
 11
4.6897239636
 21
3.7033282856
  0
SPLINE
  5
363
100
AcDbEntity
  8
0
100
AcDbSpline
 62
7
  6
CONTINUOUS
 70
0
 71
3
 72
36
 73
32
 74
0
 42
0.0000001
 43
0.0000001
 44
0.0000000001
 40
0.0
 40
0.0
 40
0.0
 40
0.0
 40
0.1155919083
 40
0.2250031004
 40
0.3279748834
 40
0.4242699837
 40
0.5136909687
 40
0.5960449491
 40
0.6711393376
 40
0.738789389
 40
0.7988586716
 40
0.8512307124
 40
0.8744944631
 40
0.8957911875
 40
0.9151071368
 40
0.9324299817
 40
0.9477543907
 40
0.9610785815
 40
0.9724025392
 40
0.9773154405
 40
0.9817299816
 40
0.9856476949
 40
0.9890710612
 40
0.9920041451
 40
0.9944538478
 40
0.9964326243
 40
0.9979650919
 40
0.9985804225
 40
0.9991099377
 40
0.9995734172
 40
1.0
 40
1.0
 40
1.0
 40
1.0
 10
4.6897239636
 20
3.7033282856
 30
0.0
 10
4.6768340477
 20
3.7029609269
 30
0.0
 10
4.6517439297
 20
3.70222854
 30
0.0
 10
4.6151732155
 20
3.701101015
 30
0.0
 10
4.5807562742
 20
3.6999738584
 30
0.0
 10
4.5485706522
 20
3.6988470001
 30
0.0
 10
4.5186865828
 20
3.6977208536
 30
0.0
 10
4.4911693815
 20
3.6965956601
 30
0.0
 10
4.4660830425
 20
3.6954717405
 30
0.0
 10
4.4434853878
 20
3.6943491879
 30
0.0
 10
4.4234259771
 20
3.6932284927
 30
0.0
 10
4.4083176001
 20
3.6922630754
 30
0.0
 10
4.3975323137
 20
3.6914808176
 30
0.0
 10
4.3904286213
 20
3.6909179157
 30
0.0
 10
4.3839899029
 20
3.690355549
 30
0.0
 10
4.3782201935
 20
3.6897937042
 30
0.0
 10
4.373122309
 20
3.6892328349
 30
0.0
 10
4.3686981064
 20
3.6886732492
 30
0.0
 10
4.3654356757
 20
3.688188764
 30
0.0
 10
4.3631656961
 20
3.6877946888
 30
0.0
 10
4.3617149547
 20
3.687513641
 30
0.0
 10
4.3604337351
 20
3.6872330662
 30
0.0
 10
4.3593220274
 20
3.6869530862
 30
0.0
 10
4.3583798162
 20
3.6866739249
 30
0.0
 10
4.357606233
 20
3.6863958501
 30
0.0
 10
4.3570009132
 20
3.6861190315
 30
0.0
 10
4.3566077395
 20
3.6858737254
 30
0.0
 10
4.3563872683
 20
3.6856708377
 30
0.0
 10
4.3562761787
 20
3.6855285693
 30
0.0
 10
4.3562076329
 20
3.6853840377
 30
0.0
 10
4.3561917702
 20
3.6852842312
 30
0.0
 10
4.3561917702
 20
3.6852366426
 30
0.0
  0
SPLINE
  5
364
100
AcDbEntity
  8
0
100
AcDbSpline
 62
7
  6
CONTINUOUS
 70
0
 71
3
 72
11
 73
7
 74
0
 42
0.0000001
 43
0.0000001
 44
0.0000000001
 40
0.0
 40
0.0
 40
0.0
 40
0.0
 40
0.1756530766
 40
0.4001324265
 40
0.6747154269
 40
1.0
 40
1.0
 40
1.0
 40
1.0
 10
6.7016757298
 20
3.7066899342
 30
0.0
 10
6.7014377775
 20
3.706554919
 30
0.0
 10
6.7008679814
 20
3.7062971935
 30
0.0
 10
6.6998743601
 20
3.7059534726
 30
0.0
 10
6.6986370839
 20
3.7056078985
 30
0.0
 10
6.6977272134
 20
3.7053947241
 30
0.0
 10
6.6972323176
 20
3.7052862409
 30
0.0
  0
SPLINE
  5
365
100
AcDbEntity
  8
0
100
AcDbSpline
 62
7
  6
CONTINUOUS
 70
0
 71
3
 72
22
 73
18
 74
0
 42
0.0000001
 43
0.0000001
 44
0.0000000001
 40
0.0
 40
0.0
 40
0.0
 40
0.0
 40
0.0091295185
 40
0.0197444529
 40
0.0318445986
 40
0.0454276415
 40
0.0770268164
 40
0.1145057269
 40
0.1578188271
 40
0.2069082994
 40
0.2617120262
 40
0.3221667464
 40
0.388208465
 40
0.4597726944
 40
0.6191571861
 40
0.7995209258
 40
1.0
 40
1.0
 40
1.0
 40
1.0
 10
6.6972323176
 20
3.7052862409
 30
0.0
 10
6.6965262859
 20
3.7051314758
 30
0.0
 10
6.6949925045
 20
3.7048279259
 30
0.0
 10
6.6925067976
 20
3.7044054047
 30
0.0
 10
6.689664225
 20
3.7039819827
 30
0.0
 10
6.6851682787
 20
3.7033861216
 30
0.0
 10
6.6786642281
 20
3.7026554552
 30
0.0
 10
6.6698058161
 20
3.7018128442
 30
0.0
 10
6.6595574673
 20
3.7009681855
 30
0.0
 10
6.647933614
 20
3.7001217257
 30
0.0
 10
6.6349495271
 20
3.699274086
 30
0.0
 10
6.620620805
 20
3.6984255192
 30
0.0
 10
6.6049630645
 20
3.6975761588
 30
0.0
 10
6.5814793352
 20
3.6964002331
 30
0.0
 10
6.5489474284
 20
3.6949471785
 30
0.0
 10
6.5062103251
 20
3.693255359
 30
0.0
 10
6.4760776089
 20
3.6921808497
 30
0.0
 10
6.4602146995
 20
3.6916385953
 30
0.0
  0
LINE
  5
366
100
AcDbEntity
  8
0
100
AcDbLine
 62
7
  6
CONTINUOUS
 10
6.4602146995
 20
3.6916385953
 11
6.4578900952
 21
3.691559301
  0
LINE
  5
367
100
AcDbEntity
  8
0
100
AcDbLine
 62
7
  6
CONTINUOUS
 10
6.4174708582
 20
3.6902299812
 11
6.4054246701
 21
3.6898499131
  0
LINE
  5
368
100
AcDbEntity
  8
0
100
AcDbLine
 62
7
  6
CONTINUOUS
 10
6.4054246701
 20
3.6898499131
 11
6.3857025603
 21
3.6892414841
  0
LINE
  5
369
100
AcDbEntity
  8
0
100
AcDbLine
 62
7
  6
CONTINUOUS
 10
6.3857025603
 20
3.6892414841
 11
6.3487789867
 21
3.6881431677
  0
LINE
  5
36A
100
AcDbEntity
  8
0
100
AcDbLine
 62
7
  6
CONTINUOUS
 10
6.3487789867
 20
3.6881431677
 11
6.3458983108
 21
3.6880594958
  0
SPLINE
  5
36B
100
AcDbEntity
  8
0
100
AcDbSpline
 62
7
  6
CONTINUOUS
 70
0
 71
3
 72
14
 73
10
 74
0
 42
0.0000001
 43
0.0000001
 44
0.0000000001
 40
0.0
 40
0.0
 40
0.0
 40
0.0
 40
0.1047354434
 40
0.2173157653
 40
0.3368236668
 40
0.462293427
 40
0.5925517584
 40
0.7263759238
 40
1.0
 40
1.0
 40
1.0
 40
1.0
 10
6.3458983108
 20
3.6880594958
 30
0.0
 10
6.3189802475
 20
3.6872789105
 30
0.0
 10
6.2631257962
 20
3.68573184
 30
0.0
 10
6.1765511168
 20
3.6834978608
 30
0.0
 10
6.08464365
 20
3.6812619999
 30
0.0
 10
5.9881895652
 20
3.6790266824
 30
0.0
 10
5.8880535824
 20
3.6767905723
 30
0.0
 10
5.7498321324
 20
3.6737860468
 30
0.0
 10
5.6450932809
 20
3.6715684778
 30
0.0
 10
5.5747553529
 20
3.6700786534
 30
0.0
  0
SPLINE
  5
36C
100
AcDbEntity
  8
0
100
AcDbSpline
 62
7
  6
CONTINUOUS
 70
0
 71
3
 72
14
 73
10
 74
0
 42
0.0000001
 43
0.0000001
 44
0.0000000001
 40
0.0
 40
0.0
 40
0.0
 40
0.0
 40
0.277164312
 40
0.4122390605
 40
0.543202386
 40
0.6687403008
 40
0.7875110816
 40
0.8982540056
 40
1.0
 40
1.0
 40
1.0
 40
1.0
 10
5.5747553529
 20
3.6700786534
 30
0.0
 10
5.4998406502
 20
3.6684918885
 30
0.0
 10
5.3884165974
 20
3.6661322562
 30
0.0
 10
5.2415965148
 20
3.662928444
 30
0.0
 10
5.1357605355
 20
3.6605469803
 30
0.0
 10
5.0343334782
 20
3.6581663263
 30
0.0
 10
4.938374541
 20
3.6557875809
 30
0.0
 10
4.8488498564
 20
3.6534092284
 30
0.0
 10
4.7914272159
 20
3.6517514247
 30
0.0
 10
4.7639329038
 20
3.6509134656
 30
0.0
  0
LINE
  5
36D
100
AcDbEntity
  8
0
100
AcDbLine
 62
7
  6
CONTINUOUS
 10
4.7639329038
 20
3.6509134656
 11
4.758235995
 21
3.6507391876
  0
LINE
  5
36E
100
AcDbEntity
  8
0
100
AcDbLine
 62
7
  6
CONTINUOUS
 10
4.7045223326
 20
3.6490245024
 11
4.6885654857
 21
3.6484862107
  0
SPLINE
  5
36F
100
AcDbEntity
  8
0
100
AcDbSpline
 62
7
  6
CONTINUOUS
 70
0
 71
3
 72
11
 73
7
 74
0
 42
0.0000001
 43
0.0000001
 44
0.0000000001
 40
0.0
 40
0.0
 40
0.0
 40
0.0
 40
0.2873292724
 40
0.5504785446
 40
0.7882567756
 40
1.0
 40
1.0
 40
1.0
 40
1.0
 10
4.6885654857
 20
3.6484862107
 30
0.0
 10
4.6750403897
 20
3.6480234826
 30
0.0
 10
4.6491294764
 20
3.6471047259
 30
0.0
 10
4.6120307871
 20
3.6456697741
 30
0.0
 10
4.5784950651
 20
3.6442350596
 30
0.0
 10
4.5573470733
 20
3.6432207436
 30
0.0
 10
4.5473873501
 20
3.6427071071
 30
0.0
  0
SPLINE
  5
370
100
AcDbEntity
  8
0
100
AcDbSpline
 62
7
  6
CONTINUOUS
 70
0
 71
3
 72
33
 73
29
 74
0
 42
0.0000001
 43
0.0000001
 44
0.0000000001
 40
0.0
 40
0.0
 40
0.0
 40
0.0
 40
0.0396010029
 40
0.0593473996
 40
0.078965857
 40
0.0983866055
 40
0.1175498622
 40
0.1550901352
 40
0.1916219482
 40
0.2271037052
 40
0.2615895438
 40
0.2952218701
 40
0.3280908247
 40
0.360269458
 40
0.3918628796
 40
0.4229574333
 40
0.4536150729
 40
0.4838926818
 40
0.5138478894
 40
0.5435268449
 40
0.6600550323
 40
0.6888120456
 40
0.7174508494
 40
0.7744321255
 40
0.8311107868
 40
0.8875601737
 40
0.9438404331
 40
1.0
 40
1.0
 40
1.0
 40
1.0
 10
4.2249417702
 20
7.1857074143
 30
0.0
 10
4.2249417705
 20
7.1800316581
 30
0.0
 10
4.2254100166
 20
7.171517657
 30
0.0
 10
4.2268941057
 20
7.1602947782
 30
0.0
 10
4.2284158911
 20
7.1520041198
 30
0.0
 10
4.2303276096
 20
7.1438807427
 30
0.0
 10
4.2333554365
 20
7.1333949526
 30
0.0
 10
4.2379872301
 20
7.1208376538
 30
0.0
 10
4.2447316803
 20
7.1066373493
 30
0.0
 10
4.2524102672
 20
7.0934263428
 30
0.0
 10
4.2608562721
 20
7.0811971213
 30
0.0
 10
4.2699303501
 20
7.0699060441
 30
0.0
 10
4.2795022562
 20
7.0594817165
 30
0.0
 10
4.289468845
 20
7.04985205
 30
0.0
 10
4.2997712429
 20
7.0409687043
 30
0.0
 10
4.3103522375
 20
7.0327724233
 30
0.0
 10
4.3211569771
 20
7.0251990146
 30
0.0
 10
4.3321478749
 20
7.0181991428
 30
0.0
 10
4.3433006207
 20
7.0117355776
 30
0.0
 10
4.3656254402
 20
6.9999356209
 30
0.0
 10
4.3888216982
 20
6.9901767937
 30
0.0
 10
4.4124197807
 20
6.9821489699
 30
0.0
 10
4.4280722329
 20
6.9772704768
 30
0.0
 10
4.447760847
 20
6.971919779
 30
0.0
 10
4.4715562717
 20
6.9665781868
 30
0.0
 10
4.4954439377
 20
6.9621974327
 30
0.0
 10
4.5194010798
 20
6.9587032327
 30
0.0
 10
4.5354206881
 20
6.9569195625
 30
0.0
 10
4.5434331677
 20
6.9561538063
 30
0.0
  0
SPLINE
  5
371
100
AcDbEntity
  8
0
100
AcDbSpline
 62
7
  6
CONTINUOUS
 70
0
 71
3
 72
41
 73
37
 74
0
 42
0.0000001
 43
0.0000001
 44
0.0000000001
 40
0.0
 40
0.0
 40
0.0
 40
0.0
 40
0.0575072611
 40
0.0862500059
 40
0.114991617
 40
0.1724887983
 40
0.2300477903
 40
0.2877237861
 40
0.3166274548
 40
0.3455883545
 40
0.3746205026
 40
0.4037381895
 40
0.4329585345
 40
0.4623045095
 40
0.5214782596
 40
0.5513842098
 40
0.5815636256
 40
0.6120737656
 40
0.6429811512
 40
0.6586138102
 40
0.6743834593
 40
0.7063806424
 40
0.7226418971
 40
0.7391025587
 40
0.7557870353
 40
0.7727196198
 40
0.7899137473
 40
0.8073868979
 40
0.8251652988
 40
0.8432842134
 40
0.8805969473
 40
0.9192991195
 40
0.9391904149
 40
0.9593539583
 40
0.9796631413
 40
1.0
 40
1.0
 40
1.0
 40
1.0
 10
4.5681473923
 20
6.954187379
 30
0.0
 10
4.5788459441
 20
6.9535053547
 30
0.0
 10
4.5949146964
 20
6.95280685
 30
0.0
 10
4.6163496816
 20
6.9525012352
 30
0.0
 10
4.6377849629
 20
6.9526024064
 30
0.0
 10
4.6645835719
 20
6.9535031579
 30
0.0
 10
4.6967044016
 20
6.9558759102
 30
0.0
 10
4.7234051417
 20
6.9589687442
 30
0.0
 10
4.7447033334
 20
6.9621898124
 30
0.0
 10
4.7606578303
 20
6.9650032146
 30
0.0
 10
4.7765746311
 20
6.9682305938
 30
0.0
 10
4.7924446111
 20
6.9719028177
 30
0.0
 10
4.8082561708
 20
6.9760586827
 30
0.0
 10
4.8292978437
 20
6.9823109051
 30
0.0
 10
4.8501370817
 20
6.9896708417
 30
0.0
 10
4.8706179988
 20
6.9983330232
 30
0.0
 10
4.8858759538
 20
7.0055868255
 30
0.0
 10
4.9009373165
 20
7.0136460819
 30
0.0
 10
4.9132293591
 20
7.0210924789
 30
0.0
 10
4.9228940287
 20
7.0275385266
 30
0.0
 10
4.9325254082
 20
7.0343903985
 30
0.0
 10
4.9419164953
 20
7.0417750773
 30
0.0
 10
4.9509883923
 20
7.0497318832
 30
0.0
 10
4.957680589
 20
7.0560631652
 30
0.0
 10
4.9642059488
 20
7.0627424629
 30
0.0
 10
4.9705450778
 20
7.0697843233
 30
0.0
 10
4.9766627157
 20
7.0772115951
 30
0.0
 10
4.9825203206
 20
7.0850439319
 30
0.0
 10
4.988078965
 20
7.0933008359
 30
0.0
 10
4.995103527
 20
7.1050077325
 30
0.0
 10
5.0028864835
 20
7.1207793791
 30
0.0
 10
5.0088378983
 20
7.1376932674
 30
0.0
 10
5.0123262959
 20
7.1519639724
 30
0.0
 10
5.014269928
 20
7.163056513
 30
0.0
 10
5.015474396
 20
7.1743364419
 30
0.0
 10
5.015753461
 20
7.1819160902
 30
0.0
 10
5.015753461
 20
7.1857072044
 30
0.0
  0
SPLINE
  5
372
100
AcDbEntity
  8
0
100
AcDbSpline
 62
7
  6
CONTINUOUS
 70
0
 71
3
 72
74
 73
70
 74
0
 42
0.0000001
 43
0.0000001
 44
0.0000000001
 40
0.0
 40
0.0
 40
0.0
 40
0.0
 40
0.0078142874
 40
0.0156544018
 40
0.0235113473
 40
0.0313693795
 40
0.039211617
 40
0.047044404
 40
0.0548785974
 40
0.0627163217
 40
0.0705519509
 40
0.0783771152
 40
0.0940129155
 40
0.109657276
 40
0.1174777502
 40
0.125292653
 40
0.1409159956
 40
0.1565414006
 40
0.1643535836
 40
0.1721633682
 40
0.1877797115
 40
0.203397405
 40
0.2190148344
 40
0.2346283447
 40
0.2502410688
 40
0.2658544997
 40
0.2814671912
 40
0.2970780435
 40
0.3126886963
 40
0.343909507
 40
0.3751278923
 40
0.4063466449
 40
0.4219563359
 40
0.4375655871
 40
0.4687833871
 40
0.5000019759
 40
0.5312205944
 40
0.5624388224
 40
0.5780485159
 40
0.5936586954
 40
0.6248779627
 40
0.6560967997
 40
0.6873180582
 40
0.7029288257
 40
0.7185397458
 40
0.7341524894
 40
0.7497659941
 40
0.7653787719
 40
0.7809922711
 40
0.7966096944
 40
0.8122274613
 40
0.8278437721
 40
0.8356534589
 40
0.8434655141
 40
0.8590908265
 40
0.8747141659
 40
0.882529034
 40
0.8903494429
 40
0.9059938617
 40
0.9216295863
 40
0.9372840377
 40
0.9451216884
 40
0.9529558821
 40
0.9607886862
 40
0.9686308772
 40
0.9764888293
 40
0.9843456967
 40
0.9921857438
 40
1.0
 40
1.0
 40
1.0
 40
1.0
 10
5.015753461
 20
7.1857074247
 30
0.0
 10
5.015753461
 20
7.182299404
 30
0.0
 10
5.0160741334
 20
7.1754683596
 30
0.0
 10
5.0174619333
 20
7.1652965975
 30
0.0
 10
5.0197083279
 20
7.1552599982
 30
0.0
 10
5.0227639044
 20
7.1454392774
 30
0.0
 10
5.0265905574
 20
7.1359046274
 30
0.0
 10
5.0311204158
 20
7.1266965261
 30
0.0
 10
5.0362798614
 20
7.1178296376
 30
0.0
 10
5.0420006533
 20
7.1093140255
 30
0.0
 10
5.0482154081
 20
7.101157895
 30
0.0
 10
5.0570764072
 20
7.0907683792
 30
0.0
 10
5.0691302033
 20
7.0786624422
 30
0.0
 10
5.082191963
 20
7.0676704529
 30
0.0
 10
5.0931002855
 20
7.0594746778
 30
0.0
 10
5.104274259
 20
7.0516606269
 30
0.0
 10
5.1187019893
 20
7.0425787468
 30
0.0
 10
5.1336182929
 20
7.034333174
 30
0.0
 10
5.1457811587
 20
7.0281842133
 30
0.0
 10
5.1580782844
 20
7.0223174247
 30
0.0
 10
5.1736847201
 20
7.015492489
 30
0.0
 10
5.1927194089
 20
7.0080505105
 30
0.0
 10
5.2120025901
 20
7.0012846224
 30
0.0
 10
5.2314855375
 20
6.9951270558
 30
0.0
 10
5.2511370977
 20
6.9895387423
 30
0.0
 10
5.2709296909
 20
6.984475856
 30
0.0
 10
5.2908377209
 20
6.979893247
 30
0.0
 10
5.3108408575
 20
6.9757523301
 30
0.0
 10
5.3376190341
 20
6.9707882365
 30
0.0
 10
5.3712628922
 20
6.9655589555
 30
0.0
 10
5.411818325
 20
6.9606357027
 30
0.0
 10
5.4457231265
 20
6.9575656822
 30
0.0
 10
5.4728884057
 20
6.9556692962
 30
0.0
 10
5.5000759802
 20
6.9541313021
 30
0.0
 10
5.5340944766
 20
6.9528713805
 30
0.0
 10
5.574940894
 20
6.9523772971
 30
0.0
 10
5.6157875753
 20
6.9528685058
 30
0.0
 10
5.6498063889
 20
6.9541307556
 30
0.0
 10
5.6769945516
 20
6.9556686217
 30
0.0
 10
5.7041605764
 20
6.9575634228
 30
0.0
 10
5.738065943
 20
6.9606345219
 30
0.0
 10
5.7786218319
 20
6.9655590026
 30
0.0
 10
5.8122660993
 20
6.9707885376
 30
0.0
 10
5.8390444429
 20
6.9757532473
 30
0.0
 10
5.8590475983
 20
6.979894576
 30
0.0
 10
5.878955635
 20
6.984477526
 30
0.0
 10
5.898748296
 20
6.9895404529
 30
0.0
 10
5.9183999588
 20
6.9951285864
 30
0.0
 10
5.9378830158
 20
7.001285854
 30
0.0
 10
5.9571664231
 20
7.0080511538
 30
0.0
 10
5.9762015434
 20
7.0154920623
 30
0.0
 10
5.9918082379
 20
7.0223163679
 30
0.0
 10
6.0041052872
 20
7.0281830631
 30
0.0
 10
6.01626786
 20
7.0343322984
 30
0.0
 10
6.0311837712
 20
7.0425783968
 30
0.0
 10
6.0456110937
 20
7.0516607716
 30
0.0
 10
6.0567848818
 20
7.0594750782
 30
0.0
 10
6.0676929864
 20
7.0676708269
 30
0.0
 10
6.0807561237
 20
7.0786630895
 30
0.0
 10
6.095219981
 20
7.0931884669
 30
0.0
 10
6.1059824049
 20
7.1064815229
 30
0.0
 10
6.1136049213
 20
7.1178289678
 30
0.0
 10
6.1187638031
 20
7.1266963943
 30
0.0
 10
6.1232931058
 20
7.1359046859
 30
0.0
 10
6.1271194907
 20
7.1454393991
 30
0.0
 10
6.1301750154
 20
7.1552600333
 30
0.0
 10
6.1324214677
 20
7.1652965181
 30
0.0
 10
6.1338093693
 20
7.1754681884
 30
0.0
 10
6.1341300794
 20
7.1822991903
 30
0.0
 10
6.1341300794
 20
7.1857071974
 30
0.0
  0
SPLINE
  5
373
100
AcDbEntity
  8
0
100
AcDbSpline
 62
7
  6
CONTINUOUS
 70
0
 71
3
 72
74
 73
70
 74
0
 42
0.0000001
 43
0.0000001
 44
0.0000000001
 40
0.0
 40
0.0
 40
0.0
 40
0.0
 40
0.0078143068
 40
0.0156544614
 40
0.0235114526
 40
0.0313695315
 40
0.0392117974
 40
0.0470445768
 40
0.0548787728
 40
0.0627165418
 40
0.070552275
 40
0.0783775461
 40
0.0940133764
 40
0.1096576921
 40
0.1174782014
 40
0.1252931265
 40
0.1409164722
 40
0.1565419104
 40
0.1643541491
 40
0.172163977
 40
0.1877803336
 40
0.2033979999
 40
0.2190154476
 40
0.2346289812
 40
0.2502417035
 40
0.2658551396
 40
0.28146787
 40
0.2970787384
 40
0.312689382
 40
0.3439102049
 40
0.3751286253
 40
0.4063473723
 40
0.4219570773
 40
0.4375663375
 40
0.4687841291
 40
0.5000026984
 40
0.5312213067
 40
0.5624395195
 40
0.5780492028
 40
0.5936593817
 40
0.6248786847
 40
0.6560975104
 40
0.6873187566
 40
0.702929527
 40
0.718540428
 40
0.7341531384
 40
0.7497666499
 40
0.7653794378
 40
0.7809929107
 40
0.796610299
 40
0.8122280853
 40
0.8278443948
 40
0.8356540535
 40
0.8434660728
 40
0.8590913964
 40
0.8747147347
 40
0.882529551
 40
0.8903498702
 40
0.9059942345
 40
0.9216299478
 40
0.937284321
 40
0.9451219788
 40
0.9529561705
 40
0.9607889277
 40
0.9686310074
 40
0.9764888517
 40
0.9843456701
 40
0.9921857237
 40
1.0
 40
1.0
 40
1.0
 40
1.0
 10
6.1341300794
 20
7.5607072981
 30
0.0
 10
6.1341300794
 20
7.5641153283
 30
0.0
 10
6.1338094353
 20
7.5709464003
 30
0.0
 10
6.1324217151
 20
7.5811182227
 30
0.0
 10
6.1301753764
 20
7.591154898
 30
0.0
 10
6.1271197863
 20
7.6009756761
 30
0.0
 10
6.1232929751
 20
7.6105103034
 30
0.0
 10
6.1187627875
 20
7.6197182618
 30
0.0
 10
6.1136029509
 20
7.6285849468
 30
0.0
 10
6.107881769
 20
7.6371003788
 30
0.0
 10
6.1016667055
 20
7.645256413
 30
0.0
 10
6.0928055942
 20
7.6556459688
 30
0.0
 10
6.0807520656
 20
7.6677522158
 30
0.0
 10
6.0676905831
 20
7.6787445712
 30
0.0
 10
6.0567822957
 20
7.6869404116
 30
0.0
 10
6.0456083136
 20
7.6947545037
 30
0.0
 10
6.0311805303
 20
7.7038363609
 30
0.0
 10
6.0162641301
 20
7.7120818553
 30
0.0
 10
6.0041011484
 20
7.7182307227
 30
0.0
 10
5.9918039704
 20
7.7240975227
 30
0.0
 10
5.9761975885
 20
7.7309226194
 30
0.0
 10
5.9571629854
 20
7.7383648443
 30
0.0
 10
5.937879787
 20
7.7451307288
 30
0.0
 10
5.9183967822
 20
7.7512881924
 30
0.0
 10
5.8987451671
 20
7.7568763785
 30
0.0
 10
5.8789524958
 20
7.7619390642
 30
0.0
 10
5.8590443499
 20
7.7665213149
 30
0.0
 10
5.8390411412
 20
7.7706620049
 30
0.0
 10
5.8122629246
 20
7.7756259718
 30
0.0
 10
5.778619032
 20
7.7808551754
 30
0.0
 10
5.7380636519
 20
7.7857790482
 30
0.0
 10
5.7041588846
 20
7.788849818
 30
0.0
 10
5.6769935928
 20
7.7907462685
 30
0.0
 10
5.6498060053
 20
7.7922842822
 30
0.0
 10
5.6157875019
 20
7.7935441542
 30
0.0
 10
5.5749410794
 20
7.7940376287
 30
0.0
 10
5.5340944139
 20
7.7935459928
 30
0.0
 10
5.5000756107
 20
7.7922836105
 30
0.0
 10
5.4728874635
 20
7.790745515
 30
0.0
 10
5.4457214387
 20
7.7888504502
 30
0.0
 10
5.4118160538
 20
7.7857793414
 30
0.0
 10
5.3712601658
 20
7.7808546988
 30
0.0
 10
5.3376158969
 20
7.7756251937
 30
0.0
 10
5.3108375165
 20
7.7706607075
 30
0.0
 10
5.290834352
 20
7.7665194943
 30
0.0
 10
5.2709263287
 20
7.761936548
 30
0.0
 10
5.2511336341
 20
7.7568737609
 30
0.0
 10
5.2314819275
 20
7.7512857726
 30
0.0
 10
5.2119988668
 20
7.7451285655
 30
0.0
 10
5.1927154804
 20
7.7383632458
 30
0.0
 10
5.1736803098
 20
7.7309224725
 30
0.0
 10
5.1580735985
 20
7.7240981965
 30
0.0
 10
5.145776618
 20
7.7182314118
 30
0.0
 10
5.1336141627
 20
7.7120819857
 30
0.0
 10
5.1186983564
 20
7.7038357131
 30
0.0
 10
5.104271156
 20
7.6947531671
 30
0.0
 10
5.0930975345
 20
7.6869387224
 30
0.0
 10
5.0821896616
 20
7.6787428013
 30
0.0
 10
5.0691266275
 20
7.6677505295
 30
0.0
 10
5.054662637
 20
7.653225377
 30
0.0
 10
5.0438999172
 20
7.6399326084
 30
0.0
 10
5.0362770985
 20
7.6285853996
 30
0.0
 10
5.0311180188
 20
7.6197181035
 30
0.0
 10
5.0265886445
 20
7.6105099176
 30
0.0
 10
5.0227623897
 20
7.6009752654
 30
0.0
 10
5.0197073142
 20
7.5911546032
 30
0.0
 10
5.0174614291
 20
7.5811180551
 30
0.0
 10
5.0160740208
 20
7.5709463285
 30
0.0
 10
5.015753461
 20
7.564115315
 30
0.0
 10
5.015753461
 20
7.5607072981
 30
0.0
  0
SPLINE
  5
374
100
AcDbEntity
  8
0
100
AcDbSpline
 62
7
  6
CONTINUOUS
 70
0
 71
3
 72
40
 73
36
 74
0
 42
0.0000001
 43
0.0000001
 44
0.0000000001
 40
0.0
 40
0.0
 40
0.0
 40
0.0
 40
0.0203252917
 40
0.0406241035
 40
0.0607806372
 40
0.0806702846
 40
0.1002067292
 40
0.1193956332
 40
0.1567239139
 40
0.1926339344
 40
0.2101185584
 40
0.2273245046
 40
0.2442702396
 40
0.2609684791
 40
0.2774414698
 40
0.2937138652
 40
0.3257314101
 40
0.3415112359
 40
0.357153232
 40
0.3880759276
 40
0.4185980451
 40
0.4337320622
 40
0.4487895498
 40
0.4787020667
 40
0.5083893963
 40
0.5378910635
 40
0.5964466613
 40
0.6545802838
 40
0.7124242883
 40
0.7700785414
 40
0.8276116691
 40
0.8850791695
 40
0.913804554
 40
0.942530137
 40
1.0
 40
1.0
 40
1.0
 40
1.0
 10
6.1341300794
 20
7.1857074275
 30
0.0
 10
6.1341300794
 20
7.1819427782
 30
0.0
 10
6.1344055635
 20
7.1744158719
 30
0.0
 10
6.1355946049
 20
7.1632129073
 30
0.0
 10
6.1375132671
 20
7.1521933503
 30
0.0
 10
6.1401186849
 20
7.1414612328
 30
0.0
 10
6.1433716448
 20
7.1310951651
 30
0.0
 10
6.1484262134
 20
7.1179384876
 30
0.0
 10
6.1559751059
 20
7.1025287877
 30
0.0
 10
6.1649686147
 20
7.0882976025
 30
0.0
 10
6.172765614
 20
7.0777945904
 30
0.0
 10
6.1788213081
 20
7.0703874086
 30
0.0
 10
6.1850991356
 20
7.0633626296
 30
0.0
 10
6.1915633322
 20
7.0566972662
 30
0.0
 10
6.1981931135
 20
7.0503761078
 30
0.0
 10
6.2071814194
 20
7.042429255
 30
0.0
 10
6.2164884887
 20
7.0350493497
 30
0.0
 10
6.2260374754
 20
7.0281998942
 30
0.0
 10
6.2356195501
 20
7.0217528718
 30
0.0
 10
6.2478073896
 20
7.0142999178
 30
0.0
 10
6.2602907575
 20
7.0075524923
 30
0.0
 10
6.2703708235
 20
7.0025655769
 30
0.0
 10
6.2804586757
 20
6.9978554342
 30
0.0
 10
6.2931770013
 20
6.9924164736
 30
0.0
 10
6.3086057904
 20
6.9865469573
 30
0.0
 10
6.329267402
 20
6.9795548786
 30
0.0
 10
6.3553414316
 20
6.9721771112
 30
0.0
 10
6.3869299742
 20
6.9652344054
 30
0.0
 10
6.4186637794
 20
6.959937827
 30
0.0
 10
6.4504967454
 20
6.9561363626
 30
0.0
 10
6.4823889717
 20
6.9536673802
 30
0.0
 10
6.5089987014
 20
6.9526742311
 30
0.0
 10
6.5302842214
 20
6.9524909879
 30
0.0
 10
6.5515696115
 20
6.9527093677
 30
0.0
 10
6.5675278503
 20
6.9533355828
 30
0.0
 10
6.5781537703
 20
6.9539653252
 30
0.0
  0
SPLINE
  5
375
100
AcDbEntity
  8
0
100
AcDbSpline
 62
7
  6
CONTINUOUS
 70
0
 71
3
 72
36
 73
32
 74
0
 42
0.0000001
 43
0.0000001
 44
0.0000000001
 40
0.0
 40
0.0
 40
0.0
 40
0.0
 40
0.0561879909
 40
0.1124929163
 40
0.1689625431
 40
0.2256571042
 40
0.2826485442
 40
0.3112897215
 40
0.3400476721
 40
0.3979751752
 40
0.4271964066
 40
0.4566263557
 40
0.4862962136
 40
0.5162400491
 40
0.5465033011
 40
0.5771435488
 40
0.6082198465
 40
0.639793298
 40
0.6719490355
 40
0.6882809769
 40
0.7047976762
 40
0.7384083029
 40
0.7728726053
 40
0.8083335854
 40
0.8448569696
 40
0.8823981259
 40
0.9015634324
 40
0.9209888446
 40
0.9406156772
 40
0.9603730694
 40
1.0
 40
1.0
 40
1.0
 40
1.0
 10
6.603558785
 20
6.955881229
 30
0.0
 10
6.6116328899
 20
6.9566219535
 30
0.0
 10
6.6277761208
 20
6.958357392
 30
0.0
 10
6.651920435
 20
6.9617850333
 30
0.0
 10
6.6759962508
 20
6.9661062383
 30
0.0
 10
6.6999813112
 20
6.9713918099
 30
0.0
 10
6.7198300596
 20
6.9767000458
 30
0.0
 10
6.7356102581
 20
6.9815489823
 30
0.0
 10
6.7513883195
 20
6.9868448305
 30
0.0
 10
6.7670194889
 20
6.9928284965
 30
0.0
 10
6.7824301808
 20
6.9995804061
 30
0.0
 10
6.7939294675
 20
7.0050816809
 30
0.0
 10
6.8053180616
 20
7.0110378205
 30
0.0
 10
6.8165710266
 20
7.0174928677
 30
0.0
 10
6.8276626736
 20
7.0244884854
 30
0.0
 10
6.8385672401
 20
7.0320634944
 30
0.0
 10
6.8492494808
 20
7.0402649707
 30
0.0
 10
6.8596534025
 20
7.0491586878
 30
0.0
 10
6.8680007442
 20
7.0571561157
 30
0.0
 10
6.8744766404
 20
7.0639440476
 30
0.0
 10
6.8808783759
 20
7.07108649
 30
0.0
 10
6.8885693967
 20
7.0805790545
 30
0.0
 10
6.8971140198
 20
7.0928519345
 30
0.0
 10
6.9048842654
 20
7.1061220419
 30
0.0
 10
6.9117119503
 20
7.1203971694
 30
0.0
 10
6.9164044137
 20
7.1330287367
 30
0.0
 10
6.9194746999
 20
7.1435809333
 30
0.0
 10
6.9214143194
 20
7.1517585143
 30
0.0
 10
6.922958866
 20
7.1601070467
 30
0.0
 10
6.9244658974
 20
7.1714114337
 30
0.0
 10
6.9249417702
 20
7.1799889808
 30
0.0
 10
6.9249417702
 20
7.1857072061
 30
0.0
  0
SPLINE
  5
376
100
AcDbEntity
  8
0
100
AcDbSpline
 62
7
  6
CONTINUOUS
 70
0
 71
3
 72
69
 73
65
 74
0
 42
0.0000001
 43
0.0000001
 44
0.0000000001
 40
0.0
 40
0.0
 40
0.0
 40
0.0
 40
0.0201375417
 40
0.0301542955
 40
0.0400676328
 40
0.0498305761
 40
0.0594342154
 40
0.0781728649
 40
0.087309671
 40
0.0962824747
 40
0.1137811048
 40
0.1307716462
 40
0.1390965008
 40
0.1473153364
 40
0.1634734223
 40
0.1793172222
 40
0.1871374321
 40
0.1948957693
 40
0.2102482591
 40
0.2254158642
 40
0.2404281522
 40
0.2553077612
 40
0.2700770729
 40
0.2847545728
 40
0.2993541913
 40
0.3138873721
 40
0.3283653287
 40
0.3571881652
 40
0.3858786758
 40
0.4144786478
 40
0.4287550735
 40
0.4430192322
 40
0.4715211292
 40
0.5000061864
 40
0.5284912867
 40
0.5569936308
 40
0.571258183
 40
0.5855350112
 40
0.6141355026
 40
0.6428264411
 40
0.6716496949
 40
0.6861277858
 40
0.7006610242
 40
0.7152606564
 40
0.7299382065
 40
0.7447075092
 40
0.7595869657
 40
0.7897590488
 40
0.8051113541
 40
0.8128695794
 40
0.820689732
 40
0.8365338276
 40
0.8526922835
 40
0.8609111335
 40
0.8692358397
 40
0.8862261775
 40
0.9037242822
 40
0.9218277249
 40
0.9405664833
 40
0.9501701757
 40
0.9599329042
 40
0.969845969
 40
0.9798625495
 40
1.0
 40
1.0
 40
1.0
 40
1.0
 10
6.9249417702
 20
7.5607072981
 30
0.0
 10
6.9249417702
 20
7.5675139468
 30
0.0
 10
6.9242691269
 20
7.5777199953
 30
0.0
 10
6.9221550588
 20
7.5911020332
 30
0.0
 10
6.9200007718
 20
7.600911293
 30
0.0
 10
6.917301303
 20
7.6104390508
 30
0.0
 10
6.9130736074
 20
7.6226112181
 30
0.0
 10
6.9079310177
 20
7.6342199242
 30
0.0
 10
6.902025717
 20
7.6451901855
 30
0.0
 10
6.8958120285
 20
7.6555030299
 30
0.0
 10
6.8873598757
 20
7.6675446254
 30
0.0
 10
6.8780523022
 20
7.678647069
 30
0.0
 10
6.8702842081
 20
7.6869043195
 30
0.0
 10
6.8624251858
 20
7.6946799941
 30
0.0
 10
6.852269227
 20
7.7037341388
 30
0.0
 10
6.8416626734
 20
7.7120352611
 30
0.0
 10
6.8330223924
 20
7.7182138676
 30
0.0
 10
6.8243552408
 20
7.7240627682
 30
0.0
 10
6.8133483047
 20
7.7308751464
 30
0.0
 10
6.7998768267
 20
7.738328202
 30
0.0
 10
6.7862307811
 20
7.7451025326
 30
0.0
 10
6.772446365
 20
7.751266077
 30
0.0
 10
6.7585432598
 20
7.7568594151
 30
0.0
 10
6.7445409508
 20
7.7619263419
 30
0.0
 10
6.7304580974
 20
7.7665118312
 30
0.0
 10
6.7163092819
 20
7.7706548564
 30
0.0
 10
6.6973980944
 20
7.7756137066
 30
0.0
 10
6.6736216338
 20
7.7808432821
 30
0.0
 10
6.6449259773
 20
7.7857723385
 30
0.0
 10
6.6209247278
 20
7.788847481
 30
0.0
 10
6.6017033191
 20
7.7907451914
 30
0.0
 10
6.5824829484
 20
7.7922830063
 30
0.0
 10
6.558426833
 20
7.7935434918
 30
0.0
 10
6.5295352424
 20
7.79403742
 30
0.0
 10
6.5006434126
 20
7.7935455619
 30
0.0
 10
6.4765871114
 20
7.7922826587
 30
0.0
 10
6.4573663508
 20
7.7907446396
 30
0.0
 10
6.4381443821
 20
7.7888480597
 30
0.0
 10
6.4141427266
 20
7.7857722816
 30
0.0
 10
6.3854467928
 20
7.7808421941
 30
0.0
 10
6.3616700241
 20
7.7756125118
 30
0.0
 10
6.3427586622
 20
7.770653499
 30
0.0
 10
6.3286098465
 20
7.7665102436
 30
0.0
 10
6.3145270615
 20
7.7619243289
 30
0.0
 10
6.3005247561
 20
7.7568576723
 30
0.0
 10
6.2866211547
 20
7.7512645811
 30
0.0
 10
6.2681594165
 20
7.7430103467
 30
0.0
 10
6.2500325543
 20
7.7335455606
 30
0.0
 10
6.2347118945
 20
7.7240641384
 30
0.0
 10
6.2260448887
 20
7.7182150069
 30
0.0
 10
6.2174051405
 20
7.7120356299
 30
0.0
 10
6.2067991162
 20
7.7037334734
 30
0.0
 10
6.1966436928
 20
7.6946784083
 30
0.0
 10
6.1887850563
 20
7.6869022095
 30
0.0
 10
6.1810174793
 20
7.678644722
 30
0.0
 10
6.1717091592
 20
7.6675427123
 30
0.0
 10
6.1614819241
 20
7.6529737604
 30
0.0
 10
6.1523674182
 20
7.6369949457
 30
0.0
 10
6.145995996
 20
7.6226113258
 30
0.0
 10
6.1417687536
 20
7.6104386065
 30
0.0
 10
6.1390696564
 20
7.6009109815
 30
0.0
 10
6.1369158274
 20
7.5911018253
 30
0.0
 10
6.1348023967
 20
7.5777198763
 30
0.0
 10
6.1341300794
 20
7.5675139159
 30
0.0
 10
6.1341300794
 20
7.5607072981
 30
0.0
  0
SPLINE
  5
377
100
AcDbEntity
  8
0
100
AcDbSpline
 62
7
  6
CONTINUOUS
 70
0
 71
3
 72
69
 73
65
 74
0
 42
0.0000001
 43
0.0000001
 44
0.0000000001
 40
0.0
 40
0.0
 40
0.0
 40
0.0
 40
0.020137513
 40
0.0301542316
 40
0.0400675231
 40
0.0498304334
 40
0.0594340875
 40
0.0781727876
 40
0.0873095751
 40
0.0962823483
 40
0.113781003
 40
0.1307715838
 40
0.1390964228
 40
0.1473152504
 40
0.1634733482
 40
0.1793171467
 40
0.1871373295
 40
0.194895636
 40
0.2102480825
 40
0.2254156579
 40
0.2404279011
 40
0.2553074692
 40
0.2700767683
 40
0.2847542761
 40
0.2993539103
 40
0.3138871232
 40
0.3283651218
 40
0.3571880234
 40
0.385878561
 40
0.4144785575
 40
0.4287549919
 40
0.443019158
 40
0.4715210821
 40
0.5000061958
 40
0.5284913676
 40
0.5569937463
 40
0.5712582975
 40
0.5855351213
 40
0.6141356209
 40
0.642826572
 40
0.6716498544
 40
0.6861279582
 40
0.7006611984
 40
0.715260825
 40
0.7299383798
 40
0.7447076869
 40
0.7595871396
 40
0.7897592513
 40
0.8051115748
 40
0.8128698
 40
0.8206899499
 40
0.836534068
 40
0.8526925388
 40
0.860911378
 40
0.8692360625
 40
0.8862264086
 40
0.9037244933
 40
0.9218278453
 40
0.940566633
 40
0.9501703315
 40
0.9599330169
 40
0.9698460287
 40
0.9798625728
 40
1.0
 40
1.0
 40
1.0
 40
1.0
 10
5.015753461
 20
7.5607072981
 30
0.0
 10
5.015753461
 20
7.5675139375
 30
0.0
 10
5.015080774
 20
7.5777199651
 30
0.0
 10
5.0129666346
 20
7.5911019547
 30
0.0
 10
5.0108123069
 20
7.6009111665
 30
0.0
 10
5.0081128342
 20
7.6104388999
 30
0.0
 10
5.0038852199
 20
7.622611106
 30
0.0
 10
4.9987427939
 20
7.6342199
 30
0.0
 10
4.99283765
 20
7.6451902482
 30
0.0
 10
4.9866240584
 20
7.6555031434
 30
0.0
 10
4.9781719277
 20
7.6675447728
 30
0.0
 10
4.9688643763
 20
7.6786472537
 30
0.0
 10
4.9610963604
 20
7.686904586
 30
0.0
 10
4.9532373813
 20
7.6946803007
 30
0.0
 10
4.9430814285
 20
7.703734457
 30
0.0
 10
4.9324748669
 20
7.7120355604
 30
0.0
 10
4.9238346136
 20
7.7182141725
 30
0.0
 10
4.9151674615
 20
7.7240630138
 30
0.0
 10
4.9041604572
 20
7.7308752213
 30
0.0
 10
4.8906888758
 20
7.7383280079
 30
0.0
 10
4.8770427932
 20
7.7451021761
 30
0.0
 10
4.8632583366
 20
7.7512655521
 30
0.0
 10
4.8493551778
 20
7.7568587175
 30
0.0
 10
4.8353528326
 20
7.7619255526
 30
0.0
 10
4.8212699919
 20
7.7665111398
 30
0.0
 10
4.8071211925
 20
7.7706543312
 30
0.0
 10
4.78821002
 20
7.7756134267
 30
0.0
 10
4.7644335877
 20
7.7808433591
 30
0.0
 10
4.7357378904
 20
7.7857724623
 30
0.0
 10
4.7117365895
 20
7.7888473858
 30
0.0
 10
4.6925151504
 20
7.790744939
 30
0.0
 10
4.67329475
 20
7.7922825825
 30
0.0
 10
4.6492385933
 20
7.7935428841
 30
0.0
 10
4.6203469519
 20
7.7940367628
 30
0.0
 10
4.5914550624
 20
7.7935453397
 30
0.0
 10
4.5673986995
 20
7.7922828473
 30
0.0
 10
4.5481779199
 20
7.7907449074
 30
0.0
 10
4.5289559586
 20
7.788848228
 30
0.0
 10
4.5049543015
 20
7.7857724057
 30
0.0
 10
4.4762583778
 20
7.780842146
 30
0.0
 10
4.4524815992
 20
7.7756124307
 30
0.0
 10
4.4335702041
 20
7.7706534825
 30
0.0
 10
4.4194213761
 20
7.7665102521
 30
0.0
 10
4.4053385992
 20
7.7619243092
 30
0.0
 10
4.3913362738
 20
7.7568577039
 30
0.0
 10
4.3774326472
 20
7.7512646663
 30
0.0
 10
4.3589709055
 20
7.7430104094
 30
0.0
 10
4.3408440567
 20
7.7335455655
 30
0.0
 10
4.3255233857
 20
7.7240641283
 30
0.0
 10
4.3168564063
 20
7.7182149464
 30
0.0
 10
4.3082167049
 20
7.7120354915
 30
0.0
 10
4.2976106939
 20
7.7037333001
 30
0.0
 10
4.2874552686
 20
7.6946782223
 30
0.0
 10
4.2795966473
 20
7.686902015
 30
0.0
 10
4.2718291072
 20
7.6786445034
 30
0.0
 10
4.2625207397
 20
7.6675425521
 30
0.0
 10
4.2522934242
 20
7.6529736928
 30
0.0
 10
4.2431790125
 20
7.6369948471
 30
0.0
 10
4.2368077395
 20
7.622611182
 30
0.0
 10
4.2325805463
 20
7.6104384492
 30
0.0
 10
4.2298814374
 20
7.6009108593
 30
0.0
 10
4.2277275808
 20
7.5911017544
 30
0.0
 10
4.2256141094
 20
7.5777198495
 30
0.0
 10
4.2249417702
 20
7.5675139085
 30
0.0
 10
4.2249417702
 20
7.5607072981
 30
0.0
  0
SPLINE
  5
378
100
AcDbEntity
  8
0
100
AcDbSpline
 62
7
  6
CONTINUOUS
 70
0
 71
3
 72
38
 73
34
 74
0
 42
0.0000001
 43
0.0000001
 44
0.0000000001
 40
0.0
 40
0.0
 40
0.0
 40
0.0
 40
0.0005259469
 40
0.0011845955
 40
0.0019797227
 40
0.0029133717
 40
0.0039867261
 40
0.0052005007
 40
0.0080507934
 40
0.0114661515
 40
0.0154469738
 40
0.0199929942
 40
0.0251028446
 40
0.0307733148
 40
0.037000815
 40
0.0511119686
 40
0.0674059536
 40
0.0858511959
 40
0.1064058593
 40
0.1290184488
 40
0.1536369618
 40
0.1802090661
 40
0.2086744483
 40
0.2389632658
 40
0.3047293095
 40
0.3769117146
 40
0.4548384129
 40
0.537799319
 40
0.625011686
 40
0.7156779164
 40
0.8089925559
 40
0.9041035043
 40
1.0
 40
1.0
 40
1.0
 40
1.0
 10
4.3568659617
 20
3.7119541116
 30
0.0
 10
4.3570508066
 20
3.7120613778
 30
0.0
 10
4.3574868514
 20
3.7122685658
 30
0.0
 10
4.3582415029
 20
3.7125484177
 30
0.0
 10
4.3591701916
 20
3.7128305498
 30
0.0
 10
4.3602730665
 20
3.7131145075
 30
0.0
 10
4.3615504776
 20
3.7133999625
 30
0.0
 10
4.3635987051
 20
3.7138040553
 30
0.0
 10
4.3665977623
 20
3.7143003138
 30
0.0
 10
4.3707220795
 20
3.7148726069
 30
0.0
 10
4.3755408737
 20
3.7154465736
 30
0.0
 10
4.3810523466
 20
3.7160207293
 30
0.0
 10
4.3872537681
 20
3.7165937245
 30
0.0
 10
4.3941410934
 20
3.7171659637
 30
0.0
 10
4.4046797708
 20
3.7179614655
 30
0.0
 10
4.4195332686
 20
3.71893959
 30
0.0
 10
4.439351004
 20
3.7200722602
 30
0.0
 10
4.4617905921
 20
3.7212080791
 30
0.0
 10
4.4868004288
 20
3.7223474625
 30
0.0
 10
4.5143209691
 20
3.7234891739
 30
0.0
 10
4.5442885019
 20
3.7246323705
 30
0.0
 10
4.5766358461
 20
3.7257758988
 30
0.0
 10
4.6112886057
 20
3.7269193741
 30
0.0
 10
4.6618620275
 20
3.7284876916
 30
0.0
 10
4.7301962729
 20
3.7304301005
 30
0.0
 10
4.8178857888
 20
3.7327053327
 30
0.0
 10
4.9125643594
 20
3.7349842667
 30
0.0
 10
5.0133518126
 20
3.7372655869
 30
0.0
 10
5.119317135
 20
3.739546001
 30
0.0
 10
5.2294906076
 20
3.7418228537
 30
0.0
 10
5.342874071
 20
3.7441090208
 30
0.0
 10
5.4583828893
 20
3.7464123512
 30
0.0
 10
5.5359822851
 20
3.7479282208
 30
0.0
 10
5.5749417702
 20
3.7486779535
 30
0.0
  0
SPLINE
  5
379
100
AcDbEntity
  8
0
100
AcDbSpline
 62
7
  6
CONTINUOUS
 70
0
 71
3
 72
33
 73
29
 74
0
 42
0.0000001
 43
0.0000001
 44
0.0000000001
 40
0.0
 40
0.0
 40
0.0
 40
0.0
 40
0.0005180416
 40
0.0010660422
 40
0.0023427267
 40
0.0039690116
 40
0.0060104253
 40
0.0085001644
 40
0.0114565593
 40
0.0148906469
 40
0.0188095803
 40
0.0281196656
 40
0.0394117151
 40
0.052689617
 40
0.0679493323
 40
0.085184155
 40
0.1043858258
 40
0.1255451205
 40
0.148652184
 40
0.2006679521
 40
0.260347732
 40
0.3275933334
 40
0.4022928225
 40
0.4843325161
 40
0.5735980933
 40
0.6699740078
 40
0.773306181
 40
1.0
 40
1.0
 40
1.0
 40
1.0
 10
6.7024386686
 20
3.8388207747
 30
0.0
 10
6.7024385494
 20
3.8387791933
 30
0.0
 10
6.7024275132
 20
3.8386933372
 30
0.0
 10
6.7023601445
 20
3.8385162363
 30
0.0
 10
6.7021845494
 20
3.8382950147
 30
0.0
 10
6.7018699393
 20
3.8380505059
 30
0.0
 10
6.7014387954
 20
3.8378062737
 30
0.0
 10
6.7008890437
 20
3.8375620179
 30
0.0
 10
6.7002192331
 20
3.8373170839
 30
0.0
 10
6.6994287068
 20
3.8370716462
 30
0.0
 10
6.698137044
 20
3.8367235822
 30
0.0
 10
6.6962143536
 20
3.836298545
 30
0.0
 10
6.693538705
 20
3.8358106027
 30
0.0
 10
6.6903790931
 20
3.8353210668
 30
0.0
 10
6.6867378544
 20
3.8348301804
 30
0.0
 10
6.6826174697
 20
3.8343384465
 30
0.0
 10
6.6780206395
 20
3.8338460798
 30
0.0
 10
6.6729500869
 20
3.8333532152
 30
0.0
 10
6.6652521658
 20
3.8326682427
 30
0.0
 10
6.6544647859
 20
3.8318226212
 30
0.0
 10
6.6401351636
 20
3.8308410172
 30
0.0
 10
6.6239811313
 20
3.8298577214
 30
0.0
 10
6.6060294722
 20
3.8288729794
 30
0.0
 10
6.5863079868
 20
3.8278872671
 30
0.0
 10
6.5648446563
 20
3.8269008265
 30
0.0
 10
6.5416705978
 20
3.8259140362
 30
0.0
 10
6.5074715666
 20
3.8245557712
 30
0.0
 10
6.4809984483
 20
3.8236026495
 30
0.0
 10
6.4628131559
 20
3.8229782066
 30
0.0
  0
LINE
  5
37A
100
AcDbEntity
  8
0
100
AcDbLine
 62
7
  6
CONTINUOUS
 10
6.4628131559
 20
3.8229782066
 11
6.4603669463
 21
3.8228943962
  0
SPLINE
  5
37B
100
AcDbEntity
  8
0
100
AcDbSpline
 62
7
  6
CONTINUOUS
 70
0
 71
3
 72
13
 73
9
 74
0
 42
0.0000001
 43
0.0000001
 44
0.0000000001
 40
0.0
 40
0.0
 40
0.0
 40
0.0
 40
0.1038881294
 40
0.2160305719
 40
0.3353961149
 40
0.4608373335
 40
0.7253919489
 40
1.0
 40
1.0
 40
1.0
 40
1.0
 10
6.3575029056
 20
3.8196464956
 30
0.0
 10
6.3304076107
 20
3.8188493641
 30
0.0
 10
6.2740618816
 20
3.8172700881
 30
0.0
 10
6.1865781184
 20
3.8149967119
 30
0.0
 10
6.0934688677
 20
3.8127222161
 30
0.0
 10
5.9605996212
 20
3.8096319934
 30
0.0
 10
5.7872295144
 20
3.8058261801
 30
0.0
 10
5.6465799645
 20
3.8028489878
 30
0.0
 10
5.5749438921
 20
3.8013322981
 30
0.0
  0
SPLINE
  5
37C
100
AcDbEntity
  8
0
100
AcDbSpline
 62
7
  6
CONTINUOUS
 70
0
 71
3
 72
38
 73
34
 74
0
 42
0.0000001
 43
0.0000001
 44
0.0000000001
 40
0.0
 40
0.0
 40
0.0
 40
0.0
 40
0.0005387372
 40
0.0012095733
 40
0.0020164002
 40
0.0029613538
 40
0.0040456866
 40
0.0052701637
 40
0.0081411774
 40
0.0115765073
 40
0.0155766821
 40
0.0201415193
 40
0.0252695946
 40
0.0309575944
 40
0.03720187
 40
0.0513441595
 40
0.0676658947
 40
0.0861353506
 40
0.1067104857
 40
0.1293399178
 40
0.1539717878
 40
0.1805538739
 40
0.2090257999
 40
0.2393178165
 40
0.3050807592
 40
0.3772479547
 40
0.4551484653
 40
0.5380733626
 40
0.6252413145
 40
0.7158563148
 40
0.8091145181
 40
0.9041653706
 40
1.0
 40
1.0
 40
1.0
 40
1.0
 10
6.7929739079
 20
3.9094099309
 30
0.0
 10
6.7927840665
 20
3.9093009436
 30
0.0
 10
6.7923381933
 20
3.9090908501
 30
0.0
 10
6.7915687084
 20
3.9088081836
 30
0.0
 10
6.7906254643
 20
3.9085249115
 30
0.0
 10
6.7895082982
 20
3.9082412763
 30
0.0
 10
6.7882168664
 20
3.9079573896
 30
0.0
 10
6.7861504084
 20
3.9075572072
 30
0.0
 10
6.7831291973
 20
3.9070678388
 30
0.0
 10
6.7789791704
 20
3.9065048377
 30
0.0
 10
6.7741357109
 20
3.9059402184
 30
0.0
 10
6.7686006623
 20
3.9053737486
 30
0.0
 10
6.7623768064
 20
3.9048056078
 30
0.0
 10
6.7554681438
 20
3.9042360497
 30
0.0
 10
6.7449031598
 20
3.9034418538
 30
0.0
 10
6.7300196501
 20
3.9024615059
 30
0.0
 10
6.7101692001
 20
3.9013242447
 30
0.0
 10
6.6877012333
 20
3.9001856898
 30
0.0
 10
6.6626674309
 20
3.8990463771
 30
0.0
 10
6.635127394
 20
3.897906179
 30
0.0
 10
6.6051447158
 20
3.8967651926
 30
0.0
 10
6.572786536
 20
3.8956235159
 30
0.0
 10
6.5381271985
 20
3.8944811268
 30
0.0
 10
6.4875532016
 20
3.8929137733
 30
0.0
 10
6.419227997
 20
3.8909718329
 30
0.0
 10
6.3315602776
 20
3.8886975318
 30
0.0
 10
6.2369171414
 20
3.886420981
 30
0.0
 10
6.1361772169
 20
3.8841437824
 30
0.0
 10
6.0302699221
 20
3.8818630742
 30
0.0
 10
5.9201631157
 20
3.8795781154
 30
0.0
 10
5.806852525
 20
3.8772983701
 30
0.0
 10
5.6914203899
 20
3.8750322644
 30
0.0
 10
5.6138739936
 20
3.87350992
 30
0.0
 10
5.5749417702
 20
3.8727366426
 30
0.0
  0
SPLINE
  5
37D
100
AcDbEntity
  8
0
100
AcDbSpline
 62
7
  6
CONTINUOUS
 70
0
 71
3
 72
33
 73
29
 74
0
 42
0.0000001
 43
0.0000001
 44
0.0000000001
 40
0.0
 40
0.0
 40
0.0
 40
0.0
 40
0.0005181337
 40
0.001066438
 40
0.0023441812
 40
0.0039718288
 40
0.0060147235
 40
0.008505978
 40
0.0114638833
 40
0.014899456
 40
0.0188198378
 40
0.0281326863
 40
0.0394272877
 40
0.0527075055
 40
0.0679692955
 40
0.0852059501
 40
0.1044092099
 40
0.1255698511
 40
0.1486780196
 40
0.2006952797
 40
0.2603756039
 40
0.3276208095
 40
0.4023189803
 40
0.484356453
 40
0.5736189268
 40
0.6699908744
 40
0.7733182303
 40
1.0
 40
1.0
 40
1.0
 40
1.0
 10
4.4474448754
 20
3.9325947823
 30
0.0
 10
4.4474450736
 20
3.9326363706
 30
0.0
 10
4.4474562777
 20
3.932722236
 30
0.0
 10
4.447523983
 20
3.932899329
 30
0.0
 10
4.4476999612
 20
3.9331205049
 30
0.0
 10
4.4480149761
 20
3.9333649907
 30
0.0
 10
4.4484465259
 20
3.9336092074
 30
0.0
 10
4.4489966746
 20
3.9338534511
 30
0.0
 10
4.4496668717
 20
3.9340983725
 30
0.0
 10
4.4504577717
 20
3.9343437971
 30
0.0
 10
4.4517499098
 20
3.9346918327
 30
0.0
 10
4.4536731531
 20
3.9351168426
 30
0.0
 10
4.4563494178
 20
3.9356047593
 30
0.0
 10
4.4595095846
 20
3.9360942687
 30
0.0
 10
4.4631513163
 20
3.9365851272
 30
0.0
 10
4.467272132
 20
3.9370768329
 30
0.0
 10
4.4718693317
 20
3.9375691708
 30
0.0
 10
4.4769401927
 20
3.9380620062
 30
0.0
 10
4.4846384049
 20
3.9387469334
 30
0.0
 10
4.4954259987
 20
3.939592502
 30
0.0
 10
4.5097556999
 20
3.9405740485
 30
0.0
 10
4.5259095776
 20
3.9415572863
 30
0.0
 10
4.5438608523
 20
3.9425419697
 30
0.0
 10
4.5635817286
 20
3.943527623
 30
0.0
 10
4.5850442301
 20
3.9445140044
 30
0.0
 10
4.6082172443
 20
3.9455007354
 30
0.0
 10
4.6424144699
 20
3.9468589155
 30
0.0
 10
4.6688861305
 20
3.9478119823
 30
0.0
 10
4.6870703845
 20
3.9484363896
 30
0.0
  0
LINE
  5
37E
100
AcDbEntity
  8
0
100
AcDbLine
 62
7
  6
CONTINUOUS
 10
4.6870703845
 20
3.9484363896
 11
4.6891144243
 21
3.9485064467
  0
LINE
  5
37F
100
AcDbEntity
  8
0
100
AcDbLine
 62
7
  6
CONTINUOUS
 10
4.7636177197
 20
3.9509068145
 11
4.7923806348
 21
3.9517681006
  0
SPLINE
  5
380
100
AcDbEntity
  8
0
100
AcDbSpline
 62
7
  6
CONTINUOUS
 70
0
 71
3
 72
13
 73
9
 74
0
 42
0.0000001
 43
0.0000001
 44
0.0000000001
 40
0.0
 40
0.0
 40
0.0
 40
0.0
 40
0.1038881294
 40
0.2160305719
 40
0.3353961149
 40
0.4608373335
 40
0.7253919489
 40
1.0
 40
1.0
 40
1.0
 40
1.0
 10
4.7923806348
 20
3.9517681006
 30
0.0
 10
4.8194759296
 20
3.9525652321
 30
0.0
 10
4.8758216588
 20
3.9541445081
 30
0.0
 10
4.9633054219
 20
3.9564178843
 30
0.0
 10
5.0564146727
 20
3.9586923801
 30
0.0
 10
5.1892839192
 20
3.9617826028
 30
0.0
 10
5.362654026
 20
3.9655884161
 30
0.0
 10
5.5033035758
 20
3.9685656084
 30
0.0
 10
5.5749396482
 20
3.9700822981
 30
0.0
  0
SPLINE
  5
381
100
AcDbEntity
  8
0
100
AcDbSpline
 62
7
  6
CONTINUOUS
 70
0
 71
3
 72
14
 73
10
 74
0
 42
0.0000001
 43
0.0000001
 44
0.0000000001
 40
0.0
 40
0.0
 40
0.0
 40
0.0
 40
0.1362225568
 40
0.2714885774
 40
0.404522482
 40
0.534238042
 40
0.7797032886
 40
0.8934683568
 40
1.0
 40
1.0
 40
1.0
 40
1.0
 10
5.5749417702
 20
3.7486779535
 30
0.0
 10
5.6114336668
 20
3.7493827399
 30
0.0
 10
5.6841609161
 20
3.7508030857
 30
0.0
 10
5.792524978
 20
3.752957099
 30
0.0
 10
5.8991454405
 20
3.7551014157
 30
0.0
 10
6.0352848999
 20
3.7578976792
 30
0.0
 10
6.1662599001
 20
3.7607242723
 30
0.0
 10
6.2910193022
 20
3.7636481651
 30
0.0
 10
6.3500259578
 20
3.7651234268
 30
0.0
 10
6.3785597633
 20
3.7658667698
 30
0.0
  0
LINE
  5
382
100
AcDbEntity
  8
0
100
AcDbLine
 62
7
  6
CONTINUOUS
 10
6.3785597633
 20
3.7658667698
 11
6.385305851
 21
3.7660430854
  0
LINE
  5
383
100
AcDbEntity
  8
0
100
AcDbLine
 62
7
  6
CONTINUOUS
 10
6.385305851
 20
3.7660430854
 11
6.4367669813
 21
3.767429029
  0
LINE
  5
384
100
AcDbEntity
  8
0
100
AcDbLine
 62
7
  6
CONTINUOUS
 10
6.4367669813
 20
3.767429029
 11
6.460020736
 21
3.7680821781
  0
SPLINE
  5
385
100
AcDbEntity
  8
0
100
AcDbSpline
 62
7
  6
CONTINUOUS
 70
0
 71
3
 72
36
 73
32
 74
0
 42
0.0000001
 43
0.0000001
 44
0.0000000001
 40
0.0
 40
0.0
 40
0.0
 40
0.0
 40
0.1155852693
 40
0.2249902596
 40
0.3279691681
 40
0.4242771722
 40
0.5136973459
 40
0.5960460059
 40
0.671141687
 40
0.7388036339
 40
0.7988756806
 40
0.8512446005
 40
0.8745069267
 40
0.8958035823
 40
0.9151217842
 40
0.932449243
 40
0.9477774363
 40
0.961104253
 40
0.9724298304
 40
0.9773431835
 40
0.9817579276
 40
0.9856755651
 40
0.9890985169
 40
0.9920307389
 40
0.9944789371
 40
0.9964552122
 40
0.9979835146
 40
0.9985957558
 40
0.9991212537
 40
0.9995796111
 40
1.0
 40
1.0
 40
1.0
 40
1.0
 10
6.460020736
 20
3.7680821781
 30
0.0
 10
6.4729150159
 20
3.7684495496
 30
0.0
 10
6.4980136366
 20
3.7691820061
 30
0.0
 10
6.5345981917
 20
3.7703097985
 30
0.0
 10
6.5690303027
 20
3.7714372584
 30
0.0
 10
6.6012308095
 20
3.7725645525
 30
0.0
 10
6.6311274478
 20
3.773691538
 30
0.0
 10
6.6586549896
 20
3.7748174007
 30
0.0
 10
6.6837521441
 20
3.7759415518
 30
0.0
 10
6.7063605894
 20
3.7770632033
 30
0.0
 10
6.7264293404
 20
3.7781823163
 30
0.0
 10
6.7415435892
 20
3.7791467315
 30
0.0
 10
6.7523326482
 20
3.7799290329
 30
0.0
 10
6.759439209
 20
3.7804925309
 30
0.0
 10
6.7658811459
 20
3.7810561889
 30
0.0
 10
6.771654155
 20
3.7816201282
 30
0.0
 10
6.7767549868
 20
3.782184058
 30
0.0
 10
6.7811814496
 20
3.7827470012
 30
0.0
 10
6.7844453246
 20
3.7832342063
 30
0.0
 10
6.7867161812
 20
3.7836300358
 30
0.0
 10
6.7881673952
 20
3.7839120504
 30
0.0
 10
6.7894489749
 20
3.7841932444
 30
0.0
 10
6.7905609393
 20
3.7844734252
 30
0.0
 10
6.7915033085
 20
3.7847523012
 30
0.0
 10
6.7922769495
 20
3.7850295214
 30
0.0
 10
6.7928822106
 20
3.7853048469
 30
0.0
 10
6.793275445
 20
3.7855482176
 30
0.0
 10
6.7934960943
 20
3.7857491989
 30
0.0
 10
6.793607198
 20
3.7858897945
 30
0.0
 10
6.7936758279
 20
3.7860324583
 30
0.0
 10
6.7936917702
 20
3.7861310374
 30
0.0
 10
6.7936917702
 20
3.7861779535
 30
0.0
  0
SPLINE
  5
386
100
AcDbEntity
  8
0
100
AcDbSpline
 62
7
  6
CONTINUOUS
 70
0
 71
3
 72
13
 73
9
 74
0
 42
0.0000001
 43
0.0000001
 44
0.0000000001
 40
0.0
 40
0.0
 40
0.0
 40
0.0
 40
0.274607274
 40
0.5391614354
 40
0.6646026414
 40
0.783968362
 40
0.8961112103
 40
1.0
 40
1.0
 40
1.0
 40
1.0
 10
5.5749438921
 20
3.8200822981
 30
0.0
 10
5.6465789226
 20
3.8215989657
 30
0.0
 10
5.7872265037
 20
3.8245761164
 30
0.0
 10
5.9605942552
 20
3.8283818741
 30
0.0
 10
6.09346187
 20
3.8314720501
 30
0.0
 10
6.1865701791
 20
3.8337465129
 30
0.0
 10
6.2740532421
 20
3.8360198564
 30
0.0
 10
6.3303985897
 20
3.8375991074
 30
0.0
 10
6.3574937396
 20
3.8383962259
 30
0.0
  0
SPLINE
  5
387
100
AcDbEntity
  8
0
100
AcDbSpline
 62
7
  6
CONTINUOUS
 70
0
 71
3
 72
30
 73
26
 74
0
 42
0.0000001
 43
0.0000001
 44
0.0000000001
 40
0.0
 40
0.0
 40
0.0
 40
0.0
 40
0.2148467017
 40
0.3138703658
 40
0.4069840867
 40
0.493958395
 40
0.5745640986
 40
0.6486002608
 40
0.715933377
 40
0.7764402725
 40
0.8299985331
 40
0.8764891419
 40
0.8970520154
 40
0.9158111749
 40
0.9327555227
 40
0.9478744988
 40
0.9611583855
 40
0.9725988632
 40
0.9821901099
 40
0.9862920797
 40
0.9899335825
 40
0.9931182309
 40
0.9958512424
 40
0.9981406655
 40
1.0
 40
1.0
 40
1.0
 40
1.0
 10
6.3574937396
 20
3.8383962259
 30
0.0
 10
6.3821886814
 20
3.8391227322
 30
0.0
 10
6.4182643363
 20
3.840229367
 30
0.0
 10
6.465038095
 20
3.8417930934
 30
0.0
 10
6.4971134454
 20
3.8429332125
 30
0.0
 10
6.5270694815
 20
3.8440726553
 30
0.0
 10
6.5548300793
 20
3.8452114894
 30
0.0
 10
6.5803300644
 20
3.8463499966
 30
0.0
 10
6.6035163935
 20
3.8474873811
 30
0.0
 10
6.6243449235
 20
3.8486230116
 30
0.0
 10
6.642772875
 20
3.8497564067
 30
0.0
 10
6.656608094
 20
3.8507336413
 30
0.0
 10
6.6664440652
 20
3.8515259994
 30
0.0
 10
6.6728892338
 20
3.8520951877
 30
0.0
 10
6.6787057969
 20
3.8526636914
 30
0.0
 10
6.6838895064
 20
3.8532313626
 30
0.0
 10
6.6884362698
 20
3.8537977199
 30
0.0
 10
6.6923419286
 20
3.8543625036
 30
0.0
 10
6.6951908698
 20
3.8548527486
 30
0.0
 10
6.6971438031
 20
3.8552529541
 30
0.0
 10
6.6983681355
 20
3.8555368954
 30
0.0
 10
6.6994304441
 20
3.8558202717
 30
0.0
 10
6.7003313443
 20
3.8561029561
 30
0.0
 10
6.701071319
 20
3.8563846975
 30
0.0
 10
6.701502062
 20
3.8565926565
 30
0.0
 10
6.7016870138
 20
3.8566999265
 30
0.0
  0
SPLINE
  5
388
100
AcDbEntity
  8
0
100
AcDbSpline
 62
7
  6
CONTINUOUS
 70
0
 71
3
 72
13
 73
9
 74
0
 42
0.0000001
 43
0.0000001
 44
0.0000000001
 40
0.0
 40
0.0
 40
0.0
 40
0.0
 40
0.274607274
 40
0.5391614354
 40
0.6646026414
 40
0.783968362
 40
0.8961112103
 40
1.0
 40
1.0
 40
1.0
 40
1.0
 10
5.5749396482
 20
3.9513322981
 30
0.0
 10
5.5033046177
 20
3.9498156305
 30
0.0
 10
5.3626570367
 20
3.9468384798
 30
0.0
 10
5.1892892852
 20
3.9430327221
 30
0.0
 10
5.0564216704
 20
3.9399425461
 30
0.0
 10
4.9633133613
 20
3.9376680832
 30
0.0
 10
4.8758302982
 20
3.9353947398
 30
0.0
 10
4.8194849507
 20
3.9338154888
 30
0.0
 10
4.7923898007
 20
3.9330183702
 30
0.0
  0
LINE
  5
389
100
AcDbEntity
  8
0
100
AcDbLine
 62
7
  6
CONTINUOUS
 10
4.6897078987
 20
3.9297767388
 11
4.6870783032
 21
3.9296866617
  0
SPLINE
  5
38A
100
AcDbEntity
  8
0
100
AcDbSpline
 62
7
  6
CONTINUOUS
 70
0
 71
3
 72
28
 73
24
 74
0
 42
0.0000001
 43
0.0000001
 44
0.0000000001
 40
0.0
 40
0.0
 40
0.0
 40
0.0
 40
0.2159929888
 40
0.3150270116
 40
0.4078463566
 40
0.4943082095
 40
0.5743127168
 40
0.6477627748
 40
0.714561726
 40
0.7746135764
 40
0.8278276138
 40
0.8741275514
 40
0.9134423212
 40
0.9304597083
 40
0.9457069625
 40
0.9591777792
 40
0.9708675256
 40
0.9807747288
 40
0.9889092428
 40
0.9923199631
 40
0.9952993497
 40
0.9978552596
 40
1.0
 40
1.0
 40
1.0
 40
1.0
 10
4.6870783032
 20
3.9296866617
 30
0.0
 10
4.6698370017
 20
3.9290946419
 30
0.0
 10
4.644691774
 20
3.9281913774
 30
0.0
 10
4.6121420813
 20
3.9269098797
 30
0.0
 10
4.5899324664
 20
3.9259769708
 30
0.0
 10
4.5692441717
 20
3.9250442358
 30
0.0
 10
4.5501045727
 20
3.9241120237
 30
0.0
 10
4.5325374347
 20
3.9231805179
 30
0.0
 10
4.516566304
 20
3.9222499966
 30
0.0
 10
4.5022143717
 20
3.9213207715
 30
0.0
 10
4.4895033593
 20
3.9203934185
 30
0.0
 10
4.4784534642
 20
3.9194684291
 30
0.0
 10
4.4702949044
 20
3.9186675254
 30
0.0
 10
4.464615016
 20
3.9180153447
 30
0.0
 10
4.4609916398
 20
3.9175506778
 30
0.0
 10
4.4577975715
 20
3.9170868813
 30
0.0
 10
4.4550348009
 20
3.9166244201
 30
0.0
 10
4.4527049624
 20
3.9161634072
 30
0.0
 10
4.4510383433
 20
3.9157615566
 30
0.0
 10
4.4499257224
 20
3.9154322281
 30
0.0
 10
4.4492495604
 20
3.9152003035
 30
0.0
 10
4.4486811175
 20
3.914968889
 30
0.0
 10
4.4483447084
 20
3.9148006135
 30
0.0
 10
4.4481965266
 20
3.9147146697
 30
0.0
  0
SPLINE
  5
38B
100
AcDbEntity
  8
0
100
AcDbSpline
 62
7
  6
CONTINUOUS
 70
0
 71
3
 72
14
 73
10
 74
0
 42
0.0000001
 43
0.0000001
 44
0.0000000001
 40
0.0
 40
0.0
 40
0.0
 40
0.0
 40
0.1362221761
 40
0.2714878399
 40
0.4045214642
 40
0.5342368675
 40
0.7797022912
 40
0.8934677431
 40
1.0
 40
1.0
 40
1.0
 40
1.0
 10
5.5749417702
 20
4.0227366426
 30
0.0
 10
5.5384504466
 20
4.0220318674
 30
0.0
 10
5.4657243338
 20
4.0206115433
 30
0.0
 10
5.3573619436
 20
4.0184575635
 30
0.0
 10
5.2507430701
 20
4.0163132812
 30
0.0
 10
5.1146054378
 20
4.0135170599
 30
0.0
 10
4.9836320201
 20
4.0106905092
 30
0.0
 10
4.8588739137
 20
4.0077666641
 30
0.0
 10
4.7998677525
 20
4.006291427
 30
0.0
 10
4.7713341508
 20
4.0055480967
 30
0.0
  0
LINE
  5
38C
100
AcDbEntity
  8
0
100
AcDbLine
 62
7
  6
CONTINUOUS
 10
4.7713341508
 20
4.0055480967
 11
4.7645774522
 21
4.0053715046
  0
LINE
  5
38D
100
AcDbEntity
  8
0
100
AcDbLine
 62
7
  6
CONTINUOUS
 10
4.7645774522
 20
4.0053715046
 11
4.7131259815
 21
4.0039858282
  0
LINE
  5
38E
100
AcDbEntity
  8
0
100
AcDbLine
 62
7
  6
CONTINUOUS
 10
4.7131259815
 20
4.0039858282
 11
4.6898579306
 21
4.0033322793
  0
SPLINE
  5
38F
100
AcDbEntity
  8
0
100
AcDbSpline
 62
7
  6
CONTINUOUS
 70
0
 71
3
 72
36
 73
32
 74
0
 42
0.0000001
 43
0.0000001
 44
0.0000000001
 40
0.0
 40
0.0
 40
0.0
 40
0.0
 40
0.1155853421
 40
0.2249903836
 40
0.3279693206
 40
0.4242773312
 40
0.5136975029
 40
0.5960461537
 40
0.6711418169
 40
0.7388037364
 40
0.7988757569
 40
0.8512446543
 40
0.8745069699
 40
0.895803615
 40
0.9151218062
 40
0.9324492539
 40
0.9477774378
 40
0.9611042474
 40
0.9724298197
 40
0.977343171
 40
0.9817579139
 40
0.9856755506
 40
0.9890985022
 40
0.9920307244
 40
0.9944789236
 40
0.9964552003
 40
0.9979835053
 40
0.9985957484
 40
0.9991212484
 40
0.9995796083
 40
1.0
 40
1.0
 40
1.0
 40
1.0
 10
4.6898579306
 20
4.0033322793
 30
0.0
 10
4.6769638304
 20
4.0029649106
 30
0.0
 10
4.6518655615
 20
4.0022324598
 30
0.0
 10
4.6152815224
 20
4.0011046761
 30
0.0
 10
4.5808499035
 20
3.9999772248
 30
0.0
 10
4.5486498623
 20
3.9988499392
 30
0.0
 10
4.5187536602
 20
3.9977229624
 30
0.0
 10
4.4912265229
 20
3.9965971085
 30
0.0
 10
4.4661297403
 20
3.9954729663
 30
0.0
 10
4.4435216327
 20
3.9943513237
 30
0.0
 10
4.4234531829
 20
3.9932322194
 30
0.0
 10
4.4083391613
 20
3.9922678113
 30
0.0
 10
4.3975502647
 20
3.9914855157
 30
0.0
 10
4.3904438112
 20
3.9909220217
 30
0.0
 10
4.3840019722
 20
3.9903583677
 30
0.0
 10
4.3782290511
 20
3.9897944324
 30
0.0
 10
4.3731282972
 20
3.9892305066
 30
0.0
 10
4.3687019017
 20
3.9886675676
 30
0.0
 10
4.3654380764
 20
3.9881803663
 30
0.0
 10
4.3631672542
 20
3.98778454
 30
0.0
 10
4.3617160621
 20
3.9875025277
 30
0.0
 10
4.3604345017
 20
3.9872213359
 30
0.0
 10
4.359322554
 20
3.9869411574
 30
0.0
 10
4.358380199
 20
3.9866622836
 30
0.0
 10
4.3576065696
 20
3.9863850656
 30
0.0
 10
4.3570013174
 20
3.9861097423
 30
0.0
 10
4.3566080889
 20
3.9858663735
 30
0.0
 10
4.3563874431
 20
3.9856653939
 30
0.0
 10
4.3562763411
 20
3.9855247993
 30
0.0
 10
4.3562077122
 20
3.9853821367
 30
0.0
 10
4.3561917702
 20
3.9852835584
 30
0.0
 10
4.3561917702
 20
3.9852366426
 30
0.0
  0
SPLINE
  5
390
100
AcDbEntity
  8
0
100
AcDbSpline
 62
7
  6
CONTINUOUS
 70
0
 71
3
 72
38
 73
34
 74
0
 42
0.0000001
 43
0.0000001
 44
0.0000000001
 40
0.0
 40
0.0
 40
0.0
 40
0.0
 40
0.0005387375
 40
0.0012095738
 40
0.0020164011
 40
0.0029613551
 40
0.0040456883
 40
0.0052701659
 40
0.0081411805
 40
0.0115765112
 40
0.0155766867
 40
0.0201415245
 40
0.0252696008
 40
0.0309576021
 40
0.0372018794
 40
0.0513441726
 40
0.0676659103
 40
0.0861353668
 40
0.1067105033
 40
0.1293399374
 40
0.1539718086
 40
0.1805538948
 40
0.2090258219
 40
0.2393178401
 40
0.305080784
 40
0.3772479804
 40
0.455148491
 40
0.5380733895
 40
0.6252413434
 40
0.7158563422
 40
0.8091145357
 40
0.9041653756
 40
1.0
 40
1.0
 40
1.0
 40
1.0
 10
4.3569096328
 20
3.8620046654
 30
0.0
 10
4.3570994743
 20
3.8621136528
 30
0.0
 10
4.3575453477
 20
3.8623237464
 30
0.0
 10
4.358314833
 20
3.862606413
 30
0.0
 10
4.3592580775
 20
3.8628896852
 30
0.0
 10
4.3603752441
 20
3.8631733206
 30
0.0
 10
4.3616666763
 20
3.8634572074
 30
0.0
 10
4.363733135
 20
3.8638573901
 30
0.0
 10
4.3667543469
 20
3.8643467586
 30
0.0
 10
4.3709043748
 20
3.8649097599
 30
0.0
 10
4.3757478352
 20
3.8654743793
 30
0.0
 10
4.3812828848
 20
3.866040849
 30
0.0
 10
4.387506742
 20
3.8666089895
 30
0.0
 10
4.3944154063
 20
3.8671785475
 30
0.0
 10
4.4049803931
 20
3.8679727432
 30
0.0
 10
4.419863906
 20
3.8689530908
 30
0.0
 10
4.4397143587
 20
3.870090352
 30
0.0
 10
4.4621823274
 20
3.8712289073
 30
0.0
 10
4.4872161314
 20
3.8723682201
 30
0.0
 10
4.5147561702
 20
3.8735084182
 30
0.0
 10
4.5447388497
 20
3.8746494046
 30
0.0
 10
4.5770970305
 20
3.8757910812
 30
0.0
 10
4.611756369
 20
3.8769334702
 30
0.0
 10
4.6623303675
 20
3.8785008237
 30
0.0
 10
4.7306555737
 20
3.8804427641
 30
0.0
 10
4.8183232939
 20
3.8827170652
 30
0.0
 10
4.9129664309
 20
3.8849936161
 30
0.0
 10
5.0137063567
 20
3.8872708146
 30
0.0
 10
5.1196136522
 20
3.8895515223
 30
0.0
 10
5.2297204548
 20
3.8918364811
 30
0.0
 10
5.3430310358
 20
3.8941162273
 30
0.0
 10
5.4584631597
 20
3.8963823327
 30
0.0
 10
5.5360095488
 20
3.8979046763
 30
0.0
 10
5.5749417702
 20
3.8986779535
 30
0.0
  0
SPLINE
  5
391
100
AcDbEntity
  8
0
100
AcDbSpline
 62
7
  6
CONTINUOUS
 70
0
 71
3
 72
15
 73
11
 74
0
 42
0.0000001
 43
0.0000001
 44
0.0000000001
 40
0.0
 40
0.0
 40
0.0
 40
0.0
 40
0.1362221738
 40
0.2714878315
 40
0.4045214468
 40
0.5342368534
 40
0.6596292379
 40
0.7797023079
 40
0.8934677479
 40
1.0
 40
1.0
 40
1.0
 40
1.0
 10
5.5749417702
 20
3.8727366426
 30
0.0
 10
5.5384508901
 20
3.8720092605
 30
0.0
 10
5.4657249675
 20
3.8705793227
 30
0.0
 10
5.3573619483
 20
3.868457355
 30
0.0
 10
5.2507428748
 20
3.8663229968
 30
0.0
 10
5.1467698853
 20
3.864179547
 30
0.0
 10
5.0462701284
 20
3.8620388474
 30
0.0
 10
4.950044766
 20
3.8599025451
 30
0.0
 10
4.8588738963
 20
3.857767378
 30
0.0
 10
4.7998677391
 20
3.8562920916
 30
0.0
 10
4.7713341424
 20
3.8555485961
 30
0.0
  0
LINE
  5
392
100
AcDbEntity
  8
0
100
AcDbLine
 62
7
  6
CONTINUOUS
 10
4.7713341424
 20
3.8555485961
 11
4.7645774446
 21
3.8553719622
  0
LINE
  5
393
100
AcDbEntity
  8
0
100
AcDbLine
 62
7
  6
CONTINUOUS
 10
4.7645774446
 20
3.8553719622
 11
4.7131259815
 21
3.8539858282
  0
LINE
  5
394
100
AcDbEntity
  8
0
100
AcDbLine
 62
7
  6
CONTINUOUS
 10
4.7131259815
 20
3.8539858282
 11
4.6894423817
 21
3.8533201767
  0
SPLINE
  5
395
100
AcDbEntity
  8
0
100
AcDbSpline
 62
7
  6
CONTINUOUS
 70
0
 71
3
 72
36
 73
32
 74
0
 42
0.0000001
 43
0.0000001
 44
0.0000000001
 40
0.0
 40
0.0
 40
0.0
 40
0.0
 40
0.115585411
 40
0.2249888489
 40
0.3279646775
 40
0.4242682887
 40
0.5136833478
 40
0.5960264969
 40
0.671116542
 40
0.7387730567
 40
0.7988402713
 40
0.8512046556
 40
0.8744646103
 40
0.8957586628
 40
0.9150738555
 40
0.9323976648
 40
0.947721493
 40
0.9610435139
 40
0.9723643299
 40
0.9772755406
 40
0.9816884793
 40
0.9856048459
 40
0.9890273447
 40
0.9919603553
 40
0.9944112536
 40
0.9963932649
 40
0.9979323465
 40
0.9985529787
 40
0.9990895916
 40
0.9995622569
 40
1.0
 40
1.0
 40
1.0
 40
1.0
 10
4.6894423817
 20
3.8533201767
 30
0.0
 10
4.6765635788
 20
3.8529529095
 30
0.0
 10
4.6514952724
 20
3.8522206758
 30
0.0
 10
4.6149551718
 20
3.8510934677
 30
0.0
 10
4.5805654247
 20
3.8499670033
 30
0.0
 10
4.5484049761
 20
3.8488414038
 30
0.0
 10
4.5185458814
 20
3.8477165902
 30
0.0
 10
4.4910531952
 20
3.8465923723
 30
0.0
 10
4.4659880685
 20
3.8454685741
 30
0.0
 10
4.4434087093
 20
3.8443448563
 30
0.0
 10
4.4233660262
 20
3.8432213153
 30
0.0
 10
4.4082714993
 20
3.8422540971
 30
0.0
 10
4.3974965123
 20
3.8414720436
 30
0.0
 10
4.3903992951
 20
3.8409103191
 30
0.0
 10
4.3839658711
 20
3.8403503851
 30
0.0
 10
4.378200505
 20
3.8397926404
 30
0.0
 10
4.3731063721
 20
3.8392373582
 30
0.0
 10
4.3686856979
 20
3.8386838107
 30
0.0
 10
4.3654260255
 20
3.8382041527
 30
0.0
 10
4.3631581221
 20
3.8378131577
 30
0.0
 10
4.3617087889
 20
3.8375338065
 30
0.0
 10
4.360428847
 20
3.8372543009
 30
0.0
 10
4.3593182653
 20
3.8369746373
 30
0.0
 10
4.3583769989
 20
3.8366949196
 30
0.0
 10
4.3576041403
 20
3.8364152659
 30
0.0
 10
4.3569992561
 20
3.8361357218
 30
0.0
 10
4.3566065983
 20
3.835886904
 30
0.0
 10
4.3563867053
 20
3.8356805916
 30
0.0
 10
4.3562757781
 20
3.8355353136
 30
0.0
 10
4.3562074731
 20
3.8353874358
 30
0.0
 10
4.3561917702
 20
3.8352854369
 30
0.0
 10
4.3561917702
 20
3.8352366426
 30
0.0
  0
SPLINE
  5
396
100
AcDbEntity
  8
0
100
AcDbSpline
 62
7
  6
CONTINUOUS
 70
0
 71
3
 72
14
 73
10
 74
0
 42
0.0000001
 43
0.0000001
 44
0.0000000001
 40
0.0
 40
0.0
 40
0.0
 40
0.0
 40
0.2762368632
 40
0.410981337
 40
0.5416613608
 40
0.6671304836
 40
0.7861649527
 40
0.8974914473
 40
1.0
 40
1.0
 40
1.0
 40
1.0
 10
5.5748930657
 20
3.8200822981
 30
0.0
 10
5.5011372757
 20
3.8185206687
 30
0.0
 10
5.3914044321
 20
3.8161975718
 30
0.0
 10
5.2467817647
 20
3.8130425407
 30
0.0
 10
5.1424153463
 20
3.8106969319
 30
0.0
 10
5.0422455095
 20
3.8083537754
 30
0.0
 10
4.9472456725
 20
3.8060131584
 30
0.0
 10
4.8583796855
 20
3.8036732234
 30
0.0
 10
4.8012957261
 20
3.8020421829
 30
0.0
 10
4.7739320097
 20
3.8012181542
 30
0.0
  0
LINE
  5
397
100
AcDbEntity
  8
0
100
AcDbLine
 62
7
  6
CONTINUOUS
 10
4.7739320097
 20
3.8012181542
 11
4.7637922325
 21
3.8009108059
  0
SPLINE
  5
398
100
AcDbEntity
  8
0
100
AcDbSpline
 62
7
  6
CONTINUOUS
 70
0
 71
3
 72
33
 73
29
 74
0
 42
0.0000001
 43
0.0000001
 44
0.0000000001
 40
0.0
 40
0.0
 40
0.0
 40
0.0
 40
0.2269874099
 40
0.3305132829
 40
0.4271390564
 40
0.5166779624
 40
0.5989702462
 40
0.6738673411
 40
0.7412213772
 40
0.8008855245
 40
0.8527212777
 40
0.8756827314
 40
0.8966728211
 40
0.9156920345
 40
0.9327414903
 40
0.9478232683
 40
0.9609409854
 40
0.9721008758
 40
0.9813140063
 40
0.985196999
 40
0.988602759
 40
0.9915377928
 40
0.9940121542
 40
0.9960431064
 40
0.9976627936
 40
0.9989357361
 40
0.999482647
 40
1.0
 40
1.0
 40
1.0
 40
1.0
 10
4.6887137516
 20
3.7984893723
 30
0.0
 10
4.6703877221
 20
3.7978614602
 30
0.0
 10
4.6437048856
 20
3.7969029309
 30
0.0
 10
4.6092261932
 20
3.7955374825
 30
0.0
 10
4.5858450413
 20
3.7945455056
 30
0.0
 10
4.5641808504
 20
3.7935538133
 30
0.0
 10
4.5442739276
 20
3.7925626926
 30
0.0
 10
4.5261615366
 20
3.7915725541
 30
0.0
 10
4.5098800188
 20
3.7905839163
 30
0.0
 10
4.4954651794
 20
3.789597325
 30
0.0
 10
4.4846360215
 20
3.788746511
 30
0.0
 10
4.4769287233
 20
3.7880569662
 30
0.0
 10
4.4718658707
 20
3.787561342
 30
0.0
 10
4.4672830538
 20
3.7870662267
 30
0.0
 10
4.4631805129
 20
3.7865717467
 30
0.0
 10
4.4595584681
 20
3.7860780996
 30
0.0
 10
4.4564169207
 20
3.7855857664
 30
0.0
 10
4.4537559778
 20
3.7850949767
 30
0.0
 10
4.4518427405
 20
3.7846677373
 30
0.0
 10
4.4505561182
 20
3.7843179682
 30
0.0
 10
4.4497676734
 20
3.7840712095
 30
0.0
 10
4.4490990584
 20
3.7838249649
 30
0.0
 10
4.4485498304
 20
3.7835794006
 30
0.0
 10
4.4481187863
 20
3.783333856
 30
0.0
 10
4.4478040933
 20
3.7830880214
 30
0.0
 10
4.4476285436
 20
3.7828656419
 30
0.0
 10
4.4475613833
 20
3.7826876384
 30
0.0
 10
4.4475505295
 20
3.7826013445
 30
0.0
 10
4.4475505207
 20
3.782559551
 30
0.0
  0
SPLINE
  5
399
100
AcDbEntity
  8
0
100
AcDbSpline
 62
7
  6
CONTINUOUS
 70
0
 71
3
 72
34
 73
30
 74
0
 42
0.0000001
 43
0.0000001
 44
0.0000000001
 40
0.0
 40
0.0
 40
0.0
 40
0.0
 40
0.0005168015
 40
0.0010662503
 40
0.0016739813
 40
0.002359207
 40
0.0040101573
 40
0.0060866936
 40
0.0086195637
 40
0.0116248979
 40
0.0151117224
 40
0.0190852988
 40
0.028503199
 40
0.0398913159
 40
0.0532514479
 40
0.0685807353
 40
0.0858737992
 40
0.1051237817
 40
0.126322901
 40
0.1494627087
 40
0.2015220927
 40
0.2612092648
 40
0.3284270989
 40
0.4030769212
 40
0.4850590942
 40
0.5742597182
 40
0.6705209939
 40
0.7736761676
 40
1.0
 40
1.0
 40
1.0
 40
1.0
 10
6.7024476412
 20
3.6888077261
 30
0.0
 10
6.7024469088
 20
3.6887659234
 30
0.0
 10
6.7024342699
 20
3.6886795485
 30
0.0
 10
6.7023833231
 20
3.6885529781
 30
0.0
 10
6.702301229
 20
3.688427638
 30
0.0
 10
6.7021406783
 20
3.6882507274
 30
0.0
 10
6.701853404
 20
3.6880344755
 30
0.0
 10
6.701409036
 20
3.6877899724
 30
0.0
 10
6.7008430767
 20
3.6875448591
 30
0.0
 10
6.7001551845
 20
3.6872991751
 30
0.0
 10
6.6993448511
 20
3.6870528988
 30
0.0
 10
6.6980245133
 20
3.686703941
 30
0.0
 10
6.6960648343
 20
3.6862776556
 30
0.0
 10
6.6933442392
 20
3.685787772
 30
0.0
 10
6.690139138
 20
3.6852963284
 30
0.0
 10
6.6864517822
 20
3.684803584
 30
0.0
 10
6.6822843214
 20
3.6843100379
 30
0.0
 10
6.6776391164
 20
3.6838159072
 30
0.0
 10
6.6725185529
 20
3.6833213319
 30
0.0
 10
6.664750215
 20
3.6826342377
 30
0.0
 10
6.6538706695
 20
3.6817861239
 30
0.0
 10
6.6394258637
 20
3.6808015548
 30
0.0
 10
6.6231498591
 20
3.6798153098
 30
0.0
 10
6.6050673403
 20
3.6788276118
 30
0.0
 10
6.5852040775
 20
3.6778388635
 30
0.0
 10
6.5635905147
 20
3.6768493905
 30
0.0
 10
6.5402624428
 20
3.6758591309
 30
0.0
 10
6.5058471405
 20
3.6744955039
 30
0.0
 10
6.4792094468
 20
3.6735387275
 30
0.0
 10
6.4609106257
 20
3.6729124
 30
0.0
  0
LINE
  5
39A
100
AcDbEntity
  8
0
100
AcDbLine
 62
7
  6
CONTINUOUS
 10
6.4609106257
 20
3.6729124
 11
6.4578900952
 21
3.672809301
  0
SPLINE
  5
39B
100
AcDbEntity
  8
0
100
AcDbSpline
 62
7
  6
CONTINUOUS
 70
0
 71
3
 72
14
 73
10
 74
0
 42
0.0000001
 43
0.0000001
 44
0.0000000001
 40
0.0
 40
0.0
 40
0.0
 40
0.0
 40
0.1018270243
 40
0.2126044766
 40
0.3312660806
 40
0.4567386962
 40
0.5877410169
 40
0.7228635615
 40
1.0
 40
1.0
 40
1.0
 40
1.0
 10
6.3862613743
 20
3.6705085008
 30
0.0
 10
6.3587354381
 20
3.669669988
 30
0.0
 10
6.3012612237
 20
3.668012753
 30
0.0
 10
6.2117031815
 20
3.6656345083
 30
0.0
 10
6.1157482761
 20
3.6632528113
 30
0.0
 10
6.0143220624
 20
3.6608710685
 30
0.0
 10
5.9084428985
 20
3.6584888668
 30
0.0
 10
5.7615550338
 20
3.6552841648
 30
0.0
 10
5.6500862393
 20
3.6529242327
 30
0.0
 10
5.5751526225
 20
3.6513370679
 30
0.0
  0
LINE
  5
39C
100
AcDbEntity
  8
0
100
AcDbLine
 62
7
  6
CONTINUOUS
 10
5.5751526225
 20
3.6513370679
 11
5.1764172707
 21
3.6427072054
  0
SPLINE
  5
39D
100
AcDbEntity
  8
0
100
AcDbSpline
 62
7
  6
CONTINUOUS
 70
0
 71
3
 72
14
 73
10
 74
0
 42
0.0000001
 43
0.0000001
 44
0.0000000001
 40
0.0
 40
0.0
 40
0.0
 40
0.0
 40
0.2762368632
 40
0.410981337
 40
0.5416613608
 40
0.6671304836
 40
0.7861649527
 40
0.8974914473
 40
1.0
 40
1.0
 40
1.0
 40
1.0
 10
5.5748930657
 20
3.8013322981
 30
0.0
 10
5.5011372757
 20
3.7997706687
 30
0.0
 10
5.3914044321
 20
3.7974475718
 30
0.0
 10
5.2467817647
 20
3.7942925406
 30
0.0
 10
5.1424153463
 20
3.7919469319
 30
0.0
 10
5.0422455095
 20
3.7896037754
 30
0.0
 10
4.9472456725
 20
3.7872631584
 30
0.0
 10
4.8583796855
 20
3.7849232234
 30
0.0
 10
4.8012957261
 20
3.7832921829
 30
0.0
 10
4.7739320097
 20
3.7824681542
 30
0.0
  0
LINE
  5
39E
100
AcDbEntity
  8
0
100
AcDbLine
 62
7
  6
CONTINUOUS
 10
4.7739320097
 20
3.7824681542
 11
4.7643931954
 21
3.7821791351
  0
SPLINE
  5
39F
100
AcDbEntity
  8
0
100
AcDbSpline
 62
7
  6
CONTINUOUS
 70
0
 71
3
 72
28
 73
24
 74
0
 42
0.0000001
 43
0.0000001
 44
0.0000000001
 40
0.0
 40
0.0
 40
0.0
 40
0.0
 40
0.2161883882
 40
0.3153694516
 40
0.4083920981
 40
0.4950954538
 40
0.575337425
 40
0.6489913761
 40
0.7159315779
 40
0.7760329941
 40
0.8291716915
 40
0.8752517906
 40
0.9142580418
 40
0.9311098309
 40
0.9461956001
 40
0.9595177848
 40
0.9710804544
 40
0.9808904812
 40
0.988959962
 40
0.9923490564
 40
0.9953133635
 40
0.9978599295
 40
1.0
 40
1.0
 40
1.0
 40
1.0
 10
4.6893461761
 20
3.7797610289
 30
0.0
 10
4.6719337893
 20
3.7791651041
 30
0.0
 10
4.6465344079
 20
3.7782558037
 30
0.0
 10
4.613647412
 20
3.7769662592
 30
0.0
 10
4.5911899292
 20
3.7760274352
 30
0.0
 10
4.5702601572
 20
3.7750888358
 30
0.0
 10
4.5508929721
 20
3.774150561
 30
0.0
 10
4.53312048
 20
3.7732129648
 30
0.0
 10
4.5169735096
 20
3.7722763838
 30
0.0
 10
4.5024828342
 20
3.7713412338
 30
0.0
 10
4.4896769863
 20
3.7704082006
 30
0.0
 10
4.47857621
 20
3.769476951
 30
0.0
 10
4.4704002241
 20
3.7686701178
 30
0.0
 10
4.4647206098
 20
3.7680131899
 30
0.0
 10
4.4611031093
 20
3.7675454499
 30
0.0
 10
4.4579157192
 20
3.7670785648
 30
0.0
 10
4.4551583693
 20
3.7666129508
 30
0.0
 10
4.4528311098
 20
3.7661488408
 30
0.0
 10
4.451164457
 20
3.7657445399
 30
0.0
 10
4.4500500595
 20
3.7654132989
 30
0.0
 10
4.449371531
 20
3.7651798881
 30
0.0
 10
4.4488002606
 20
3.7649469928
 30
0.0
 10
4.4484618266
 20
3.764777749
 30
0.0
 10
4.448312576
 20
3.7646913231
 30
0.0
  0
ENDSEC
  0
SECTION
  2
OBJECTS
  0
DICTIONARY
  5
C
100
AcDbDictionary
280
0
281
1
  3
ACAD_GROUP
350
D
  3
ACAD_MLINESTYLE
350
17
  3
ACAD_LAYOUT
350
1A
  3
ACAD_PLOTSETTINGS
350
19
  3
ACAD_PLOTSTYLENAME
350
E
  0
DICTIONARY
  5
D
102
{ACAD_REACTORS
330
C
102
}
100
AcDbDictionary
280
0
281
1
  0
ACDBDICTIONARYWDFLT
  5
E
102
{ACAD_REACTORS
330
C
102
}
100
AcDbDictionary
281
1
  3
Normal
350
F
100
AcDbDictionaryWithDefault
340
F
  0
DICTIONARY
  5
17
102
{ACAD_REACTORS
330
C
102
}
100
AcDbDictionary
280
0
281
1
  3
Standard
350
18
  0
DICTIONARY
  5
19
102
{ACAD_REACTORS
330
C
102
}
100
AcDbDictionary
281
1
  0
DICTIONARY
  5
1A
102
{ACAD_REACTORS
330
C
102
}
100
AcDbDictionary
281
1
  3
Model
350
3A0
  3
Layout1
350
3A1
  0
ACDBPLACEHOLDER
  5
F
102
{ACAD_REACTORS
330
E
102
}
  0
MLINESTYLE
  5
18
102
{ACAD_REACTORS
330
17
102
}
100
AcDbMlineStyle
  2
STANDARD
 70
0
  3

 62
256
 51
90.0
 52
90.0
 71
2
 49
0.5
 62
256
  6
BYLAYER
 49
-0.5
 62
256
  6
BYLAYER
  0
LAYOUT
  5
3A0
102
{ACAD_REACTORS
330
1A
102
}
100
AcDbPlotSettings
  1

  2
none_device
  4
ANSI_A_(11.00_x_8.50_Inches)
  6

 40
0.0
 41
0.0
 42
0.0
 43
0.0
 44
279.4
 45
215.9
 46
0.0
 47
0.0
 48
0.0
 49
0.0
140
0.0
141
0.0
142
1.0
143
1.0
 70
1024
 72
0
 73
0
 74
0
  7

 75
0
147
1.0
148
0.0
149
0.0
100
AcDbLayout
  1
Model
 70
0
 71
0
 10
0.0
 20
0.0
 11
11.0
 21
8.5
 12
0.0
 22
0.0
 32
0.0
 14
0.0
 24
0.0
 34
0.0
 15
0.0
 25
0.0
 35
0.0
146
0.0
 13
0.0
 23
0.0
 33
0.0
 16
1.0
 26
0.0
 36
0.0
 17
0.0
 27
1.0
 37
0.0
 76
0
330
21B
345
0
346
0
  0
LAYOUT
  5
3A1
102
{ACAD_REACTORS
330
1A
102
}
100
AcDbPlotSettings
  1

  2
none_device
  4
ANSI_A_(11.00_x_8.50_Inches)
  6

 40
0.0
 41
0.0
 42
0.0
 43
0.0
 44
279.4
 45
215.9
 46
0.0
 47
0.0
 48
0.0
 49
0.0
140
0.0
141
0.0
142
1.0
143
1.0
 70
0
 72
0
 73
0
 74
0
  7

 75
0
147
1.0
148
0.0
149
0.0
100
AcDbLayout
  1
Layout1
 70
0
 71
1
 10
0.0
 20
0.0
 11
11.0
 21
8.5
 12
0.0
 22
0.0
 32
0.0
 14
0.0
 24
0.0
 34
0.0
 15
0.0
 25
0.0
 35
0.0
146
0.0
 13
0.0
 23
0.0
 33
0.0
 16
1.0
 26
0.0
 36
0.0
 17
0.0
 27
1.0
 37
0.0
 76
0
330
21C
345
0
346
0
  0
ENDSEC
  0
EOF
