999
DXF file: C:\Prowork\plots\403x-1_front.dxf
999
Pro/ENGINEER 2018500 by Parametric Technology Corporation
  0
SECTION
  2
HEADER
  9
$ACADVER
  1
AC1032
  9
$DWGCODEPAGE
  3
ANSI_1252
  9
$EXTMAX
 10
11.0
 20
8.5
 30
0.0
  9
$EXTMIN
 10
0.0
 20
0.0
 30
0.0
  9
$LIMMIN
 10
0.0
 20
0.0
  9
$LIMMAX
 10
11.0
 20
8.5
  9
$VIEWCTR
 10
5.5
 20
4.25
  9
$VIEWSIZE
 40
8.5
  9
$CLAYER
  8
0
  9
$LTSCALE
 40
0.605
  9
$CELTYPE
  6
BYLAYER
  9
$DIMSCALE
 40
1.0
  9
$DIMASZ
 40
0.1
  9
$DIMEXO
 40
0.0625
  9
$DIMDLI
 40
0.418
  9
$DIMEXE
 40
0.125
  9
$DIMCEN
 40
0.099
  9
$DIMLFAC
 40
1.0
  9
$DIMBLK
  1
_FILLED
  9
$DIMALT
 70
1
  9
$DIMALTD
 70
2
  9
$DIMALTTD
 70
2
  9
$DIMALTF
 40
25.4
  9
$DIMTXT
 40
0.08
  9
$DIMTOL
 70
1
  9
$DIMLIM
 70
0
  9
$DIMTFAC
 40
1.0
  9
$DIMTP
 40
0.001
  9
$DIMTM
 40
0.001
  9
$DIMGAP
 40
0.09
  9
$DIMDSEP
 70
46
  9
$AUNITS
 70
0
  9
$PDMODE
 70
3
  9
$PDSIZE
 40
0.06
  9
$HANDSEED
  5
271
  9
$TILEMODE
 70
1
  9
$MEASUREMENT
 70
0
  9
$INSUNITS
 70
1
  0
ENDSEC
  0
SECTION
  2
CLASSES
  0
CLASS
  1
ACDBDICTIONARYWDFLT
  2
AcDbDictionaryWithDefault
  3
AutoCAD 2000
 90
0
 91
1
280
0
281
0
  0
CLASS
  1
ACDBPLACEHOLDER
  2
AcDbPlaceHolder
  3
AutoCAD 2000
 90
0
 91
1
280
0
281
0
  0
CLASS
  1
LAYOUT
  2
AcDbLayout
  3
AutoCAD 2000
 90
0
 91
0
280
0
281
0
  0
ENDSEC
  0
SECTION
  2
TABLES
  0
TABLE
  2
VPORT
  5
8
100
AcDbSymbolTable
 70
2
  0
VPORT
  5
1F4
100
AcDbSymbolTableRecord
100
AcDbViewportTableRecord
  2
*ACTIVE
 70
0
 10
0.0
 20
0.0
 11
1.0
 21
1.0
 12
5.5
 22
4.25
 13
0.0
 23
0.0
 14
1.0
 24
1.0
 15
0.0
 25
0.0
 16
0.0
 26
0.0
 36
1.0
 17
0.0
 27
0.0
 37
0.0
 40
8.5
 41
1.2941176471
 42
50.0
 43
0.0
 44
0.0
 50
0.0
 51
0.0
 71
0
 72
100
 73
1
 74
1
 75
0
 76
0
 77
0
 78
0
  0
ENDTAB
  0
TABLE
  2
LTYPE
  5
5
100
AcDbSymbolTable
 70
6
  0
LTYPE
  5
14
100
AcDbSymbolTableRecord
100
AcDbLinetypeTableRecord
  2
BYBLOCK
 70
0
  3

 72
65
 73
0
 40
0.0
  0
LTYPE
  5
15
100
AcDbSymbolTableRecord
100
AcDbLinetypeTableRecord
  2
BYLAYER
 70
0
  3

 72
65
 73
0
 40
0.0
  0
LTYPE
  5
16
100
AcDbSymbolTableRecord
100
AcDbLinetypeTableRecord
  2
CONTINUOUS
 70
64
  3
Solid line
 72
65
 73
0
 40
0.0
  0
LTYPE
  5
1F5
100
AcDbSymbolTableRecord
100
AcDbLinetypeTableRecord
  2
CENTER
 70
64
  3
____ _ ____ _ ____ _ ____ _ ____ _ ____ _ ____
 72
65
 73
4
 40
0.6
 49
0.375
 74
0
 49
-0.075
 74
0
 49
0.075
 74
0
 49
-0.075
 74
0
  0
LTYPE
  5
1F6
100
AcDbSymbolTableRecord
100
AcDbLinetypeTableRecord
  2
HIDDEN
 70
64
  3
- - - - - - - - - - - - - - - - - - - -
 72
65
 73
2
 40
0.2
 49
0.1
 74
0
 49
-0.1
 74
0
  0
LTYPE
  5
1F7
100
AcDbSymbolTableRecord
100
AcDbLinetypeTableRecord
  2
PHANTOM
 70
64
  3
_____ _ _ _____ _ _ _____ _ _ _____
 72
65
 73
6
 40
0.8
 49
0.45
 74
0
 49
-0.05
 74
0
 49
0.1
 74
0
 49
-0.05
 74
0
 49
0.1
 74
0
 49
-0.05
 74
0
  0
LTYPE
  5
1F8
100
AcDbSymbolTableRecord
100
AcDbLinetypeTableRecord
  2
DOT
 70
64
  3
. . . . . . . . . . . . . . . . . . . .
 72
65
 73
2
 40
0.2
 49
0.1
 74
0
 49
-0.1
 74
0
  0
LTYPE
  5
1F9
100
AcDbSymbolTableRecord
100
AcDbLinetypeTableRecord
  2
DASHED
 70
64
  3
- - - - - - - - - - - - - - - - - - - -
 72
65
 73
2
 40
0.2
 49
0.1
 74
0
 49
-0.1
 74
0
  0
ENDTAB
  0
TABLE
  2
LAYER
  5
2
100
AcDbSymbolTable
 70
36
  0
LAYER
  5
10
100
AcDbSymbolTableRecord
100
AcDbLayerTableRecord
  2
0
 70
0
 62
7
  6
CONTINUOUS
370
-3
390
F
  0
LAYER
  5
1FA
100
AcDbSymbolTableRecord
100
AcDbLayerTableRecord
  2
DEFAULT_1
 70
0
 62
7
  6
CENTER
370
-3
390
F
  0
LAYER
  5
1FB
100
AcDbSymbolTableRecord
100
AcDbLayerTableRecord
  2
DEFAULT_2
 70
0
 62
8
  6
HIDDEN
370
-3
390
F
  0
LAYER
  5
1FC
100
AcDbSymbolTableRecord
100
AcDbLayerTableRecord
  2
DEFAULT_3
 70
0
 62
7
  6
PHANTOM
370
-3
390
F
  0
LAYER
  5
1FD
100
AcDbSymbolTableRecord
100
AcDbLayerTableRecord
  2
1-134
 70
0
 62
7
  6
CONTINUOUS
370
-3
390
F
  0
LAYER
  5
1FE
100
AcDbSymbolTableRecord
100
AcDbLayerTableRecord
  2
50359
 70
0
 62
7
  6
CONTINUOUS
370
-3
390
F
  0
LAYER
  5
1FF
100
AcDbSymbolTableRecord
100
AcDbLayerTableRecord
  2
50362
 70
0
 62
7
  6
CONTINUOUS
370
-3
390
F
  0
LAYER
  5
200
100
AcDbSymbolTableRecord
100
AcDbLayerTableRecord
  2
50729
 70
0
 62
7
  6
CONTINUOUS
370
-3
390
F
  0
LAYER
  5
201
100
AcDbSymbolTableRecord
100
AcDbLayerTableRecord
  2
50733
 70
0
 62
7
  6
CONTINUOUS
370
-3
390
F
  0
LAYER
  5
202
100
AcDbSymbolTableRecord
100
AcDbLayerTableRecord
  2
50733_1
 70
0
 62
7
  6
CONTINUOUS
370
-3
390
F
  0
LAYER
  5
203
100
AcDbSymbolTableRecord
100
AcDbLayerTableRecord
  2
50733_2
 70
0
 62
7
  6
CONTINUOUS
370
-3
390
F
  0
LAYER
  5
204
100
AcDbSymbolTableRecord
100
AcDbLayerTableRecord
  2
50733_3
 70
0
 62
7
  6
CONTINUOUS
370
-3
390
F
  0
LAYER
  5
205
100
AcDbSymbolTableRecord
100
AcDbLayerTableRecord
  2
50737
 70
0
 62
7
  6
CONTINUOUS
370
-3
390
F
  0
LAYER
  5
206
100
AcDbSymbolTableRecord
100
AcDbLayerTableRecord
  2
50741
 70
0
 62
7
  6
CONTINUOUS
370
-3
390
F
  0
LAYER
  5
207
100
AcDbSymbolTableRecord
100
AcDbLayerTableRecord
  2
50742
 70
0
 62
7
  6
CONTINUOUS
370
-3
390
F
  0
LAYER
  5
208
100
AcDbSymbolTableRecord
100
AcDbLayerTableRecord
  2
50743
 70
0
 62
7
  6
CONTINUOUS
370
-3
390
F
  0
LAYER
  5
209
100
AcDbSymbolTableRecord
100
AcDbLayerTableRecord
  2
6-034
 70
0
 62
7
  6
CONTINUOUS
370
-3
390
F
  0
LAYER
  5
20A
100
AcDbSymbolTableRecord
100
AcDbLayerTableRecord
  2
91022
 70
0
 62
7
  6
CONTINUOUS
370
-3
390
F
  0
LAYER
  5
20B
100
AcDbSymbolTableRecord
100
AcDbLayerTableRecord
  2
92087
 70
0
 62
7
  6
CONTINUOUS
370
-3
390
F
  0
LAYER
  5
20C
100
AcDbSymbolTableRecord
100
AcDbLayerTableRecord
  2
92087_1
 70
0
 62
7
  6
CONTINUOUS
370
-3
390
F
  0
LAYER
  5
20D
100
AcDbSymbolTableRecord
100
AcDbLayerTableRecord
  2
92087_2
 70
0
 62
7
  6
CONTINUOUS
370
-3
390
F
  0
LAYER
  5
20E
100
AcDbSymbolTableRecord
100
AcDbLayerTableRecord
  2
92087_3
 70
0
 62
7
  6
CONTINUOUS
370
-3
390
F
  0
LAYER
  5
20F
100
AcDbSymbolTableRecord
100
AcDbLayerTableRecord
  2
ALL_ASSEMBLY_MEMBERS
 70
0
 62
7
  6
CONTINUOUS
370
-3
390
F
  0
LAYER
  5
210
100
AcDbSymbolTableRecord
100
AcDbLayerTableRecord
  2
COLOR147
 70
0
 62
7
  6
CONTINUOUS
370
-3
390
F
  0
LAYER
  5
211
100
AcDbSymbolTableRecord
100
AcDbLayerTableRecord
  2
COLOR32
 70
0
 62
7
  6
CONTINUOUS
370
-3
390
F
  0
LAYER
  5
212
100
AcDbSymbolTableRecord
100
AcDbLayerTableRecord
  2
COLOR54
 70
0
 62
7
  6
CONTINUOUS
370
-3
390
F
  0
LAYER
  5
213
100
AcDbSymbolTableRecord
100
AcDbLayerTableRecord
  2
COLOR66
 70
0
 62
7
  6
CONTINUOUS
370
-3
390
F
  0
LAYER
  5
214
100
AcDbSymbolTableRecord
100
AcDbLayerTableRecord
  2
DEFAULT_COORDINATE_SYSTEM
 70
0
 62
7
  6
CONTINUOUS
370
-3
390
F
  0
LAYER
  5
215
100
AcDbSymbolTableRecord
100
AcDbLayerTableRecord
  2
DEFAULT_DATUM_AXES
 70
0
 62
7
  6
CONTINUOUS
370
-3
390
F
  0
LAYER
  5
216
100
AcDbSymbolTableRecord
100
AcDbLayerTableRecord
  2
DEFAULT_DATUM_PLANES
 70
0
 62
7
  6
CONTINUOUS
370
-3
390
F
  0
LAYER
  5
217
100
AcDbSymbolTableRecord
100
AcDbLayerTableRecord
  2
DEFAULT_SURFACES
 70
0
 62
7
  6
CONTINUOUS
370
-3
390
F
  0
LAYER
  5
218
100
AcDbSymbolTableRecord
100
AcDbLayerTableRecord
  2
INTF_50359
 70
0
 62
7
  6
CONTINUOUS
370
-3
390
F
  0
LAYER
  5
219
100
AcDbSymbolTableRecord
100
AcDbLayerTableRecord
  2
INTF_50362
 70
0
 62
7
  6
CONTINUOUS
370
-3
390
F
  0
LAYER
  5
21A
100
AcDbSymbolTableRecord
100
AcDbLayerTableRecord
  2
INTF_50729
 70
0
 62
7
  6
CONTINUOUS
370
-3
390
F
  0
LAYER
  5
21B
100
AcDbSymbolTableRecord
100
AcDbLayerTableRecord
  2
INTF_50733
 70
0
 62
7
  6
CONTINUOUS
370
-3
390
F
  0
LAYER
  5
21C
100
AcDbSymbolTableRecord
100
AcDbLayerTableRecord
  2
INTF_50737
 70
0
 62
7
  6
CONTINUOUS
370
-3
390
F
  0
LAYER
  5
21D
100
AcDbSymbolTableRecord
100
AcDbLayerTableRecord
  2
INTF_50741
 70
0
 62
7
  6
CONTINUOUS
370
-3
390
F
  0
LAYER
  5
21E
100
AcDbSymbolTableRecord
100
AcDbLayerTableRecord
  2
INTF_50742
 70
0
 62
7
  6
CONTINUOUS
370
-3
390
F
  0
LAYER
  5
21F
100
AcDbSymbolTableRecord
100
AcDbLayerTableRecord
  2
INTF_50743
 70
0
 62
7
  6
CONTINUOUS
370
-3
390
F
  0
LAYER
  5
220
100
AcDbSymbolTableRecord
100
AcDbLayerTableRecord
  2
INTF_91022
 70
0
 62
7
  6
CONTINUOUS
370
-3
390
F
  0
LAYER
  5
221
100
AcDbSymbolTableRecord
100
AcDbLayerTableRecord
  2
INTF_92087
 70
0
 62
7
  6
CONTINUOUS
370
-3
390
F
  0
LAYER
  5
222
100
AcDbSymbolTableRecord
100
AcDbLayerTableRecord
  2
INTF_BLANK
 70
0
 62
7
  6
CONTINUOUS
370
-3
390
F
  0
LAYER
  5
223
100
AcDbSymbolTableRecord
100
AcDbLayerTableRecord
  2
QUILT
 70
0
 62
7
  6
CONTINUOUS
370
-3
390
F
  0
LAYER
  5
224
100
AcDbSymbolTableRecord
100
AcDbLayerTableRecord
  2
SURFACES
 70
0
 62
7
  6
CONTINUOUS
370
-3
390
F
  0
LAYER
  5
225
100
AcDbSymbolTableRecord
100
AcDbLayerTableRecord
  2
WETTED_SURFACES
 70
0
 62
7
  6
CONTINUOUS
370
-3
390
F
  0
LAYER
  5
226
100
AcDbSymbolTableRecord
100
AcDbLayerTableRecord
  2
_BLACK_HOLE
 70
0
 62
7
  6
CONTINUOUS
370
-3
390
F
  0
ENDTAB
  0
TABLE
  2
STYLE
  5
3
100
AcDbSymbolTable
 70
1
  0
STYLE
  5
11
100
AcDbSymbolTableRecord
100
AcDbTextStyleTableRecord
  2
STANDARD
 70
0
 40
0.0
 41
0.8
 50
0.0
 71
0
 42
0.2
  3
txt
  4

  0
STYLE
  5
227
100
AcDbSymbolTableRecord
100
AcDbTextStyleTableRecord
  2
TEXTSTYLE_1
 70
0
 40
0.0
 41
0.8
 50
0.0
 71
0
 42
0.2
  3
gdt
  4

  0
ENDTAB
  0
TABLE
  2
VIEW
  5
6
100
AcDbSymbolTable
 70
0
  0
ENDTAB
  0
TABLE
  2
UCS
  5
7
100
AcDbSymbolTable
 70
0
  0
ENDTAB
  0
TABLE
  2
APPID
  5
9
100
AcDbSymbolTable
 70
1
  0
APPID
  5
228
100
AcDbSymbolTableRecord
100
AcDbRegAppTableRecord
  2
ACAD
 70
0
  0
ENDTAB
  0
TABLE
  2
BLOCK_RECORD
  5
1
100
AcDbSymbolTable
 70
0
  0
BLOCK_RECORD
  5
229
100
AcDbSymbolTableRecord
100
AcDbBlockTableRecord
  2
*Model_Space
  0
BLOCK_RECORD
  5
22A
100
AcDbSymbolTableRecord
100
AcDbBlockTableRecord
  2
*Paper_Space
  0
BLOCK_RECORD
  5
22B
100
AcDbSymbolTableRecord
100
AcDbBlockTableRecord
  2
_FILLED
  0
ENDTAB
  0
TABLE
  2
DIMSTYLE
  5
A
100
AcDbSymbolTable
 70
1
100
AcDbDimStyleTable
 71
0
  0
DIMSTYLE
105
22C
100
AcDbSymbolTableRecord
100
AcDbDimStyleTableRecord
  2
STANDARD
 70
0
  3

  4

 40
1.0
 41
0.1
 42
0.0625
 43
0.38
 44
0.125
 45
0.0
 46
0.0
 47
0.001
 48
0.001
140
0.08
141
0.09
142
0.0
143
25.4
144
1.0
145
0.0
146
1.0
147
0.09
 71
1.0
 72
0.0
 73
1
 74
1
 75
0
 76
0
 77
0
 78
4
 79
1
170
1
171
2
172
0
173
0
174
0
175
0
176
0
177
0
178
0
270
2
179
3
271
3
272
3
273
2
274
2
275
0
280
0
281
0
282
0
283
1
284
4
285
0
286
0
287
3
288
0
340
11
278
46
341
22B
342
22B
343
22B
344
22B
  0
ENDTAB
  0
ENDSEC
  0
SECTION
  2
BLOCKS
  0
BLOCK
  5
20
100
AcDbEntity
  8
0
100
AcDbBlockBegin
  2
*Model_Space
 70
0
 10
0.0
 20
0.0
 30
0.0
  3
*Model_Space
  1

  0
ENDBLK
  5
21
100
AcDbEntity
  8
0
100
AcDbBlockEnd
  0
BLOCK
  5
1C
100
AcDbEntity
  8
0
100
AcDbBlockBegin
  2
*Paper_Space
 70
0
 10
0.0
 20
0.0
 30
0.0
  3
*Paper_Space
  1

  0
ENDBLK
  5
1D
100
AcDbEntity
  8
0
100
AcDbBlockEnd
  0
BLOCK
  5
22D
100
AcDbEntity
  8
0
100
AcDbBlockBegin
  2
_FILLED
 70
64
 10
0.0
 20
0.0
  3
_FILLED
  1

  0
SOLID
  5
22E
100
AcDbEntity
  8
0
  6
BYBLOCK
 62
0
100
AcDbTrace
 10
0.0
 20
0.0
 11
-1.0
 21
0.2
 12
-1.0
 22
-0.2
 13
-1.0
 23
-0.2
  0
ENDBLK
  5
22F
100
AcDbEntity
  8
0
  6
BYBLOCK
 62
0
100
AcDbBlockEnd
  0
ENDSEC
  0
SECTION
  2
ENTITIES
  0
MTEXT
  5
230
100
AcDbEntity
  8
0
100
AcDbMText
 62
7
  6
CONTINUOUS
  7
STANDARD
 71
1
 72
1
 10
9.6102678571
 20
0.3296156832
 30
0.0
 11
1.0
 21
0.0
 31
0.0
 73
2
 44
0.9
  1
SCALE: 1.75
 40
0.08
 41
0.704
  0
LINE
  5
231
100
AcDbEntity
  8
0
100
AcDbLine
 62
7
  6
CONTINUOUS
 10
0.0
 20
0.0
 11
0.0
 21
8.5
  0
LINE
  5
232
100
AcDbEntity
  8
0
100
AcDbLine
 62
7
  6
CONTINUOUS
 10
0.0
 20
0.0
 11
11.0
 21
0.0
  0
LINE
  5
233
100
AcDbEntity
  8
0
100
AcDbLine
 62
7
  6
CONTINUOUS
 10
0.0
 20
8.5
 11
11.0
 21
8.5
  0
LINE
  5
234
100
AcDbEntity
  8
0
100
AcDbLine
 62
7
  6
CONTINUOUS
 10
11.0
 20
0.0
 11
11.0
 21
8.5
  0
LINE
  5
235
100
AcDbEntity
  8
0
100
AcDbLine
 62
7
  6
CONTINUOUS
 10
4.0189785246
 20
2.6198710879
 11
4.4953907846
 21
2.1434588278
  0
LINE
  5
236
100
AcDbEntity
  8
0
100
AcDbLine
 62
7
  6
CONTINUOUS
 10
4.4953907846
 20
5.578211406
 11
4.0189785246
 21
5.101799146
  0
LINE
  5
237
100
AcDbEntity
  8
0
100
AcDbLine
 62
7
  6
CONTINUOUS
 10
5.2515173137
 20
5.2503527989
 11
5.2520213347
 21
5.2508821292
  0
LINE
  5
238
100
AcDbEntity
  8
0
100
AcDbLine
 62
7
  6
CONTINUOUS
 10
5.2894071383
 20
5.2723394043
 11
5.2520215134
 21
5.2507183448
  0
LINE
  5
239
100
AcDbEntity
  8
0
100
AcDbLine
 62
7
  6
CONTINUOUS
 10
4.8613548137
 20
3.8608351169
 11
4.8613548137
 21
4.2594219231
  0
LINE
  5
23A
100
AcDbEntity
  8
0
100
AcDbLine
 62
7
  6
CONTINUOUS
 10
5.4298574038
 20
5.2083351169
 11
5.4044607062
 21
5.1869154219
  0
LINE
  5
23B
100
AcDbEntity
  8
0
100
AcDbLine
 62
7
  6
CONTINUOUS
 10
5.1151048137
 20
6.0308351169
 11
5.1151048137
 21
5.2783351169
  0
LINE
  5
23C
100
AcDbEntity
  8
0
100
AcDbLine
 62
7
  6
CONTINUOUS
 10
6.18321504
 20
5.2348116652
 11
6.2208113532
 21
5.2565587846
  0
LINE
  5
23D
100
AcDbEntity
  8
0
100
AcDbLine
 62
7
  6
CONTINUOUS
 10
6.9773183758
 20
2.143458361
 11
5.8668914886
 21
3.2538852482
  0
LINE
  5
23E
100
AcDbEntity
  8
0
100
AcDbLine
 62
7
  6
CONTINUOUS
 10
4.0189780577
 20
5.1017986791
 11
5.1294043479
 21
3.9913723889
  0
LINE
  5
23F
100
AcDbEntity
  8
0
100
AcDbLine
 62
7
  6
CONTINUOUS
 10
5.2446048137
 20
6.0308351169
 11
5.2446048137
 21
6.2758351169
  0
LINE
  5
240
100
AcDbEntity
  8
0
100
AcDbLine
 62
7
  6
CONTINUOUS
 10
5.2515173137
 20
5.2501380578
 11
5.2515173137
 21
5.1733351169
  0
LINE
  5
241
100
AcDbEntity
  8
0
100
AcDbLine
 62
7
  6
CONTINUOUS
 10
5.4044607062
 20
5.2297548119
 11
5.4044607062
 21
5.1869154219
  0
LINE
  5
242
100
AcDbEntity
  8
0
100
AcDbLine
 62
7
  6
CONTINUOUS
 10
6.2211923136
 20
5.2567341273
 11
6.2208116233
 21
5.2562740629
  0
LINE
  5
243
100
AcDbEntity
  8
0
100
AcDbLine
 62
7
  6
CONTINUOUS
 10
6.9773183758
 20
5.5782118729
 11
5.8668990021
 21
4.4677924992
  0
LINE
  5
244
100
AcDbEntity
  8
0
100
AcDbLine
 62
7
  6
CONTINUOUS
 10
4.0189780577
 20
2.6198715548
 11
5.129398099
 21
3.7302915961
  0
LINE
  5
245
100
AcDbEntity
  8
0
100
AcDbLine
 62
7
  6
CONTINUOUS
 10
7.4537315696
 20
2.6198715548
 11
6.3433052794
 21
3.730297845
  0
LINE
  5
246
100
AcDbEntity
  8
0
100
AcDbLine
 62
7
  6
CONTINUOUS
 10
4.4953912515
 20
5.5782118729
 11
5.6058181388
 21
4.4677849857
  0
LINE
  5
247
100
AcDbEntity
  8
0
100
AcDbLine
 62
7
  6
CONTINUOUS
 10
6.2211923137
 20
5.2783351169
 11
6.2211923137
 21
5.2569937537
  0
LINE
  5
248
100
AcDbEntity
  8
0
100
AcDbLine
 62
7
  6
CONTINUOUS
 10
6.2211923137
 20
5.2136308643
 11
6.2211923137
 21
5.1733351169
  0
LINE
  5
249
100
AcDbEntity
  8
0
100
AcDbLine
 62
7
  6
CONTINUOUS
 10
6.2281048137
 20
6.2758351169
 11
6.2281048137
 21
6.0308351169
  0
LINE
  5
24A
100
AcDbEntity
  8
0
100
AcDbLine
 62
7
  6
CONTINUOUS
 10
6.3576048137
 20
6.0308351169
 11
6.3576048137
 21
5.2783351169
  0
LINE
  5
24B
100
AcDbEntity
  8
0
100
AcDbLine
 62
7
  6
CONTINUOUS
 10
7.4537315696
 20
5.1017986791
 11
6.3433115283
 21
3.9913786377
  0
LINE
  5
24C
100
AcDbEntity
  8
0
100
AcDbLine
 62
7
  6
CONTINUOUS
 10
4.4953912515
 20
2.143458361
 11
5.6058106252
 21
3.2538777347
  0
LINE
  5
24D
100
AcDbEntity
  8
0
100
AcDbLine
 62
7
  6
CONTINUOUS
 10
5.2772211549
 20
5.2783351169
 11
5.2894114805
 21
5.2712847281
  0
LINE
  5
24E
100
AcDbEntity
  8
0
100
AcDbLine
 62
7
  6
CONTINUOUS
 10
5.4044607062
 20
5.2297548119
 11
5.4298574038
 21
5.2083351169
  0
LINE
  5
24F
100
AcDbEntity
  8
0
100
AcDbLine
 62
7
  6
CONTINUOUS
 10
6.6113548137
 20
4.2594219231
 11
6.6113548137
 21
3.8608351169
  0
LINE
  5
250
100
AcDbEntity
  8
0
100
AcDbLine
 62
7
  6
CONTINUOUS
 10
4.9002680075
 20
5.1733351169
 11
6.5724416198
 21
5.1733351169
  0
LINE
  5
251
100
AcDbEntity
  8
0
100
AcDbLine
 62
7
  6
CONTINUOUS
 10
6.3576048136
 20
5.2783351169
 11
5.1151048137
 21
5.2783351169
  0
LINE
  5
252
100
AcDbEntity
  8
0
100
AcDbLine
 62
7
  6
CONTINUOUS
 10
6.2211923136
 20
5.2138944376
 11
6.2207026913
 21
5.2144161807
  0
LINE
  5
253
100
AcDbEntity
  8
0
100
AcDbLine
 62
7
  6
CONTINUOUS
 10
6.2207024501
 20
5.2141918948
 11
6.1832179133
 21
5.2358742395
  0
LINE
  5
254
100
AcDbEntity
  8
0
100
AcDbLine
 62
7
  6
CONTINUOUS
 10
5.1151048137
 20
6.0308351169
 11
5.2446048137
 21
6.0308351169
  0
LINE
  5
255
100
AcDbEntity
  8
0
100
AcDbLine
 62
7
  6
CONTINUOUS
 10
6.2281048137
 20
6.0308351169
 11
6.3576048137
 21
6.0308351169
  0
LINE
  5
256
100
AcDbEntity
  8
0
100
AcDbLine
 62
7
  6
CONTINUOUS
 10
7.4537311028
 20
5.101799146
 11
6.9773188427
 21
5.578211406
  0
LINE
  5
257
100
AcDbEntity
  8
0
100
AcDbLine
 62
7
  6
CONTINUOUS
 10
6.2281048137
 20
6.2758351169
 11
5.2446048137
 21
6.2758351169
  0
LINE
  5
258
100
AcDbEntity
  8
0
100
AcDbLine
 62
7
  6
CONTINUOUS
 10
6.9773188427
 20
2.1434588278
 11
7.4537311028
 21
2.6198710879
  0
ARC
  5
259
100
AcDbEntity
  8
0
100
AcDbCircle
 62
7
  6
CONTINUOUS
 10
6.6565591816
 20
-36.2383917005
 40
41.487074103
100
AcDbArc
 50
91.2709528207
 51
91.7294761055
  0
ARC
  5
25A
100
AcDbEntity
  8
0
100
AcDbCircle
 62
9
  6
CONTINUOUS
 10
5.8704725584
 20
3.8620828271
 40
1.0090818049
100
AcDbArc
 50
160.4091445223
 51
176.3813479377
  0
ARC
  5
25B
100
AcDbEntity
  8
0
100
AcDbCircle
 62
9
  6
CONTINUOUS
 10
5.6022393379
 20
3.8620832795
 40
1.0090795154
100
AcDbArc
 50
3.6175375619
 51
19.5908682842
  0
ARC
  5
25C
100
AcDbEntity
  8
0
100
AcDbCircle
 62
7
  6
CONTINUOUS
 10
5.7363548137
 20
3.8608351169
 40
0.875
100
AcDbArc
 50
157.6510504702
 51
202.3436351243
  0
ARC
  5
25D
100
AcDbEntity
  8
0
100
AcDbCircle
 62
7
  6
CONTINUOUS
 10
5.7363548137
 20
3.8608351169
 40
0.875
100
AcDbArc
 50
67.6573972582
 51
112.3470729781
  0
ARC
  5
25E
100
AcDbEntity
  8
0
100
AcDbCircle
 62
7
  6
CONTINUOUS
 10
5.7363548137
 20
3.8608351169
 40
0.875
100
AcDbArc
 50
337.6510504702
 51
22.3436351243
  0
ARC
  5
25F
100
AcDbEntity
  8
0
100
AcDbCircle
 62
7
  6
CONTINUOUS
 10
5.7363548137
 20
3.8608351169
 40
0.875
100
AcDbArc
 50
247.6573972582
 51
292.3470729781
  0
ARC
  5
260
100
AcDbEntity
  8
0
100
AcDbCircle
 62
9
  6
CONTINUOUS
 10
5.7363548137
 20
3.8608351169
 40
0.8574999742
100
AcDbArc
 50
338.1455529298
 51
21.8542353718
  0
ARC
  5
261
100
AcDbEntity
  8
0
100
AcDbCircle
 62
9
  6
CONTINUOUS
 10
5.7363548137
 20
3.8608351169
 40
0.8574999742
100
AcDbArc
 50
248.1457642638
 51
291.8544482882
  0
ARC
  5
262
100
AcDbEntity
  8
0
100
AcDbCircle
 62
9
  6
CONTINUOUS
 10
5.7363548137
 20
3.8608351169
 40
0.8574999742
100
AcDbArc
 50
158.1455529298
 51
201.8542353719
  0
ARC
  5
263
100
AcDbEntity
  8
0
100
AcDbCircle
 62
9
  6
CONTINUOUS
 10
5.7363548137
 20
3.8608351169
 40
0.8574999742
100
AcDbArc
 50
68.1457642638
 51
111.8544482882
  0
CIRCLE
  5
264
100
AcDbEntity
  8
0
100
AcDbCircle
 62
7
  6
CONTINUOUS
 10
5.7363548137
 20
3.8608351169
 40
0.62125
  0
SPLINE
  5
265
100
AcDbEntity
  8
0
100
AcDbSpline
 62
7
  6
CONTINUOUS
 70
0
 71
3
 72
15
 73
11
 74
0
 42
0.0000001
 43
0.0000001
 44
0.0000000001
 40
0.0
 40
0.0
 40
0.0
 40
0.0
 40
0.1647636443
 40
0.2984280504
 40
0.4065912973
 40
0.4995186295
 40
0.5925985763
 40
0.7011046264
 40
0.8350959458
 40
1.0
 40
1.0
 40
1.0
 40
1.0
 10
6.1832179133
 20
5.2358742395
 30
0.0
 10
6.1832873742
 20
5.2358340577
 30
0.0
 10
6.1834100096
 20
5.2357551991
 30
0.0
 10
6.1835587871
 20
5.2356228916
 30
0.0
 10
6.1836529706
 20
5.2354867853
 30
0.0
 10
6.1836864605
 20
5.2353428265
 30
0.0
 10
6.1836517391
 20
5.2351990244
 30
0.0
 10
6.1835567268
 20
5.2350630784
 30
0.0
 10
6.1834074095
 20
5.2349308117
 30
0.0
 10
6.1832845599
 20
5.2348518814
 30
0.0
 10
6.18321504
 20
5.2348116652
 30
0.0
  0
SPLINE
  5
266
100
AcDbEntity
  8
0
100
AcDbSpline
 62
7
  6
CONTINUOUS
 70
0
 71
3
 72
15
 73
11
 74
0
 42
0.0000001
 43
0.0000001
 44
0.0000000001
 40
0.0
 40
0.0
 40
0.0
 40
0.0
 40
0.1647342249
 40
0.2983152799
 40
0.406386025
 40
0.4992670923
 40
0.592380533
 40
0.7009732152
 40
0.8350519971
 40
1.0
 40
1.0
 40
1.0
 40
1.0
 10
5.2894071383
 20
5.2723394043
 30
0.0
 10
5.2893381968
 20
5.2722995306
 30
0.0
 10
5.2892165074
 20
5.2722212781
 30
0.0
 10
5.289068948
 20
5.2720899444
 30
0.0
 10
5.2889756608
 20
5.2719548084
 30
0.0
 10
5.2889427317
 20
5.271811876
 30
0.0
 10
5.2889775219
 20
5.2716691803
 30
0.0
 10
5.2890720615
 20
5.2715342867
 30
0.0
 10
5.2892204366
 20
5.2714030146
 30
0.0
 10
5.2893424497
 20
5.2713246538
 30
0.0
 10
5.2894114805
 20
5.2712847281
 30
0.0
  0
SPLINE
  5
267
100
AcDbEntity
  8
0
100
AcDbSpline
 62
7
  6
CONTINUOUS
 70
0
 71
3
 72
16
 73
12
 74
0
 42
0.0000001
 43
0.0000001
 44
0.0000000001
 40
0.0
 40
0.0
 40
0.0
 40
0.0
 40
0.1406215925
 40
0.2799256211
 40
0.3485121755
 40
0.4161073219
 40
0.5476264345
 40
0.673100058
 40
0.7911798819
 40
0.9005604282
 40
1.0
 40
1.0
 40
1.0
 40
1.0
 10
5.7363548137
 20
5.2685820886
 30
0.0
 10
5.7532842778
 20
5.2690249267
 30
0.0
 10
5.7869860416
 20
5.2698504053
 30
0.0
 10
5.8289465213
 20
5.2708252499
 30
0.0
 10
5.8621141678
 20
5.2716186809
 30
0.0
 10
5.8943439
 20
5.2724157177
 30
0.0
 10
5.9334214899
 20
5.2734236032
 30
0.0
 10
5.9785754945
 20
5.2746450826
 30
0.0
 10
6.02106267
 20
5.2758534874
 30
0.0
 10
6.0604132989
 20
5.2770578366
 30
0.0
 10
6.0855476002
 20
5.2779047805
 30
0.0
 10
6.0975155425
 20
5.2783342817
 30
0.0
  0
SPLINE
  5
268
100
AcDbEntity
  8
0
100
AcDbSpline
 62
7
  6
CONTINUOUS
 70
0
 71
3
 72
15
 73
11
 74
0
 42
0.0000001
 43
0.0000001
 44
0.0000000001
 40
0.0
 40
0.0
 40
0.0
 40
0.0
 40
0.1045641973
 40
0.2172341398
 40
0.3368391373
 40
0.4622586528
 40
0.5924510949
 40
0.7263611906
 40
0.862694086
 40
1.0
 40
1.0
 40
1.0
 40
1.0
 10
5.4044607062
 20
5.1869154219
 30
0.0
 10
5.4160259851
 20
5.1873137504
 30
0.0
 10
5.4400552842
 20
5.1880771725
 30
0.0
 10
5.4773180673
 20
5.1891443087
 30
0.0
 10
5.5168896506
 20
5.1902166666
 30
0.0
 10
5.5584005551
 20
5.1913108792
 30
0.0
 10
5.6014951425
 20
5.1924051402
 30
0.0
 10
5.6457984134
 20
5.1934780236
 30
0.0
 10
5.6908892228
 20
5.1945479029
 30
0.0
 10
5.7211639297
 20
5.1952841693
 30
0.0
 10
5.7363548137
 20
5.1956654219
 30
0.0
  0
SPLINE
  5
269
100
AcDbEntity
  8
0
100
AcDbSpline
 62
7
  6
CONTINUOUS
 70
0
 71
3
 72
38
 73
34
 74
0
 42
0.0000001
 43
0.0000001
 44
0.0000000001
 40
0.0
 40
0.0
 40
0.0
 40
0.0
 40
0.1947990667
 40
0.2899268007
 40
0.3822044037
 40
0.4707883359
 40
0.5548494808
 40
0.6335904486
 40
0.7062268041
 40
0.7720656528
 40
0.8022406563
 40
0.830482345
 40
0.8567211299
 40
0.880900991
 40
0.9029673108
 40
0.9228656525
 40
0.9405421096
 40
0.9559540152
 40
0.9690741236
 40
0.9747669954
 40
0.9798778209
 40
0.9844039885
 40
0.9883433101
 40
0.9916943242
 40
0.9944573725
 40
0.9956200242
 40
0.9966382415
 40
0.9975138935
 40
0.9982499364
 40
0.9988513882
 40
0.9993275411
 40
0.9996972586
 40
1.0
 40
1.0
 40
1.0
 40
1.0
 10
5.7363548137
 20
5.1956654219
 30
0.0
 10
5.7678770291
 20
5.1964565496
 30
0.0
 10
5.8147946526
 20
5.1975559485
 30
0.0
 10
5.8766438744
 20
5.1990581883
 30
0.0
 10
5.9213038375
 20
5.2001945461
 30
0.0
 10
5.9641717796
 20
5.201333351
 30
0.0
 10
6.0048478983
 20
5.2024663481
 30
0.0
 10
6.0429416435
 20
5.2035954272
 30
0.0
 10
6.0780843683
 20
5.2047240138
 30
0.0
 10
6.1053667817
 20
5.2056897793
 30
0.0
 10
6.1254649172
 20
5.2064699876
 30
0.0
 10
6.1391563588
 20
5.2070377398
 30
0.0
 10
6.1518764887
 20
5.2076051704
 30
0.0
 10
6.1635959648
 20
5.2081720943
 30
0.0
 10
6.1742878453
 20
5.2087383735
 30
0.0
 10
6.1839254473
 20
5.209303811
 30
0.0
 10
6.1924839266
 20
5.2098681856
 30
0.0
 10
6.1999425797
 20
5.2104314363
 30
0.0
 10
6.2054613427
 20
5.210918915
 30
0.0
 10
6.2093135782
 20
5.2113156906
 30
0.0
 10
6.2117789113
 20
5.2115986458
 30
0.0
 10
6.2139583778
 20
5.211881083
 30
0.0
 10
6.2158504353
 20
5.2121627427
 30
0.0
 10
6.2174535672
 20
5.2124434572
 30
0.0
 10
6.2186062959
 20
5.21268793
 30
0.0
 10
6.2193812509
 20
5.2128881664
 30
0.0
 10
6.2198555841
 20
5.2130293397
 30
0.0
 10
6.2202575542
 20
5.2131701697
 30
0.0
 10
6.2205874596
 20
5.2133106504
 30
0.0
 10
6.2208461964
 20
5.213450792
 30
0.0
 10
6.2210348002
 20
5.213591603
 30
0.0
 10
6.2211562781
 20
5.2137361324
 30
0.0
 10
6.2211878848
 20
5.2138454287
 30
0.0
 10
6.2211879109
 20
5.2138944335
 30
0.0
  0
SPLINE
  5
26A
100
AcDbEntity
  8
0
100
AcDbSpline
 62
9
  6
CONTINUOUS
 70
0
 71
3
 72
25
 73
21
 74
0
 42
0.0000001
 43
0.0000001
 44
0.0000000001
 40
0.0
 40
0.0
 40
0.0
 40
0.0
 40
0.0597676494
 40
0.1204654637
 40
0.1820853839
 40
0.2445391593
 40
0.3077005418
 40
0.33951631
 40
0.3714623736
 40
0.4356304072
 40
0.5000000273
 40
0.5643696301
 40
0.6285376492
 40
0.6604837196
 40
0.692299504
 40
0.7554608737
 40
0.817914627
 40
0.8795345825
 40
0.9402323892
 40
1.0
 40
1.0
 40
1.0
 40
1.0
 10
6.1129426901
 20
4.7138300709
 30
0.0
 10
6.0990811549
 20
4.7209677687
 30
0.0
 10
6.0707401295
 20
4.734588315
 30
0.0
 10
6.0268192958
 20
4.7527409935
 30
0.0
 10
5.98125773
 20
4.768556066
 30
0.0
 10
5.9342297152
 20
4.7818492777
 30
0.0
 10
5.894087925
 20
4.7906517253
 30
0.0
 10
5.8614507866
 20
4.7962537793
 30
0.0
 10
5.8283965331
 20
4.8008842637
 30
0.0
 10
5.7866849615
 20
4.8047801941
 30
0.0
 10
5.736354792
 20
4.806363407
 30
0.0
 10
5.6860246254
 20
4.8047801876
 30
0.0
 10
5.6443130653
 20
4.8008842036
 30
0.0
 10
5.6112588119
 20
4.7962537061
 30
0.0
 10
5.5786216665
 20
4.7906516781
 30
0.0
 10
5.5384798787
 20
4.7818492378
 30
0.0
 10
5.4914518676
 20
4.7685560145
 30
0.0
 10
5.4458902908
 20
4.7527409705
 30
0.0
 10
5.4019694534
 20
4.7345883067
 30
0.0
 10
5.3736284423
 20
4.7209677581
 30
0.0
 10
5.359766918
 20
4.7138300612
 30
0.0
  0
SPLINE
  5
26B
100
AcDbEntity
  8
0
100
AcDbSpline
 62
7
  6
CONTINUOUS
 70
0
 71
3
 72
34
 73
30
 74
0
 42
0.0000001
 43
0.0000001
 44
0.0000000001
 40
0.0
 40
0.0
 40
0.0
 40
0.0
 40
0.0006759411
 40
0.0014825027
 40
0.0034986656
 40
0.0060632066
 40
0.0091822969
 40
0.0128571075
 40
0.0170865575
 40
0.0272013518
 40
0.0395078119
 40
0.0539835613
 40
0.0706046093
 40
0.0893368495
 40
0.1101318365
 40
0.1329397124
 40
0.1577104333
 40
0.1843937547
 40
0.2432559955
 40
0.3089733007
 40
0.3809683818
 40
0.4585808095
 40
0.5410869178
 40
0.6277523154
 40
0.7178134401
 40
0.7638769542
 40
0.8104945245
 40
0.9048949475
 40
1.0
 40
1.0
 40
1.0
 40
1.0
 10
5.2520245752
 20
5.2508821145
 30
0.0
 10
5.2521212516
 20
5.2509329848
 30
0.0
 10
5.2523396392
 20
5.2510324699
 30
0.0
 10
5.2528698584
 20
5.2512296832
 30
0.0
 10
5.2537086434
 20
5.2514673389
 30
0.0
 10
5.2549234185
 20
5.2517383985
 30
0.0
 10
5.2564115162
 20
5.2520106752
 30
0.0
 10
5.2581720801
 20
5.2522842067
 30
0.0
 10
5.2610582937
 20
5.2526733884
 30
0.0
 10
5.2653398285
 20
5.25314748
 30
0.0
 10
5.2712782606
 20
5.2536920664
 30
0.0
 10
5.2782717938
 20
5.2542386588
 30
0.0
 10
5.2863064141
 20
5.2547867448
 30
0.0
 10
5.2953643625
 20
5.2553356531
 30
0.0
 10
5.3054237862
 20
5.2558854288
 30
0.0
 10
5.3164604131
 20
5.2564358382
 30
0.0
 10
5.3284497463
 20
5.2569868271
 30
0.0
 10
5.3462625011
 20
5.2577471178
 30
0.0
 10
5.3706911333
 20
5.2586868439
 30
0.0
 10
5.4024419995
 20
5.2597831113
 30
0.0
 10
5.4372248869
 20
5.2608780216
 30
0.0
 10
5.4747223141
 20
5.2619741466
 30
0.0
 10
5.514591462
 20
5.2630771225
 30
0.0
 10
5.5564730054
 20
5.2641896029
 30
0.0
 10
5.5924680419
 20
5.2651016386
 30
0.0
 10
5.6219934832
 20
5.2658202331
 30
0.0
 10
5.652220515
 20
5.2665352376
 30
0.0
 10
5.6903715345
 20
5.2674256969
 30
0.0
 10
5.7209895101
 20
5.2681801655
 30
0.0
 10
5.7363548137
 20
5.2685820886
 30
0.0
  0
SPLINE
  5
26C
100
AcDbEntity
  8
0
100
AcDbSpline
 62
7
  6
CONTINUOUS
 70
0
 71
3
 72
33
 73
29
 74
0
 42
0.0000001
 43
0.0000001
 44
0.0000000001
 40
0.0
 40
0.0
 40
0.0
 40
0.0
 40
0.0006147983
 40
0.0013588563
 40
0.003249305
 40
0.0056898685
 40
0.008688166
 40
0.0122464313
 40
0.0163638614
 40
0.026268589
 40
0.0383838652
 40
0.0526872861
 40
0.0691548072
 40
0.0877537266
 40
0.1084356744
 40
0.1311502381
 40
0.1558468107
 40
0.1824746275
 40
0.2412829744
 40
0.3070184716
 40
0.379098017
 40
0.456856938
 40
0.5395635978
 40
0.6264756979
 40
0.7168213664
 40
0.8098162077
 40
0.904551085
 40
1.0
 40
1.0
 40
1.0
 40
1.0
 10
6.2208081156
 20
5.2562740695
 30
0.0
 10
6.2207230951
 20
5.2562225915
 30
0.0
 10
6.2205271271
 20
5.2561221614
 30
0.0
 10
6.2200405852
 20
5.2559232644
 30
0.0
 10
6.219254083
 20
5.255684711
 30
0.0
 10
6.2181005118
 20
5.2554131088
 30
0.0
 10
6.2166714512
 20
5.255140148
 30
0.0
 10
6.2149676646
 20
5.2548657973
 30
0.0
 10
6.2121524346
 20
5.254474517
 30
0.0
 10
6.2079532971
 20
5.2539985687
 30
0.0
 10
6.2021063989
 20
5.2534522351
 30
0.0
 10
6.1951948025
 20
5.2529037381
 30
0.0
 10
6.1872323817
 20
5.2523535436
 30
0.0
 10
6.1782366852
 20
5.2518024541
 30
0.0
 10
6.1682294404
 20
5.251250482
 30
0.0
 10
6.1572351036
 20
5.2506979392
 30
0.0
 10
6.1452784501
 20
5.2501449508
 30
0.0
 10
6.127490321
 20
5.2493819032
 30
0.0
 10
6.1030694266
 20
5.2484395219
 30
0.0
 10
6.071301566
 20
5.2473392621
 30
0.0
 10
6.0364685094
 20
5.2462362407
 30
0.0
 10
5.9988906116
 20
5.2451319469
 30
0.0
 10
5.9589138032
 20
5.2440297927
 30
0.0
 10
5.9169013319
 20
5.2429320718
 30
0.0
 10
5.8732252335
 20
5.2418289443
 30
0.0
 10
5.8282845755
 20
5.2407060477
 30
0.0
 10
5.7825187384
 20
5.2395796773
 30
0.0
 10
5.7517814451
 20
5.2388556622
 30
0.0
 10
5.7363548137
 20
5.2385048119
 30
0.0
  0
SPLINE
  5
26D
100
AcDbEntity
  8
0
100
AcDbSpline
 62
7
  6
CONTINUOUS
 70
0
 71
3
 72
37
 73
33
 74
0
 42
0.0000001
 43
0.0000001
 44
0.0000000001
 40
0.0
 40
0.0
 40
0.0
 40
0.0
 40
0.0006292988
 40
0.0014277535
 40
0.0024002558
 40
0.0035493152
 40
0.0063817511
 40
0.0099304606
 40
0.0141964777
 40
0.0191792097
 40
0.0248772595
 40
0.031288787
 40
0.0384116888
 40
0.0462436949
 40
0.0640253692
 40
0.0846007104
 40
0.1078424863
 40
0.133583147
 40
0.1616547221
 40
0.1918890755
 40
0.2241179647
 40
0.258173076
 40
0.2938860455
 40
0.3696119279
 40
0.4499397727
 40
0.5333161791
 40
0.617987873
 40
0.7021926457
 40
0.7841683094
 40
0.8621528368
 40
0.9345103825
 40
1.0
 40
1.0
 40
1.0
 40
1.0
 10
6.18321504
 20
5.2348116652
 30
0.0
 10
6.1830781919
 20
5.2347325008
 30
0.0
 10
6.1827518215
 20
5.2345808202
 30
0.0
 10
6.182183631
 20
5.2343779733
 30
0.0
 10
6.1814785402
 20
5.234174086
 30
0.0
 10
6.1802688492
 20
5.2338804888
 30
0.0
 10
6.178409707
 20
5.233525486
 30
0.0
 10
6.1757656211
 20
5.2331194294
 30
0.0
 10
6.1725762574
 20
5.232711536
 30
0.0
 10
6.1688435013
 20
5.2323020202
 30
0.0
 10
6.1645690215
 20
5.2318915915
 30
0.0
 10
6.1597547762
 20
5.2314804787
 30
0.0
 10
6.154402725
 20
5.2310688552
 30
0.0
 10
6.1461984395
 20
5.2304949694
 30
0.0
 10
6.1346159133
 20
5.2297877361
 30
0.0
 10
6.1191622048
 20
5.2289700959
 30
0.0
 10
6.1017066222
 20
5.2281507061
 30
0.0
 10
6.0823660273
 20
5.2273295476
 30
0.0
 10
6.0612673229
 20
5.2265072352
 30
0.0
 10
6.0385375002
 20
5.2256840624
 30
0.0
 10
6.014303561
 20
5.2248602657
 30
0.0
 10
5.9886925196
 20
5.2240359659
 30
0.0
 10
5.9521578513
 20
5.2229144361
 30
0.0
 10
5.9040010693
 20
5.221525063
 30
0.0
 10
5.8438722595
 20
5.2198880093
 30
0.0
 10
5.7814952272
 20
5.2182512517
 30
0.0
 10
5.7181439097
 20
5.2166135514
 30
0.0
 10
5.6551446023
 20
5.2149761894
 30
0.0
 10
5.5938258248
 20
5.2133402115
 30
0.0
 10
5.5354844128
 20
5.2117061938
 30
0.0
 10
5.4812864904
 20
5.2100711192
 30
0.0
 10
5.4466747016
 20
5.2089208957
 30
0.0
 10
5.4302324375
 20
5.2083351169
 30
0.0
  0
SPLINE
  5
26E
100
AcDbEntity
  8
0
100
AcDbSpline
 62
7
  6
CONTINUOUS
 70
0
 71
3
 72
22
 73
18
 74
0
 42
0.0000001
 43
0.0000001
 44
0.0000000001
 40
0.0
 40
0.0
 40
0.0
 40
0.0
 40
0.2121626729
 40
0.4012205938
 40
0.5661548129
 40
0.6392592368
 40
0.7059542019
 40
0.7661154876
 40
0.8196207239
 40
0.8663608262
 40
0.9063286953
 40
0.9395787047
 40
0.966181641
 40
0.9770233116
 40
0.9862497691
 40
0.9938916471
 40
1.0
 40
1.0
 40
1.0
 40
1.0
 10
5.358683998
 20
5.2783352139
 30
0.0
 10
5.3537639219
 20
5.278097928
 30
0.0
 10
5.3444605365
 20
5.2776285335
 30
0.0
 10
5.3313369524
 20
5.2768866224
 30
0.0
 10
5.3214414509
 20
5.2762476351
 30
0.0
 10
5.3143854089
 20
5.2757291566
 30
0.0
 10
5.3097578434
 20
5.2753564877
 30
0.0
 10
5.3055868868
 20
5.2749843319
 30
0.0
 10
5.3018811822
 20
5.2746129148
 30
0.0
 10
5.2986469139
 20
5.2742420175
 30
0.0
 10
5.2958862196
 20
5.2738722871
 30
0.0
 10
5.2935978628
 20
5.2735041156
 30
0.0
 10
5.2919875375
 20
5.2731822096
 30
0.0
 10
5.2909368405
 20
5.2729164541
 30
0.0
 10
5.2903203121
 20
5.2727314864
 30
0.0
 10
5.2898193519
 20
5.2725473059
 30
0.0
 10
5.289529902
 20
5.2724104073
 30
0.0
 10
5.2894071383
 20
5.2723394043
 30
0.0
  0
ENDSEC
  0
SECTION
  2
OBJECTS
  0
DICTIONARY
  5
C
100
AcDbDictionary
280
0
281
1
  3
ACAD_GROUP
350
D
  3
ACAD_MLINESTYLE
350
17
  3
ACAD_LAYOUT
350
1A
  3
ACAD_PLOTSETTINGS
350
19
  3
ACAD_PLOTSTYLENAME
350
E
  0
DICTIONARY
  5
D
102
{ACAD_REACTORS
330
C
102
}
100
AcDbDictionary
280
0
281
1
  0
ACDBDICTIONARYWDFLT
  5
E
102
{ACAD_REACTORS
330
C
102
}
100
AcDbDictionary
281
1
  3
Normal
350
F
100
AcDbDictionaryWithDefault
340
F
  0
DICTIONARY
  5
17
102
{ACAD_REACTORS
330
C
102
}
100
AcDbDictionary
280
0
281
1
  3
Standard
350
18
  0
DICTIONARY
  5
19
102
{ACAD_REACTORS
330
C
102
}
100
AcDbDictionary
281
1
  0
DICTIONARY
  5
1A
102
{ACAD_REACTORS
330
C
102
}
100
AcDbDictionary
281
1
  3
Model
350
26F
  3
Layout1
350
270
  0
ACDBPLACEHOLDER
  5
F
102
{ACAD_REACTORS
330
E
102
}
  0
MLINESTYLE
  5
18
102
{ACAD_REACTORS
330
17
102
}
100
AcDbMlineStyle
  2
STANDARD
 70
0
  3

 62
256
 51
90.0
 52
90.0
 71
2
 49
0.5
 62
256
  6
BYLAYER
 49
-0.5
 62
256
  6
BYLAYER
  0
LAYOUT
  5
26F
102
{ACAD_REACTORS
330
1A
102
}
100
AcDbPlotSettings
  1

  2
none_device
  4
ANSI_A_(11.00_x_8.50_Inches)
  6

 40
0.0
 41
0.0
 42
0.0
 43
0.0
 44
279.4
 45
215.9
 46
0.0
 47
0.0
 48
0.0
 49
0.0
140
0.0
141
0.0
142
1.0
143
1.0
 70
1024
 72
0
 73
0
 74
0
  7

 75
0
147
1.0
148
0.0
149
0.0
100
AcDbLayout
  1
Model
 70
0
 71
0
 10
0.0
 20
0.0
 11
11.0
 21
8.5
 12
0.0
 22
0.0
 32
0.0
 14
0.0
 24
0.0
 34
0.0
 15
0.0
 25
0.0
 35
0.0
146
0.0
 13
0.0
 23
0.0
 33
0.0
 16
1.0
 26
0.0
 36
0.0
 17
0.0
 27
1.0
 37
0.0
 76
0
330
229
345
0
346
0
  0
LAYOUT
  5
270
102
{ACAD_REACTORS
330
1A
102
}
100
AcDbPlotSettings
  1

  2
none_device
  4
ANSI_A_(11.00_x_8.50_Inches)
  6

 40
0.0
 41
0.0
 42
0.0
 43
0.0
 44
279.4
 45
215.9
 46
0.0
 47
0.0
 48
0.0
 49
0.0
140
0.0
141
0.0
142
1.0
143
1.0
 70
0
 72
0
 73
0
 74
0
  7

 75
0
147
1.0
148
0.0
149
0.0
100
AcDbLayout
  1
Layout1
 70
0
 71
1
 10
0.0
 20
0.0
 11
11.0
 21
8.5
 12
0.0
 22
0.0
 32
0.0
 14
0.0
 24
0.0
 34
0.0
 15
0.0
 25
0.0
 35
0.0
146
0.0
 13
0.0
 23
0.0
 33
0.0
 16
1.0
 26
0.0
 36
0.0
 17
0.0
 27
1.0
 37
0.0
 76
0
330
22A
345
0
346
0
  0
ENDSEC
  0
EOF
