999
DXF file: C:\Prowork\plots\403x-1_top.dxf
999
Pro/ENGINEER 2018500 by Parametric Technology Corporation
  0
SECTION
  2
HEADER
  9
$ACADVER
  1
AC1032
  9
$DWGCODEPAGE
  3
ANSI_1252
  9
$EXTMAX
 10
11.0
 20
8.5
 30
0.0
  9
$EXTMIN
 10
0.0
 20
0.0
 30
0.0
  9
$LIMMIN
 10
0.0
 20
0.0
  9
$LIMMAX
 10
11.0
 20
8.5
  9
$VIEWCTR
 10
5.5
 20
4.25
  9
$VIEWSIZE
 40
8.5
  9
$CLAYER
  8
0
  9
$LTSCALE
 40
0.605
  9
$CELTYPE
  6
BYLAYER
  9
$DIMSCALE
 40
1.0
  9
$DIMASZ
 40
0.1
  9
$DIMEXO
 40
0.0625
  9
$DIMDLI
 40
0.418
  9
$DIMEXE
 40
0.125
  9
$DIMCEN
 40
0.099
  9
$DIMLFAC
 40
1.0
  9
$DIMBLK
  1
_FILLED
  9
$DIMALT
 70
1
  9
$DIMALTD
 70
2
  9
$DIMALTTD
 70
2
  9
$DIMALTF
 40
25.4
  9
$DIMTXT
 40
0.08
  9
$DIMTOL
 70
1
  9
$DIMLIM
 70
0
  9
$DIMTFAC
 40
1.0
  9
$DIMTP
 40
0.001
  9
$DIMTM
 40
0.001
  9
$DIMGAP
 40
0.09
  9
$DIMDSEP
 70
46
  9
$AUNITS
 70
0
  9
$PDMODE
 70
3
  9
$PDSIZE
 40
0.06
  9
$HANDSEED
  5
2D5
  9
$TILEMODE
 70
1
  9
$MEASUREMENT
 70
0
  9
$INSUNITS
 70
1
  0
ENDSEC
  0
SECTION
  2
CLASSES
  0
CLASS
  1
ACDBDICTIONARYWDFLT
  2
AcDbDictionaryWithDefault
  3
AutoCAD 2000
 90
0
 91
1
280
0
281
0
  0
CLASS
  1
ACDBPLACEHOLDER
  2
AcDbPlaceHolder
  3
AutoCAD 2000
 90
0
 91
1
280
0
281
0
  0
CLASS
  1
LAYOUT
  2
AcDbLayout
  3
AutoCAD 2000
 90
0
 91
0
280
0
281
0
  0
ENDSEC
  0
SECTION
  2
TABLES
  0
TABLE
  2
VPORT
  5
8
100
AcDbSymbolTable
 70
2
  0
VPORT
  5
1F4
100
AcDbSymbolTableRecord
100
AcDbViewportTableRecord
  2
*ACTIVE
 70
0
 10
0.0
 20
0.0
 11
1.0
 21
1.0
 12
5.5
 22
4.25
 13
0.0
 23
0.0
 14
1.0
 24
1.0
 15
0.0
 25
0.0
 16
0.0
 26
0.0
 36
1.0
 17
0.0
 27
0.0
 37
0.0
 40
8.5
 41
1.2941176471
 42
50.0
 43
0.0
 44
0.0
 50
0.0
 51
0.0
 71
0
 72
100
 73
1
 74
1
 75
0
 76
0
 77
0
 78
0
  0
ENDTAB
  0
TABLE
  2
LTYPE
  5
5
100
AcDbSymbolTable
 70
6
  0
LTYPE
  5
14
100
AcDbSymbolTableRecord
100
AcDbLinetypeTableRecord
  2
BYBLOCK
 70
0
  3

 72
65
 73
0
 40
0.0
  0
LTYPE
  5
15
100
AcDbSymbolTableRecord
100
AcDbLinetypeTableRecord
  2
BYLAYER
 70
0
  3

 72
65
 73
0
 40
0.0
  0
LTYPE
  5
16
100
AcDbSymbolTableRecord
100
AcDbLinetypeTableRecord
  2
CONTINUOUS
 70
64
  3
Solid line
 72
65
 73
0
 40
0.0
  0
LTYPE
  5
1F5
100
AcDbSymbolTableRecord
100
AcDbLinetypeTableRecord
  2
CENTER
 70
64
  3
____ _ ____ _ ____ _ ____ _ ____ _ ____ _ ____
 72
65
 73
4
 40
0.6
 49
0.375
 74
0
 49
-0.075
 74
0
 49
0.075
 74
0
 49
-0.075
 74
0
  0
LTYPE
  5
1F6
100
AcDbSymbolTableRecord
100
AcDbLinetypeTableRecord
  2
HIDDEN
 70
64
  3
- - - - - - - - - - - - - - - - - - - -
 72
65
 73
2
 40
0.2
 49
0.1
 74
0
 49
-0.1
 74
0
  0
LTYPE
  5
1F7
100
AcDbSymbolTableRecord
100
AcDbLinetypeTableRecord
  2
PHANTOM
 70
64
  3
_____ _ _ _____ _ _ _____ _ _ _____
 72
65
 73
6
 40
0.8
 49
0.45
 74
0
 49
-0.05
 74
0
 49
0.1
 74
0
 49
-0.05
 74
0
 49
0.1
 74
0
 49
-0.05
 74
0
  0
LTYPE
  5
1F8
100
AcDbSymbolTableRecord
100
AcDbLinetypeTableRecord
  2
DOT
 70
64
  3
. . . . . . . . . . . . . . . . . . . .
 72
65
 73
2
 40
0.2
 49
0.1
 74
0
 49
-0.1
 74
0
  0
LTYPE
  5
1F9
100
AcDbSymbolTableRecord
100
AcDbLinetypeTableRecord
  2
DASHED
 70
64
  3
- - - - - - - - - - - - - - - - - - - -
 72
65
 73
2
 40
0.2
 49
0.1
 74
0
 49
-0.1
 74
0
  0
ENDTAB
  0
TABLE
  2
LAYER
  5
2
100
AcDbSymbolTable
 70
36
  0
LAYER
  5
10
100
AcDbSymbolTableRecord
100
AcDbLayerTableRecord
  2
0
 70
0
 62
7
  6
CONTINUOUS
370
-3
390
F
  0
LAYER
  5
1FA
100
AcDbSymbolTableRecord
100
AcDbLayerTableRecord
  2
DEFAULT_1
 70
0
 62
7
  6
CENTER
370
-3
390
F
  0
LAYER
  5
1FB
100
AcDbSymbolTableRecord
100
AcDbLayerTableRecord
  2
DEFAULT_2
 70
0
 62
8
  6
HIDDEN
370
-3
390
F
  0
LAYER
  5
1FC
100
AcDbSymbolTableRecord
100
AcDbLayerTableRecord
  2
DEFAULT_3
 70
0
 62
7
  6
PHANTOM
370
-3
390
F
  0
LAYER
  5
1FD
100
AcDbSymbolTableRecord
100
AcDbLayerTableRecord
  2
1-134
 70
0
 62
7
  6
CONTINUOUS
370
-3
390
F
  0
LAYER
  5
1FE
100
AcDbSymbolTableRecord
100
AcDbLayerTableRecord
  2
50359
 70
0
 62
7
  6
CONTINUOUS
370
-3
390
F
  0
LAYER
  5
1FF
100
AcDbSymbolTableRecord
100
AcDbLayerTableRecord
  2
50362
 70
0
 62
7
  6
CONTINUOUS
370
-3
390
F
  0
LAYER
  5
200
100
AcDbSymbolTableRecord
100
AcDbLayerTableRecord
  2
50729
 70
0
 62
7
  6
CONTINUOUS
370
-3
390
F
  0
LAYER
  5
201
100
AcDbSymbolTableRecord
100
AcDbLayerTableRecord
  2
50733
 70
0
 62
7
  6
CONTINUOUS
370
-3
390
F
  0
LAYER
  5
202
100
AcDbSymbolTableRecord
100
AcDbLayerTableRecord
  2
50733_1
 70
0
 62
7
  6
CONTINUOUS
370
-3
390
F
  0
LAYER
  5
203
100
AcDbSymbolTableRecord
100
AcDbLayerTableRecord
  2
50733_2
 70
0
 62
7
  6
CONTINUOUS
370
-3
390
F
  0
LAYER
  5
204
100
AcDbSymbolTableRecord
100
AcDbLayerTableRecord
  2
50733_3
 70
0
 62
7
  6
CONTINUOUS
370
-3
390
F
  0
LAYER
  5
205
100
AcDbSymbolTableRecord
100
AcDbLayerTableRecord
  2
50737
 70
0
 62
7
  6
CONTINUOUS
370
-3
390
F
  0
LAYER
  5
206
100
AcDbSymbolTableRecord
100
AcDbLayerTableRecord
  2
50741
 70
0
 62
7
  6
CONTINUOUS
370
-3
390
F
  0
LAYER
  5
207
100
AcDbSymbolTableRecord
100
AcDbLayerTableRecord
  2
50742
 70
0
 62
7
  6
CONTINUOUS
370
-3
390
F
  0
LAYER
  5
208
100
AcDbSymbolTableRecord
100
AcDbLayerTableRecord
  2
50743
 70
0
 62
7
  6
CONTINUOUS
370
-3
390
F
  0
LAYER
  5
209
100
AcDbSymbolTableRecord
100
AcDbLayerTableRecord
  2
6-034
 70
0
 62
7
  6
CONTINUOUS
370
-3
390
F
  0
LAYER
  5
20A
100
AcDbSymbolTableRecord
100
AcDbLayerTableRecord
  2
91022
 70
0
 62
7
  6
CONTINUOUS
370
-3
390
F
  0
LAYER
  5
20B
100
AcDbSymbolTableRecord
100
AcDbLayerTableRecord
  2
92087
 70
0
 62
7
  6
CONTINUOUS
370
-3
390
F
  0
LAYER
  5
20C
100
AcDbSymbolTableRecord
100
AcDbLayerTableRecord
  2
92087_1
 70
0
 62
7
  6
CONTINUOUS
370
-3
390
F
  0
LAYER
  5
20D
100
AcDbSymbolTableRecord
100
AcDbLayerTableRecord
  2
92087_2
 70
0
 62
7
  6
CONTINUOUS
370
-3
390
F
  0
LAYER
  5
20E
100
AcDbSymbolTableRecord
100
AcDbLayerTableRecord
  2
92087_3
 70
0
 62
7
  6
CONTINUOUS
370
-3
390
F
  0
LAYER
  5
20F
100
AcDbSymbolTableRecord
100
AcDbLayerTableRecord
  2
ALL_ASSEMBLY_MEMBERS
 70
0
 62
7
  6
CONTINUOUS
370
-3
390
F
  0
LAYER
  5
210
100
AcDbSymbolTableRecord
100
AcDbLayerTableRecord
  2
COLOR147
 70
0
 62
7
  6
CONTINUOUS
370
-3
390
F
  0
LAYER
  5
211
100
AcDbSymbolTableRecord
100
AcDbLayerTableRecord
  2
COLOR32
 70
0
 62
7
  6
CONTINUOUS
370
-3
390
F
  0
LAYER
  5
212
100
AcDbSymbolTableRecord
100
AcDbLayerTableRecord
  2
COLOR54
 70
0
 62
7
  6
CONTINUOUS
370
-3
390
F
  0
LAYER
  5
213
100
AcDbSymbolTableRecord
100
AcDbLayerTableRecord
  2
COLOR66
 70
0
 62
7
  6
CONTINUOUS
370
-3
390
F
  0
LAYER
  5
214
100
AcDbSymbolTableRecord
100
AcDbLayerTableRecord
  2
DEFAULT_COORDINATE_SYSTEM
 70
0
 62
7
  6
CONTINUOUS
370
-3
390
F
  0
LAYER
  5
215
100
AcDbSymbolTableRecord
100
AcDbLayerTableRecord
  2
DEFAULT_DATUM_AXES
 70
0
 62
7
  6
CONTINUOUS
370
-3
390
F
  0
LAYER
  5
216
100
AcDbSymbolTableRecord
100
AcDbLayerTableRecord
  2
DEFAULT_DATUM_PLANES
 70
0
 62
7
  6
CONTINUOUS
370
-3
390
F
  0
LAYER
  5
217
100
AcDbSymbolTableRecord
100
AcDbLayerTableRecord
  2
DEFAULT_SURFACES
 70
0
 62
7
  6
CONTINUOUS
370
-3
390
F
  0
LAYER
  5
218
100
AcDbSymbolTableRecord
100
AcDbLayerTableRecord
  2
INTF_50359
 70
0
 62
7
  6
CONTINUOUS
370
-3
390
F
  0
LAYER
  5
219
100
AcDbSymbolTableRecord
100
AcDbLayerTableRecord
  2
INTF_50362
 70
0
 62
7
  6
CONTINUOUS
370
-3
390
F
  0
LAYER
  5
21A
100
AcDbSymbolTableRecord
100
AcDbLayerTableRecord
  2
INTF_50729
 70
0
 62
7
  6
CONTINUOUS
370
-3
390
F
  0
LAYER
  5
21B
100
AcDbSymbolTableRecord
100
AcDbLayerTableRecord
  2
INTF_50733
 70
0
 62
7
  6
CONTINUOUS
370
-3
390
F
  0
LAYER
  5
21C
100
AcDbSymbolTableRecord
100
AcDbLayerTableRecord
  2
INTF_50737
 70
0
 62
7
  6
CONTINUOUS
370
-3
390
F
  0
LAYER
  5
21D
100
AcDbSymbolTableRecord
100
AcDbLayerTableRecord
  2
INTF_50741
 70
0
 62
7
  6
CONTINUOUS
370
-3
390
F
  0
LAYER
  5
21E
100
AcDbSymbolTableRecord
100
AcDbLayerTableRecord
  2
INTF_50742
 70
0
 62
7
  6
CONTINUOUS
370
-3
390
F
  0
LAYER
  5
21F
100
AcDbSymbolTableRecord
100
AcDbLayerTableRecord
  2
INTF_50743
 70
0
 62
7
  6
CONTINUOUS
370
-3
390
F
  0
LAYER
  5
220
100
AcDbSymbolTableRecord
100
AcDbLayerTableRecord
  2
INTF_91022
 70
0
 62
7
  6
CONTINUOUS
370
-3
390
F
  0
LAYER
  5
221
100
AcDbSymbolTableRecord
100
AcDbLayerTableRecord
  2
INTF_92087
 70
0
 62
7
  6
CONTINUOUS
370
-3
390
F
  0
LAYER
  5
222
100
AcDbSymbolTableRecord
100
AcDbLayerTableRecord
  2
INTF_BLANK
 70
0
 62
7
  6
CONTINUOUS
370
-3
390
F
  0
LAYER
  5
223
100
AcDbSymbolTableRecord
100
AcDbLayerTableRecord
  2
QUILT
 70
0
 62
7
  6
CONTINUOUS
370
-3
390
F
  0
LAYER
  5
224
100
AcDbSymbolTableRecord
100
AcDbLayerTableRecord
  2
SURFACES
 70
0
 62
7
  6
CONTINUOUS
370
-3
390
F
  0
LAYER
  5
225
100
AcDbSymbolTableRecord
100
AcDbLayerTableRecord
  2
WETTED_SURFACES
 70
0
 62
7
  6
CONTINUOUS
370
-3
390
F
  0
LAYER
  5
226
100
AcDbSymbolTableRecord
100
AcDbLayerTableRecord
  2
_BLACK_HOLE
 70
0
 62
7
  6
CONTINUOUS
370
-3
390
F
  0
ENDTAB
  0
TABLE
  2
STYLE
  5
3
100
AcDbSymbolTable
 70
1
  0
STYLE
  5
11
100
AcDbSymbolTableRecord
100
AcDbTextStyleTableRecord
  2
STANDARD
 70
0
 40
0.0
 41
0.8
 50
0.0
 71
0
 42
0.2
  3
txt
  4

  0
STYLE
  5
227
100
AcDbSymbolTableRecord
100
AcDbTextStyleTableRecord
  2
TEXTSTYLE_1
 70
0
 40
0.0
 41
0.8
 50
0.0
 71
0
 42
0.2
  3
gdt
  4

  0
ENDTAB
  0
TABLE
  2
VIEW
  5
6
100
AcDbSymbolTable
 70
0
  0
ENDTAB
  0
TABLE
  2
UCS
  5
7
100
AcDbSymbolTable
 70
0
  0
ENDTAB
  0
TABLE
  2
APPID
  5
9
100
AcDbSymbolTable
 70
1
  0
APPID
  5
228
100
AcDbSymbolTableRecord
100
AcDbRegAppTableRecord
  2
ACAD
 70
0
  0
ENDTAB
  0
TABLE
  2
BLOCK_RECORD
  5
1
100
AcDbSymbolTable
 70
0
  0
BLOCK_RECORD
  5
229
100
AcDbSymbolTableRecord
100
AcDbBlockTableRecord
  2
*Model_Space
  0
BLOCK_RECORD
  5
22A
100
AcDbSymbolTableRecord
100
AcDbBlockTableRecord
  2
*Paper_Space
  0
BLOCK_RECORD
  5
22B
100
AcDbSymbolTableRecord
100
AcDbBlockTableRecord
  2
_FILLED
  0
ENDTAB
  0
TABLE
  2
DIMSTYLE
  5
A
100
AcDbSymbolTable
 70
1
100
AcDbDimStyleTable
 71
0
  0
DIMSTYLE
105
22C
100
AcDbSymbolTableRecord
100
AcDbDimStyleTableRecord
  2
STANDARD
 70
0
  3

  4

 40
1.0
 41
0.1
 42
0.0625
 43
0.38
 44
0.125
 45
0.0
 46
0.0
 47
0.001
 48
0.001
140
0.08
141
0.09
142
0.0
143
25.4
144
1.0
145
0.0
146
1.0
147
0.09
 71
1.0
 72
0.0
 73
1
 74
1
 75
0
 76
0
 77
0
 78
4
 79
1
170
1
171
2
172
0
173
0
174
0
175
0
176
0
177
0
178
0
270
2
179
3
271
3
272
3
273
2
274
2
275
0
280
0
281
0
282
0
283
1
284
4
285
0
286
0
287
3
288
0
340
11
278
46
341
22B
342
22B
343
22B
344
22B
  0
ENDTAB
  0
ENDSEC
  0
SECTION
  2
BLOCKS
  0
BLOCK
  5
20
100
AcDbEntity
  8
0
100
AcDbBlockBegin
  2
*Model_Space
 70
0
 10
0.0
 20
0.0
 30
0.0
  3
*Model_Space
  1

  0
ENDBLK
  5
21
100
AcDbEntity
  8
0
100
AcDbBlockEnd
  0
BLOCK
  5
1C
100
AcDbEntity
  8
0
100
AcDbBlockBegin
  2
*Paper_Space
 70
0
 10
0.0
 20
0.0
 30
0.0
  3
*Paper_Space
  1

  0
ENDBLK
  5
1D
100
AcDbEntity
  8
0
100
AcDbBlockEnd
  0
BLOCK
  5
22D
100
AcDbEntity
  8
0
100
AcDbBlockBegin
  2
_FILLED
 70
64
 10
0.0
 20
0.0
  3
_FILLED
  1

  0
SOLID
  5
22E
100
AcDbEntity
  8
0
  6
BYBLOCK
 62
0
100
AcDbTrace
 10
0.0
 20
0.0
 11
-1.0
 21
0.2
 12
-1.0
 22
-0.2
 13
-1.0
 23
-0.2
  0
ENDBLK
  5
22F
100
AcDbEntity
  8
0
  6
BYBLOCK
 62
0
100
AcDbBlockEnd
  0
ENDSEC
  0
SECTION
  2
ENTITIES
  0
MTEXT
  5
230
100
AcDbEntity
  8
0
100
AcDbMText
 62
7
  6
CONTINUOUS
  7
STANDARD
 71
1
 72
1
 10
9.7140333851
 20
0.3526746894
 30
0.0
 11
1.0
 21
0.0
 31
0.0
 73
2
 44
0.9
  1
SCALE: 1.75
 40
0.08
 41
0.704
  0
LINE
  5
231
100
AcDbEntity
  8
0
100
AcDbLine
 62
7
  6
CONTINUOUS
 10
0.0
 20
0.0
 11
0.0
 21
8.5
  0
LINE
  5
232
100
AcDbEntity
  8
0
100
AcDbLine
 62
7
  6
CONTINUOUS
 10
0.0
 20
0.0
 11
11.0
 21
0.0
  0
LINE
  5
233
100
AcDbEntity
  8
0
100
AcDbLine
 62
7
  6
CONTINUOUS
 10
0.0
 20
8.5
 11
11.0
 21
8.5
  0
LINE
  5
234
100
AcDbEntity
  8
0
100
AcDbLine
 62
7
  6
CONTINUOUS
 10
11.0
 20
0.0
 11
11.0
 21
8.5
  0
LINE
  5
235
100
AcDbEntity
  8
0
100
AcDbLine
 62
7
  6
CONTINUOUS
 10
4.7692574497
 20
0.1337942547
 11
6.0116819913
 21
0.1337942547
  0
LINE
  5
236
100
AcDbEntity
  8
0
100
AcDbLine
 62
7
  6
CONTINUOUS
 10
6.8696398796
 20
0.2869192547
 11
5.7431125523
 21
0.2869192547
  0
LINE
  5
237
100
AcDbEntity
  8
0
100
AcDbLine
 62
7
  6
CONTINUOUS
 10
5.0376869655
 20
0.2869192547
 11
3.9112995614
 21
0.2869192547
  0
LINE
  5
238
100
AcDbEntity
  8
0
100
AcDbLine
 62
7
  6
CONTINUOUS
 10
3.9112995614
 20
0.9606692547
 11
5.0376920387
 21
0.9606692547
  0
LINE
  5
239
100
AcDbEntity
  8
0
100
AcDbLine
 62
7
  6
CONTINUOUS
 10
5.743118115
 20
0.9606692547
 11
6.8696398796
 21
0.9606692547
  0
LINE
  5
23A
100
AcDbEntity
  8
0
100
AcDbLine
 62
7
  6
CONTINUOUS
 10
4.7692197205
 20
1.1137942547
 11
6.0117197205
 21
1.1137942547
  0
LINE
  5
23B
100
AcDbEntity
  8
0
100
AcDbLine
 62
9
  6
CONTINUOUS
 10
4.5329916887
 20
1.3237942547
 11
6.2479477523
 21
1.3237942547
  0
LINE
  5
23C
100
AcDbEntity
  8
0
100
AcDbLine
 62
9
  6
CONTINUOUS
 10
4.5154697205
 20
1.3412942547
 11
6.2654697205
 21
1.3412942547
  0
LINE
  5
23D
100
AcDbEntity
  8
0
100
AcDbLine
 62
9
  6
CONTINUOUS
 10
6.2654697205
 20
1.8837942547
 11
4.5154697205
 21
1.8837942547
  0
LINE
  5
23E
100
AcDbEntity
  8
0
100
AcDbLine
 62
9
  6
CONTINUOUS
 10
4.5329916887
 20
1.9012942547
 11
6.2479478233
 21
1.9012942547
  0
LINE
  5
23F
100
AcDbEntity
  8
0
100
AcDbLine
 62
7
  6
CONTINUOUS
 10
6.06920722
 20
1.9176567542
 11
6.0690179259
 21
1.9176567542
  0
LINE
  5
240
100
AcDbEntity
  8
0
100
AcDbLine
 62
7
  6
CONTINUOUS
 10
6.2654697205
 20
1.9362942547
 11
4.5154697205
 21
1.9362942547
  0
LINE
  5
241
100
AcDbEntity
  8
0
100
AcDbLine
 62
7
  6
CONTINUOUS
 10
4.7004834254
 20
1.9289055497
 11
4.7280947205
 21
1.9012942547
  0
LINE
  5
242
100
AcDbEntity
  8
0
100
AcDbLine
 62
7
  6
CONTINUOUS
 10
4.5154697205
 20
8.0682942547
 11
4.5154697205
 21
6.9762942547
  0
LINE
  5
243
100
AcDbEntity
  8
0
100
AcDbLine
 62
7
  6
CONTINUOUS
 10
4.5154697205
 20
1.3412942547
 11
4.5154697205
 21
1.8837942547
  0
LINE
  5
244
100
AcDbEntity
  8
0
100
AcDbLine
 62
7
  6
CONTINUOUS
 10
4.5154697205
 20
1.9362942547
 11
4.5154697205
 21
6.8362942547
  0
LINE
  5
245
100
AcDbEntity
  8
0
100
AcDbLine
 62
7
  6
CONTINUOUS
 10
4.6799697205
 20
8.0770442547
 11
4.6799697205
 21
8.4007942547
  0
LINE
  5
246
100
AcDbEntity
  8
0
100
AcDbLine
 62
7
  6
CONTINUOUS
 10
4.7482197205
 20
6.8362942547
 11
4.7482197205
 21
6.9762942547
  0
LINE
  5
247
100
AcDbEntity
  8
0
100
AcDbLine
 62
7
  6
CONTINUOUS
 10
4.7692197205
 20
0.1337942547
 11
4.7692197205
 21
0.2869192547
  0
LINE
  5
248
100
AcDbEntity
  8
0
100
AcDbLine
 62
7
  6
CONTINUOUS
 10
4.7692197205
 20
0.9606692547
 11
4.7692197205
 21
1.1137942547
  0
LINE
  5
249
100
AcDbEntity
  8
0
100
AcDbLine
 62
7
  6
CONTINUOUS
 10
4.8987197205
 20
2.8691450745
 11
4.8987197205
 21
3.6284434348
  0
LINE
  5
24A
100
AcDbEntity
  8
0
100
AcDbLine
 62
7
  6
CONTINUOUS
 10
4.9967197205
 20
1.1137942547
 11
4.9967197205
 21
1.3237942547
  0
LINE
  5
24B
100
AcDbEntity
  8
0
100
AcDbLine
 62
7
  6
CONTINUOUS
 10
4.7004708499
 20
1.9289181252
 11
4.7005401384
 21
1.9291138694
  0
LINE
  5
24C
100
AcDbEntity
  8
0
100
AcDbLine
 62
7
  6
CONTINUOUS
 10
5.7842197205
 20
1.1137942547
 11
5.7842197205
 21
1.3237942547
  0
LINE
  5
24D
100
AcDbEntity
  8
0
100
AcDbLine
 62
7
  6
CONTINUOUS
 10
5.8822197205
 20
2.8691450745
 11
5.8822197205
 21
3.6284434348
  0
LINE
  5
24E
100
AcDbEntity
  8
0
100
AcDbLine
 62
7
  6
CONTINUOUS
 10
6.0117197205
 20
0.1337942547
 11
6.0117197205
 21
0.2869192547
  0
LINE
  5
24F
100
AcDbEntity
  8
0
100
AcDbLine
 62
7
  6
CONTINUOUS
 10
6.0117197205
 20
0.9606692547
 11
6.0117197205
 21
1.1137942547
  0
LINE
  5
250
100
AcDbEntity
  8
0
100
AcDbLine
 62
7
  6
CONTINUOUS
 10
6.0327197205
 20
6.8362942547
 11
6.0327197205
 21
6.9762942547
  0
LINE
  5
251
100
AcDbEntity
  8
0
100
AcDbLine
 62
7
  6
CONTINUOUS
 10
6.1009697205
 20
8.4007942547
 11
6.1009697205
 21
8.0770442547
  0
LINE
  5
252
100
AcDbEntity
  8
0
100
AcDbLine
 62
7
  6
CONTINUOUS
 10
6.2654697205
 20
8.0682942547
 11
6.2654697205
 21
6.9762942547
  0
LINE
  5
253
100
AcDbEntity
  8
0
100
AcDbLine
 62
7
  6
CONTINUOUS
 10
6.2654697205
 20
6.8362942547
 11
6.2654697205
 21
1.9362942547
  0
LINE
  5
254
100
AcDbEntity
  8
0
100
AcDbLine
 62
7
  6
CONTINUOUS
 10
6.2654697205
 20
1.3412942547
 11
6.2654697205
 21
1.8837942547
  0
LINE
  5
255
100
AcDbEntity
  8
0
100
AcDbLine
 62
7
  6
CONTINUOUS
 10
4.7120709093
 20
1.9357508648
 11
4.700554903
 21
1.9290991075
  0
LINE
  5
256
100
AcDbEntity
  8
0
100
AcDbLine
 62
7
  6
CONTINUOUS
 10
6.0878447205
 20
1.9362942547
 11
6.0698800791
 21
1.9183296133
  0
LINE
  5
257
100
AcDbEntity
  8
0
100
AcDbLine
 62
7
  6
CONTINUOUS
 10
6.0691482454
 20
1.9175977795
 11
6.0528447205
 21
1.9012942547
  0
LINE
  5
258
100
AcDbEntity
  8
0
100
AcDbLine
 62
7
  6
CONTINUOUS
 10
6.0698299298
 20
1.918279464
 11
6.0690179259
 21
1.9176567542
  0
LINE
  5
259
100
AcDbEntity
  8
0
100
AcDbLine
 62
7
  6
CONTINUOUS
 10
4.5154697205
 20
6.8362942547
 11
6.2654697205
 21
6.8362942547
  0
LINE
  5
25A
100
AcDbEntity
  8
0
100
AcDbLine
 62
7
  6
CONTINUOUS
 10
6.2654297278
 20
6.9762942547
 11
4.5155097132
 21
6.9762942547
  0
LINE
  5
25B
100
AcDbEntity
  8
0
100
AcDbLine
 62
7
  6
CONTINUOUS
 10
4.5154697205
 20
8.0682942547
 11
4.6712197205
 21
8.0682942547
  0
LINE
  5
25C
100
AcDbEntity
  8
0
100
AcDbLine
 62
7
  6
CONTINUOUS
 10
6.1097197205
 20
8.0682942547
 11
6.2654697205
 21
8.0682942547
  0
LINE
  5
25D
100
AcDbEntity
  8
0
100
AcDbLine
 62
7
  6
CONTINUOUS
 10
6.1009697205
 20
8.4007942547
 11
4.6799697205
 21
8.4007942547
  0
ARC
  5
25E
100
AcDbEntity
  8
0
100
AcDbCircle
 62
9
  6
CONTINUOUS
 10
5.350899921
 20
3.1893241375
 40
0.896605283
100
AcDbArc
 50
312.1483821912
 51
312.3145382993
  0
ARC
  5
25F
100
AcDbEntity
  8
0
100
AcDbCircle
 62
9
  6
CONTINUOUS
 10
5.3513176225
 20
3.1888614287
 40
0.8959819266
100
AcDbArc
 50
311.6452019958
 51
312.148434261
  0
ARC
  5
260
100
AcDbEntity
  8
0
100
AcDbCircle
 62
9
  6
CONTINUOUS
 10
5.3516244576
 20
3.1885166886
 40
0.8955204144
100
AcDbArc
 50
311.447259414
 51
311.6451889025
  0
ARC
  5
261
100
AcDbEntity
  8
0
100
AcDbCircle
 62
9
  6
CONTINUOUS
 10
5.351860848
 20
3.1882487789
 40
0.8951631246
100
AcDbArc
 50
311.1631746241
 51
311.4472688582
  0
ARC
  5
262
100
AcDbEntity
  8
0
100
AcDbCircle
 62
9
  6
CONTINUOUS
 10
5.355430707
 20
3.1840954873
 40
0.8896866679
100
AcDbArc
 50
308.9660623005
 51
311.1661495442
  0
ARC
  5
263
100
AcDbEntity
  8
0
100
AcDbCircle
 62
9
  6
CONTINUOUS
 10
5.3598976074
 20
3.1785752619
 40
0.8825855352
100
AcDbArc
 50
307.7550213371
 51
308.9659552249
  0
ARC
  5
264
100
AcDbEntity
  8
0
100
AcDbCircle
 62
9
  6
CONTINUOUS
 10
5.3614861942
 20
3.1765310345
 40
0.8799966253
100
AcDbArc
 50
307.5548054692
 51
307.7547387125
  0
ARC
  5
265
100
AcDbEntity
  8
0
100
AcDbCircle
 62
7
  6
CONTINUOUS
 10
4.8972081507
 20
0.6566655937
 40
0.3907251168
100
AcDbArc
 50
326.6196458743
 51
328.5895763056
  0
ARC
  5
266
100
AcDbEntity
  8
0
100
AcDbCircle
 62
7
  6
CONTINUOUS
 10
4.8999178425
 20
0.5926099917
 40
0.3875331597
100
AcDbArc
 50
31.4184446104
 51
32.5055436098
  0
ARC
  5
267
100
AcDbEntity
  8
0
100
AcDbCircle
 62
7
  6
CONTINUOUS
 10
4.9050831168
 20
0.595734639
 40
0.3814963733
100
AcDbArc
 50
29.3465241118
 51
31.4223578515
  0
ARC
  5
268
100
AcDbEntity
  8
0
100
AcDbCircle
 62
7
  6
CONTINUOUS
 10
4.905095917
 20
0.6518227955
 40
0.3814693596
100
AcDbArc
 50
328.5929239289
 51
331.3984956835
  0
ARC
  5
269
100
AcDbEntity
  8
0
100
AcDbCircle
 62
7
  6
CONTINUOUS
 10
4.9117433451
 20
0.5994424488
 40
0.3738736808
100
AcDbArc
 50
26.9745631108
 51
29.3514466903
  0
ARC
  5
26A
100
AcDbEntity
  8
0
100
AcDbCircle
 62
7
  6
CONTINUOUS
 10
4.91248911
 20
0.6477409574
 40
0.3730243208
100
AcDbArc
 50
331.4053310079
 51
333.5067784808
  0
ARC
  5
26B
100
AcDbEntity
  8
0
100
AcDbCircle
 62
7
  6
CONTINUOUS
 10
4.9155910113
 20
0.6014156309
 40
0.3695495849
100
AcDbArc
 50
26.5034510933
 51
26.9725112919
  0
ARC
  5
26C
100
AcDbEntity
  8
0
100
AcDbCircle
 62
7
  6
CONTINUOUS
 10
4.9204825581
 20
0.6437476764
 40
0.3640889171
100
AcDbArc
 50
333.5080566906
 51
336.6255173696
  0
ARC
  5
26D
100
AcDbEntity
  8
0
100
AcDbCircle
 62
7
  6
CONTINUOUS
 10
4.9222301607
 20
0.6046426463
 40
0.362168107
100
AcDbArc
 50
23.3907522585
 51
26.5152927845
  0
ARC
  5
26E
100
AcDbEntity
  8
0
100
AcDbCircle
 62
7
  6
CONTINUOUS
 10
4.9277508333
 20
0.607055514
 40
0.3561432231
100
AcDbArc
 50
22.6670023493
 51
23.3870730527
  0
ARC
  5
26F
100
AcDbEntity
  8
0
100
AcDbCircle
 62
7
  6
CONTINUOUS
 10
4.9283617029
 20
0.6402676924
 40
0.3554757634
100
AcDbArc
 50
336.6365456027
 51
337.7891897782
  0
ARC
  5
270
100
AcDbEntity
  8
0
100
AcDbCircle
 62
7
  6
CONTINUOUS
 10
4.9046805101
 20
0.6319917496
 40
0.3548212077
100
AcDbArc
 50
62.7351021548
 51
63.4869031245
  0
ARC
  5
271
100
AcDbEntity
  8
0
100
AcDbCircle
 62
7
  6
CONTINUOUS
 10
4.905137481
 20
0.6146954245
 40
0.3538106968
100
AcDbArc
 50
296.5114779727
 51
297.2777880644
  0
ARC
  5
272
100
AcDbEntity
  8
0
100
AcDbCircle
 62
7
  6
CONTINUOUS
 10
4.9309942247
 20
0.6084045102
 40
0.3526304818
100
AcDbArc
 50
21.4335043634
 51
22.6678343993
  0
ARC
  5
273
100
AcDbEntity
  8
0
100
AcDbCircle
 62
7
  6
CONTINUOUS
 10
4.9315737344
 20
0.6389521573
 40
0.3520047744
100
AcDbArc
 50
337.7897959175
 51
338.5819016836
  0
ARC
  5
274
100
AcDbEntity
  8
0
100
AcDbCircle
 62
7
  6
CONTINUOUS
 10
4.9340915519
 20
0.637964004
 40
0.3492999913
100
AcDbArc
 50
338.5819801435
 51
339.3201048978
  0
ARC
  5
275
100
AcDbEntity
  8
0
100
AcDbCircle
 62
7
  6
CONTINUOUS
 10
4.9083405766
 20
0.6393284983
 40
0.3466221853
100
AcDbArc
 50
63.4869037629
 51
64.7720983046
  0
ARC
  5
276
100
AcDbEntity
  8
0
100
AcDbCircle
 62
7
  6
CONTINUOUS
 10
4.9091424569
 20
0.6066060489
 40
0.3447842315
100
AcDbArc
 50
295.2234598775
 51
296.5159779875
  0
ARC
  5
277
100
AcDbEntity
  8
0
100
AcDbCircle
 62
7
  6
CONTINUOUS
 10
5.0729830098
 20
0.4647210028
 40
0.1968223813
100
AcDbArc
 50
244.8082640078
 51
251.8699010899
  0
ARC
  5
278
100
AcDbEntity
  8
0
100
AcDbCircle
 62
7
  6
CONTINUOUS
 10
5.0729816797
 20
0.7828704195
 40
0.196819186
100
AcDbArc
 50
108.1290630971
 51
115.1911265644
  0
ARC
  5
279
100
AcDbEntity
  8
0
100
AcDbCircle
 62
7
  6
CONTINUOUS
 10
4.5329697205
 20
1.8837942547
 40
0.0175
100
AcDbArc
 50
89.999943413
 51
180.0
  0
ARC
  5
27A
100
AcDbEntity
  8
0
100
AcDbCircle
 62
7
  6
CONTINUOUS
 10
4.5329697205
 20
1.3412942547
 40
0.0175
100
AcDbArc
 50
180.0
 51
270.0
  0
ARC
  5
27B
100
AcDbEntity
  8
0
100
AcDbCircle
 62
7
  6
CONTINUOUS
 10
4.6712197205
 20
8.0770442547
 40
0.00875
100
AcDbArc
 50
270.0
 51
360.0
  0
ARC
  5
27C
100
AcDbEntity
  8
0
100
AcDbCircle
 62
7
  6
CONTINUOUS
 10
5.7079554644
 20
0.7828652046
 40
0.1968248758
100
AcDbArc
 50
64.8082945825
 51
71.8672432876
  0
ARC
  5
27D
100
AcDbEntity
  8
0
100
AcDbCircle
 62
7
  6
CONTINUOUS
 10
5.7079568191
 20
0.4647203334
 40
0.1968216173
100
AcDbArc
 50
288.1316567131
 51
295.19109676
  0
ARC
  5
27E
100
AcDbEntity
  8
0
100
AcDbCircle
 62
9
  6
CONTINUOUS
 10
5.4300076932
 20
3.1893008676
 40
0.8965666378
100
AcDbArc
 50
226.8144829666
 51
229.2397720568
  0
ARC
  5
27F
100
AcDbEntity
  8
0
100
AcDbCircle
 62
9
  6
CONTINUOUS
 10
5.4262177992
 20
3.1849266578
 40
0.8907789968
100
AcDbArc
 50
229.2407207694
 51
230.753802268
  0
ARC
  5
280
100
AcDbEntity
  8
0
100
AcDbCircle
 62
9
  6
CONTINUOUS
 10
5.422020973
 20
3.1798130551
 40
0.8841637073
100
AcDbArc
 50
230.754776031
 51
232.2457819643
  0
CIRCLE
  5
281
100
AcDbEntity
  8
0
100
AcDbCircle
 62
7
  6
CONTINUOUS
 10
5.3904697205
 20
3.2487942547
 40
0.875
  0
CIRCLE
  5
282
100
AcDbEntity
  8
0
100
AcDbCircle
 62
7
  6
CONTINUOUS
 10
5.3904697205
 20
3.2487942547
 40
0.62125
  0
CIRCLE
  5
283
100
AcDbEntity
  8
0
100
AcDbCircle
 62
9
  6
CONTINUOUS
 10
5.3904697205
 20
3.2487942547
 40
0.3429999901
  0
CIRCLE
  5
284
100
AcDbEntity
  8
0
100
AcDbCircle
 62
7
  6
CONTINUOUS
 10
5.3904697205
 20
3.2487942547
 40
0.33425
  0
CIRCLE
  5
285
100
AcDbEntity
  8
0
100
AcDbCircle
 62
7
  6
CONTINUOUS
 10
5.3904697205
 20
3.2487942547
 40
0.3325
  0
ARC
  5
286
100
AcDbEntity
  8
0
100
AcDbCircle
 62
7
  6
CONTINUOUS
 10
5.3904697205
 20
3.1726692547
 40
0.2625
100
AcDbArc
 50
295.6513213587
 51
244.3508819301
  0
ARC
  5
287
100
AcDbEntity
  8
0
100
AcDbCircle
 62
7
  6
CONTINUOUS
 10
5.9256193836
 20
0.5577533091
 40
0.4442544802
100
AcDbArc
 50
134.6178536398
 51
134.9353970503
  0
ARC
  5
288
100
AcDbEntity
  8
0
100
AcDbCircle
 62
7
  6
CONTINUOUS
 10
5.9256212008
 20
0.6898325108
 40
0.4442538576
100
AcDbArc
 50
225.0840413803
 51
225.3912485063
  0
ARC
  5
289
100
AcDbEntity
  8
0
100
AcDbCircle
 62
7
  6
CONTINUOUS
 10
5.923752053
 20
0.6878867325
 40
0.4415547784
100
AcDbArc
 50
225.0772502603
 51
225.3865680012
  0
ARC
  5
28A
100
AcDbEntity
  8
0
100
AcDbCircle
 62
7
  6
CONTINUOUS
 10
5.9237435458
 20
0.5597105306
 40
0.441542564
100
AcDbArc
 50
134.6230154761
 51
134.9427502955
  0
ARC
  5
28B
100
AcDbEntity
  8
0
100
AcDbCircle
 62
7
  6
CONTINUOUS
 10
5.887159541
 20
0.6359170792
 40
0.3778812818
100
AcDbArc
 50
238.2612373739
 51
242.7635832589
  0
ARC
  5
28C
100
AcDbEntity
  8
0
100
AcDbCircle
 62
7
  6
CONTINUOUS
 10
5.8859440155
 20
0.634427774
 40
0.3759757759
100
AcDbArc
 50
238.2992555299
 51
242.8051910484
  0
ARC
  5
28D
100
AcDbEntity
  8
0
100
AcDbCircle
 62
7
  6
CONTINUOUS
 10
5.8709764911
 20
0.5986349311
 40
0.3758201031
100
AcDbArc
 50
148.5358552397
 51
155.4783045209
  0
ARC
  5
28E
100
AcDbEntity
  8
0
100
AcDbCircle
 62
7
  6
CONTINUOUS
 10
5.8852791278
 20
0.6150446717
 40
0.3740228872
100
AcDbArc
 50
117.7147036912
 51
121.6689083669
  0
ARC
  5
28F
100
AcDbEntity
  8
0
100
AcDbCircle
 62
7
  6
CONTINUOUS
 10
5.8843997087
 20
0.6159500582
 40
0.3727906985
100
AcDbArc
 50
117.6671183351
 51
121.6269236657
  0
ARC
  5
290
100
AcDbEntity
  8
0
100
AcDbCircle
 62
7
  6
CONTINUOUS
 10
5.8673957256
 20
0.647062451
 40
0.3717787759
100
AcDbArc
 50
204.4537450707
 51
211.514885226
  0
ARC
  5
291
100
AcDbEntity
  8
0
100
AcDbCircle
 62
7
  6
CONTINUOUS
 10
5.878179625
 20
0.6276613222
 40
0.359530309
100
AcDbArc
 50
117.1604397519
 51
117.6558123965
  0
ARC
  5
292
100
AcDbEntity
  8
0
100
AcDbCircle
 62
7
  6
CONTINUOUS
 10
5.8778394041
 20
0.629025324
 40
0.3581861982
100
AcDbArc
 50
117.190991378
 51
117.7012310274
  0
ARC
  5
293
100
AcDbEntity
  8
0
100
AcDbCircle
 62
7
  6
CONTINUOUS
 10
5.8765490214
 20
0.6167624222
 40
0.3559696286
100
AcDbArc
 50
242.8507544873
 51
243.5246313125
  0
ARC
  5
294
100
AcDbEntity
  8
0
100
AcDbCircle
 62
7
  6
CONTINUOUS
 10
5.8761772716
 20
0.6315776826
 40
0.3551317571
100
AcDbArc
 50
116.4752060538
 51
117.1614396028
  0
ARC
  5
295
100
AcDbEntity
  8
0
100
AcDbCircle
 62
7
  6
CONTINUOUS
 10
5.8759083255
 20
0.6148014342
 40
0.3539577164
100
AcDbArc
 50
242.8186022107
 51
243.4879754026
  0
ARC
  5
296
100
AcDbEntity
  8
0
100
AcDbCircle
 62
7
  6
CONTINUOUS
 10
5.8754924949
 20
0.6336089311
 40
0.3530366946
100
AcDbArc
 50
116.5107597583
 51
117.1921222656
  0
ARC
  5
297
100
AcDbEntity
  8
0
100
AcDbCircle
 62
7
  6
CONTINUOUS
 10
5.8735069923
 20
0.6106508974
 40
0.349142867
100
AcDbArc
 50
243.5243691052
 51
244.7963390022
  0
ARC
  5
298
100
AcDbEntity
  8
0
100
AcDbCircle
 62
7
  6
CONTINUOUS
 10
5.8727811139
 20
0.6384506662
 40
0.3474655195
100
AcDbArc
 50
115.2005891761
 51
116.4791725798
  0
ARC
  5
299
100
AcDbEntity
  8
0
100
AcDbCircle
 62
7
  6
CONTINUOUS
 10
5.8450436004
 20
0.6104836911
 40
0.3473085682
100
AcDbArc
 50
155.4810961674
 51
163.6183597245
  0
ARC
  5
29A
100
AcDbEntity
  8
0
100
AcDbCircle
 62
7
  6
CONTINUOUS
 10
5.8447542355
 20
0.6369910809
 40
0.3469992547
100
AcDbArc
 50
196.3902070507
 51
204.4875466223
  0
ARC
  5
29B
100
AcDbEntity
  8
0
100
AcDbCircle
 62
7
  6
CONTINUOUS
 10
5.8723678848
 20
0.6076993824
 40
0.3460221096
100
AcDbArc
 50
243.4876237982
 51
244.7753606435
  0
ARC
  5
29C
100
AcDbEntity
  8
0
100
AcDbCircle
 62
7
  6
CONTINUOUS
 10
5.871553469
 20
0.6415690945
 40
0.3441552924
100
AcDbArc
 50
115.2203674629
 51
116.5154721611
  0
ARC
  5
29D
100
AcDbEntity
  8
0
100
AcDbCircle
 62
7
  6
CONTINUOUS
 10
6.2479697205
 20
1.3412942547
 40
0.0175
100
AcDbArc
 50
270.0
 51
360.0
  0
ARC
  5
29E
100
AcDbEntity
  8
0
100
AcDbCircle
 62
7
  6
CONTINUOUS
 10
6.2479697205
 20
1.8837942547
 40
0.0175
100
AcDbArc
 50
0.0
 51
90.000056587
  0
ARC
  5
29F
100
AcDbEntity
  8
0
100
AcDbCircle
 62
7
  6
CONTINUOUS
 10
6.1097197205
 20
8.0770442547
 40
0.00875
100
AcDbArc
 50
180.0
 51
270.0
  0
SPLINE
  5
2A0
100
AcDbEntity
  8
0
100
AcDbSpline
 62
7
  6
CONTINUOUS
 70
0
 71
3
 72
41
 73
37
 74
0
 42
0.0000001
 43
0.0000001
 44
0.0000000001
 40
0.0
 40
0.0
 40
0.0
 40
0.0
 40
0.0256959399
 40
0.0516853398
 40
0.0648547853
 40
0.0781648989
 40
0.1052857364
 40
0.133228153
 40
0.162120256
 40
0.1920337433
 40
0.2229889656
 40
0.2549741586
 40
0.2879354759
 40
0.3217907487
 40
0.3564338386
 40
0.3917300563
 40
0.4275320713
 40
0.4636794194
 40
0.5000001143
 40
0.5363208072
 40
0.5724681534
 40
0.6082701679
 40
0.6435663799
 40
0.6782094657
 40
0.7120647354
 40
0.7450260435
 40
0.7770112304
 40
0.8079664426
 40
0.8378799222
 40
0.8667720352
 40
0.8947144553
 40
0.9218352688
 40
0.9351453514
 40
0.9483147586
 40
0.974304089
 40
1.0
 40
1.0
 40
1.0
 40
1.0
 10
6.8696398796
 20
0.9606692547
 30
0.0
 10
6.8774312985
 20
0.9606692547
 30
0.0
 10
6.8931227559
 20
0.9595647462
 30
0.0
 10
6.9124257059
 20
0.955497982
 30
0.0
 10
6.9275993331
 20
0.9506819861
 30
0.0
 10
6.9427426111
 20
0.94475215
 30
0.0
 10
6.961276038
 20
0.9353299544
 30
0.0
 10
6.9824579221
 20
0.9211082005
 30
0.0
 10
7.0025278265
 20
0.9040234905
 30
0.0
 10
7.021304705
 20
0.8842562124
 30
0.0
 10
7.0386202152
 20
0.8620011293
 30
0.0
 10
7.054291392
 20
0.8374600254
 30
0.0
 10
7.0681915387
 20
0.8108820384
 30
0.0
 10
7.0801829447
 20
0.782515346
 30
0.0
 10
7.0901454777
 20
0.7526295715
 30
0.0
 10
7.0980038202
 20
0.7215153995
 30
0.0
 10
7.1036638505
 20
0.6894648909
 30
0.0
 10
7.1070805437
 20
0.6567871889
 30
0.0
 10
7.1082296605
 20
0.6237941499
 30
0.0
 10
7.1070805339
 20
0.5908011112
 30
0.0
 10
7.1036638116
 20
0.558123414
 30
0.0
 10
7.0980037839
 20
0.5260729076
 30
0.0
 10
7.0901454223
 20
0.4949587429
 30
0.0
 10
7.0801828689
 20
0.4650729801
 30
0.0
 10
7.0681914642
 20
0.4367062921
 30
0.0
 10
7.0542912901
 20
0.4101283254
 30
0.0
 10
7.0386201102
 20
0.3855872337
 30
0.0
 10
7.0213046014
 20
0.3633321576
 30
0.0
 10
7.0025277
 20
0.3435649046
 30
0.0
 10
6.9824577872
 20
0.3264802018
 30
0.0
 10
6.961275884
 20
0.3122584801
 30
0.0
 10
6.9427424631
 20
0.3028363117
 30
0.0
 10
6.9275992177
 20
0.2969064705
 30
0.0
 10
6.9124256315
 20
0.2920904831
 30
0.0
 10
6.8931227175
 20
0.2880237449
 30
0.0
 10
6.8774312898
 20
0.2869192547
 30
0.0
 10
6.8696398796
 20
0.2869192547
 30
0.0
  0
SPLINE
  5
2A1
100
AcDbEntity
  8
0
100
AcDbSpline
 62
7
  6
CONTINUOUS
 70
0
 71
3
 72
41
 73
37
 74
0
 42
0.0000001
 43
0.0000001
 44
0.0000000001
 40
0.0
 40
0.0
 40
0.0
 40
0.0
 40
0.0256959399
 40
0.0516853398
 40
0.0648547853
 40
0.0781648989
 40
0.1052857364
 40
0.133228153
 40
0.162120256
 40
0.1920337433
 40
0.2229889656
 40
0.2549741586
 40
0.2879354759
 40
0.3217907487
 40
0.3564338386
 40
0.3917300563
 40
0.4275320713
 40
0.4636794194
 40
0.5000001143
 40
0.5363208072
 40
0.5724681534
 40
0.6082701679
 40
0.6435663799
 40
0.6782094657
 40
0.7120647354
 40
0.7450260435
 40
0.7770112304
 40
0.8079664426
 40
0.8378799222
 40
0.8667720352
 40
0.8947144553
 40
0.9218352688
 40
0.9351453514
 40
0.9483147586
 40
0.974304089
 40
1.0
 40
1.0
 40
1.0
 40
1.0
 10
3.9112995614
 20
0.2869192547
 30
0.0
 10
3.9035081425
 20
0.2869192547
 30
0.0
 10
3.8878166851
 20
0.2880237631
 30
0.0
 10
3.8685137351
 20
0.2920905273
 30
0.0
 10
3.8533401079
 20
0.2969065232
 30
0.0
 10
3.8381968299
 20
0.3028363594
 30
0.0
 10
3.819663403
 20
0.3122585549
 30
0.0
 10
3.7984815189
 20
0.3264803088
 30
0.0
 10
3.7784116145
 20
0.3435650189
 30
0.0
 10
3.759634736
 20
0.3633322969
 30
0.0
 10
3.7423192258
 20
0.38558738
 30
0.0
 10
3.726648049
 20
0.410128484
 30
0.0
 10
3.7127479023
 20
0.4367064709
 30
0.0
 10
3.7007564963
 20
0.4650731634
 30
0.0
 10
3.6907939632
 20
0.4949589378
 30
0.0
 10
3.6829356208
 20
0.5260731098
 30
0.0
 10
3.6772755905
 20
0.5581236185
 30
0.0
 10
3.6738588973
 20
0.5908013204
 30
0.0
 10
3.6727097804
 20
0.6237943594
 30
0.0
 10
3.6738589071
 20
0.6567873981
 30
0.0
 10
3.6772756294
 20
0.6894650953
 30
0.0
 10
3.6829356571
 20
0.7215156017
 30
0.0
 10
3.6907940187
 20
0.7526297664
 30
0.0
 10
3.7007565721
 20
0.7825155292
 30
0.0
 10
3.7127479768
 20
0.8108822172
 30
0.0
 10
3.7266481508
 20
0.8374601839
 30
0.0
 10
3.7423193308
 20
0.8620012756
 30
0.0
 10
3.7596348396
 20
0.8842563517
 30
0.0
 10
3.778411741
 20
0.9040236047
 30
0.0
 10
3.7984816538
 20
0.9211083075
 30
0.0
 10
3.819663557
 20
0.9353300293
 30
0.0
 10
3.8381969779
 20
0.9447521976
 30
0.0
 10
3.8533402233
 20
0.9506820388
 30
0.0
 10
3.8685138095
 20
0.9554980262
 30
0.0
 10
3.8878167235
 20
0.9595647644
 30
0.0
 10
3.9035081512
 20
0.9606692547
 30
0.0
 10
3.9112995614
 20
0.9606692547
 30
0.0
  0
SPLINE
  5
2A2
100
AcDbEntity
  8
0
100
AcDbSpline
 62
7
  6
CONTINUOUS
 70
0
 71
3
 72
41
 73
37
 74
0
 42
0.0000001
 43
0.0000001
 44
0.0000000001
 40
0.0
 40
0.0
 40
0.0
 40
0.0
 40
0.0256959399
 40
0.0516853398
 40
0.0648547853
 40
0.0781648989
 40
0.1052857364
 40
0.133228153
 40
0.162120256
 40
0.1920337433
 40
0.2229889656
 40
0.2549741586
 40
0.2879354759
 40
0.3217907487
 40
0.3564338386
 40
0.3917300563
 40
0.4275320713
 40
0.4636794194
 40
0.5000001143
 40
0.5363208072
 40
0.5724681534
 40
0.6082701679
 40
0.6435663799
 40
0.6782094657
 40
0.7120647354
 40
0.7450260435
 40
0.7770112304
 40
0.8079664426
 40
0.8378799222
 40
0.8667720352
 40
0.8947144553
 40
0.9218352688
 40
0.9351453514
 40
0.9483147586
 40
0.974304089
 40
1.0
 40
1.0
 40
1.0
 40
1.0
 10
6.8696398796
 20
0.2869192547
 30
0.0
 10
6.8618484606
 20
0.2869192547
 30
0.0
 10
6.8461570032
 20
0.2880237631
 30
0.0
 10
6.8268540532
 20
0.2920905273
 30
0.0
 10
6.811680426
 20
0.2969065232
 30
0.0
 10
6.796537148
 20
0.3028363594
 30
0.0
 10
6.7780037211
 20
0.3122585549
 30
0.0
 10
6.756821837
 20
0.3264803088
 30
0.0
 10
6.7367519326
 20
0.3435650189
 30
0.0
 10
6.7179750541
 20
0.3633322969
 30
0.0
 10
6.7006595439
 20
0.38558738
 30
0.0
 10
6.6849883671
 20
0.410128484
 30
0.0
 10
6.6710882204
 20
0.4367064709
 30
0.0
 10
6.6590968144
 20
0.4650731634
 30
0.0
 10
6.6491342814
 20
0.4949589378
 30
0.0
 10
6.6412759389
 20
0.5260731098
 30
0.0
 10
6.6356159086
 20
0.5581236185
 30
0.0
 10
6.6321992155
 20
0.5908013204
 30
0.0
 10
6.6310500986
 20
0.6237943594
 30
0.0
 10
6.6321992252
 20
0.6567873981
 30
0.0
 10
6.6356159475
 20
0.6894650953
 30
0.0
 10
6.6412759752
 20
0.7215156017
 30
0.0
 10
6.6491343369
 20
0.7526297664
 30
0.0
 10
6.6590968902
 20
0.7825155292
 30
0.0
 10
6.671088295
 20
0.8108822172
 30
0.0
 10
6.684988469
 20
0.8374601839
 30
0.0
 10
6.7006596489
 20
0.8620012756
 30
0.0
 10
6.7179751577
 20
0.8842563517
 30
0.0
 10
6.7367520591
 20
0.9040236047
 30
0.0
 10
6.7568219719
 20
0.9211083075
 30
0.0
 10
6.7780038751
 20
0.9353300293
 30
0.0
 10
6.796537296
 20
0.9447521976
 30
0.0
 10
6.8116805415
 20
0.9506820388
 30
0.0
 10
6.8268541276
 20
0.9554980262
 30
0.0
 10
6.8461570416
 20
0.9595647644
 30
0.0
 10
6.8618484693
 20
0.9606692547
 30
0.0
 10
6.8696398796
 20
0.9606692547
 30
0.0
  0
SPLINE
  5
2A3
100
AcDbEntity
  8
0
100
AcDbSpline
 62
7
  6
CONTINUOUS
 70
0
 71
3
 72
41
 73
37
 74
0
 42
0.0000001
 43
0.0000001
 44
0.0000000001
 40
0.0
 40
0.0
 40
0.0
 40
0.0
 40
0.0256959399
 40
0.0516853398
 40
0.0648547853
 40
0.0781648989
 40
0.1052857364
 40
0.133228153
 40
0.162120256
 40
0.1920337433
 40
0.2229889656
 40
0.2549741586
 40
0.2879354759
 40
0.3217907487
 40
0.3564338386
 40
0.3917300563
 40
0.4275320713
 40
0.4636794194
 40
0.5000001143
 40
0.5363208072
 40
0.5724681534
 40
0.6082701679
 40
0.6435663799
 40
0.6782094657
 40
0.7120647354
 40
0.7450260435
 40
0.7770112304
 40
0.8079664426
 40
0.8378799222
 40
0.8667720352
 40
0.8947144553
 40
0.9218352688
 40
0.9351453514
 40
0.9483147586
 40
0.974304089
 40
1.0
 40
1.0
 40
1.0
 40
1.0
 10
3.9112995614
 20
0.9606692547
 30
0.0
 10
3.9190909804
 20
0.9606692547
 30
0.0
 10
3.9347824378
 20
0.9595647462
 30
0.0
 10
3.9540853878
 20
0.955497982
 30
0.0
 10
3.969259015
 20
0.9506819861
 30
0.0
 10
3.984402293
 20
0.94475215
 30
0.0
 10
4.0029357199
 20
0.9353299544
 30
0.0
 10
4.024117604
 20
0.9211082005
 30
0.0
 10
4.0441875084
 20
0.9040234905
 30
0.0
 10
4.0629643869
 20
0.8842562124
 30
0.0
 10
4.080279897
 20
0.8620011293
 30
0.0
 10
4.0959510739
 20
0.8374600254
 30
0.0
 10
4.1098512206
 20
0.8108820384
 30
0.0
 10
4.1218426266
 20
0.782515346
 30
0.0
 10
4.1318051596
 20
0.7526295715
 30
0.0
 10
4.1396635021
 20
0.7215153995
 30
0.0
 10
4.1453235324
 20
0.6894648909
 30
0.0
 10
4.1487402255
 20
0.6567871889
 30
0.0
 10
4.1498893424
 20
0.6237941499
 30
0.0
 10
4.1487402158
 20
0.5908011112
 30
0.0
 10
4.1453234935
 20
0.558123414
 30
0.0
 10
4.1396634658
 20
0.5260729076
 30
0.0
 10
4.1318051041
 20
0.4949587429
 30
0.0
 10
4.1218425508
 20
0.4650729801
 30
0.0
 10
4.109851146
 20
0.4367062921
 30
0.0
 10
4.095950972
 20
0.4101283254
 30
0.0
 10
4.0802797921
 20
0.3855872337
 30
0.0
 10
4.0629642833
 20
0.3633321576
 30
0.0
 10
4.0441873819
 20
0.3435649046
 30
0.0
 10
4.0241174691
 20
0.3264802018
 30
0.0
 10
4.0029355659
 20
0.3122584801
 30
0.0
 10
3.984402145
 20
0.3028363117
 30
0.0
 10
3.9692588995
 20
0.2969064705
 30
0.0
 10
3.9540853134
 20
0.2920904831
 30
0.0
 10
3.9347823994
 20
0.2880237449
 30
0.0
 10
3.9190909717
 20
0.2869192547
 30
0.0
 10
3.9112995614
 20
0.2869192547
 30
0.0
  0
SPLINE
  5
2A4
100
AcDbEntity
  8
0
100
AcDbSpline
 62
7
  6
CONTINUOUS
 70
0
 71
3
 72
18
 73
14
 74
0
 42
0.0000001
 43
0.0000001
 44
0.0000000001
 40
0.0
 40
0.0
 40
0.0
 40
0.0
 40
0.0137723216
 40
0.0338222344
 40
0.0603202222
 40
0.093331256
 40
0.1328834118
 40
0.1789886926
 40
0.2908679504
 40
0.4289590065
 40
0.5932176413
 40
0.7835861739
 40
1.0
 40
1.0
 40
1.0
 40
1.0
 10
4.7005408278
 20
1.9291138724
 30
0.0
 10
4.7006052201
 20
1.9291514143
 30
0.0
 10
4.700777543
 20
1.9292174939
 30
0.0
 10
4.7010925314
 20
1.9293023473
 30
0.0
 10
4.7015148806
 20
1.9293881248
 30
0.0
 10
4.7020439497
 20
1.9294748042
 30
0.0
 10
4.7026803468
 20
1.929561889
 30
0.0
 10
4.7037421708
 20
1.9296865664
 30
0.0
 10
4.7053375704
 20
1.9298378915
 30
0.0
 10
4.7075727425
 20
1.930011333
 30
0.0
 10
4.7102337422
 20
1.9301854323
 30
0.0
 10
4.7133193516
 20
1.9303600955
 30
0.0
 10
4.7155181776
 20
1.9304697259
 30
0.0
 10
4.7166881164
 20
1.9305251396
 30
0.0
  0
SPLINE
  5
2A5
100
AcDbEntity
  8
0
100
AcDbSpline
 62
7
  6
CONTINUOUS
 70
0
 71
3
 72
17
 73
13
 74
0
 42
0.0000001
 43
0.0000001
 44
0.0000000001
 40
0.0
 40
0.0
 40
0.0
 40
0.0
 40
0.0263986028
 40
0.058208161
 40
0.0953339576
 40
0.1376807949
 40
0.2376146294
 40
0.3569114295
 40
0.4943295823
 40
0.6484165669
 40
0.8175610936
 40
1.0
 40
1.0
 40
1.0
 40
1.0
 10
4.7166881164
 20
1.9305251396
 30
0.0
 10
4.7195309583
 20
1.9306597896
 30
0.0
 10
4.7258010687
 20
1.9309201013
 30
0.0
 10
4.7360728651
 20
1.9312764813
 30
0.0
 10
4.7480648883
 20
1.9316340829
 30
0.0
 10
4.7674000738
 20
1.93214027
 30
0.0
 10
4.7955940754
 20
1.9327564928
 30
0.0
 10
4.834037808
 20
1.9334661005
 30
0.0
 10
4.8783206203
 20
1.9341772038
 30
0.0
 10
4.927978087
 20
1.9348896927
 30
0.0
 10
4.9824896741
 20
1.9356029255
 30
0.0
 10
5.0203910396
 20
1.9360627745
 30
0.0
 10
5.0400583818
 20
1.936294525
 30
0.0
  0
SPLINE
  5
2A6
100
AcDbEntity
  8
0
100
AcDbSpline
 62
7
  6
CONTINUOUS
 70
0
 71
3
 72
8
 73
4
 74
0
 42
0.0000001
 43
0.0000001
 44
0.0000000001
 40
0.0
 40
0.0
 40
0.0
 40
0.0
 40
1.0
 40
1.0
 40
1.0
 40
1.0
 10
4.9511796327
 20
0.2685442547
 30
0.0
 10
4.9583465111
 20
0.2685442383
 30
0.0
 10
4.9655204481
 20
0.2689827633
 30
0.0
 10
4.9726477797
 20
0.2697911737
 30
0.0
  0
SPLINE
  5
2A7
100
AcDbEntity
  8
0
100
AcDbSpline
 62
7
  6
CONTINUOUS
 70
0
 71
3
 72
17
 73
13
 74
0
 42
0.0000001
 43
0.0000001
 44
0.0000000001
 40
0.0
 40
0.0
 40
0.0
 40
0.0
 40
0.0790973299
 40
0.1600321924
 40
0.2425577899
 40
0.326447202
 40
0.41147289
 40
0.4974151643
 40
0.6712325288
 40
0.8468784462
 40
0.9351839523
 40
1.0
 40
1.0
 40
1.0
 40
1.0
 10
5.067290306
 20
0.3002306902
 30
0.0
 10
5.0742027371
 20
0.3037948046
 30
0.0
 10
5.0879568911
 20
0.3114629739
 30
0.0
 10
5.1080506813
 20
0.3243342934
 30
0.0
 10
5.1277321541
 20
0.3386453888
 30
0.0
 10
5.1468671744
 20
0.3543208526
 30
0.0
 10
5.1653258464
 20
0.3712892134
 30
0.0
 10
5.1889474179
 20
0.3956267141
 30
0.0
 10
5.2160226746
 20
0.4289284344
 30
0.0
 10
5.2388391279
 20
0.465588341
 30
0.0
 10
5.2529862424
 20
0.4946801812
 30
0.0
 10
5.2586934565
 20
0.5086239384
 30
0.0
 10
5.2609399373
 20
0.5145893879
 30
0.0
  0
SPLINE
  5
2A8
100
AcDbEntity
  8
0
100
AcDbSpline
 62
7
  6
CONTINUOUS
 70
0
 71
3
 72
11
 73
7
 74
0
 42
0.0000001
 43
0.0000001
 44
0.0000000001
 40
0.0
 40
0.0
 40
0.0
 40
0.0
 40
0.2365031915
 40
0.4821388095
 40
0.7367482424
 40
1.0
 40
1.0
 40
1.0
 40
1.0
 10
5.8297598083
 20
0.9790442547
 30
0.0
 10
5.8244994082
 20
0.9790442547
 30
0.0
 10
5.8137711096
 20
0.9785594211
 30
0.0
 10
5.7974986846
 20
0.9764978751
 30
0.0
 10
5.7808427584
 20
0.9731135757
 30
0.0
 10
5.7697312889
 20
0.9700404394
 30
0.0
 10
5.7641409302
 20
0.968298876
 30
0.0
  0
SPLINE
  5
2A9
100
AcDbEntity
  8
0
100
AcDbSpline
 62
7
  6
CONTINUOUS
 70
0
 71
3
 72
9
 73
5
 74
0
 42
0.0000001
 43
0.0000001
 44
0.0000000001
 40
0.0
 40
0.0
 40
0.0
 40
0.0
 40
0.4920620064
 40
1.0
 40
1.0
 40
1.0
 40
1.0
 10
5.7641409302
 20
0.968298876
 30
0.0
 10
5.7575380443
 20
0.9662418801
 30
0.0
 10
5.744274803
 20
0.9615497234
 30
0.0
 10
5.731367168
 20
0.9559597436
 30
0.0
 10
5.724908585
 20
0.9529180038
 30
0.0
  0
SPLINE
  5
2AA
100
AcDbEntity
  8
0
100
AcDbSpline
 62
7
  6
CONTINUOUS
 70
0
 71
3
 72
9
 73
5
 74
0
 42
0.0000001
 43
0.0000001
 44
0.0000000001
 40
0.0
 40
0.0
 40
0.0
 40
0.0
 40
0.2495527975
 40
1.0
 40
1.0
 40
1.0
 40
1.0
 10
5.5504144362
 20
0.7947997128
 30
0.0
 10
5.5484348969
 20
0.7915700322
 30
0.0
 10
5.5406910404
 20
0.7785139198
 30
0.0
 10
5.5337234116
 20
0.7649946196
 30
0.0
 10
5.5289967116
 20
0.7546302143
 30
0.0
  0
SPLINE
  5
2AB
100
AcDbEntity
  8
0
100
AcDbSpline
 62
7
  6
CONTINUOUS
 70
0
 71
3
 72
9
 73
5
 74
0
 42
0.0000001
 43
0.0000001
 44
0.0000000001
 40
0.0
 40
0.0
 40
0.0
 40
0.0
 40
0.4995441901
 40
1.0
 40
1.0
 40
1.0
 40
1.0
 10
5.5289967116
 20
0.7546302143
 30
0.0
 10
5.5255895537
 20
0.7471592166
 30
0.0
 10
5.5192847925
 20
0.7319623421
 30
0.0
 10
5.5141110386
 20
0.7163414169
 30
0.0
 10
5.5118301373
 20
0.708437726
 30
0.0
  0
SPLINE
  5
2AC
100
AcDbEntity
  8
0
100
AcDbSpline
 62
7
  6
CONTINUOUS
 70
0
 71
3
 72
9
 73
5
 74
0
 42
0.0000001
 43
0.0000001
 44
0.0000000001
 40
0.0
 40
0.0
 40
0.0
 40
0.0
 40
0.5003936002
 40
1.0
 40
1.0
 40
1.0
 40
1.0
 10
5.5118301373
 20
0.708437726
 30
0.0
 10
5.5078654911
 20
0.694699588
 30
0.0
 10
5.5017847476
 20
0.6666785094
 30
0.0
 10
5.4996510848
 20
0.6380705315
 30
0.0
 10
5.4996510848
 20
0.6237942547
 30
0.0
  0
SPLINE
  5
2AD
100
AcDbEntity
  8
0
100
AcDbSpline
 62
7
  6
CONTINUOUS
 70
0
 71
3
 72
9
 73
5
 74
0
 42
0.0000001
 43
0.0000001
 44
0.0000000001
 40
0.0
 40
0.0
 40
0.0
 40
0.0
 40
0.4996060434
 40
1.0
 40
1.0
 40
1.0
 40
1.0
 10
5.4996510848
 20
0.6237942547
 30
0.0
 10
5.4996510848
 20
0.6095048
 30
0.0
 10
5.5017887982
 20
0.5808703427
 30
0.0
 10
5.5078805266
 20
0.5528243831
 30
0.0
 10
5.5118521895
 20
0.5390745119
 30
0.0
  0
SPLINE
  5
2AE
100
AcDbEntity
  8
0
100
AcDbSpline
 62
7
  6
CONTINUOUS
 70
0
 71
3
 72
9
 73
5
 74
0
 42
0.0000001
 43
0.0000001
 44
0.0000000001
 40
0.0
 40
0.0
 40
0.0
 40
0.0
 40
0.5004547482
 40
1.0
 40
1.0
 40
1.0
 40
1.0
 10
5.5118521895
 20
0.5390745119
 30
0.0
 10
5.5141217914
 20
0.5312171646
 30
0.0
 10
5.5192657272
 20
0.5156869733
 30
0.0
 10
5.5255279145
 20
0.5005757749
 30
0.0
 10
5.5289110431
 20
0.4931460682
 30
0.0
  0
SPLINE
  5
2AF
100
AcDbEntity
  8
0
100
AcDbSpline
 62
7
  6
CONTINUOUS
 70
0
 71
3
 72
9
 73
5
 74
0
 42
0.0000001
 43
0.0000001
 44
0.0000000001
 40
0.0
 40
0.0
 40
0.0
 40
0.0
 40
0.2504990872
 40
1.0
 40
1.0
 40
1.0
 40
1.0
 10
5.5289110431
 20
0.4931460682
 30
0.0
 10
5.5304964986
 20
0.4896642411
 30
0.0
 10
5.5370497425
 20
0.4758674577
 30
0.0
 10
5.5444690506
 20
0.4624847862
 30
0.0
 10
5.5504527588
 20
0.4527263345
 30
0.0
  0
SPLINE
  5
2B0
100
AcDbEntity
  8
0
100
AcDbSpline
 62
7
  6
CONTINUOUS
 70
0
 71
3
 72
9
 73
5
 74
0
 42
0.0000001
 43
0.0000001
 44
0.0000000001
 40
0.0
 40
0.0
 40
0.0
 40
0.0
 40
0.5079434129
 40
1.0
 40
1.0
 40
1.0
 40
1.0
 10
5.7249042091
 20
0.2946726029
 30
0.0
 10
5.7313664275
 20
0.2916290403
 30
0.0
 10
5.7442813008
 20
0.2860359654
 30
0.0
 10
5.7575521626
 20
0.2813417275
 30
0.0
 10
5.7641588003
 20
0.2792840373
 30
0.0
  0
SPLINE
  5
2B1
100
AcDbEntity
  8
0
100
AcDbSpline
 62
7
  6
CONTINUOUS
 70
0
 71
3
 72
11
 73
7
 74
0
 42
0.0000001
 43
0.0000001
 44
0.0000000001
 40
0.0
 40
0.0
 40
0.0
 40
0.0
 40
0.2632485973
 40
0.5178565719
 40
0.7634930864
 40
1.0
 40
1.0
 40
1.0
 40
1.0
 10
5.7641588003
 20
0.2792840373
 30
0.0
 10
5.7697476388
 20
0.2775433487
 30
0.0
 10
5.7808560774
 20
0.2744717745
 30
0.0
 10
5.7975074122
 20
0.2710892475
 30
0.0
 10
5.8137754076
 20
0.2690288119
 30
0.0
 10
5.8245008
 20
0.2685442547
 30
0.0
 10
5.8297598083
 20
0.2685442547
 30
0.0
  0
SPLINE
  5
2B2
100
AcDbEntity
  8
0
100
AcDbSpline
 62
7
  6
CONTINUOUS
 70
0
 71
3
 72
17
 73
13
 74
0
 42
0.0000001
 43
0.0000001
 44
0.0000000001
 40
0.0
 40
0.0
 40
0.0
 40
0.0
 40
0.0501109812
 40
0.1398069758
 40
0.3182185148
 40
0.4947717496
 40
0.5820660839
 40
0.6684288132
 40
0.7536366158
 40
0.8374581975
 40
0.9196629195
 40
1.0
 40
1.0
 40
1.0
 40
1.0
 10
5.25929285
 20
0.7372848212
 30
0.0
 10
5.2575212281
 20
0.7418028438
 30
0.0
 10
5.2523090365
 20
0.7543029347
 30
0.0
 10
5.2388232674
 20
0.7820289859
 30
0.0
 10
5.2159990272
 20
0.8186936264
 30
0.0
 10
5.1889152324
 20
0.8519986714
 30
0.0
 10
5.1652865137
 20
0.8763376966
 30
0.0
 10
5.14682251
 20
0.8933065294
 30
0.0
 10
5.1276822104
 20
0.9089817985
 30
0.0
 10
5.1079955936
 20
0.9232919708
 30
0.0
 10
5.0878968818
 20
0.9361615772
 30
0.0
 10
5.0741394974
 20
0.9438280835
 30
0.0
 10
5.0672255133
 20
0.9473912077
 30
0.0
  0
SPLINE
  5
2B3
100
AcDbEntity
  8
0
100
AcDbSpline
 62
7
  6
CONTINUOUS
 70
0
 71
3
 72
11
 73
7
 74
0
 42
0.0000001
 43
0.0000001
 44
0.0000000001
 40
0.0
 40
0.0
 40
0.0
 40
0.0
 40
0.2642497132
 40
0.5193764452
 40
0.7647383496
 40
1.0
 40
1.0
 40
1.0
 40
1.0
 10
5.0560774831
 20
0.9528893487
 30
0.0
 10
5.0491059647
 20
0.9561733565
 30
0.0
 10
5.0351792659
 20
0.9621665243
 30
0.0
 10
5.0140734328
 20
0.9694406283
 30
0.0
 10
4.9932629427
 20
0.9747647581
 30
0.0
 10
4.9794070381
 20
0.9770327071
 30
0.0
 10
4.9725896056
 20
0.977803843
 30
0.0
  0
SPLINE
  5
2B4
100
AcDbEntity
  8
0
100
AcDbSpline
 62
7
  6
CONTINUOUS
 70
0
 71
3
 72
9
 73
5
 74
0
 42
0.0000001
 43
0.0000001
 44
0.0000000001
 40
0.0
 40
0.0
 40
0.0
 40
0.0
 40
0.2546368896
 40
1.0
 40
1.0
 40
1.0
 40
1.0
 10
4.9725896056
 20
0.977803843
 30
0.0
 10
4.9707803072
 20
0.978008497
 30
0.0
 10
4.9636647827
 20
0.9787183503
 30
0.0
 10
4.9565095126
 20
0.9790442427
 30
0.0
 10
4.9511796327
 20
0.9790442546
 30
0.0
  0
SPLINE
  5
2B5
100
AcDbEntity
  8
0
100
AcDbSpline
 62
7
  6
CONTINUOUS
 70
0
 71
3
 72
12
 73
8
 74
0
 42
0.0000001
 43
0.0000001
 44
0.0000000001
 40
0.0
 40
0.0
 40
0.0
 40
0.0
 40
0.119119617
 40
0.2393167069
 40
0.4842918969
 40
0.7371755262
 40
1.0
 40
1.0
 40
1.0
 40
1.0
 10
5.9018211447
 20
0.9608526423
 30
0.0
 10
5.899235962
 20
0.9623448746
 30
0.0
 10
5.8939371325
 20
0.965165343
 30
0.0
 10
5.8828521042
 20
0.9701226564
 30
0.0
 10
5.8680887663
 20
0.9749745691
 30
0.0
 10
5.8492944697
 20
0.9784547811
 30
0.0
 10
5.8363453429
 20
0.9791197606
 30
0.0
 10
5.8297598083
 20
0.9790442547
 30
0.0
  0
SPLINE
  5
2B6
100
AcDbEntity
  8
0
100
AcDbSpline
 62
7
  6
CONTINUOUS
 70
0
 71
3
 72
12
 73
8
 74
0
 42
0.0000001
 43
0.0000001
 44
0.0000000001
 40
0.0
 40
0.0
 40
0.0
 40
0.0
 40
0.2628291982
 40
0.5157138176
 40
0.7606847907
 40
0.880880613
 40
1.0
 40
1.0
 40
1.0
 40
1.0
 10
5.8297598083
 20
0.2685442547
 30
0.0
 10
5.8363453197
 20
0.2684705945
 30
0.0
 10
5.8492940111
 20
0.2691372302
 30
0.0
 10
5.8680880189
 20
0.2726160384
 30
0.0
 10
5.8828515385
 20
0.2774658548
 30
0.0
 10
5.8939365368
 20
0.2824221868
 30
0.0
 10
5.8992353031
 20
0.285242389
 30
0.0
 10
5.9018204484
 20
0.2867345271
 30
0.0
  0
SPLINE
  5
2B7
100
AcDbEntity
  8
0
100
AcDbSpline
 62
7
  6
CONTINUOUS
 70
0
 71
3
 72
11
 73
7
 74
0
 42
0.0000001
 43
0.0000001
 44
0.0000000001
 40
0.0
 40
0.0
 40
0.0
 40
0.0
 40
0.2363619203
 40
0.4819005725
 40
0.7365768566
 40
1.0
 40
1.0
 40
1.0
 40
1.0
 10
5.8297598083
 20
0.9790442547
 30
0.0
 10
5.8245010414
 20
0.9791030754
 30
0.0
 10
5.8137683318
 20
0.9786835469
 30
0.0
 10
5.7974930119
 20
0.9766154409
 30
0.0
 10
5.7808394941
 20
0.9731703102
 30
0.0
 10
5.7697312061
 20
0.9700523671
 30
0.0
 10
5.7641400443
 20
0.9682937521
 30
0.0
  0
SPLINE
  5
2B8
100
AcDbEntity
  8
0
100
AcDbSpline
 62
7
  6
CONTINUOUS
 70
0
 71
3
 72
9
 73
5
 74
0
 42
0.0000001
 43
0.0000001
 44
0.0000000001
 40
0.0
 40
0.0
 40
0.0
 40
0.0
 40
0.4921808977
 40
1.0
 40
1.0
 40
1.0
 40
1.0
 10
5.7641400443
 20
0.9682937521
 30
0.0
 10
5.7575268214
 20
0.9662136632
 30
0.0
 10
5.7442422631
 20
0.9614922051
 30
0.0
 10
5.7313064546
 20
0.9558908064
 30
0.0
 10
5.7248342583
 20
0.9528453467
 30
0.0
  0
SPLINE
  5
2B9
100
AcDbEntity
  8
0
100
AcDbSpline
 62
7
  6
CONTINUOUS
 70
0
 71
3
 72
10
 73
6
 74
0
 42
0.0000001
 43
0.0000001
 44
0.0000000001
 40
0.0
 40
0.0
 40
0.0
 40
0.0
 40
0.2437875834
 40
0.4921956601
 40
1.0
 40
1.0
 40
1.0
 40
1.0
 10
5.6889134556
 20
0.9333741116
 30
0.0
 10
5.6822615297
 20
0.9292827315
 30
0.0
 10
5.6690776491
 20
0.920613951
 30
0.0
 10
5.6433614572
 20
0.9014946765
 30
0.0
 10
5.6251650921
 20
0.8854023388
 30
0.0
 10
5.6135861921
 20
0.8739768544
 30
0.0
  0
SPLINE
  5
2BA
100
AcDbEntity
  8
0
100
AcDbSpline
 62
7
  6
CONTINUOUS
 70
0
 71
3
 72
9
 73
5
 74
0
 42
0.0000001
 43
0.0000001
 44
0.0000000001
 40
0.0
 40
0.0
 40
0.0
 40
0.0
 40
0.4970702189
 40
1.0
 40
1.0
 40
1.0
 40
1.0
 10
5.6118384261
 20
0.8722426632
 30
0.0
 10
5.6002242835
 20
0.8606546622
 30
0.0
 10
5.5781295835
 20
0.8360304827
 30
0.0
 10
5.559074606
 20
0.8089615236
 30
0.0
 10
5.5504143554
 20
0.7947998288
 30
0.0
  0
SPLINE
  5
2BB
100
AcDbEntity
  8
0
100
AcDbSpline
 62
7
  6
CONTINUOUS
 70
0
 71
3
 72
11
 73
7
 74
0
 42
0.0000001
 43
0.0000001
 44
0.0000000001
 40
0.0
 40
0.0
 40
0.0
 40
0.0
 40
0.2503295297
 40
0.500689972
 40
0.7506256456
 40
1.0
 40
1.0
 40
1.0
 40
1.0
 10
5.5118342326
 20
0.7084365304
 30
0.0
 10
5.5098214133
 20
0.7015646732
 30
0.0
 10
5.5062364781
 20
0.6876858803
 30
0.0
 10
5.5023071421
 20
0.6665589141
 30
0.0
 10
5.4999604667
 20
0.6452233114
 30
0.0
 10
5.4995462379
 20
0.6309267386
 30
0.0
 10
5.4996510848
 20
0.6237942547
 30
0.0
  0
SPLINE
  5
2BC
100
AcDbEntity
  8
0
100
AcDbSpline
 62
7
  6
CONTINUOUS
 70
0
 71
3
 72
11
 73
7
 74
0
 42
0.0000001
 43
0.0000001
 44
0.0000000001
 40
0.0
 40
0.0
 40
0.0
 40
0.0
 40
0.2493782379
 40
0.4993168734
 40
0.7496755985
 40
1.0
 40
1.0
 40
1.0
 40
1.0
 10
5.4996510848
 20
0.6237942547
 30
0.0
 10
5.4995485615
 20
0.6166550978
 30
0.0
 10
5.4999664565
 20
0.60234543
 30
0.0
 10
5.5023172983
 20
0.5809904213
 30
0.0
 10
5.5062512085
 20
0.5598444239
 30
0.0
 10
5.5098406047
 20
0.5459534037
 30
0.0
 10
5.5118562609
 20
0.539075703
 30
0.0
  0
SPLINE
  5
2BD
100
AcDbEntity
  8
0
100
AcDbSpline
 62
7
  6
CONTINUOUS
 70
0
 71
3
 72
9
 73
5
 74
0
 42
0.0000001
 43
0.0000001
 44
0.0000000001
 40
0.0
 40
0.0
 40
0.0
 40
0.0
 40
0.5029380527
 40
1.0
 40
1.0
 40
1.0
 40
1.0
 10
5.5504526861
 20
0.4527262271
 30
0.0
 10
5.5591231437
 20
0.4385546462
 30
0.0
 10
5.5782000272
 20
0.4114681223
 30
0.0
 10
5.6003200766
 20
0.3868304387
 30
0.0
 10
5.611947396
 20
0.3752371609
 30
0.0
  0
SPLINE
  5
2BE
100
AcDbEntity
  8
0
100
AcDbSpline
 62
7
  6
CONTINUOUS
 70
0
 71
3
 72
10
 73
6
 74
0
 42
0.0000001
 43
0.0000001
 44
0.0000000001
 40
0.0
 40
0.0
 40
0.0
 40
0.0
 40
0.5077288597
 40
0.7561509594
 40
1.0
 40
1.0
 40
1.0
 40
1.0
 10
5.6136386865
 20
0.3735598424
 30
0.0
 10
5.6251327202
 20
0.3622217046
 30
0.0
 10
5.6431894432
 20
0.3462449942
 30
0.0
 10
5.6686997538
 20
0.3272431971
 30
0.0
 10
5.6817770457
 20
0.3186190371
 30
0.0
 10
5.6883752473
 20
0.314545974
 30
0.0
  0
SPLINE
  5
2BF
100
AcDbEntity
  8
0
100
AcDbSpline
 62
7
  6
CONTINUOUS
 70
0
 71
3
 72
9
 73
5
 74
0
 42
0.0000001
 43
0.0000001
 44
0.0000000001
 40
0.0
 40
0.0
 40
0.0
 40
0.0
 40
0.5078212542
 40
1.0
 40
1.0
 40
1.0
 40
1.0
 10
5.7248290043
 20
0.2947464855
 30
0.0
 10
5.7313050217
 20
0.2916992057
 30
0.0
 10
5.7442484723
 20
0.2860946025
 30
0.0
 10
5.7575408754
 20
0.2813704954
 30
0.0
 10
5.7641579571
 20
0.2792892024
 30
0.0
  0
SPLINE
  5
2C0
100
AcDbEntity
  8
0
100
AcDbSpline
 62
7
  6
CONTINUOUS
 70
0
 71
3
 72
11
 73
7
 74
0
 42
0.0000001
 43
0.0000001
 44
0.0000000001
 40
0.0
 40
0.0
 40
0.0
 40
0.0
 40
0.2634238542
 40
0.5181005296
 40
0.7636378978
 40
1.0
 40
1.0
 40
1.0
 40
1.0
 10
5.7641579571
 20
0.2792892024
 30
0.0
 10
5.7697476116
 20
0.2775310695
 30
0.0
 10
5.780852782
 20
0.2744136206
 30
0.0
 10
5.797501633
 20
0.2709687787
 30
0.0
 10
5.8137725853
 20
0.2689016157
 30
0.0
 10
5.8245024881
 20
0.2684839765
 30
0.0
 10
5.8297598083
 20
0.2685442547
 30
0.0
  0
SPLINE
  5
2C1
100
AcDbEntity
  8
0
100
AcDbSpline
 62
7
  6
CONTINUOUS
 70
0
 71
3
 72
11
 73
7
 74
0
 42
0.0000001
 43
0.0000001
 44
0.0000000001
 40
0.0
 40
0.0
 40
0.0
 40
0.0
 40
0.2495978025
 40
0.6250104085
 40
0.8127411848
 40
1.0
 40
1.0
 40
1.0
 40
1.0
 10
5.2812883562
 20
0.6237942547
 30
0.0
 10
5.2814266352
 20
0.6334651627
 30
0.0
 10
5.2803433582
 20
0.6577147154
 30
0.0
 10
5.274780411
 20
0.6888428582
 30
0.0
 10
5.2667795053
 20
0.7168122647
 30
0.0
 10
5.2618890287
 20
0.7305086533
 30
0.0
 10
5.2592375901
 20
0.7372631525
 30
0.0
  0
SPLINE
  5
2C2
100
AcDbEntity
  8
0
100
AcDbSpline
 62
7
  6
CONTINUOUS
 70
0
 71
3
 72
15
 73
11
 74
0
 42
0.0000001
 43
0.0000001
 44
0.0000000001
 40
0.0
 40
0.0
 40
0.0
 40
0.0
 40
0.1299023061
 40
0.2590631521
 40
0.3872245668
 40
0.5140429644
 40
0.6391309692
 40
0.7620904515
 40
0.8825223012
 40
1.0
 40
1.0
 40
1.0
 40
1.0
 10
5.2267398465
 20
0.800863029
 30
0.0
 10
5.2216446922
 20
0.8088596731
 30
0.0
 10
5.2108991169
 20
0.8244425903
 30
0.0
 10
5.1932725024
 20
0.8465634354
 30
0.0
 10
5.1743796379
 20
0.867308928
 30
0.0
 10
5.1544295897
 20
0.8866123987
 30
0.0
 10
5.1336029131
 20
0.9043868779
 30
0.0
 10
5.1120690013
 20
0.9205330461
 30
0.0
 10
5.0900036111
 20
0.9349516783
 30
0.0
 10
5.0748482561
 20
0.9434634448
 30
0.0
 10
5.0672259003
 20
0.9473916316
 30
0.0
  0
SPLINE
  5
2C3
100
AcDbEntity
  8
0
100
AcDbSpline
 62
7
  6
CONTINUOUS
 70
0
 71
3
 72
11
 73
7
 74
0
 42
0.0000001
 43
0.0000001
 44
0.0000000001
 40
0.0
 40
0.0
 40
0.0
 40
0.0
 40
0.2642521955
 40
0.5193821362
 40
0.7647427906
 40
1.0
 40
1.0
 40
1.0
 40
1.0
 10
5.0560778395
 20
0.9528897211
 30
0.0
 10
5.0491062083
 20
0.9561737056
 30
0.0
 10
5.0351792262
 20
0.9621667393
 30
0.0
 10
5.0140731355
 20
0.9694406522
 30
0.0
 10
4.993262657
 20
0.9747647385
 30
0.0
 10
4.9794068852
 20
0.9770326881
 30
0.0
 10
4.9725895654
 20
0.9778038238
 30
0.0
  0
SPLINE
  5
2C4
100
AcDbEntity
  8
0
100
AcDbSpline
 62
7
  6
CONTINUOUS
 70
0
 71
3
 72
9
 73
5
 74
0
 42
0.0000001
 43
0.0000001
 44
0.0000000001
 40
0.0
 40
0.0
 40
0.0
 40
0.0
 40
0.5120068818
 40
1.0
 40
1.0
 40
1.0
 40
1.0
 10
4.9725895654
 20
0.9778038238
 30
0.0
 10
4.9654770206
 20
0.9786083536
 30
0.0
 10
4.9514905264
 20
0.979462772
 30
0.0
 10
4.9374928083
 20
0.9786424408
 30
0.0
 10
4.9307231771
 20
0.9777972562
 30
0.0
  0
SPLINE
  5
2C5
100
AcDbEntity
  8
0
100
AcDbSpline
 62
7
  6
CONTINUOUS
 70
0
 71
3
 72
11
 73
7
 74
0
 42
0.0000001
 43
0.0000001
 44
0.0000000001
 40
0.0
 40
0.0
 40
0.0
 40
0.0
 40
0.2585757421
 40
0.5104344393
 40
0.7570038856
 40
1.0
 40
1.0
 40
1.0
 40
1.0
 10
4.9307231771
 20
0.9777972562
 30
0.0
 10
4.9260484113
 20
0.9772136143
 30
0.0
 10
4.9168661197
 20
0.9756416019
 30
0.0
 10
4.9035387984
 20
0.9720078203
 30
0.0
 10
4.8909089796
 20
0.9671517713
 30
0.0
 10
4.8829452075
 20
0.9630928795
 30
0.0
 10
4.8791100231
 20
0.9608811962
 30
0.0
  0
SPLINE
  5
2C6
100
AcDbEntity
  8
0
100
AcDbSpline
 62
7
  6
CONTINUOUS
 70
0
 71
3
 72
11
 73
7
 74
0
 42
0.0000001
 43
0.0000001
 44
0.0000000001
 40
0.0
 40
0.0
 40
0.0
 40
0.0
 40
0.2429860136
 40
0.4895497014
 40
0.7414110769
 40
1.0
 40
1.0
 40
1.0
 40
1.0
 10
4.8791064471
 20
0.2867094147
 30
0.0
 10
4.8829454265
 20
0.2844953742
 30
0.0
 10
4.8909174063
 20
0.2804324707
 30
0.0
 10
4.9035609005
 20
0.275572934
 30
0.0
 10
4.9169032464
 20
0.2719382507
 30
0.0
 10
4.9260959774
 20
0.2703673664
 30
0.0
 10
4.9307760913
 20
0.2697846879
 30
0.0
  0
SPLINE
  5
2C7
100
AcDbEntity
  8
0
100
AcDbSpline
 62
7
  6
CONTINUOUS
 70
0
 71
3
 72
9
 73
5
 74
0
 42
0.0000001
 43
0.0000001
 44
0.0000000001
 40
0.0
 40
0.0
 40
0.0
 40
0.0
 40
0.2458161818
 40
1.0
 40
1.0
 40
1.0
 40
1.0
 10
4.9307760913
 20
0.2697846879
 30
0.0
 10
4.9324399212
 20
0.2695775395
 30
0.0
 10
4.9392218034
 20
0.2688440153
 30
0.0
 10
4.9460493944
 20
0.2685438581
 30
0.0
 10
4.9511935693
 20
0.2685442552
 30
0.0
  0
SPLINE
  5
2C8
100
AcDbEntity
  8
0
100
AcDbSpline
 62
7
  6
CONTINUOUS
 70
0
 71
3
 72
9
 73
5
 74
0
 42
0.0000001
 43
0.0000001
 44
0.0000000001
 40
0.0
 40
0.0
 40
0.0
 40
0.0
 40
0.245480717
 40
1.0
 40
1.0
 40
1.0
 40
1.0
 10
4.9511935693
 20
0.2685442552
 30
0.0
 10
4.9529525956
 20
0.268544391
 30
0.0
 10
4.9601179977
 20
0.2686527801
 30
0.0
 10
4.9672755907
 20
0.2691820348
 30
0.0
 10
4.972647771
 20
0.2697912508
 30
0.0
  0
SPLINE
  5
2C9
100
AcDbEntity
  8
0
100
AcDbSpline
 62
7
  6
CONTINUOUS
 70
0
 71
3
 72
11
 73
7
 74
0
 42
0.0000001
 43
0.0000001
 44
0.0000000001
 40
0.0
 40
0.0
 40
0.0
 40
0.0
 40
0.2352704483
 40
0.4806354979
 40
0.7357607208
 40
1.0
 40
1.0
 40
1.0
 40
1.0
 10
4.972647771
 20
0.2697912508
 30
0.0
 10
4.9794602061
 20
0.2705637947
 30
0.0
 10
4.9933056527
 20
0.2728333337
 30
0.0
 10
5.0141002791
 20
0.2781565305
 30
0.0
 10
5.035189849
 20
0.2854263342
 30
0.0
 10
5.0491059801
 20
0.2914148179
 30
0.0
 10
5.0560721672
 20
0.2946960836
 30
0.0
  0
SPLINE
  5
2CA
100
AcDbEntity
  8
0
100
AcDbSpline
 62
7
  6
CONTINUOUS
 70
0
 71
3
 72
15
 73
11
 74
0
 42
0.0000001
 43
0.0000001
 44
0.0000000001
 40
0.0
 40
0.0
 40
0.0
 40
0.0
 40
0.1175730491
 40
0.238034992
 40
0.3609790659
 40
0.4860274458
 40
0.6128022126
 40
0.7409340801
 40
0.8700869299
 40
1.0
 40
1.0
 40
1.0
 40
1.0
 10
5.0672907025
 20
0.3002302564
 30
0.0
 10
5.0747070517
 20
0.3040541987
 30
0.0
 10
5.0894557878
 20
0.312322755
 30
0.0
 10
5.1109501517
 20
0.3262924423
 30
0.0
 10
5.1319491459
 20
0.3419038368
 30
0.0
 10
5.1522907372
 20
0.3590650429
 30
0.0
 10
5.1718179652
 20
0.3776852018
 30
0.0
 10
5.1903680349
 20
0.3976801082
 30
0.0
 10
5.207748884
 20
0.4189880888
 30
0.0
 10
5.2184054311
 20
0.4339916599
 30
0.0
 10
5.2234779104
 20
0.4416908026
 30
0.0
  0
SPLINE
  5
2CB
100
AcDbEntity
  8
0
100
AcDbSpline
 62
7
  6
CONTINUOUS
 70
0
 71
3
 72
13
 73
9
 74
0
 42
0.0000001
 43
0.0000001
 44
0.0000000001
 40
0.0
 40
0.0
 40
0.0
 40
0.0
 40
0.1248028104
 40
0.2498101556
 40
0.4376241143
 40
0.6254329913
 40
0.8129218734
 40
1.0
 40
1.0
 40
1.0
 40
1.0
 10
5.2608854484
 20
0.5146099074
 30
0.0
 10
5.2625264411
 20
0.5189573875
 30
0.0
 10
5.2656371806
 20
0.5277264412
 30
0.0
 10
5.2704516512
 20
0.5432974609
 30
0.0
 10
5.2750169561
 20
0.5613844234
 30
0.0
 10
5.2787659088
 20
0.5820308484
 30
0.0
 10
5.2809995667
 20
0.6028696581
 30
0.0
 10
5.2813902729
 20
0.6168293837
 30
0.0
 10
5.2812883562
 20
0.6237942547
 30
0.0
  0
SPLINE
  5
2CC
100
AcDbEntity
  8
0
100
AcDbSpline
 62
9
  6
CONTINUOUS
 70
0
 71
3
 72
73
 73
69
 74
0
 42
0.0000001
 43
0.0000001
 44
0.0000000001
 40
0.0
 40
0.0
 40
0.0
 40
0.0
 40
0.013760923
 40
0.0275340276
 40
0.041335112
 40
0.055177725
 40
0.069070062
 40
0.0830201978
 40
0.097036946
 40
0.1111295722
 40
0.1253071868
 40
0.1395799679
 40
0.1539594885
 40
0.1684582152
 40
0.1830870282
 40
0.1978577412
 40
0.2127844943
 40
0.2278832037
 40
0.2431660126
 40
0.2586445368
 40
0.2902440366
 40
0.3064040508
 40
0.3228095099
 40
0.3394702423
 40
0.3564016781
 40
0.373606767
 40
0.3910660462
 40
0.4087641737
 40
0.4177010486
 40
0.4266953163
 40
0.4357442219
 40
0.4448406198
 40
0.4631439944
 40
0.4815495728
 40
0.5000033935
 40
0.5184571969
 40
0.5368627079
 40
0.5551659453
 40
0.5642622433
 40
0.5733110261
 40
0.5823051515
 40
0.5912418797
 40
0.6089397006
 40
0.6263986484
 40
0.6436033722
 40
0.6605344162
 40
0.6771947776
 40
0.6935998939
 40
0.7097595996
 40
0.741358627
 40
0.7568369564
 40
0.7721195376
 40
0.787217939
 40
0.8021443101
 40
0.8169146381
 40
0.8315431397
 40
0.8460417076
 40
0.8604212514
 40
0.8746941257
 40
0.8888717624
 40
0.9029641957
 40
0.9169804437
 40
0.9309298964
 40
0.9448215529
 40
0.9586636782
 40
0.9724646538
 40
0.9862381411
 40
1.0
 40
1.0
 40
1.0
 40
1.0
 10
6.2641706189
 20
3.3001940582
 30
0.0
 10
6.2635344674
 20
3.3128233874
 30
0.0
 10
6.261792464
 20
3.338072146
 30
0.0
 10
6.2577649327
 20
3.3758506147
 30
0.0
 10
6.2523155099
 20
3.413526755
 30
0.0
 10
6.2454368384
 20
3.4510797135
 30
0.0
 10
6.2371115683
 20
3.4884792656
 30
0.0
 10
6.2273241608
 20
3.5256887357
 30
0.0
 10
6.2160590691
 20
3.5626704267
 30
0.0
 10
6.2033010467
 20
3.5993856566
 30
0.0
 10
6.1890223014
 20
3.6357898824
 30
0.0
 10
6.173195776
 20
3.671836911
 30
0.0
 10
6.1557942681
 20
3.7074795895
 30
0.0
 10
6.1367937495
 20
3.7426689124
 30
0.0
 10
6.1161565589
 20
3.7773437718
 30
0.0
 10
6.0938446762
 20
3.811437246
 30
0.0
 10
6.0698208371
 20
3.8448807357
 30
0.0
 10
6.0440546846
 20
3.8776025496
 30
0.0
 10
6.0165043364
 20
3.9095130638
 30
0.0
 10
5.9770730516
 20
3.9511163397
 30
0.0
 10
5.9340929455
 20
3.9903899341
 30
0.0
 10
5.887727202
 20
4.0268472837
 30
0.0
 10
5.8507646692
 20
4.0529619188
 30
0.0
 10
5.8118776315
 20
4.0774704307
 30
0.0
 10
5.7710768155
 20
4.1001954581
 30
0.0
 10
5.7284197013
 20
4.1209492954
 30
0.0
 10
5.6840075621
 20
4.139532142
 30
0.0
 10
5.6457588655
 20
4.1529843049
 30
0.0
 10
5.6144137121
 20
4.162456106
 30
0.0
 10
5.5904695406
 20
4.168902726
 30
0.0
 10
5.5661959963
 20
4.1746446929
 30
0.0
 10
5.5333776503
 20
4.1813586111
 30
0.0
 10
5.4917688868
 20
4.1879043894
 30
0.0
 10
5.4412742386
 20
4.1927030796
 30
0.0
 10
5.3904368309
 20
4.1943415954
 30
0.0
 10
5.3395996224
 20
4.192698911
 30
0.0
 10
5.2891055585
 20
4.1878962565
 30
0.0
 10
5.247497583
 20
4.1813472703
 30
0.0
 10
5.214680088
 20
4.1746308433
 30
0.0
 10
5.1904073242
 20
4.1688870335
 30
0.0
 10
5.1664640349
 20
4.1624385935
 30
0.0
 10
5.1351201533
 20
4.1529644774
 30
0.0
 10
5.0968731818
 20
4.1395095896
 30
0.0
 10
5.0524632949
 20
4.120923755
 30
0.0
 10
5.0098085976
 20
4.1001672422
 30
0.0
 10
4.9690102922
 20
4.0774398434
 30
0.0
 10
4.9301257782
 20
4.0529292374
 30
0.0
 10
4.8931657376
 20
4.0268127062
 30
0.0
 10
4.8468031622
 20
3.9903529989
 30
0.0
 10
4.8038262584
 20
3.9510772368
 30
0.0
 10
4.764398125
 20
3.9094721104
 30
0.0
 10
4.7368501055
 20
3.8775604759
 30
0.0
 10
4.7110862874
 20
3.8448379004
 30
0.0
 10
4.6870647977
 20
3.8113939407
 30
0.0
 10
4.6647552595
 20
3.7773001165
 30
0.0
 10
4.6441203373
 20
3.7426248211
 30
0.0
 10
4.6251219635
 20
3.7074348058
 30
0.0
 10
4.6077225007
 20
3.6717911723
 30
0.0
 10
4.5918979024
 20
3.6357431606
 30
0.0
 10
4.5776210295
 20
3.5993382797
 30
0.0
 10
4.5648648758
 20
3.5626230566
 30
0.0
 10
4.5536016559
 20
3.525642119
 30
0.0
 10
4.5438162288
 20
3.4884338977
 30
0.0
 10
4.5354930473
 20
3.4510356214
 30
0.0
 10
4.5286165537
 20
3.4134834534
 30
0.0
 10
4.5231694231
 20
3.3758071778
 30
0.0
 10
4.5191440659
 20
3.3380273607
 30
0.0
 10
4.5174032805
 20
3.3127773086
 30
0.0
 10
4.5167676131
 20
3.3001470941
 30
0.0
  0
SPLINE
  5
2CD
100
AcDbEntity
  8
0
100
AcDbSpline
 62
7
  6
CONTINUOUS
 70
0
 71
3
 72
12
 73
8
 74
0
 42
0.0000001
 43
0.0000001
 44
0.0000000001
 40
0.0
 40
0.0
 40
0.0
 40
0.0
 40
0.1190665326
 40
0.2390974707
 40
0.4836076924
 40
0.7364603652
 40
1.0
 40
1.0
 40
1.0
 40
1.0
 10
4.8791062702
 20
0.2867095914
 30
0.0
 10
4.8816899743
 20
0.2852194779
 30
0.0
 10
4.8869846788
 20
0.2824069063
 30
0.0
 10
4.8980622746
 20
0.277483728
 30
0.0
 10
4.9128279224
 20
0.2727072612
 30
0.0
 10
4.9316263904
 20
0.2692762379
 30
0.0
 10
4.9445779787
 20
0.2685442698
 30
0.0
 10
4.9511796327
 20
0.2685442547
 30
0.0
  0
SPLINE
  5
2CE
100
AcDbEntity
  8
0
100
AcDbSpline
 62
9
  6
CONTINUOUS
 70
0
 71
3
 72
23
 73
19
 74
0
 42
0.0000001
 43
0.0000001
 44
0.0000000001
 40
0.0
 40
0.0
 40
0.0
 40
0.0
 40
0.0596497345
 40
0.1193747933
 40
0.1792675377
 40
0.2393933101
 40
0.2997989779
 40
0.3605358921
 40
0.4216587505
 40
0.4832224271
 40
0.5452896269
 40
0.6079322526
 40
0.6712188759
 40
0.7352175385
 40
0.8000116781
 40
0.8656929068
 40
0.9323293052
 40
1.0
 40
1.0
 40
1.0
 40
1.0
 10
4.5167688541
 20
3.1973942276
 30
0.0
 10
4.5175134673
 20
3.1826117142
 30
0.0
 10
4.5196465764
 20
3.1530562972
 30
0.0
 10
4.5247868998
 20
3.1088579277
 30
0.0
 10
4.5318774631
 20
3.0648095725
 30
0.0
 10
4.5409375471
 20
3.0209512159
 30
0.0
 10
4.5519948523
 20
2.9773367412
 30
0.0
 10
4.5650737914
 20
2.9340264757
 30
0.0
 10
4.5801993251
 20
2.8910824889
 30
0.0
 10
4.5974160853
 20
2.848576185
 30
0.0
 10
4.6167682851
 20
2.8065823323
 30
0.0
 10
4.638295243
 20
2.7651774431
 30
0.0
 10
4.6620477339
 20
2.7244508761
 30
0.0
 10
4.6880900937
 20
2.6845087547
 30
0.0
 10
4.7164803977
 20
2.6454617385
 30
0.0
 10
4.747268089
 20
2.6074275997
 30
0.0
 10
4.7805219074
 20
2.5705622894
 30
0.0
 10
4.8041873058
 20
2.5470681997
 30
0.0
 10
4.8164308218
 20
2.5355767982
 30
0.0
  0
SPLINE
  5
2CF
100
AcDbEntity
  8
0
100
AcDbSpline
 62
9
  6
CONTINUOUS
 70
0
 71
3
 72
16
 73
12
 74
0
 42
0.0000001
 43
0.0000001
 44
0.0000000001
 40
0.0
 40
0.0
 40
0.0
 40
0.0
 40
0.1165483265
 40
0.2356884149
 40
0.3575906741
 40
0.4820837164
 40
0.60896062
 40
0.7380433307
 40
0.8032238151
 40
0.8686806426
 40
1.0
 40
1.0
 40
1.0
 40
1.0
 10
4.8806692078
 20
2.4807538819
 30
0.0
 10
4.897545988
 20
2.467685138
 30
0.0
 10
4.9326503731
 20
2.4424889597
 30
0.0
 10
4.9886191901
 20
2.4083635119
 30
0.0
 10
5.048375867
 20
2.3780272747
 30
0.0
 10
5.1116814578
 20
2.3520231228
 30
0.0
 10
5.1781892136
 20
2.3309679747
 30
0.0
 10
5.2356701326
 20
2.3181370808
 30
0.0
 10
5.2826786971
 20
2.3107878407
 30
0.0
 10
5.3303664533
 20
2.3054423768
 30
0.0
 10
5.3664308304
 20
2.3037938967
 30
0.0
 10
5.3904812711
 20
2.3037942548
 30
0.0
  0
SPLINE
  5
2D0
100
AcDbEntity
  8
0
100
AcDbSpline
 62
9
  6
CONTINUOUS
 70
0
 71
3
 72
15
 73
11
 74
0
 42
0.0000001
 43
0.0000001
 44
0.0000000001
 40
0.0
 40
0.0
 40
0.0
 40
0.0
 40
0.1312640808
 40
0.2618242828
 40
0.3908804722
 40
0.5177510635
 40
0.6422563552
 40
0.7641957672
 40
0.8833892965
 40
1.0
 40
1.0
 40
1.0
 40
1.0
 10
5.3904812711
 20
2.3037942548
 30
0.0
 10
5.4143868393
 20
2.3037946107
 30
0.0
 10
5.4620954389
 20
2.3059638424
 30
0.0
 10
5.5327385322
 20
2.3153904892
 30
0.0
 10
5.6015407482
 20
2.3306553976
 30
0.0
 10
5.6677100373
 20
2.3514738503
 30
0.0
 10
5.7307233292
 20
2.3771972173
 30
0.0
 10
5.7902392762
 20
2.4072174148
 30
0.0
 10
5.8460185742
 20
2.4409997612
 30
0.0
 10
5.8810257429
 20
2.4659511908
 30
0.0
 10
5.897861756
 20
2.4788955156
 30
0.0
  0
SPLINE
  5
2D1
100
AcDbEntity
  8
0
100
AcDbSpline
 62
9
  6
CONTINUOUS
 70
0
 71
3
 72
23
 73
19
 74
0
 42
0.0000001
 43
0.0000001
 44
0.0000000001
 40
0.0
 40
0.0
 40
0.0
 40
0.0
 40
0.0678507394
 40
0.1346269361
 40
0.2004168562
 40
0.2652893161
 40
0.3293351462
 40
0.3926437218
 40
0.4552877039
 40
0.5173363667
 40
0.5788646376
 40
0.6399385052
 40
0.7006151532
 40
0.7609508138
 40
0.8209986527
 40
0.8808069632
 40
0.9404420639
 40
1.0
 40
1.0
 40
1.0
 40
1.0
 10
5.954494747
 20
2.5263201258
 30
0.0
 10
5.967173414
 20
2.5378627054
 30
0.0
 10
5.9916783373
 20
2.5614926831
 30
0.0
 10
6.0261116855
 20
2.5986651086
 30
0.0
 10
6.0579780379
 20
2.6370870524
 30
0.0
 10
6.0873518959
 20
2.6765874373
 30
0.0
 10
6.1142876871
 20
2.7170366145
 30
0.0
 10
6.1388441865
 20
2.7583175096
 30
0.0
 10
6.1610882607
 20
2.8003174545
 30
0.0
 10
6.1810777709
 20
2.8429387965
 30
0.0
 10
6.1988533352
 20
2.8861004677
 30
0.0
 10
6.2144611241
 20
2.9297235796
 30
0.0
 10
6.2279489469
 20
2.9737323149
 30
0.0
 10
6.239344667
 20
3.0180606064
 30
0.0
 10
6.2486734649
 20
3.0626448289
 30
0.0
 10
6.2559643869
 20
3.1074278058
 30
0.0
 10
6.2612385001
 20
3.1523671198
 30
0.0
 10
6.2634167684
 20
3.1824199452
 30
0.0
 10
6.264173081
 20
3.1974511814
 30
0.0
  0
SPLINE
  5
2D2
100
AcDbEntity
  8
0
100
AcDbSpline
 62
7
  6
CONTINUOUS
 70
0
 71
3
 72
9
 73
5
 74
0
 42
0.0000001
 43
0.0000001
 44
0.0000000001
 40
0.0
 40
0.0
 40
0.0
 40
0.0
 40
0.2544427696
 40
1.0
 40
1.0
 40
1.0
 40
1.0
 10
4.9511796327
 20
0.9790442546
 30
0.0
 10
4.9494407933
 20
0.9790442585
 30
0.0
 10
4.9426073978
 20
0.9789426837
 30
0.0
 10
4.9357790438
 20
0.9784284853
 30
0.0
 10
4.9307232217
 20
0.9777972755
 30
0.0
  0
ENDSEC
  0
SECTION
  2
OBJECTS
  0
DICTIONARY
  5
C
100
AcDbDictionary
280
0
281
1
  3
ACAD_GROUP
350
D
  3
ACAD_MLINESTYLE
350
17
  3
ACAD_LAYOUT
350
1A
  3
ACAD_PLOTSETTINGS
350
19
  3
ACAD_PLOTSTYLENAME
350
E
  0
DICTIONARY
  5
D
102
{ACAD_REACTORS
330
C
102
}
100
AcDbDictionary
280
0
281
1
  0
ACDBDICTIONARYWDFLT
  5
E
102
{ACAD_REACTORS
330
C
102
}
100
AcDbDictionary
281
1
  3
Normal
350
F
100
AcDbDictionaryWithDefault
340
F
  0
DICTIONARY
  5
17
102
{ACAD_REACTORS
330
C
102
}
100
AcDbDictionary
280
0
281
1
  3
Standard
350
18
  0
DICTIONARY
  5
19
102
{ACAD_REACTORS
330
C
102
}
100
AcDbDictionary
281
1
  0
DICTIONARY
  5
1A
102
{ACAD_REACTORS
330
C
102
}
100
AcDbDictionary
281
1
  3
Model
350
2D3
  3
Layout1
350
2D4
  0
ACDBPLACEHOLDER
  5
F
102
{ACAD_REACTORS
330
E
102
}
  0
MLINESTYLE
  5
18
102
{ACAD_REACTORS
330
17
102
}
100
AcDbMlineStyle
  2
STANDARD
 70
0
  3

 62
256
 51
90.0
 52
90.0
 71
2
 49
0.5
 62
256
  6
BYLAYER
 49
-0.5
 62
256
  6
BYLAYER
  0
LAYOUT
  5
2D3
102
{ACAD_REACTORS
330
1A
102
}
100
AcDbPlotSettings
  1

  2
none_device
  4
ANSI_A_(11.00_x_8.50_Inches)
  6

 40
0.0
 41
0.0
 42
0.0
 43
0.0
 44
279.4
 45
215.9
 46
0.0
 47
0.0
 48
0.0
 49
0.0
140
0.0
141
0.0
142
1.0
143
1.0
 70
1024
 72
0
 73
0
 74
0
  7

 75
0
147
1.0
148
0.0
149
0.0
100
AcDbLayout
  1
Model
 70
0
 71
0
 10
0.0
 20
0.0
 11
11.0
 21
8.5
 12
0.0
 22
0.0
 32
0.0
 14
0.0
 24
0.0
 34
0.0
 15
0.0
 25
0.0
 35
0.0
146
0.0
 13
0.0
 23
0.0
 33
0.0
 16
1.0
 26
0.0
 36
0.0
 17
0.0
 27
1.0
 37
0.0
 76
0
330
229
345
0
346
0
  0
LAYOUT
  5
2D4
102
{ACAD_REACTORS
330
1A
102
}
100
AcDbPlotSettings
  1

  2
none_device
  4
ANSI_A_(11.00_x_8.50_Inches)
  6

 40
0.0
 41
0.0
 42
0.0
 43
0.0
 44
279.4
 45
215.9
 46
0.0
 47
0.0
 48
0.0
 49
0.0
140
0.0
141
0.0
142
1.0
143
1.0
 70
0
 72
0
 73
0
 74
0
  7

 75
0
147
1.0
148
0.0
149
0.0
100
AcDbLayout
  1
Layout1
 70
0
 71
1
 10
0.0
 20
0.0
 11
11.0
 21
8.5
 12
0.0
 22
0.0
 32
0.0
 14
0.0
 24
0.0
 34
0.0
 15
0.0
 25
0.0
 35
0.0
146
0.0
 13
0.0
 23
0.0
 33
0.0
 16
1.0
 26
0.0
 36
0.0
 17
0.0
 27
1.0
 37
0.0
 76
0
330
22A
345
0
346
0
  0
ENDSEC
  0
EOF
