999
DXF file: C:\Prowork\plots\412_right.dxf
999
Pro/ENGINEER 2018500 by Parametric Technology Corporation
  0
SECTION
  2
HEADER
  9
$ACADVER
  1
AC1032
  9
$DWGCODEPAGE
  3
ANSI_1252
  9
$EXTMAX
 10
11.0
 20
8.5
 30
0.0
  9
$EXTMIN
 10
0.0
 20
0.0
 30
0.0
  9
$LIMMIN
 10
0.0
 20
0.0
  9
$LIMMAX
 10
11.0
 20
8.5
  9
$VIEWCTR
 10
5.5
 20
4.25
  9
$VIEWSIZE
 40
8.5
  9
$CLAYER
  8
0
  9
$LTSCALE
 40
0.605
  9
$CELTYPE
  6
BYLAYER
  9
$DIMSCALE
 40
1.0
  9
$DIMASZ
 40
0.1
  9
$DIMEXO
 40
0.0625
  9
$DIMDLI
 40
0.418
  9
$DIMEXE
 40
0.125
  9
$DIMCEN
 40
0.099
  9
$DIMLFAC
 40
1.0
  9
$DIMBLK
  1
_FILLED
  9
$DIMALT
 70
1
  9
$DIMALTD
 70
2
  9
$DIMALTTD
 70
2
  9
$DIMALTF
 40
25.4
  9
$DIMTXT
 40
0.08
  9
$DIMTOL
 70
1
  9
$DIMLIM
 70
0
  9
$DIMTFAC
 40
1.0
  9
$DIMTP
 40
0.001
  9
$DIMTM
 40
0.001
  9
$DIMGAP
 40
0.09
  9
$DIMDSEP
 70
46
  9
$AUNITS
 70
0
  9
$PDMODE
 70
3
  9
$PDSIZE
 40
0.06
  9
$HANDSEED
  5
306
  9
$TILEMODE
 70
1
  9
$MEASUREMENT
 70
0
  9
$INSUNITS
 70
1
  0
ENDSEC
  0
SECTION
  2
CLASSES
  0
CLASS
  1
ACDBDICTIONARYWDFLT
  2
AcDbDictionaryWithDefault
  3
AutoCAD 2000
 90
0
 91
1
280
0
281
0
  0
CLASS
  1
ACDBPLACEHOLDER
  2
AcDbPlaceHolder
  3
AutoCAD 2000
 90
0
 91
1
280
0
281
0
  0
CLASS
  1
LAYOUT
  2
AcDbLayout
  3
AutoCAD 2000
 90
0
 91
0
280
0
281
0
  0
ENDSEC
  0
SECTION
  2
TABLES
  0
TABLE
  2
VPORT
  5
8
100
AcDbSymbolTable
 70
2
  0
VPORT
  5
1F4
100
AcDbSymbolTableRecord
100
AcDbViewportTableRecord
  2
*ACTIVE
 70
0
 10
0.0
 20
0.0
 11
1.0
 21
1.0
 12
5.5
 22
4.25
 13
0.0
 23
0.0
 14
1.0
 24
1.0
 15
0.0
 25
0.0
 16
0.0
 26
0.0
 36
1.0
 17
0.0
 27
0.0
 37
0.0
 40
8.5
 41
1.2941176471
 42
50.0
 43
0.0
 44
0.0
 50
0.0
 51
0.0
 71
0
 72
100
 73
1
 74
1
 75
0
 76
0
 77
0
 78
0
  0
ENDTAB
  0
TABLE
  2
LTYPE
  5
5
100
AcDbSymbolTable
 70
6
  0
LTYPE
  5
14
100
AcDbSymbolTableRecord
100
AcDbLinetypeTableRecord
  2
BYBLOCK
 70
0
  3

 72
65
 73
0
 40
0.0
  0
LTYPE
  5
15
100
AcDbSymbolTableRecord
100
AcDbLinetypeTableRecord
  2
BYLAYER
 70
0
  3

 72
65
 73
0
 40
0.0
  0
LTYPE
  5
16
100
AcDbSymbolTableRecord
100
AcDbLinetypeTableRecord
  2
CONTINUOUS
 70
64
  3
Solid line
 72
65
 73
0
 40
0.0
  0
LTYPE
  5
1F5
100
AcDbSymbolTableRecord
100
AcDbLinetypeTableRecord
  2
CENTER
 70
64
  3
____ _ ____ _ ____ _ ____ _ ____ _ ____ _ ____
 72
65
 73
4
 40
0.6
 49
0.375
 74
0
 49
-0.075
 74
0
 49
0.075
 74
0
 49
-0.075
 74
0
  0
LTYPE
  5
1F6
100
AcDbSymbolTableRecord
100
AcDbLinetypeTableRecord
  2
HIDDEN
 70
64
  3
- - - - - - - - - - - - - - - - - - - -
 72
65
 73
2
 40
0.2
 49
0.1
 74
0
 49
-0.1
 74
0
  0
LTYPE
  5
1F7
100
AcDbSymbolTableRecord
100
AcDbLinetypeTableRecord
  2
PHANTOM
 70
64
  3
_____ _ _ _____ _ _ _____ _ _ _____
 72
65
 73
6
 40
0.8
 49
0.45
 74
0
 49
-0.05
 74
0
 49
0.1
 74
0
 49
-0.05
 74
0
 49
0.1
 74
0
 49
-0.05
 74
0
  0
LTYPE
  5
1F8
100
AcDbSymbolTableRecord
100
AcDbLinetypeTableRecord
  2
DOT
 70
64
  3
. . . . . . . . . . . . . . . . . . . .
 72
65
 73
2
 40
0.2
 49
0.1
 74
0
 49
-0.1
 74
0
  0
LTYPE
  5
1F9
100
AcDbSymbolTableRecord
100
AcDbLinetypeTableRecord
  2
DASHED
 70
64
  3
- - - - - - - - - - - - - - - - - - - -
 72
65
 73
2
 40
0.2
 49
0.1
 74
0
 49
-0.1
 74
0
  0
ENDTAB
  0
TABLE
  2
LAYER
  5
2
100
AcDbSymbolTable
 70
36
  0
LAYER
  5
10
100
AcDbSymbolTableRecord
100
AcDbLayerTableRecord
  2
0
 70
0
 62
7
  6
CONTINUOUS
370
-3
390
F
  0
LAYER
  5
1FA
100
AcDbSymbolTableRecord
100
AcDbLayerTableRecord
  2
DEFAULT_1
 70
0
 62
7
  6
CENTER
370
-3
390
F
  0
LAYER
  5
1FB
100
AcDbSymbolTableRecord
100
AcDbLayerTableRecord
  2
DEFAULT_2
 70
0
 62
8
  6
HIDDEN
370
-3
390
F
  0
LAYER
  5
1FC
100
AcDbSymbolTableRecord
100
AcDbLayerTableRecord
  2
DEFAULT_3
 70
0
 62
7
  6
PHANTOM
370
-3
390
F
  0
LAYER
  5
1FD
100
AcDbSymbolTableRecord
100
AcDbLayerTableRecord
  2
50350
 70
0
 62
7
  6
CONTINUOUS
370
-3
390
F
  0
LAYER
  5
1FE
100
AcDbSymbolTableRecord
100
AcDbLayerTableRecord
  2
50355
 70
0
 62
7
  6
CONTINUOUS
370
-3
390
F
  0
LAYER
  5
1FF
100
AcDbSymbolTableRecord
100
AcDbLayerTableRecord
  2
50359
 70
0
 62
7
  6
CONTINUOUS
370
-3
390
F
  0
LAYER
  5
200
100
AcDbSymbolTableRecord
100
AcDbLayerTableRecord
  2
50362
 70
0
 62
7
  6
CONTINUOUS
370
-3
390
F
  0
LAYER
  5
201
100
AcDbSymbolTableRecord
100
AcDbLayerTableRecord
  2
50663
 70
0
 62
7
  6
CONTINUOUS
370
-3
390
F
  0
LAYER
  5
202
100
AcDbSymbolTableRecord
100
AcDbLayerTableRecord
  2
50664
 70
0
 62
7
  6
CONTINUOUS
370
-3
390
F
  0
LAYER
  5
203
100
AcDbSymbolTableRecord
100
AcDbLayerTableRecord
  2
50670
 70
0
 62
7
  6
CONTINUOUS
370
-3
390
F
  0
LAYER
  5
204
100
AcDbSymbolTableRecord
100
AcDbLayerTableRecord
  2
50675
 70
0
 62
7
  6
CONTINUOUS
370
-3
390
F
  0
LAYER
  5
205
100
AcDbSymbolTableRecord
100
AcDbLayerTableRecord
  2
50677
 70
0
 62
7
  6
CONTINUOUS
370
-3
390
F
  0
LAYER
  5
206
100
AcDbSymbolTableRecord
100
AcDbLayerTableRecord
  2
50678
 70
0
 62
7
  6
CONTINUOUS
370
-3
390
F
  0
LAYER
  5
207
100
AcDbSymbolTableRecord
100
AcDbLayerTableRecord
  2
6-412
 70
0
 62
7
  6
CONTINUOUS
370
-3
390
F
  0
LAYER
  5
208
100
AcDbSymbolTableRecord
100
AcDbLayerTableRecord
  2
92073
 70
0
 62
7
  6
CONTINUOUS
370
-3
390
F
  0
LAYER
  5
209
100
AcDbSymbolTableRecord
100
AcDbLayerTableRecord
  2
DEFAULT_COORDINATE_SYSTEM
 70
0
 62
7
  6
CONTINUOUS
370
-3
390
F
  0
LAYER
  5
20A
100
AcDbSymbolTableRecord
100
AcDbLayerTableRecord
  2
DEFAULT_DATUM_AXES
 70
0
 62
7
  6
CONTINUOUS
370
-3
390
F
  0
LAYER
  5
20B
100
AcDbSymbolTableRecord
100
AcDbLayerTableRecord
  2
DEFAULT_DATUM_PLANES
 70
0
 62
7
  6
CONTINUOUS
370
-3
390
F
  0
LAYER
  5
20C
100
AcDbSymbolTableRecord
100
AcDbLayerTableRecord
  2
INTF_50350
 70
0
 62
7
  6
CONTINUOUS
370
-3
390
F
  0
LAYER
  5
20D
100
AcDbSymbolTableRecord
100
AcDbLayerTableRecord
  2
INTF_50355
 70
0
 62
7
  6
CONTINUOUS
370
-3
390
F
  0
LAYER
  5
20E
100
AcDbSymbolTableRecord
100
AcDbLayerTableRecord
  2
INTF_50359
 70
0
 62
7
  6
CONTINUOUS
370
-3
390
F
  0
LAYER
  5
20F
100
AcDbSymbolTableRecord
100
AcDbLayerTableRecord
  2
INTF_50362
 70
0
 62
7
  6
CONTINUOUS
370
-3
390
F
  0
LAYER
  5
210
100
AcDbSymbolTableRecord
100
AcDbLayerTableRecord
  2
INTF_50663
 70
0
 62
7
  6
CONTINUOUS
370
-3
390
F
  0
LAYER
  5
211
100
AcDbSymbolTableRecord
100
AcDbLayerTableRecord
  2
INTF_50664
 70
0
 62
7
  6
CONTINUOUS
370
-3
390
F
  0
LAYER
  5
212
100
AcDbSymbolTableRecord
100
AcDbLayerTableRecord
  2
INTF_50670
 70
0
 62
7
  6
CONTINUOUS
370
-3
390
F
  0
LAYER
  5
213
100
AcDbSymbolTableRecord
100
AcDbLayerTableRecord
  2
INTF_50675
 70
0
 62
7
  6
CONTINUOUS
370
-3
390
F
  0
LAYER
  5
214
100
AcDbSymbolTableRecord
100
AcDbLayerTableRecord
  2
INTF_50677
 70
0
 62
7
  6
CONTINUOUS
370
-3
390
F
  0
LAYER
  5
215
100
AcDbSymbolTableRecord
100
AcDbLayerTableRecord
  2
INTF_50678
 70
0
 62
7
  6
CONTINUOUS
370
-3
390
F
  0
LAYER
  5
216
100
AcDbSymbolTableRecord
100
AcDbLayerTableRecord
  2
INTF_92073
 70
0
 62
7
  6
CONTINUOUS
370
-3
390
F
  0
LAYER
  5
217
100
AcDbSymbolTableRecord
100
AcDbLayerTableRecord
  2
INTF_BLANK
 70
0
 62
7
  6
CONTINUOUS
370
-3
390
F
  0
LAYER
  5
218
100
AcDbSymbolTableRecord
100
AcDbLayerTableRecord
  2
NONE
 70
0
 62
7
  6
CONTINUOUS
370
-3
390
F
  0
LAYER
  5
219
100
AcDbSymbolTableRecord
100
AcDbLayerTableRecord
  2
PLATED_SURFACE
 70
0
 62
7
  6
CONTINUOUS
370
-3
390
F
  0
LAYER
  5
21A
100
AcDbSymbolTableRecord
100
AcDbLayerTableRecord
  2
_BLACK_HOLE
 70
0
 62
7
  6
CONTINUOUS
370
-3
390
F
  0
ENDTAB
  0
TABLE
  2
STYLE
  5
3
100
AcDbSymbolTable
 70
1
  0
STYLE
  5
11
100
AcDbSymbolTableRecord
100
AcDbTextStyleTableRecord
  2
STANDARD
 70
0
 40
0.0
 41
0.8
 50
0.0
 71
0
 42
0.2
  3
txt
  4

  0
STYLE
  5
21B
100
AcDbSymbolTableRecord
100
AcDbTextStyleTableRecord
  2
TEXTSTYLE_1
 70
0
 40
0.0
 41
0.8
 50
0.0
 71
0
 42
0.2
  3
gdt
  4

  0
ENDTAB
  0
TABLE
  2
VIEW
  5
6
100
AcDbSymbolTable
 70
0
  0
ENDTAB
  0
TABLE
  2
UCS
  5
7
100
AcDbSymbolTable
 70
0
  0
ENDTAB
  0
TABLE
  2
APPID
  5
9
100
AcDbSymbolTable
 70
1
  0
APPID
  5
21C
100
AcDbSymbolTableRecord
100
AcDbRegAppTableRecord
  2
ACAD
 70
0
  0
ENDTAB
  0
TABLE
  2
BLOCK_RECORD
  5
1
100
AcDbSymbolTable
 70
0
  0
BLOCK_RECORD
  5
21D
100
AcDbSymbolTableRecord
100
AcDbBlockTableRecord
  2
*Model_Space
  0
BLOCK_RECORD
  5
21E
100
AcDbSymbolTableRecord
100
AcDbBlockTableRecord
  2
*Paper_Space
  0
BLOCK_RECORD
  5
21F
100
AcDbSymbolTableRecord
100
AcDbBlockTableRecord
  2
_FILLED
  0
ENDTAB
  0
TABLE
  2
DIMSTYLE
  5
A
100
AcDbSymbolTable
 70
1
100
AcDbDimStyleTable
 71
0
  0
DIMSTYLE
105
220
100
AcDbSymbolTableRecord
100
AcDbDimStyleTableRecord
  2
STANDARD
 70
0
  3

  4

 40
1.0
 41
0.1
 42
0.0625
 43
0.38
 44
0.125
 45
0.0
 46
0.0
 47
0.001
 48
0.001
140
0.08
141
0.09
142
0.0
143
25.4
144
1.0
145
0.0
146
1.0
147
0.09
 71
1.0
 72
0.0
 73
1
 74
1
 75
0
 76
0
 77
0
 78
4
 79
1
170
1
171
2
172
0
173
0
174
0
175
0
176
0
177
0
178
0
270
2
179
3
271
3
272
3
273
2
274
2
275
0
280
0
281
0
282
0
283
1
284
4
285
0
286
0
287
3
288
0
340
11
278
46
341
21F
342
21F
343
21F
344
21F
  0
ENDTAB
  0
ENDSEC
  0
SECTION
  2
BLOCKS
  0
BLOCK
  5
20
100
AcDbEntity
  8
0
100
AcDbBlockBegin
  2
*Model_Space
 70
0
 10
0.0
 20
0.0
 30
0.0
  3
*Model_Space
  1

  0
ENDBLK
  5
21
100
AcDbEntity
  8
0
100
AcDbBlockEnd
  0
BLOCK
  5
1C
100
AcDbEntity
  8
0
100
AcDbBlockBegin
  2
*Paper_Space
 70
0
 10
0.0
 20
0.0
 30
0.0
  3
*Paper_Space
  1

  0
ENDBLK
  5
1D
100
AcDbEntity
  8
0
100
AcDbBlockEnd
  0
BLOCK
  5
221
100
AcDbEntity
  8
0
100
AcDbBlockBegin
  2
_FILLED
 70
64
 10
0.0
 20
0.0
  3
_FILLED
  1

  0
SOLID
  5
222
100
AcDbEntity
  8
0
  6
BYBLOCK
 62
0
100
AcDbTrace
 10
0.0
 20
0.0
 11
-1.0
 21
0.2
 12
-1.0
 22
-0.2
 13
-1.0
 23
-0.2
  0
ENDBLK
  5
223
100
AcDbEntity
  8
0
  6
BYBLOCK
 62
0
100
AcDbBlockEnd
  0
ENDSEC
  0
SECTION
  2
ENTITIES
  0
MTEXT
  5
224
100
AcDbEntity
  8
0
100
AcDbMText
 62
7
  6
CONTINUOUS
  7
STANDARD
 71
1
 72
1
 10
0.5250194099
 20
0.2373796584
 30
0.0
 11
1.0
 21
0.0
 31
0.0
 73
2
 44
0.9
  1
SCALE: 3.69
 40
0.08
 41
0.704
  0
LINE
  5
225
100
AcDbEntity
  8
0
100
AcDbLine
 62
7
  6
CONTINUOUS
 10
0.0
 20
0.0
 11
0.0
 21
8.5
  0
LINE
  5
226
100
AcDbEntity
  8
0
100
AcDbLine
 62
7
  6
CONTINUOUS
 10
0.0
 20
0.0
 11
11.0
 21
0.0
  0
LINE
  5
227
100
AcDbEntity
  8
0
100
AcDbLine
 62
7
  6
CONTINUOUS
 10
0.0
 20
8.5
 11
11.0
 21
8.5
  0
LINE
  5
228
100
AcDbEntity
  8
0
100
AcDbLine
 62
7
  6
CONTINUOUS
 10
11.0
 20
0.0
 11
11.0
 21
8.5
  0
LINE
  5
229
100
AcDbEntity
  8
0
100
AcDbLine
 62
7
  6
CONTINUOUS
 10
1.4827282764
 20
1.1481619686
 11
1.6611173347
 21
0.9697729103
  0
LINE
  5
22A
100
AcDbEntity
  8
0
100
AcDbLine
 62
7
  6
CONTINUOUS
 10
1.4827282764
 20
3.4543610082
 11
1.4827282764
 21
1.148212929
  0
LWPOLYLINE
  5
22B
100
AcDbEntity
  8
0
100
AcDbPolyline
 62
7
  6
CONTINUOUS
 90
12
 70
0
 10
1.976638544
 20
7.4644225761
 10
1.9617927588
 20
7.459429701
 10
1.9476563094
 20
7.4529424967
 10
1.934379855
 20
7.4450695918
 10
1.9219331589
 20
7.4357993184
 10
1.9105214707
 20
7.4252660079
 10
1.9003353345
 20
7.4136625285
 10
1.8913691877
 20
7.4009825771
 10
1.883789167
 20
7.3874393187
 10
1.8777022723
 20
7.3732540722
 10
1.8731012169
 20
7.3583965105
 10
1.8700738532
 20
7.3430299057
  0
LINE
  5
22C
100
AcDbEntity
  8
0
100
AcDbLine
 62
7
  6
CONTINUOUS
 10
1.8686896697
 20
7.3273743849
 11
1.8461932764
 21
6.6831619686
  0
LINE
  5
22D
100
AcDbEntity
  8
0
100
AcDbLine
 62
7
  6
CONTINUOUS
 10
1.8700738531
 20
7.3430299046
 11
1.8686898823
 21
7.3273743774
  0
LINE
  5
22E
100
AcDbEntity
  8
0
100
AcDbLine
 62
7
  6
CONTINUOUS
 10
9.7132732764
 20
0.437167287
 11
7.6376482764
 21
0.437167287
  0
LINE
  5
22F
100
AcDbEntity
  8
0
100
AcDbLine
 62
7
  6
CONTINUOUS
 10
3.2926732203
 20
1.2634744686
 11
3.2912475063
 21
1.2646974937
  0
LINE
  5
230
100
AcDbEntity
  8
0
100
AcDbLine
 62
7
  6
CONTINUOUS
 10
3.1081733228
 20
1.2634744686
 11
3.1066681507
 21
1.2648097869
  0
LINE
  5
231
100
AcDbEntity
  8
0
100
AcDbLine
 62
9
  6
CONTINUOUS
 10
2.2592107252
 20
7.3414156506
 11
2.2446226046
 21
6.6831619686
  0
LINE
  5
232
100
AcDbEntity
  8
0
100
AcDbLine
 62
7
  6
CONTINUOUS
 10
3.9660982764
 20
0.6500119686
 11
7.0287982764
 21
0.6500119686
  0
LINE
  5
233
100
AcDbEntity
  8
0
100
AcDbLine
 62
7
  6
CONTINUOUS
 10
7.5682761477
 20
0.7976119686
 11
7.5434657295
 21
0.7976119686
  0
LINE
  5
234
100
AcDbEntity
  8
0
100
AcDbLine
 62
7
  6
CONTINUOUS
 10
7.3632883386
 20
0.7976119686
 11
7.1763982764
 21
0.7976119686
  0
LINE
  5
235
100
AcDbEntity
  8
0
100
AcDbLine
 62
7
  6
CONTINUOUS
 10
3.6616733161
 20
1.2634744686
 11
3.6602643286
 21
1.264668972
  0
LINE
  5
236
100
AcDbEntity
  8
0
100
AcDbLine
 62
7
  6
CONTINUOUS
 10
3.4771733003
 20
1.2634744686
 11
3.4756840772
 21
1.264808856
  0
LINE
  5
237
100
AcDbEntity
  8
0
100
AcDbLine
 62
7
  6
CONTINUOUS
 10
3.2276941354
 20
1.3749378328
 11
3.2914468231
 21
1.2646977674
  0
LINE
  5
238
100
AcDbEntity
  8
0
100
AcDbLine
 62
7
  6
CONTINUOUS
 10
3.0431352078
 20
1.3748645794
 11
3.1067757951
 21
1.2648099424
  0
LINE
  5
239
100
AcDbEntity
  8
0
100
AcDbLine
 62
7
  6
CONTINUOUS
 10
3.412135391
 20
1.3748810467
 11
3.4757871552
 21
1.2648090039
  0
LINE
  5
23A
100
AcDbEntity
  8
0
100
AcDbLine
 62
7
  6
CONTINUOUS
 10
7.4274803704
 20
0.9088913377
 11
7.4791403704
 21
0.9088913377
  0
LINE
  5
23B
100
AcDbEntity
  8
0
100
AcDbLine
 62
7
  6
CONTINUOUS
 10
7.6326649558
 20
0.9091745305
 11
7.6376482764
 21
0.9091745305
  0
LINE
  5
23C
100
AcDbEntity
  8
0
100
AcDbLine
 62
7
  6
CONTINUOUS
 10
7.0287982764
 20
0.9636619686
 11
7.1763982764
 21
0.9636619686
  0
LINE
  5
23D
100
AcDbEntity
  8
0
100
AcDbLine
 62
7
  6
CONTINUOUS
 10
2.8504492181
 20
0.9697729103
 11
1.6611173347
 21
0.9697729103
  0
LINE
  5
23E
100
AcDbEntity
  8
0
100
AcDbLine
 62
7
  6
CONTINUOUS
 10
3.5967165335
 20
1.3746144256
 11
3.6602769866
 21
1.2646689892
  0
LINE
  5
23F
100
AcDbEntity
  8
0
100
AcDbLine
 62
7
  6
CONTINUOUS
 10
3.0288382764
 20
3.4543610082
 11
3.0288382764
 21
1.148212929
  0
LINE
  5
240
100
AcDbEntity
  8
0
100
AcDbLine
 62
7
  6
CONTINUOUS
 10
3.1081733228
 20
1.2634744686
 11
3.1659130772
 21
1.2634744686
  0
LINE
  5
241
100
AcDbEntity
  8
0
100
AcDbLine
 62
7
  6
CONTINUOUS
 10
3.2926732203
 20
1.2634744686
 11
3.3504131584
 21
1.2634744686
  0
LINE
  5
242
100
AcDbEntity
  8
0
100
AcDbLine
 62
7
  6
CONTINUOUS
 10
3.4771733003
 20
1.2634744686
 11
3.5349131776
 21
1.2634744686
  0
LINE
  5
243
100
AcDbEntity
  8
0
100
AcDbLine
 62
7
  6
CONTINUOUS
 10
3.6616733161
 20
1.2634744686
 11
3.9660982764
 21
1.2634744686
  0
LINE
  5
244
100
AcDbEntity
  8
0
100
AcDbLine
 62
7
  6
CONTINUOUS
 10
9.7132732764
 20
1.3692271278
 11
7.6376482764
 21
1.3692271278
  0
LINE
  5
245
100
AcDbEntity
  8
0
100
AcDbLine
 62
7
  6
CONTINUOUS
 10
3.9660982764
 20
1.6173064684
 11
7.0287982764
 21
1.6173064684
  0
LINE
  5
246
100
AcDbEntity
  8
0
100
AcDbLine
 62
7
  6
CONTINUOUS
 10
3.1386175601
 20
3.2277260212
 11
3.0748985853
 21
3.3379184168
  0
LINE
  5
247
100
AcDbEntity
  8
0
100
AcDbLine
 62
7
  6
CONTINUOUS
 10
3.0261184006
 20
3.3394622919
 11
3.0259837793
 21
3.340433407
  0
LINE
  5
248
100
AcDbEntity
  8
0
100
AcDbLine
 62
7
  6
CONTINUOUS
 10
1.4827282764
 20
3.4544119686
 11
1.6611173347
 21
3.6328010269
  0
LINE
  5
249
100
AcDbEntity
  8
0
100
AcDbLine
 62
7
  6
CONTINUOUS
 10
2.8504492181
 20
1.6355299395
 11
1.6611173347
 21
1.6355299395
  0
LINE
  5
24A
100
AcDbEntity
  8
0
100
AcDbLine
 62
7
  6
CONTINUOUS
 10
2.8504492181
 20
3.6328010269
 11
3.0288382764
 21
3.4544119686
  0
LINE
  5
24B
100
AcDbEntity
  8
0
100
AcDbLine
 62
7
  6
CONTINUOUS
 10
3.3231257755
 20
3.2279593442
 11
3.2595715903
 21
3.3378938723
  0
LINE
  5
24C
100
AcDbEntity
  8
0
100
AcDbLine
 62
7
  6
CONTINUOUS
 10
3.5077004489
 20
3.2276769109
 11
3.4440373677
 21
3.3377666567
  0
LINE
  5
24D
100
AcDbEntity
  8
0
100
AcDbLine
 62
7
  6
CONTINUOUS
 10
3.6434208441
 20
4.7512654213
 11
3.6434208441
 21
5.3720705236
  0
LINE
  5
24E
100
AcDbEntity
  8
0
100
AcDbLine
 62
9
  6
CONTINUOUS
 10
3.6681391571
 20
5.3825018748
 11
3.6681391571
 21
4.7408340701
  0
LINE
  5
24F
100
AcDbEntity
  8
0
100
AcDbLine
 62
7
  6
CONTINUOUS
 10
4.3184932764
 20
5.6868619686
 11
3.6677197526
 21
5.3834012907
  0
LINE
  5
250
100
AcDbEntity
  8
0
100
AcDbLine
 62
7
  6
CONTINUOUS
 10
3.2581631071
 20
3.3390994686
 11
3.2595786191
 21
3.3378938818
  0
LINE
  5
251
100
AcDbEntity
  8
0
100
AcDbLine
 62
7
  6
CONTINUOUS
 10
3.4426631942
 20
3.3390994686
 11
3.4441514459
 21
3.3377668203
  0
LINE
  5
252
100
AcDbEntity
  8
0
100
AcDbLine
 62
7
  6
CONTINUOUS
 10
3.8922982764
 20
4.6352119686
 11
3.8922982764
 21
4.5429619686
  0
LINE
  5
253
100
AcDbEntity
  8
0
100
AcDbLine
 62
7
  6
CONTINUOUS
 10
3.9660982764
 20
3.9525619686
 11
3.9660982764
 21
0.6500119686
  0
LINE
  5
254
100
AcDbEntity
  8
0
100
AcDbLine
 62
7
  6
CONTINUOUS
 10
3.9697882764
 20
4.4322619686
 11
3.9697882764
 21
4.4587441477
  0
LINE
  5
255
100
AcDbEntity
  8
0
100
AcDbLine
 62
7
  6
CONTINUOUS
 10
4.1321482764
 20
3.9525619686
 11
4.1321482764
 21
4.4322619686
  0
LINE
  5
256
100
AcDbEntity
  8
0
100
AcDbLine
 62
7
  6
CONTINUOUS
 10
3.1990088814
 20
3.3377661378
 11
3.1369981426
 21
3.2305261707
  0
LINE
  5
257
100
AcDbEntity
  8
0
100
AcDbLine
 62
7
  6
CONTINUOUS
 10
3.3835557562
 20
3.3379243583
 11
3.321554516
 21
3.2306769055
  0
LINE
  5
258
100
AcDbEntity
  8
0
100
AcDbLine
 62
7
  6
CONTINUOUS
 10
4.3184932764
 20
5.6868619686
 11
4.3184932764
 21
5.7791119686
  0
LINE
  5
259
100
AcDbEntity
  8
0
100
AcDbLine
 62
9
  6
CONTINUOUS
 10
4.4936778732
 20
4.7408340701
 11
4.4936778732
 21
5.3825018748
  0
LINE
  5
25A
100
AcDbEntity
  8
0
100
AcDbLine
 62
7
  6
CONTINUOUS
 10
3.568199137
 20
3.3378952785
 11
3.506080778
 21
3.2304773495
  0
LINE
  5
25B
100
AcDbEntity
  8
0
100
AcDbLine
 62
7
  6
CONTINUOUS
 10
3.9697882764
 20
4.4587214343
 11
3.971644376
 21
4.4608461591
  0
LINE
  5
25C
100
AcDbEntity
  8
0
100
AcDbLine
 62
7
  6
CONTINUOUS
 10
1.6611173347
 20
2.9670439978
 11
2.8504492181
 21
2.9670439978
  0
LINE
  5
25D
100
AcDbEntity
  8
0
100
AcDbLine
 62
7
  6
CONTINUOUS
 10
3.9660982764
 20
2.9852674688
 11
7.0287982764
 21
2.9852674688
  0
LINE
  5
25E
100
AcDbEntity
  8
0
100
AcDbLine
 62
7
  6
CONTINUOUS
 10
7.5433304427
 20
0.7976119686
 11
7.5420453991
 21
0.7987761428
  0
LINE
  5
25F
100
AcDbEntity
  8
0
100
AcDbLine
 62
9
  6
CONTINUOUS
 10
4.6534595602
 20
5.3825018748
 11
4.6534595602
 21
4.7408340701
  0
LINE
  5
260
100
AcDbEntity
  8
0
100
AcDbLine
 62
7
  6
CONTINUOUS
 10
4.7871232764
 20
6.6831619686
 11
4.7871232764
 21
5.7791119686
  0
LINE
  5
261
100
AcDbEntity
  8
0
100
AcDbLine
 62
7
  6
CONTINUOUS
 10
3.0288382764
 20
1.3445578725
 11
3.0447504377
 21
1.3720717157
  0
LINE
  5
262
100
AcDbEntity
  8
0
100
AcDbLine
 62
7
  6
CONTINUOUS
 10
3.2004232459
 20
3.3390994686
 11
3.1989346739
 21
3.3377662442
  0
LINE
  5
263
100
AcDbEntity
  8
0
100
AcDbLine
 62
7
  6
CONTINUOUS
 10
3.3849232504
 20
3.3390994686
 11
3.383525772
 21
3.3379243987
  0
LINE
  5
264
100
AcDbEntity
  8
0
100
AcDbLine
 62
7
  6
CONTINUOUS
 10
4.113579929
 20
4.5429619686
 11
3.9716442995
 21
4.4609005139
  0
LINE
  5
265
100
AcDbEntity
  8
0
100
AcDbLine
 62
7
  6
CONTINUOUS
 10
9.7132732764
 20
3.2333468095
 11
7.6376482764
 21
3.2333468095
  0
LINE
  5
266
100
AcDbEntity
  8
0
100
AcDbLine
 62
7
  6
CONTINUOUS
 10
7.0287982764
 20
3.2896924688
 11
3.9660982764
 21
3.2896924688
  0
LINE
  5
267
100
AcDbEntity
  8
0
100
AcDbLine
 62
7
  6
CONTINUOUS
 10
3.9660982764
 20
3.3390994686
 11
3.5694233342
 21
3.3390994686
  0
LINE
  5
268
100
AcDbEntity
  8
0
100
AcDbLine
 62
7
  6
CONTINUOUS
 10
3.4426631942
 20
3.3390994686
 11
3.3849232504
 21
3.3390994686
  0
LINE
  5
269
100
AcDbEntity
  8
0
100
AcDbLine
 62
7
  6
CONTINUOUS
 10
3.2581631071
 20
3.3390994686
 11
3.2004232459
 21
3.3390994686
  0
LINE
  5
26A
100
AcDbEntity
  8
0
100
AcDbLine
 62
7
  6
CONTINUOUS
 10
3.0288382764
 20
3.3390994686
 11
3.0735396994
 21
3.3390994686
  0
LINE
  5
26B
100
AcDbEntity
  8
0
100
AcDbLine
 62
7
  6
CONTINUOUS
 10
3.5362940679
 20
1.2646577529
 11
3.59828892
 21
1.3718949089
  0
LINE
  5
26C
100
AcDbEntity
  8
0
100
AcDbLine
 62
7
  6
CONTINUOUS
 10
3.1672576118
 20
1.2647994052
 11
3.2293226163
 21
1.3721222792
  0
LINE
  5
26D
100
AcDbEntity
  8
0
100
AcDbLine
 62
7
  6
CONTINUOUS
 10
3.3516384238
 20
1.2646712618
 11
3.4137529265
 21
1.3720842463
  0
LINE
  5
26E
100
AcDbEntity
  8
0
100
AcDbLine
 62
7
  6
CONTINUOUS
 10
3.5694233342
 20
3.3390994686
 11
3.5680087954
 21
3.3378955379
  0
LINE
  5
26F
100
AcDbEntity
  8
0
100
AcDbLine
 62
7
  6
CONTINUOUS
 10
2.8504492181
 20
3.6328010269
 11
1.6611173347
 21
3.6328010269
  0
LINE
  5
270
100
AcDbEntity
  8
0
100
AcDbLine
 62
7
  6
CONTINUOUS
 10
7.1763982764
 20
3.6389119686
 11
7.0287982764
 21
3.6389119686
  0
LINE
  5
271
100
AcDbEntity
  8
0
100
AcDbLine
 62
7
  6
CONTINUOUS
 10
7.5817252967
 20
3.6935283122
 11
7.5300652967
 21
3.6935283122
  0
LINE
  5
272
100
AcDbEntity
  8
0
100
AcDbLine
 62
7
  6
CONTINUOUS
 10
7.3765718545
 20
3.6938108785
 11
7.3249118545
 21
3.6938108785
  0
LINE
  5
273
100
AcDbEntity
  8
0
100
AcDbLine
 62
7
  6
CONTINUOUS
 10
7.40153679
 20
3.7381415421
 11
7.2999508841
 21
3.7381415421
  0
LINE
  5
274
100
AcDbEntity
  8
0
100
AcDbLine
 62
7
  6
CONTINUOUS
 10
7.4657743607
 20
3.8049619686
 11
7.4408025595
 21
3.8049619686
  0
LINE
  5
275
100
AcDbEntity
  8
0
100
AcDbLine
 62
7
  6
CONTINUOUS
 10
7.2607864786
 20
3.8049619686
 11
7.1763982764
 21
3.8049619686
  0
LINE
  5
276
100
AcDbEntity
  8
0
100
AcDbLine
 62
7
  6
CONTINUOUS
 10
5.4208807764
 20
7.9031067545
 11
5.4208807764
 21
7.8552935055
  0
LINE
  5
277
100
AcDbEntity
  8
0
100
AcDbLine
 62
7
  6
CONTINUOUS
 10
5.5371157764
 20
7.8552935055
 11
5.5371157764
 21
7.9031067545
  0
LINE
  5
278
100
AcDbEntity
  8
0
100
AcDbLine
 62
7
  6
CONTINUOUS
 10
7.0287982764
 20
3.9525619686
 11
3.9660982764
 21
3.9525619686
  0
LINE
  5
279
100
AcDbEntity
  8
0
100
AcDbLine
 62
7
  6
CONTINUOUS
 10
9.7132732764
 20
4.1654066503
 11
7.6376482764
 21
4.1654066503
  0
LINE
  5
27A
100
AcDbEntity
  8
0
100
AcDbLine
 62
7
  6
CONTINUOUS
 10
3.8922982764
 20
4.6352119686
 11
3.6434208441
 21
4.7512654213
  0
LINE
  5
27B
100
AcDbEntity
  8
0
100
AcDbLine
 62
7
  6
CONTINUOUS
 10
7.4778247147
 20
0.9100281492
 11
7.542114384
 21
0.7987762018
  0
LINE
  5
27C
100
AcDbEntity
  8
0
100
AcDbLine
 62
7
  6
CONTINUOUS
 10
2.8504492181
 20
0.9697729103
 11
3.0288382764
 21
1.1481619686
  0
LINE
  5
27D
100
AcDbEntity
  8
0
100
AcDbLine
 62
7
  6
CONTINUOUS
 10
6.8584203081
 20
4.4322619686
 11
6.9864383815
 21
4.5062683213
  0
LINE
  5
27E
100
AcDbEntity
  8
0
100
AcDbLine
 62
7
  6
CONTINUOUS
 10
7.2902768002
 20
4.7399346542
 11
7.0656982764
 21
4.6352119686
  0
LINE
  5
27F
100
AcDbEntity
  8
0
100
AcDbLine
 62
7
  6
CONTINUOUS
 10
6.858411083
 20
4.4322619686
 11
3.9698156103
 21
4.4322619686
  0
LINE
  5
280
100
AcDbEntity
  8
0
100
AcDbLine
 62
7
  6
CONTINUOUS
 10
7.0656259668
 20
4.5429619686
 11
3.892370586
 21
4.5429619686
  0
LINE
  5
281
100
AcDbEntity
  8
0
100
AcDbLine
 62
7
  6
CONTINUOUS
 10
6.1708732764
 20
6.6831619686
 11
6.1708732764
 21
5.7791119686
  0
LINE
  5
282
100
AcDbEntity
  8
0
100
AcDbLine
 62
9
  6
CONTINUOUS
 10
6.3045369926
 20
4.7408340701
 11
6.3045369926
 21
5.3825018748
  0
LINE
  5
283
100
AcDbEntity
  8
0
100
AcDbLine
 62
7
  6
CONTINUOUS
 10
3.1659130772
 20
1.2634744686
 11
3.167396904
 21
1.2647992062
  0
LINE
  5
284
100
AcDbEntity
  8
0
100
AcDbLine
 62
7
  6
CONTINUOUS
 10
3.3504131584
 20
1.2634744686
 11
3.3518233495
 21
1.2646710106
  0
LINE
  5
285
100
AcDbEntity
  8
0
100
AcDbLine
 62
7
  6
CONTINUOUS
 10
7.0656982764
 20
4.6352119686
 11
3.8922982764
 21
4.6352119686
  0
LINE
  5
286
100
AcDbEntity
  8
0
100
AcDbLine
 62
7
  6
CONTINUOUS
 10
7.2608369211
 20
3.8049619686
 11
7.261998472
 21
3.8040107193
  0
LINE
  5
287
100
AcDbEntity
  8
0
100
AcDbLine
 62
9
  6
CONTINUOUS
 10
6.4643186796
 20
5.3825018748
 11
6.4643186796
 21
4.7408340701
  0
LINE
  5
288
100
AcDbEntity
  8
0
100
AcDbLine
 62
7
  6
CONTINUOUS
 10
6.6395032764
 20
5.7791119686
 11
6.6395032764
 21
5.6868619686
  0
LINE
  5
289
100
AcDbEntity
  8
0
100
AcDbLine
 62
7
  6
CONTINUOUS
 10
6.9882082764
 20
4.508308968
 11
6.9864383831
 21
4.5062671136
  0
LINE
  5
28A
100
AcDbEntity
  8
0
100
AcDbLine
 62
7
  6
CONTINUOUS
 10
3.5349131776
 20
1.2634744686
 11
3.5363155142
 21
1.2646577239
  0
LINE
  5
28B
100
AcDbEntity
  8
0
100
AcDbLine
 62
7
  6
CONTINUOUS
 10
7.4660008381
 20
3.8049619686
 11
7.4671750536
 21
3.8039900022
  0
LINE
  5
28C
100
AcDbEntity
  8
0
100
AcDbLine
 62
7
  6
CONTINUOUS
 10
6.8258482764
 20
4.4322619686
 11
6.8258482764
 21
3.9525619686
  0
LINE
  5
28D
100
AcDbEntity
  8
0
100
AcDbLine
 62
7
  6
CONTINUOUS
 10
6.9882082764
 20
4.5083175384
 11
6.9882082764
 21
4.5429619686
  0
LINE
  5
28E
100
AcDbEntity
  8
0
100
AcDbLine
 62
7
  6
CONTINUOUS
 10
7.0287982764
 20
0.6500119686
 11
7.0287982764
 21
3.9525619686
  0
LINE
  5
28F
100
AcDbEntity
  8
0
100
AcDbLine
 62
7
  6
CONTINUOUS
 10
7.0656982764
 20
4.6352119686
 11
7.0656982764
 21
4.5429619686
  0
LINE
  5
290
100
AcDbEntity
  8
0
100
AcDbLine
 62
7
  6
CONTINUOUS
 10
4.3184932764
 20
5.6868619686
 11
6.6395032764
 21
5.6868619686
  0
LINE
  5
291
100
AcDbEntity
  8
0
100
AcDbLine
 62
7
  6
CONTINUOUS
 10
7.3262242078
 20
3.6926734839
 11
7.2618912306
 21
3.8040106365
  0
LINE
  5
292
100
AcDbEntity
  8
0
100
AcDbLine
 62
7
  6
CONTINUOUS
 10
7.5314022941
 20
3.6923705871
 11
7.4668923792
 21
3.8039897815
  0
LINE
  5
293
100
AcDbEntity
  8
0
100
AcDbLine
 62
7
  6
CONTINUOUS
 10
7.1763982764
 20
3.8048921291
 11
7.1763982764
 21
0.7976818081
  0
LINE
  5
294
100
AcDbEntity
  8
0
100
AcDbLine
 62
9
  6
CONTINUOUS
 10
7.2898573957
 20
4.7408340701
 11
7.2898573957
 21
5.3825018748
  0
LINE
  5
295
100
AcDbEntity
  8
0
100
AcDbLine
 62
7
  6
CONTINUOUS
 10
7.3145757087
 20
4.7512654213
 11
7.3145757087
 21
5.3720705236
  0
LINE
  5
296
100
AcDbEntity
  8
0
100
AcDbLine
 62
7
  6
CONTINUOUS
 10
7.4395033471
 20
3.8038500869
 11
7.3760839028
 21
3.694092839
  0
LINE
  5
297
100
AcDbEntity
  8
0
100
AcDbLine
 62
7
  6
CONTINUOUS
 10
6.6395032764
 20
5.7791119686
 11
4.3184932764
 21
5.7791119686
  0
LINE
  5
298
100
AcDbEntity
  8
0
100
AcDbLine
 62
7
  6
CONTINUOUS
 10
7.3145757087
 20
5.3720705236
 11
6.6395032764
 21
5.6868619686
  0
LINE
  5
299
100
AcDbEntity
  8
0
100
AcDbLine
 62
7
  6
CONTINUOUS
 10
7.6376482764
 20
0.437167287
 11
7.6376482764
 21
4.1654066503
  0
LINE
  5
29A
100
AcDbEntity
  8
0
100
AcDbLine
 62
7
  6
CONTINUOUS
 10
7.6376482764
 20
3.7914409909
 11
7.5812265896
 21
3.6938165516
  0
LINE
  5
29B
100
AcDbEntity
  8
0
100
AcDbLine
 62
7
  6
CONTINUOUS
 10
9.1118032763
 20
6.6831619686
 11
1.8461932765
 21
6.6831619686
  0
LINE
  5
29C
100
AcDbEntity
  8
0
100
AcDbLine
 62
9
  6
CONTINUOUS
 10
8.6987950525
 20
7.3414151804
 11
8.7133739482
 21
6.6831619686
  0
LINE
  5
29D
100
AcDbEntity
  8
0
100
AcDbLine
 62
7
  6
CONTINUOUS
 10
7.3643855339
 20
0.7985619807
 11
7.4279767326
 21
0.9086044853
  0
LINE
  5
29E
100
AcDbEntity
  8
0
100
AcDbLine
 62
7
  6
CONTINUOUS
 10
9.0893066709
 20
7.3273743776
 11
9.0879226975
 21
7.3430299238
  0
LINE
  5
29F
100
AcDbEntity
  8
0
100
AcDbLine
 62
7
  6
CONTINUOUS
 10
9.0893068825
 20
7.3273744013
 11
9.1118032764
 21
6.6831619686
  0
LINE
  5
2A0
100
AcDbEntity
  8
0
100
AcDbLine
 62
7
  6
CONTINUOUS
 10
7.5694395945
 20
0.7986264044
 11
7.6331683998
 21
0.9088835232
  0
LINE
  5
2A1
100
AcDbEntity
  8
0
100
AcDbLine
 62
7
  6
CONTINUOUS
 10
7.3634188833
 20
0.7976119686
 11
7.3645796248
 21
0.7985618309
  0
LINE
  5
2A2
100
AcDbEntity
  8
0
100
AcDbLine
 62
7
  6
CONTINUOUS
 10
6.0855736238
 20
7.7623287359
 11
6.0878482764
 21
7.7625152662
  0
LINE
  5
2A3
100
AcDbEntity
  8
0
100
AcDbLine
 62
7
  6
CONTINUOUS
 10
6.0514653138
 20
7.7601267172
 11
6.0878482764
 21
7.7625152662
  0
LINE
  5
2A4
100
AcDbEntity
  8
0
100
AcDbLine
 62
9
  6
CONTINUOUS
 10
6.0363384334
 20
7.7883989403
 11
4.9216581194
 21
7.7883989403
  0
LINE
  5
2A5
100
AcDbEntity
  8
0
100
AcDbLine
 62
7
  6
CONTINUOUS
 10
4.8701482764
 20
7.7625155567
 11
4.9065924865
 21
7.7601228028
  0
LINE
  5
2A6
100
AcDbEntity
  8
0
100
AcDbLine
 62
7
  6
CONTINUOUS
 10
4.8701482764
 20
7.7625155567
 11
4.8724293461
 21
7.7623278774
  0
LINE
  5
2A7
100
AcDbEntity
  8
0
100
AcDbLine
 62
7
  6
CONTINUOUS
 10
9.7132732764
 20
0.437167287
 11
9.7132732764
 21
4.1654066503
  0
LINE
  5
2A8
100
AcDbEntity
  8
0
100
AcDbLine
 62
7
  6
CONTINUOUS
 10
7.5685828003
 20
0.7976119686
 11
7.5697822715
 21
0.7986261311
  0
LINE
  5
2A9
100
AcDbEntity
  8
0
100
AcDbLine
 62
7
  6
CONTINUOUS
 10
1.9906583987
 20
7.4675965034
 11
1.9766573987
 21
7.4644268445
  0
LINE
  5
2AA
100
AcDbEntity
  8
0
100
AcDbLine
 62
7
  6
CONTINUOUS
 10
8.9813579883
 20
7.464422582
 11
8.9673381545
 21
7.4675965035
  0
LWPOLYLINE
  5
2AB
100
AcDbEntity
  8
0
100
AcDbPolyline
 62
7
  6
CONTINUOUS
 90
12
 70
0
 10
9.0879226972
 20
7.343029926
 10
9.0848953293
 20
7.3583965386
 10
9.0802942686
 20
7.3732541056
 10
9.0742073684
 20
7.3874393549
 10
9.0666273423
 20
7.4009826141
 10
9.0576611907
 20
7.4136625642
 10
9.0474750508
 20
7.4252660405
 10
9.0360633605
 20
7.4357993466
 10
9.0236166638
 20
7.4450696148
 10
9.0103402109
 20
7.452942514
 10
8.996203766
 20
7.4594297124
 10
8.9813579883
 20
7.464422582
  0
ARC
  5
2AC
100
AcDbEntity
  8
0
100
AcDbCircle
 62
7
  6
CONTINUOUS
 10
5.4789982764
 20
-12.3867580314
 40
20.15847
100
AcDbArc
 50
91.7307782453
 51
99.9649597578
  0
ARC
  5
2AD
100
AcDbEntity
  8
0
100
AcDbCircle
 62
7
  6
CONTINUOUS
 10
5.4789982764
 20
-12.3867580314
 40
20.15847
100
AcDbArc
 50
80.0350402419
 51
88.2692217547
  0
ARC
  5
2AE
100
AcDbEntity
  8
0
100
AcDbCircle
 62
7
  6
CONTINUOUS
 10
1.3113180243
 20
-0.8094285333
 40
6.0299270989
100
AcDbArc
 50
66.9923517189
 51
67.2472807465
  0
ARC
  5
2AF
100
AcDbEntity
  8
0
100
AcDbCircle
 62
7
  6
CONTINUOUS
 10
2.7348948697
 20
1.3029631235
 40
0.293943572
100
AcDbArc
 50
349.796834236
 51
359.9392433855
  0
ARC
  5
2B0
100
AcDbEntity
  8
0
100
AcDbCircle
 62
7
  6
CONTINUOUS
 10
5.4789982516
 20
16.7241271383
 40
8.9822528926
100
AcDbArc
 50
266.3462794991
 51
273.654112298
  0
ARC
  5
2B1
100
AcDbEntity
  8
0
100
AcDbCircle
 62
7
  6
CONTINUOUS
 10
1.2826459348
 20
11.0007063652
 40
6.1036709945
100
AcDbArc
 50
292.7542592684
 51
293.0061082659
  0
ARC
  5
2B2
100
AcDbEntity
  8
0
100
AcDbCircle
 62
7
  6
CONTINUOUS
 10
5.4789982764
 20
6.2951131084
 40
1.5612624749
100
AcDbArc
 50
87.866689923
 51
92.133310077
  0
ARC
  5
2B3
100
AcDbEntity
  8
0
100
AcDbCircle
 62
7
  6
CONTINUOUS
 10
5.4789982764
 20
6.6903293152
 40
1.2314158324
100
AcDbArc
 50
63.0893094774
 51
71.2473120572
  0
ARC
  5
2B4
100
AcDbEntity
  8
0
100
AcDbCircle
 62
7
  6
CONTINUOUS
 10
5.4789982764
 20
6.6903293152
 40
1.2314158324
100
AcDbArc
 50
108.7526879428
 51
116.9106905226
  0
ARC
  5
2B5
100
AcDbEntity
  8
0
100
AcDbCircle
 62
7
  6
CONTINUOUS
 10
5.4789982764
 20
6.6903293152
 40
1.2300436205
100
AcDbArc
 50
71.2788334834
 51
80.3886398641
  0
ARC
  5
2B6
100
AcDbEntity
  8
0
100
AcDbCircle
 62
7
  6
CONTINUOUS
 10
5.4789982764
 20
6.6903293152
 40
1.2300436205
100
AcDbArc
 50
99.6113601359
 51
108.7211665166
  0
ARC
  5
2B7
100
AcDbEntity
  8
0
100
AcDbCircle
 62
7
  6
CONTINUOUS
 10
2.7253778551
 20
3.2982520041
 40
0.3035509717
100
AcDbArc
 50
7.9876627765
 51
10.141045453
  0
ARC
  5
2B8
100
AcDbEntity
  8
0
100
AcDbCircle
 62
7
  6
CONTINUOUS
 10
2.7376336462
 20
3.2997544666
 40
0.2912046787
100
AcDbArc
 50
0.0330637284
 51
7.8371016914
  0
ARC
  5
2B9
100
AcDbEntity
  8
0
100
AcDbCircle
 62
7
  6
CONTINUOUS
 10
4.9413652764
 20
7.7495719686
 40
0.043542
100
AcDbArc
 50
116.9106905226
 51
165.3241051348
  0
ARC
  5
2BA
100
AcDbEntity
  8
0
100
AcDbCircle
 62
7
  6
CONTINUOUS
 10
9.6636488789
 20
-0.8496417737
 40
6.0735744143
100
AcDbArc
 50
112.7536352698
 51
113.0067322648
  0
ARC
  5
2BB
100
AcDbEntity
  8
0
100
AcDbCircle
 62
7
  6
CONTINUOUS
 10
9.6777355451
 20
11.0063577302
 40
6.1098049673
100
AcDbArc
 50
246.9940181569
 51
247.2456143088
  0
ARC
  5
2BC
100
AcDbEntity
  8
0
100
AcDbCircle
 62
7
  6
CONTINUOUS
 10
6.0166312764
 20
7.7495719686
 40
0.043542
100
AcDbArc
 50
14.6998229438
 51
63.0893094774
  0
SPLINE
  5
2BD
100
AcDbEntity
  8
0
100
AcDbSpline
 62
7
  6
CONTINUOUS
 70
0
 71
3
 72
12
 73
8
 74
0
 42
0.0000001
 43
0.0000001
 44
0.0000000001
 40
0.0
 40
0.0
 40
0.0
 40
0.0
 40
0.0908235985
 40
0.185872615
 40
0.4019801366
 40
0.6697347775
 40
1.0
 40
1.0
 40
1.0
 40
1.0
 10
3.0735389294
 20
3.3390989242
 30
0.0
 10
3.0735957484
 20
3.3390990213
 30
0.0
 10
3.0737124103
 20
3.3390862013
 30
0.0
 10
3.073952521
 20
3.3390062399
 30
0.0
 10
3.074255225
 20
3.3387957586
 30
0.0
 10
3.0745936996
 20
3.338412051
 30
0.0
 10
3.0747966314
 20
3.3380963115
 30
0.0
 10
3.0749001086
 20
3.3379174776
 30
0.0
  0
SPLINE
  5
2BE
100
AcDbEntity
  8
0
100
AcDbSpline
 62
7
  6
CONTINUOUS
 70
0
 71
3
 72
12
 73
8
 74
0
 42
0.0000001
 43
0.0000001
 44
0.0000000001
 40
0.0
 40
0.0
 40
0.0
 40
0.0
 40
0.0903395956
 40
0.1849604087
 40
0.400592753
 40
0.6685960674
 40
1.0
 40
1.0
 40
1.0
 40
1.0
 10
7.4407568737
 20
3.8049621137
 30
0.0
 10
7.4407042702
 20
3.8049621648
 30
0.0
 10
7.4405962175
 20
3.8049500301
 30
0.0
 10
7.4403738678
 20
3.8048746482
 30
0.0
 10
7.440094037
 20
3.8046765105
 30
0.0
 10
7.4397820426
 20
3.804316013
 30
0.0
 10
7.4395955208
 20
3.8040196672
 30
0.0
 10
7.4395004391
 20
3.8038517455
 30
0.0
  0
SPLINE
  5
2BF
100
AcDbEntity
  8
0
100
AcDbSpline
 62
7
  6
CONTINUOUS
 70
0
 71
3
 72
50
 73
46
 74
0
 42
0.0000001
 43
0.0000001
 44
0.0000000001
 40
0.0
 40
0.0
 40
0.0
 40
0.0
 40
0.0006869073
 40
0.0015232384
 40
0.0025132758
 40
0.0036594972
 40
0.0049634172
 40
0.0064259956
 40
0.0080478521
 40
0.0098293869
 40
0.0138720426
 40
0.0185525405
 40
0.0238672439
 40
0.0298118768
 40
0.0363817814
 40
0.0435720589
 40
0.0513776496
 40
0.0597923793
 40
0.0784133446
 40
0.0993609614
 40
0.1225605726
 40
0.1479290536
 40
0.1753669006
 40
0.2047726585
 40
0.2360417902
 40
0.2690546459
 40
0.3036867577
 40
0.3215711018
 40
0.339812857
 40
0.3772976395
 40
0.4159982645
 40
0.4557716802
 40
0.4964710592
 40
0.5379428956
 40
0.5800330022
 40
0.6225859747
 40
0.6654409788
 40
0.7084356532
 40
0.7299346366
 40
0.7514080923
 40
0.79420202
 40
0.8366650035
 40
0.878644523
 40
0.9199785592
 40
1.0
 40
1.0
 40
1.0
 40
1.0
 10
3.9716489393
 20
4.4608710911
 30
0.0
 10
3.9720750908
 20
4.4611154146
 30
0.0
 10
3.9730584691
 20
4.4615898921
 30
0.0
 10
3.9747375065
 20
4.462233932
 30
0.0
 10
3.9767645641
 20
4.462877498
 30
0.0
 10
3.9791399334
 20
4.4635197927
 30
0.0
 10
3.9818641615
 20
4.4641601681
 30
0.0
 10
3.9849371505
 20
4.4647980084
 30
0.0
 10
3.9883587297
 20
4.4654328455
 30
0.0
 10
3.9936106843
 20
4.4663121136
 30
0.0
 10
4.0010468946
 20
4.4673837444
 30
0.0
 10
4.0110106189
 20
4.4686124277
 30
0.0
 10
4.02234399
 20
4.469836301
 30
0.0
 10
4.0350353602
 20
4.4710604569
 30
0.0
 10
4.0490730956
 20
4.4722899683
 30
0.0
 10
4.0644453907
 20
4.4735301145
 30
0.0
 10
4.0811396556
 20
4.4747866049
 30
0.0
 10
4.1059930331
 20
4.4765493526
 30
0.0
 10
4.1402351423
 20
4.4787726915
 30
0.0
 10
4.185045443
 20
4.4813975954
 30
0.0
 10
4.23468807
 20
4.4840305114
 30
0.0
 10
4.2889787819
 20
4.4866455279
 30
0.0
 10
4.3477137305
 20
4.4892296649
 30
0.0
 10
4.4106740469
 20
4.4917673233
 30
0.0
 10
4.4776265459
 20
4.4942415794
 30
0.0
 10
4.5483196163
 20
4.4966946948
 30
0.0
 10
4.6094494152
 20
4.4987352717
 30
0.0
 10
4.6600226011
 20
4.5004040099
 30
0.0
 10
4.7126349021
 20
4.5021333979
 30
0.0
 10
4.7801260426
 20
4.5043302989
 30
0.0
 10
4.8630085094
 20
4.5069747333
 30
0.0
 10
4.9481910054
 20
4.5096172807
 30
0.0
 10
5.0353570291
 20
4.5122318972
 30
0.0
 10
5.124181532
 20
4.5148111079
 30
0.0
 10
5.2143334306
 20
4.5173445119
 30
0.0
 10
5.3054764002
 20
4.5198211988
 30
0.0
 10
5.397266915
 20
4.5222814673
 30
0.0
 10
5.4740063115
 20
4.5243521222
 30
0.0
 10
5.5354599321
 20
4.5260446487
 30
0.0
 10
5.596769257
 20
4.527761723
 30
0.0
 10
5.6730632639
 20
4.5299427221
 30
0.0
 10
5.7640141431
 20
4.5325933545
 30
0.0
 10
5.8539206278
 20
4.5352421003
 30
0.0
 10
5.9706738738
 20
4.5386968874
 30
0.0
 10
6.0574195682
 20
4.5412716407
 30
0.0
 10
6.1146196418
 20
4.5429619686
 30
0.0
  0
SPLINE
  5
2C0
100
AcDbEntity
  8
0
100
AcDbSpline
 62
7
  6
CONTINUOUS
 70
0
 71
3
 72
48
 73
44
 74
0
 42
0.0000001
 43
0.0000001
 44
0.0000000001
 40
0.0
 40
0.0
 40
0.0
 40
0.0
 40
0.0978488393
 40
0.1948713655
 40
0.2427272905
 40
0.2899839904
 40
0.3822721575
 40
0.4708827107
 40
0.5549755085
 40
0.6337227856
 40
0.6708532062
 40
0.7063706328
 40
0.7401871871
 40
0.7722185889
 40
0.8023922661
 40
0.8306380664
 40
0.8568858898
 40
0.8810677591
 40
0.903129359
 40
0.9230220291
 40
0.9406973542
 40
0.9561081551
 40
0.9629532165
 40
0.9692207649
 40
0.9749080224
 40
0.9800123506
 40
0.9845313249
 40
0.9884628651
 40
0.990207884
 40
0.991805565
 40
0.9932559082
 40
0.9945592104
 40
0.9957161421
 40
0.9967276986
 40
0.9975954014
 40
0.9983217069
 40
0.9989108804
 40
0.999156535
 40
0.9993715779
 40
0.9995585517
 40
0.9997213234
 40
0.9998657229
 40
1.0
 40
1.0
 40
1.0
 40
1.0
 10
7.492039379
 20
2.3012869686
 30
0.0
 10
7.4910125513
 20
2.3503863668
 30
0.0
 10
7.4889037358
 20
2.448169195
 30
0.0
 10
7.4861863052
 20
2.5699632197
 30
0.0
 10
7.4840243141
 20
2.666371224
 30
0.0
 10
7.4819037075
 20
2.7604033926
 30
0.0
 10
7.4792802526
 20
2.8748840903
 30
0.0
 10
7.4760989139
 20
3.0078447745
 30
0.0
 10
7.4729103155
 20
3.1340070897
 30
0.0
 10
7.4702066243
 20
3.2343355244
 30
0.0
 10
7.4680312545
 20
3.3102893018
 30
0.0
 10
7.4664325064
 20
3.3636996639
 30
0.0
 10
7.4648341933
 20
3.4145496533
 30
0.0
 10
7.463235784
 20
3.4627162306
 30
0.0
 10
7.461637831
 20
3.5080852477
 30
0.0
 10
7.4600406658
 20
3.5505496164
 30
0.0
 10
7.458444656
 20
3.5900044823
 30
0.0
 10
7.4568497636
 20
3.626352828
 30
0.0
 10
7.4552564394
 20
3.6595082738
 30
0.0
 10
7.4536652945
 20
3.6893940962
 30
0.0
 10
7.4520767903
 20
3.7159367685
 30
0.0
 10
7.4507074145
 20
3.7359317202
 30
0.0
 10
7.4495975589
 20
3.7502045726
 30
0.0
 10
7.44879906
 20
3.7596064369
 30
0.0
 10
7.4480014954
 20
3.7681312766
 30
0.0
 10
7.4472052363
 20
3.7757744363
 30
0.0
 10
7.4464106298
 20
3.7825312407
 30
0.0
 10
7.4457262085
 20
3.7876027886
 30
0.0
 10
7.4451722109
 20
3.7912115351
 30
0.0
 10
7.4447738306
 20
3.7935840328
 30
0.0
 10
7.4443759574
 20
3.7957315336
 30
0.0
 10
7.443978632
 20
3.7976537779
 30
0.0
 10
7.4435819765
 20
3.7993507746
 30
0.0
 10
7.4431861148
 20
3.8008226545
 30
0.0
 10
7.4427913162
 20
3.8020700441
 30
0.0
 10
7.4423976528
 20
3.8030933381
 30
0.0
 10
7.4420529464
 20
3.8037992163
 30
0.0
 10
7.4417703788
 20
3.8042446437
 30
0.0
 10
7.4415711372
 20
3.804502251
 30
0.0
 10
7.4413711671
 20
3.8047044322
 30
0.0
 10
7.4411694025
 20
3.8048511298
 30
0.0
 10
7.4409647706
 20
3.8049412634
 30
0.0
 10
7.4408242671
 20
3.8049620483
 30
0.0
 10
7.4407568737
 20
3.8049621137
 30
0.0
  0
SPLINE
  5
2C1
100
AcDbEntity
  8
0
100
AcDbSpline
 62
7
  6
CONTINUOUS
 70
0
 71
3
 72
43
 73
39
 74
0
 42
0.0000001
 43
0.0000001
 44
0.0000000001
 40
0.0
 40
0.0
 40
0.0
 40
0.0
 40
0.0006883142
 40
0.0015160535
 40
0.0024871139
 40
0.0036037681
 40
0.0048673948
 40
0.0062788454
 40
0.0078386417
 40
0.0095470899
 40
0.0134104038
 40
0.017869089
 40
0.0229223683
 40
0.0285676362
 40
0.0348003859
 40
0.0416158325
 40
0.0490090705
 40
0.0569751107
 40
0.0746048149
 40
0.0944532453
 40
0.1164581689
 40
0.1405564212
 40
0.1666771647
 40
0.1947378259
 40
0.2246547521
 40
0.2563400861
 40
0.2896948762
 40
0.3246182993
 40
0.3987497949
 40
0.4377301281
 40
0.4778324176
 40
0.5609111661
 40
0.6469813428
 40
0.7349905155
 40
0.8238775612
 40
0.8683270746
 40
0.9126010024
 40
1.0
 40
1.0
 40
1.0
 40
1.0
 10
6.9864383267
 20
4.5062672107
 30
0.0
 10
6.9860665795
 20
4.5060532774
 30
0.0
 10
6.9852167773
 20
4.5056361263
 30
0.0
 10
6.9837746885
 20
4.5050661117
 30
0.0
 10
6.9820490038
 20
4.5044956987
 30
0.0
 10
6.9800397062
 20
4.5039250335
 30
0.0
 10
6.9777466257
 20
4.5033541291
 30
0.0
 10
6.9751700551
 20
4.5027830037
 30
0.0
 10
6.972310356
 20
4.5022115528
 30
0.0
 10
6.9679380479
 20
4.5014161529
 30
0.0
 10
6.9617646734
 20
4.500434064
 30
0.0
 10
6.9535082162
 20
4.4992931173
 30
0.0
 10
6.944132866
 20
4.4981461594
 30
0.0
 10
6.933645433
 20
4.4969932443
 30
0.0
 10
6.9220543824
 20
4.495836446
 30
0.0
 10
6.9093694211
 20
4.4946773609
 30
0.0
 10
6.8956003248
 20
4.493517636
 30
0.0
 10
6.8751061216
 20
4.4919178075
 30
0.0
 10
6.8468566131
 20
4.4899475219
 30
0.0
 10
6.8098610217
 20
4.4876644026
 30
0.0
 10
6.7688279394
 20
4.4853793521
 30
0.0
 10
6.7238814979
 20
4.4830832184
 30
0.0
 10
6.675157703
 20
4.4807727777
 30
0.0
 10
6.6228045413
 20
4.478457736
 30
0.0
 10
6.5669805991
 20
4.4761462705
 30
0.0
 10
6.5078546635
 20
4.4738452317
 30
0.0
 10
6.4456066884
 20
4.4715471959
 30
0.0
 10
6.3569220127
 20
4.4684176742
 30
0.0
 10
6.2647277477
 20
4.4653467594
 30
0.0
 10
6.1693035627
 20
4.4623124904
 30
0.0
 10
6.0683038903
 20
4.4591964674
 30
0.0
 10
5.9379703241
 20
4.4553309334
 30
0.0
 10
5.7777929951
 20
4.4507404417
 30
0.0
 10
5.6139951144
 20
4.4461420681
 30
0.0
 10
5.4761212237
 20
4.4423040568
 30
0.0
 10
5.3654896293
 20
4.4392215035
 30
0.0
 10
5.2557852255
 20
4.4361540116
 30
0.0
 10
5.1737686489
 20
4.4338319721
 30
0.0
 10
5.1193302932
 20
4.4322619686
 30
0.0
  0
SPLINE
  5
2C2
100
AcDbEntity
  8
0
100
AcDbSpline
 62
7
  6
CONTINUOUS
 70
0
 71
3
 72
20
 73
16
 74
0
 42
0.0000001
 43
0.0000001
 44
0.0000000001
 40
0.0
 40
0.0
 40
0.0
 40
0.0
 40
0.0560621888
 40
0.1127087706
 40
0.1700585152
 40
0.2282120011
 40
0.3471820826
 40
0.4081217993
 40
0.4700589052
 40
0.5330016661
 40
0.5969413177
 40
0.6618542253
 40
0.7277130011
 40
0.8621566055
 40
1.0
 40
1.0
 40
1.0
 40
1.0
 10
3.0241865406
 20
3.3516988179
 30
0.0
 10
3.0230834154
 20
3.357869778
 30
0.0
 10
3.0204857543
 20
3.37021131
 30
0.0
 10
3.0154722604
 20
3.38856452
 30
0.0
 10
3.0093580392
 20
3.4068278165
 30
0.0
 10
2.9997291867
 20
3.4312244217
 30
0.0
 10
2.9881135383
 20
3.4552272179
 30
0.0
 10
2.9747955053
 20
3.4787686681
 30
0.0
 10
2.9638512144
 20
3.4964374288
 30
0.0
 10
2.9520819829
 20
3.5139713943
 30
0.0
 10
2.9395358822
 20
3.5313695694
 30
0.0
 10
2.9262611338
 20
3.5486309113
 30
0.0
 10
2.9075218844
 20
3.5716203243
 30
0.0
 10
2.8824875401
 20
3.5999778485
 30
0.0
 10
2.8613481543
 20
3.6219020907
 30
0.0
 10
2.8504492181
 20
3.6328010269
 30
0.0
  0
SPLINE
  5
2C3
100
AcDbEntity
  8
0
100
AcDbSpline
 62
7
  6
CONTINUOUS
 70
0
 71
3
 72
20
 73
16
 74
0
 42
0.0000001
 43
0.0000001
 44
0.0000000001
 40
0.0
 40
0.0
 40
0.0
 40
0.0
 40
0.1249646391
 40
0.2499498224
 40
0.3124523159
 40
0.3749577509
 40
0.499941884
 40
0.5624408196
 40
0.6249470205
 40
0.6874547638
 40
0.7499656269
 40
0.7812264616
 40
0.8124913261
 40
0.8750206302
 40
1.0
 40
1.0
 40
1.0
 40
1.0
 10
2.8504492181
 20
1.6355299395
 30
0.0
 10
2.8634067475
 20
1.6614449983
 30
0.0
 10
2.8884256325
 20
1.7137356157
 30
0.0
 10
2.9170376561
 20
1.7803165813
 30
0.0
 10
2.9380700807
 20
1.8343344861
 30
0.0
 10
2.9577687641
 20
1.8888512586
 30
0.0
 10
2.9753172637
 20
1.9441304163
 30
0.0
 10
2.9903863808
 20
2.0001066507
 30
0.0
 10
3.0003751627
 20
2.0424277284
 30
0.0
 10
3.0089823947
 20
2.085054017
 30
0.0
 10
3.0149450157
 20
2.1208026692
 30
0.0
 10
3.0189531541
 20
2.1495161294
 30
0.0
 10
3.0224430321
 20
2.1783019903
 30
0.0
 10
3.0271763064
 20
2.228812577
 30
0.0
 10
3.0288382764
 20
2.2723096366
 30
0.0
 10
3.0288382764
 20
2.3012869686
 30
0.0
  0
SPLINE
  5
2C4
100
AcDbEntity
  8
0
100
AcDbSpline
 62
7
  6
CONTINUOUS
 70
0
 71
3
 72
24
 73
20
 74
0
 42
0.0000001
 43
0.0000001
 44
0.0000000001
 40
0.0
 40
0.0
 40
0.0
 40
0.0
 40
0.0561108395
 40
0.1124857521
 40
0.1693319505
 40
0.1979950283
 40
0.2268439961
 40
0.2851741015
 40
0.344472166
 40
0.4048405572
 40
0.4663464001
 40
0.5290340552
 40
0.5929231919
 40
0.6580047383
 40
0.7242455502
 40
0.7916092874
 40
0.8600590066
 40
0.9295437715
 40
1.0
 40
1.0
 40
1.0
 40
1.0
 10
3.0288382764
 20
1.3026514249
 30
0.0
 10
3.0288382764
 20
1.3098992118
 30
0.0
 10
3.0282817367
 20
1.3244347757
 30
0.0
 10
3.0258124909
 20
1.346185894
 30
0.0
 10
3.0224270941
 20
1.3642148848
 30
0.0
 10
3.0189440612
 20
1.378572423
 30
0.0
 10
3.0149181375
 20
1.3929865991
 30
0.0
 10
3.0089173808
 20
1.4109451953
 30
0.0
 10
3.0002917977
 20
1.432271679
 30
0.0
 10
2.9902861561
 20
1.4534398606
 30
0.0
 10
2.978969584
 20
1.474433888
 30
0.0
 10
2.9664186856
 20
1.4952452318
 30
0.0
 10
2.9527141919
 20
1.5158708709
 30
0.0
 10
2.9379345031
 20
1.5363079035
 30
0.0
 10
2.9221573178
 20
1.556555891
 30
0.0
 10
2.9054536038
 20
1.5766150271
 30
0.0
 10
2.8878890637
 20
1.5964867833
 30
0.0
 10
2.8695288489
 20
1.6161746298
 30
0.0
 10
2.8568844328
 20
1.6290947248
 30
0.0
 10
2.8504492181
 20
1.6355299395
 30
0.0
  0
SPLINE
  5
2C5
100
AcDbEntity
  8
0
100
AcDbSpline
 62
7
  6
CONTINUOUS
 70
0
 71
3
 72
20
 73
16
 74
0
 42
0.0000001
 43
0.0000001
 44
0.0000000001
 40
0.0
 40
0.0
 40
0.0
 40
0.0
 40
0.1249793962
 40
0.1875087333
 40
0.2187736174
 40
0.2500344692
 40
0.3125453415
 40
0.3750530765
 40
0.4375592697
 40
0.5000582069
 40
0.6250423204
 40
0.6875477464
 40
0.7500502371
 40
0.8750353883
 40
1.0
 40
1.0
 40
1.0
 40
1.0
 10
1.4827282764
 20
2.3012869686
 30
0.0
 10
1.4827282764
 20
2.2723096305
 30
0.0
 10
1.4843902608
 20
2.2288125575
 30
0.0
 10
1.4891235392
 20
2.1783019532
 30
0.0
 10
1.4926134104
 20
2.1495160753
 30
0.0
 10
1.4966215371
 20
2.1208026028
 30
0.0
 10
1.5025841598
 20
2.0850539464
 30
0.0
 10
1.5111914025
 20
2.0424276616
 30
0.0
 10
1.521180195
 20
2.00010659
 30
0.0
 10
1.5362493064
 20
1.9441303604
 30
0.0
 10
1.5537978031
 20
1.8888512084
 30
0.0
 10
1.5734964878
 20
1.834334444
 30
0.0
 10
1.5945289168
 20
1.780316552
 30
0.0
 10
1.6231409317
 20
1.7137355988
 30
0.0
 10
1.6481598081
 20
1.6614449926
 30
0.0
 10
1.6611173347
 20
1.6355299395
 30
0.0
  0
SPLINE
  5
2C6
100
AcDbEntity
  8
0
100
AcDbSpline
 62
7
  6
CONTINUOUS
 70
0
 71
3
 72
24
 73
20
 74
0
 42
0.0000001
 43
0.0000001
 44
0.0000000001
 40
0.0
 40
0.0
 40
0.0
 40
0.0
 40
0.0704562401
 40
0.1399410276
 40
0.2083907696
 40
0.2757545194
 40
0.3419953286
 40
0.4070768812
 40
0.4709660298
 40
0.5336536936
 40
0.5951595345
 40
0.6555279247
 40
0.7148259892
 40
0.7731560864
 40
0.8020050425
 40
0.8306681052
 40
0.8875142737
 40
0.9438891661
 40
1.0
 40
1.0
 40
1.0
 40
1.0
 10
1.6611173347
 20
1.6355299395
 30
0.0
 10
1.6546821189
 20
1.6290947237
 30
0.0
 10
1.6420376993
 20
1.6161746259
 30
0.0
 10
1.623677478
 20
1.5964867752
 30
0.0
 10
1.6061129319
 20
1.5766150142
 30
0.0
 10
1.5894092154
 20
1.5565558745
 30
0.0
 10
1.5736320333
 20
1.5363078817
 30
0.0
 10
1.5588523455
 20
1.5158708457
 30
0.0
 10
1.5451478501
 20
1.4952452035
 30
0.0
 10
1.5325969496
 20
1.4744338582
 30
0.0
 10
1.521280374
 20
1.4534398315
 30
0.0
 10
1.5112747422
 20
1.4322716454
 30
0.0
 10
1.5026491696
 20
1.4109451587
 30
0.0
 10
1.4966484152
 20
1.3929865648
 30
0.0
 10
1.4926224805
 20
1.3785723964
 30
0.0
 10
1.4891394409
 20
1.3642148672
 30
0.0
 10
1.485754047
 20
1.3461858841
 30
0.0
 10
1.4832848113
 20
1.3244347718
 30
0.0
 10
1.4827282764
 20
1.3098992111
 30
0.0
 10
1.4827282764
 20
1.3026514249
 30
0.0
  0
SPLINE
  5
2C7
100
AcDbEntity
  8
0
100
AcDbSpline
 62
7
  6
CONTINUOUS
 70
0
 71
3
 72
24
 73
20
 74
0
 42
0.0000001
 43
0.0000001
 44
0.0000000001
 40
0.0
 40
0.0
 40
0.0
 40
0.0
 40
0.0561108395
 40
0.1124857522
 40
0.1693319508
 40
0.1979950287
 40
0.2268439966
 40
0.2851741018
 40
0.3444721657
 40
0.4048405563
 40
0.4663463988
 40
0.5290340541
 40
0.5929231912
 40
0.6580047382
 40
0.7242455505
 40
0.7916092877
 40
0.8600590068
 40
0.9295437715
 40
1.0
 40
1.0
 40
1.0
 40
1.0
 10
1.4827282764
 20
1.3026514249
 30
0.0
 10
1.4827282764
 20
1.295403638
 30
0.0
 10
1.4832848164
 20
1.2808680741
 30
0.0
 10
1.4857540632
 20
1.2591169559
 30
0.0
 10
1.4891394607
 20
1.2410879652
 30
0.0
 10
1.492622494
 20
1.2267304271
 30
0.0
 10
1.4966484177
 20
1.2123162511
 30
0.0
 10
1.5026491739
 20
1.1943576548
 30
0.0
 10
1.511274756
 20
1.1730311709
 30
0.0
 10
1.5212803966
 20
1.1518629892
 30
0.0
 10
1.5325969685
 20
1.1308689617
 30
0.0
 10
1.5451478669
 20
1.110057618
 30
0.0
 10
1.558852361
 20
1.089431979
 30
0.0
 10
1.5736320501
 20
1.0689949464
 30
0.0
 10
1.5894092355
 20
1.0487469589
 30
0.0
 10
1.6061129495
 20
1.0286878228
 30
0.0
 10
1.6236774894
 20
1.0088160665
 30
0.0
 10
1.642037704
 20
0.9891282199
 30
0.0
 10
1.65468212
 20
0.976208125
 30
0.0
 10
1.6611173347
 20
0.9697729103
 30
0.0
  0
SPLINE
  5
2C8
100
AcDbEntity
  8
0
100
AcDbSpline
 62
7
  6
CONTINUOUS
 70
0
 71
3
 72
67
 73
63
 74
0
 42
0.0000001
 43
0.0000001
 44
0.0000000001
 40
0.0
 40
0.0
 40
0.0
 40
0.0
 40
0.0004067961
 40
0.0008774152
 40
0.0014137036
 40
0.0020169566
 40
0.0034275563
 40
0.0051125267
 40
0.0070722761
 40
0.0093062907
 40
0.0118135454
 40
0.0145927081
 40
0.0176422521
 40
0.0209605211
 40
0.0283961392
 40
0.0368842977
 40
0.0464036078
 40
0.0569297577
 40
0.0684381976
 40
0.0809042324
 40
0.094302874
 40
0.108606045
 40
0.123783235
 40
0.1566371727
 40
0.19261118
 40
0.2313647885
 40
0.2725059342
 40
0.3156478695
 40
0.3604218488
 40
0.4064607009
 40
0.4533604622
 40
0.5006815054
 40
0.5479866308
 40
0.5948581283
 40
0.6408843293
 40
0.6856516677
 40
0.7287438598
 40
0.7697549085
 40
0.8083508772
 40
0.8442281298
 40
0.8770680282
 40
0.8922410648
 40
0.9065247454
 40
0.9198761369
 40
0.9322659094
 40
0.9436786163
 40
0.9540995274
 40
0.9635140508
 40
0.9719077503
 40
0.9792648663
 40
0.9825493662
 40
0.9855683686
 40
0.9883198994
 40
0.9908021172
 40
0.9930133811
 40
0.9949523664
 40
0.9966182782
 40
0.9980114773
 40
0.9986069103
 40
0.999135907
 40
0.9995996733
 40
1.0
 40
1.0
 40
1.0
 40
1.0
 10
3.5077002645
 20
3.2277078278
 30
0.0
 10
3.5078257005
 20
3.2274895926
 30
0.0
 10
3.5080730767
 20
3.2270055134
 30
0.0
 10
3.5084181709
 20
3.2262012479
 30
0.0
 10
3.5087637286
 20
3.2252663764
 30
0.0
 10
3.5092506389
 20
3.2237650741
 30
0.0
 10
3.509847335
 20
3.2215541673
 30
0.0
 10
3.5105343306
 20
3.2185018948
 30
0.0
 10
3.5112232739
 20
3.2149296346
 30
0.0
 10
3.5119138188
 20
3.2108408387
 30
0.0
 10
3.5126054124
 20
3.2062388464
 30
0.0
 10
3.5132977746
 20
3.2011272862
 30
0.0
 10
3.5139907288
 20
3.1955098245
 30
0.0
 10
3.5149520679
 20
3.1870227524
 30
0.0
 10
3.5161394763
 20
3.1751751134
 30
0.0
 10
3.5175182924
 20
3.1594917762
 30
0.0
 10
3.5188989628
 20
3.1418897101
 30
0.0
 10
3.5202814053
 20
3.122413778
 30
0.0
 10
3.5216652205
 20
3.1011104113
 30
0.0
 10
3.5230503104
 20
3.0780262625
 30
0.0
 10
3.524436489
 20
3.053209987
 30
0.0
 10
3.5258237017
 20
3.0267137313
 30
0.0
 10
3.5277249591
 20
2.9881896033
 30
0.0
 10
3.5300827578
 20
2.9362625391
 30
0.0
 10
3.532842536
 20
2.8697507708
 30
0.0
 10
3.5356035265
 20
2.798107062
 30
0.0
 10
3.5383675962
 20
2.7220250584
 30
0.0
 10
3.5411345986
 20
2.6422155694
 30
0.0
 10
3.5439036324
 20
2.5593738229
 30
0.0
 10
3.5466733838
 20
2.4742055916
 30
0.0
 10
3.5494431833
 20
2.3874604868
 30
0.0
 10
3.552212723
 20
2.299931441
 30
0.0
 10
3.5549809977
 20
2.212419853
 30
0.0
 10
3.5577485937
 20
2.1257098626
 30
0.0
 10
3.5605168531
 20
2.0405710244
 30
0.0
 10
3.5632858817
 20
1.9577720181
 30
0.0
 10
3.5660532907
 20
1.8780780004
 30
0.0
 10
3.5688194054
 20
1.8022050309
 30
0.0
 10
3.5715827377
 20
1.7307995039
 30
0.0
 10
3.5743424661
 20
1.6644539874
 30
0.0
 10
3.5766953989
 20
1.6125979075
 30
0.0
 10
3.5785949896
 20
1.5740970414
 30
0.0
 10
3.5799812245
 20
1.5476446592
 30
0.0
 10
3.5813673813
 20
1.5229170018
 30
0.0
 10
3.5827535455
 20
1.4999688207
 30
0.0
 10
3.584138632
 20
1.4788374414
 30
0.0
 10
3.5855223309
 20
1.4595512703
 30
0.0
 10
3.586904048
 20
1.4421382758
 30
0.0
 10
3.5882831472
 20
1.4266274995
 30
0.0
 10
3.5894694112
 20
1.4149083152
 30
0.0
 10
3.5904296103
 20
1.4065100525
 30
0.0
 10
3.591121776
 20
1.4009498198
 30
0.0
 10
3.5918133337
 20
1.395890112
 30
0.0
 10
3.5925041498
 20
1.3913351966
 30
0.0
 10
3.5931939788
 20
1.3872892992
 30
0.0
 10
3.5938823183
 20
1.3837563529
 30
0.0
 10
3.5945688298
 20
1.3807402592
 30
0.0
 10
3.5951656291
 20
1.378557736
 30
0.0
 10
3.5956526529
 20
1.3770776264
 30
0.0
 10
3.5959982407
 20
1.3761572564
 30
0.0
 10
3.5963433977
 20
1.3753669018
 30
0.0
 10
3.5965910269
 20
1.3748921911
 30
0.0
 10
3.5967166334
 20
1.3746786858
 30
0.0
  0
SPLINE
  5
2C9
100
AcDbEntity
  8
0
100
AcDbSpline
 62
7
  6
CONTINUOUS
 70
0
 71
3
 72
14
 73
10
 74
0
 42
0.0000001
 43
0.0000001
 44
0.0000000001
 40
0.0
 40
0.0
 40
0.0
 40
0.0
 40
0.0763707426
 40
0.1661713709
 40
0.2697557291
 40
0.3873455227
 40
0.5190848377
 40
0.6650696263
 40
1.0
 40
1.0
 40
1.0
 40
1.0
 10
3.4441771181
 20
3.337759837
 30
0.0
 10
3.4443105491
 20
3.3375220993
 30
0.0
 10
3.444572106
 20
3.3369886552
 30
0.0
 10
3.4449330345
 20
3.3360953822
 30
0.0
 10
3.445293615
 20
3.3350450271
 30
0.0
 10
3.4456538273
 20
3.3338375521
 30
0.0
 10
3.446013741
 20
3.3324728535
 30
0.0
 10
3.4465165621
 20
3.3303442553
 30
0.0
 10
3.4468564199
 20
3.3286609742
 30
0.0
 10
3.4470775957
 20
3.3274860009
 30
0.0
  0
SPLINE
  5
2CA
100
AcDbEntity
  8
0
100
AcDbSpline
 62
7
  6
CONTINUOUS
 70
0
 71
3
 72
67
 73
63
 74
0
 42
0.0000001
 43
0.0000001
 44
0.0000000001
 40
0.0
 40
0.0
 40
0.0
 40
0.0
 40
0.0019130814
 40
0.0040927167
 40
0.0065390219
 40
0.0092517399
 40
0.0122295414
 40
0.0154705899
 40
0.0227347221
 40
0.0310284504
 40
0.0403355986
 40
0.0506393684
 40
0.0619172602
 40
0.0741423916
 40
0.0872876847
 40
0.1013260013
 40
0.1162293909
 40
0.1484941654
 40
0.1837946446
 40
0.2218310496
 40
0.2622652198
 40
0.3047478962
 40
0.3489082409
 40
0.3943587842
 40
0.4407058118
 40
0.4875426777
 40
0.5344609791
 40
0.5810523138
 40
0.626908506
 40
0.6716298899
 40
0.7148278635
 40
0.7561212568
 40
0.7951555808
 40
0.8315851575
 40
0.8650953423
 40
0.8953955878
 40
0.9092553768
 40
0.9222166365
 40
0.9342522291
 40
0.9453350777
 40
0.9554385643
 40
0.9645417777
 40
0.9726282997
 40
0.9796821332
 40
0.9828169606
 40
0.9856878909
 40
0.9882932072
 40
0.9906320568
 40
0.992704339
 40
0.9945102523
 40
0.9960504767
 40
0.9967214425
 40
0.997326698
 40
0.9978667331
 40
0.9983422781
 40
0.998754451
 40
0.9991050292
 40
0.9993969805
 40
0.9996355492
 40
0.9998304349
 40
0.9999169822
 40
1.0
 40
1.0
 40
1.0
 40
1.0
 10
3.4470775957
 20
3.3274860009
 30
0.0
 10
3.4473214731
 20
3.3261904269
 30
0.0
 10
3.4478019278
 20
3.3234109642
 30
0.0
 10
3.4484771178
 20
3.3189555041
 30
0.0
 10
3.4491539455
 20
3.3139436561
 30
0.0
 10
3.4498329278
 20
3.3083776112
 30
0.0
 10
3.4505139557
 20
3.3022604558
 30
0.0
 10
3.4514606096
 20
3.2930174229
 30
0.0
 10
3.4526327705
 20
3.2801155914
 30
0.0
 10
3.4539970242
 20
3.2630349771
 30
0.0
 10
3.4553641214
 20
3.2438540062
 30
0.0
 10
3.4567313497
 20
3.2226119733
 30
0.0
 10
3.4580981224
 20
3.1993553285
 30
0.0
 10
3.4594650677
 20
3.1741374755
 30
0.0
 10
3.4608322803
 20
3.1470148141
 30
0.0
 10
3.462200099
 20
3.1180443791
 30
0.0
 10
3.4640746603
 20
3.0759078805
 30
0.0
 10
3.4663989352
 20
3.0191251037
 30
0.0
 10
3.4691245936
 20
2.9464046747
 30
0.0
 10
3.4718516053
 20
2.8680510181
 30
0.0
 10
3.4745810795
 20
2.7847453153
 30
0.0
 10
3.4773118375
 20
2.6972174309
 30
0.0
 10
3.4800437355
 20
2.6062311309
 30
0.0
 10
3.4827765984
 20
2.5125807289
 30
0.0
 10
3.4855096824
 20
2.4170851444
 30
0.0
 10
3.4882431257
 20
2.3205777126
 30
0.0
 10
3.490976638
 20
2.2239018608
 30
0.0
 10
3.4937098913
 20
2.1279020663
 30
0.0
 10
3.4964428166
 20
2.0334168045
 30
0.0
 10
3.499175189
 20
1.9412709295
 30
0.0
 10
3.5019063284
 20
1.8522707181
 30
0.0
 10
3.5046366987
 20
1.7671914192
 30
0.0
 10
3.5073647072
 20
1.6867787458
 30
0.0
 10
3.5100904288
 20
1.6117327585
 30
0.0
 10
3.5128129235
 20
1.5427096898
 30
0.0
 10
3.5151407627
 20
1.4892365964
 30
0.0
 10
3.5170222361
 20
1.4499185479
 30
0.0
 10
3.5183903585
 20
1.4231768784
 30
0.0
 10
3.5197574365
 20
1.3983514541
 30
0.0
 10
3.5211231285
 20
1.3754984863
 30
0.0
 10
3.52248737
 20
1.354670084
 30
0.0
 10
3.523849763
 20
1.3359111905
 30
0.0
 10
3.525209966
 20
1.3192598658
 30
0.0
 10
3.5263820111
 20
1.3067203977
 30
0.0
 10
3.5273320351
 20
1.2977710438
 30
0.0
 10
3.5280159931
 20
1.2918764833
 30
0.0
 10
3.5286997086
 20
1.2865344274
 30
0.0
 10
3.5293829769
 20
1.2817476267
 30
0.0
 10
3.5300651293
 20
1.2775177181
 30
0.0
 10
3.5307457617
 20
1.2738460018
 30
0.0
 10
3.5313345638
 20
1.2711403274
 30
0.0
 10
3.5318128068
 20
1.2692591279
 30
0.0
 10
3.5321543645
 20
1.2680548315
 30
0.0
 10
3.5324953733
 20
1.2669909447
 30
0.0
 10
3.5328357549
 20
1.2660674111
 30
0.0
 10
3.5331754678
 20
1.2652839759
 30
0.0
 10
3.5335144448
 20
1.2646400469
 30
0.0
 10
3.533853655
 20
1.2641344037
 30
0.0
 10
3.5341943384
 20
1.2637651847
 30
0.0
 10
3.5344981277
 20
1.2635637361
 30
0.0
 10
3.5347387882
 20
1.2634869441
 30
0.0
 10
3.534855969
 20
1.2634744686
 30
0.0
 10
3.5349131776
 20
1.2634744686
 30
0.0
  0
SPLINE
  5
2CB
100
AcDbEntity
  8
0
100
AcDbSpline
 62
7
  6
CONTINUOUS
 70
0
 71
3
 72
67
 73
63
 74
0
 42
0.0000001
 43
0.0000001
 44
0.0000000001
 40
0.0
 40
0.0
 40
0.0
 40
0.0
 40
0.0004003925
 40
0.0008652027
 40
0.0013963284
 40
0.0019947721
 40
0.0033953782
 40
0.0050690275
 40
0.00701561
 40
0.0092340755
 40
0.0117228517
 40
0.0144800538
 40
0.0175035996
 40
0.0207912753
 40
0.0281498039
 40
0.0365404109
 40
0.0459515962
 40
0.0563717841
 40
0.0677891915
 40
0.0801916538
 40
0.0935557696
 40
0.1078425644
 40
0.1230118582
 40
0.1558370024
 40
0.1917114546
 40
0.230321009
 40
0.2713494988
 40
0.3144381282
 40
0.3591939737
 40
0.4052189015
 40
0.452096958
 40
0.4994073269
 40
0.5467234019
 40
0.5936105707
 40
0.6396382264
 40
0.6844113646
 40
0.7275516554
 40
0.7686798631
 40
0.8074144739
 40
0.843377461
 40
0.8762445219
 40
0.8914284237
 40
0.9057321946
 40
0.9191230456
 40
0.9315770959
 40
0.9430725394
 40
0.9535876667
 40
0.9631009094
 40
0.9715908956
 40
0.979036488
 40
0.9823612032
 40
0.9854171775
 40
0.988202015
 40
0.9907134532
 40
0.9929494307
 40
0.9949082058
 40
0.9965887484
 40
0.9979931813
 40
0.9985935337
 40
0.9991271524
 40
0.9995953511
 40
1.0
 40
1.0
 40
1.0
 40
1.0
 10
3.3231257048
 20
3.2279381811
 30
0.0
 10
3.3232514282
 20
3.2277246898
 30
0.0
 10
3.3234992205
 20
3.2272492501
 30
0.0
 10
3.3238442534
 20
3.22645662
 30
0.0
 10
3.3241896296
 20
3.2255320499
 30
0.0
 10
3.3246764316
 20
3.2240436534
 30
0.0
 10
3.325272805
 20
3.2218493213
 30
0.0
 10
3.3259593047
 20
3.2188187247
 30
0.0
 10
3.3266476415
 20
3.2152714799
 30
0.0
 10
3.3273375153
 20
3.2112120798
 30
0.0
 10
3.3280283899
 20
3.2066448924
 30
0.0
 10
3.3287200174
 20
3.2015745856
 30
0.0
 10
3.329412253
 20
3.1960058648
 30
0.0
 10
3.3303722615
 20
3.1876016712
 30
0.0
 10
3.3315586466
 20
3.1758812635
 30
0.0
 10
3.3329379774
 20
3.1603732134
 30
0.0
 10
3.3343194947
 20
3.1429641823
 30
0.0
 10
3.3357029072
 20
3.1236770838
 30
0.0
 10
3.3370877663
 20
3.1025347951
 30
0.0
 10
3.3384732125
 20
3.0795672963
 30
0.0
 10
3.339858916
 20
3.054821283
 30
0.0
 10
3.34124558
 20
3.0283607328
 30
0.0
 10
3.343145506
 20
2.9898684002
 30
0.0
 10
3.345499295
 20
2.9380241853
 30
0.0
 10
3.3482583901
 20
2.8716793523
 30
0.0
 10
3.3510210082
 20
2.80025444
 30
0.0
 10
3.3537867097
 20
2.7243624548
 30
0.0
 10
3.356554982
 20
2.6446648948
 30
0.0
 10
3.3593244325
 20
2.5618738346
 30
0.0
 10
3.3620923433
 20
2.4767365891
 30
0.0
 10
3.3648600212
 20
2.3900178026
 30
0.0
 10
3.3676282932
 20
2.3024996823
 30
0.0
 10
3.3703973694
 20
2.214975946
 30
0.0
 10
3.3731665969
 20
2.1282463457
 30
0.0
 10
3.3759364579
 20
2.0430911273
 30
0.0
 10
3.3787054763
 20
1.960255673
 30
0.0
 10
3.381472132
 20
1.8804536228
 30
0.0
 10
3.3842357199
 20
1.8043903933
 30
0.0
 10
3.386996435
 20
1.7327713884
 30
0.0
 10
3.3897572679
 20
1.6662683789
 30
0.0
 10
3.392114108
 20
1.6143344468
 30
0.0
 10
3.3940149409
 20
1.5757966228
 30
0.0
 10
3.3954017625
 20
1.5492999447
 30
0.0
 10
3.3967877944
 20
1.5244948901
 30
0.0
 10
3.3981727531
 20
1.5014304395
 30
0.0
 10
3.3995565248
 20
1.4801488333
 30
0.0
 10
3.4009390302
 20
1.4606910558
 30
0.0
 10
3.4023199044
 20
1.4430980153
 30
0.0
 10
3.4036989351
 20
1.4274107252
 30
0.0
 10
3.4048856972
 20
1.4155513674
 30
0.0
 10
3.4058465415
 20
1.4070497845
 30
0.0
 10
3.4065392486
 20
1.4014205769
 30
0.0
 10
3.4072313282
 20
1.3962986708
 30
0.0
 10
3.4079225914
 20
1.3916891068
 30
0.0
 10
3.4086127699
 20
1.3875968897
 30
0.0
 10
3.4093012335
 20
1.3840265962
 30
0.0
 10
3.4099881577
 20
1.3809815381
 30
0.0
 10
3.410585276
 20
1.3787793132
 30
0.0
 10
3.411072218
 20
1.3772856124
 30
0.0
 10
3.4114177486
 20
1.3763559725
 30
0.0
 10
3.4117628294
 20
1.3755565474
 30
0.0
 10
3.4120102201
 20
1.375075628
 30
0.0
 10
3.4121356605
 20
1.3748589216
 30
0.0
  0
SPLINE
  5
2CC
100
AcDbEntity
  8
0
100
AcDbSpline
 62
7
  6
CONTINUOUS
 70
0
 71
3
 72
14
 73
10
 74
0
 42
0.0000001
 43
0.0000001
 44
0.0000000001
 40
0.0
 40
0.0
 40
0.0
 40
0.0
 40
0.0746550399
 40
0.1631832639
 40
0.2659793402
 40
0.3832854604
 40
0.5152563559
 40
0.6619935486
 40
1.0
 40
1.0
 40
1.0
 40
1.0
 10
3.259588492
 20
3.3378873971
 30
0.0
 10
3.2597252576
 20
3.3376544146
 30
0.0
 10
3.2599931937
 20
3.3371269585
 30
0.0
 10
3.260362119
 20
3.3362373791
 30
0.0
 10
3.2607313963
 20
3.335182825
 30
0.0
 10
3.2611009082
 20
3.3339632275
 30
0.0
 10
3.261470641
 20
3.332578439
 30
0.0
 10
3.2619885346
 20
3.3304074271
 30
0.0
 10
3.2623379518
 20
3.3286878453
 30
0.0
 10
3.262565411
 20
3.3274860166
 30
0.0
  0
SPLINE
  5
2CD
100
AcDbEntity
  8
0
100
AcDbSpline
 62
7
  6
CONTINUOUS
 70
0
 71
3
 72
66
 73
62
 74
0
 42
0.0000001
 43
0.0000001
 44
0.0000000001
 40
0.0
 40
0.0
 40
0.0
 40
0.0
 40
0.0019134199
 40
0.004093362
 40
0.0065399154
 40
0.0092528072
 40
0.0122307191
 40
0.0154718319
 40
0.0227360055
 40
0.0310297222
 40
0.0403368577
 40
0.0506406491
 40
0.0619185999
 40
0.0741438154
 40
0.0872892076
 40
0.116231099
 40
0.1484960896
 40
0.1837968001
 40
0.2218334591
 40
0.2622679021
 40
0.3047508653
 40
0.3489115073
 40
0.3943623568
 40
0.4407096969
 40
0.4875468792
 40
0.5344654979
 40
0.5810571479
 40
0.6269136507
 40
0.6716353379
 40
0.7148336054
 40
0.7561272808
 40
0.7951618693
 40
0.8315916862
 40
0.865102093
 40
0.8954025619
 40
0.9092624658
 40
0.9222238313
 40
0.9342595071
 40
0.9453423994
 40
0.9554458711
 40
0.9645490284
 40
0.9726355141
 40
0.9796894198
 40
0.9828243653
 40
0.9856954985
 40
0.9883011317
 40
0.9906404126
 40
0.9927132059
 40
0.9945196589
 40
0.996060374
 40
0.9967315293
 40
0.9973369084
 40
0.9978769702
 40
0.9983524014
 40
0.9987642571
 40
0.999114221
 40
0.9994051172
 40
0.9996419719
 40
0.999834197
 40
0.9999189927
 40
1.0
 40
1.0
 40
1.0
 40
1.0
 10
3.262565411
 20
3.3274860166
 30
0.0
 10
3.2628106085
 20
3.3261904635
 30
0.0
 10
3.2632938996
 20
3.3234110593
 30
0.0
 10
3.2639731375
 20
3.318955618
 30
0.0
 10
3.2646535661
 20
3.3139437795
 30
0.0
 10
3.2653351381
 20
3.3083777144
 30
0.0
 10
3.266017797
 20
3.3022605375
 30
0.0
 10
3.2669655943
 20
3.2930175319
 30
0.0
 10
3.268137363
 20
3.2801156778
 30
0.0
 10
3.2694997187
 20
3.2630350146
 30
0.0
 10
3.2708645144
 20
3.2438540126
 30
0.0
 10
3.2722302935
 20
3.2226119857
 30
0.0
 10
3.2735966407
 20
3.1993553607
 30
0.0
 10
3.2749638302
 20
3.1741375239
 30
0.0
 10
3.2768486056
 20
3.1367577846
 30
0.0
 10
3.2791788914
 20
3.0855737939
 30
0.0
 10
3.2818993194
 20
3.0191251941
 30
0.0
 10
3.2846244091
 20
2.9464047318
 30
0.0
 10
3.2873514251
 20
2.868051086
 30
0.0
 10
3.2900809801
 20
2.784745384
 30
0.0
 10
3.2928118019
 20
2.6972175004
 30
0.0
 10
3.2955436833
 20
2.6062311984
 30
0.0
 10
3.2982765229
 20
2.5125807946
 30
0.0
 10
3.3010096051
 20
2.4170852082
 30
0.0
 10
3.3037430581
 20
2.3205777739
 30
0.0
 10
3.3064765857
 20
2.223901919
 30
0.0
 10
3.3092098469
 20
2.1279021206
 30
0.0
 10
3.3119427487
 20
2.0334168535
 30
0.0
 10
3.3146750827
 20
1.9412709717
 30
0.0
 10
3.3174062513
 20
1.852270754
 30
0.0
 10
3.3201367815
 20
1.7671914534
 30
0.0
 10
3.3228648551
 20
1.6867787813
 30
0.0
 10
3.3255901416
 20
1.6117327829
 30
0.0
 10
3.3283121313
 20
1.542709686
 30
0.0
 10
3.330640564
 20
1.4892365895
 30
0.0
 10
3.3325233979
 20
1.4499185644
 30
0.0
 10
3.3338923244
 20
1.4231769072
 30
0.0
 10
3.3352595514
 20
1.398351499
 30
0.0
 10
3.3366243406
 20
1.3754985569
 30
0.0
 10
3.3379858945
 20
1.3546701425
 30
0.0
 10
3.339344634
 20
1.3359111857
 30
0.0
 10
3.3407021662
 20
1.319259767
 30
0.0
 10
3.3418741652
 20
1.3067202547
 30
0.0
 10
3.3428266719
 20
1.2977709476
 30
0.0
 10
3.3435137614
 20
1.2918763421
 30
0.0
 10
3.3442022746
 20
1.2865342689
 30
0.0
 10
3.3448916214
 20
1.2817474873
 30
0.0
 10
3.3455802273
 20
1.2775176141
 30
0.0
 10
3.3462668793
 20
1.273845961
 30
0.0
 10
3.3468598418
 20
1.2711403666
 30
0.0
 10
3.3473402937
 20
1.2692591766
 30
0.0
 10
3.3476827871
 20
1.2680549171
 30
0.0
 10
3.3480239927
 20
1.266991084
 30
0.0
 10
3.3483637232
 20
1.2660676305
 30
0.0
 10
3.3487018258
 20
1.2652843132
 30
0.0
 10
3.3490380974
 20
1.2646405654
 30
0.0
 10
3.3493733558
 20
1.2641351538
 30
0.0
 10
3.3497085714
 20
1.2637661928
 30
0.0
 10
3.3500068252
 20
1.2635641391
 30
0.0
 10
3.3502427461
 20
1.2634870135
 30
0.0
 10
3.3503573356
 20
1.2634744686
 30
0.0
 10
3.3504131584
 20
1.2634744686
 30
0.0
  0
SPLINE
  5
2CE
100
AcDbEntity
  8
0
100
AcDbSpline
 62
7
  6
CONTINUOUS
 70
0
 71
3
 72
67
 73
63
 74
0
 42
0.0000001
 43
0.0000001
 44
0.0000000001
 40
0.0
 40
0.0
 40
0.0
 40
0.0
 40
0.0004027053
 40
0.0008676165
 40
0.0013963723
 40
0.0019900622
 40
0.0033748922
 40
0.0050260304
 40
0.0069454187
 40
0.0091341007
 40
0.0115926128
 40
0.0143211845
 40
0.0173198495
 40
0.0205885099
 40
0.0279332484
 40
0.0363403446
 40
0.0457894805
 40
0.0562599589
 40
0.0677308571
 40
0.0801797387
 40
0.0935741277
 40
0.1078770785
 40
0.1230515677
 40
0.1558670001
 40
0.1917302731
 40
0.230359769
 40
0.2714584506
 40
0.3146338849
 40
0.3594583999
 40
0.4055168762
 40
0.4524129724
 40
0.4997476676
 40
0.547092776
 40
0.5940078957
 40
0.6400707389
 40
0.6848916239
 40
0.728082764
 40
0.7692407416
 40
0.8079531034
 40
0.8438452132
 40
0.8766554036
 40
0.8918296394
 40
0.9061422897
 40
0.9195583848
 40
0.9320419729
 40
0.943557179
 40
0.9540682403
 40
0.9635419298
 40
0.9719620308
 40
0.9793199137
 40
0.9825980215
 40
0.985607648
 40
0.9883479683
 40
0.9908182884
 40
0.9930181145
 40
0.9949474984
 40
0.9966073727
 40
0.9979995951
 40
0.9985964472
 40
0.9991279916
 40
0.9995953021
 40
1.0
 40
1.0
 40
1.0
 40
1.0
 10
3.1386175724
 20
3.227723895
 30
0.0
 10
3.13874294
 20
3.2275085729
 30
0.0
 10
3.1389902271
 20
3.2270313345
 30
0.0
 10
3.1393354777
 20
3.2262389163
 30
0.0
 10
3.1396811386
 20
3.2253192486
 30
0.0
 10
3.1401677091
 20
3.2238459082
 30
0.0
 10
3.1407644973
 20
3.2216796241
 30
0.0
 10
3.1414517279
 20
3.2186911348
 30
0.0
 10
3.1421406858
 20
3.2151945767
 30
0.0
 10
3.1428311229
 20
3.2111905456
 30
0.0
 10
3.1435225722
 20
3.2066795178
 30
0.0
 10
3.1442148207
 20
3.2016622497
 30
0.0
 10
3.1449077525
 20
3.196139535
 30
0.0
 10
3.1458701746
 20
3.1877725944
 30
0.0
 10
3.1470584664
 20
3.1760639662
 30
0.0
 10
3.1484387565
 20
3.1605326889
 30
0.0
 10
3.149821647
 20
3.1430609404
 30
0.0
 10
3.1512064248
 20
3.1236884362
 30
0.0
 10
3.1525922509
 20
3.1024557245
 30
0.0
 10
3.1539780188
 20
3.0794104245
 30
0.0
 10
3.1553641249
 20
3.0546099894
 30
0.0
 10
3.156750815
 20
3.02812076
 30
0.0
 10
3.1586503289
 20
2.9896260015
 30
0.0
 10
3.161005655
 20
2.9377980502
 30
0.0
 10
3.1637697937
 20
2.8714622882
 30
0.0
 10
3.1665373099
 20
2.7999975789
 30
0.0
 10
3.1693039014
 20
2.7240055358
 30
0.0
 10
3.1720714671
 20
2.6441781771
 30
0.0
 10
3.1748401092
 20
2.561280392
 30
0.0
 10
3.1776095586
 20
2.4760793624
 30
0.0
 10
3.1803801833
 20
2.3893244829
 30
0.0
 10
3.183152245
 20
2.3017731901
 30
0.0
 10
3.1859248166
 20
2.2142101374
 30
0.0
 10
3.1886964155
 20
2.1274343636
 30
0.0
 10
3.1914664113
 20
2.0422211193
 30
0.0
 10
3.1942352071
 20
1.9593131605
 30
0.0
 10
3.1970035478
 20
1.8794416437
 30
0.0
 10
3.1997706442
 20
1.8033518824
 30
0.0
 10
3.2025355134
 20
1.7317811916
 30
0.0
 10
3.2053007314
 20
1.6653795421
 30
0.0
 10
3.2076583706
 20
1.6135372375
 30
0.0
 10
3.2095589977
 20
1.5750399306
 30
0.0
 10
3.2109462222
 20
1.5485314298
 30
0.0
 10
3.2123326561
 20
1.5236900469
 30
0.0
 10
3.2137182529
 20
1.5005823108
 30
0.0
 10
3.2151028314
 20
1.4792753683
 30
0.0
 10
3.2164860337
 20
1.4598348625
 30
0.0
 10
3.2178687955
 20
1.4423145992
 30
0.0
 10
3.219250066
 20
1.4267519084
 30
0.0
 10
3.2204393523
 20
1.4150212503
 30
0.0
 10
3.2214019997
 20
1.4066334418
 30
0.0
 10
3.222095386
 20
1.4010907341
 30
0.0
 10
3.2227880892
 20
1.3960519725
 30
0.0
 10
3.2234799395
 20
1.3915192893
 30
0.0
 10
3.2241707045
 20
1.3874946326
 30
0.0
 10
3.2248599343
 20
1.3839792937
 30
0.0
 10
3.2255473259
 20
1.380974263
 30
0.0
 10
3.226144152
 20
1.3787956218
 30
0.0
 10
3.2266307029
 20
1.3773135858
 30
0.0
 10
3.2269763182
 20
1.3763883865
 30
0.0
 10
3.2273214911
 20
1.375591094
 30
0.0
 10
3.2275687314
 20
1.3751107774
 30
0.0
 10
3.2276940816
 20
1.3748940198
 30
0.0
  0
SPLINE
  5
2CF
100
AcDbEntity
  8
0
100
AcDbSpline
 62
7
  6
CONTINUOUS
 70
0
 71
3
 72
14
 73
10
 74
0
 42
0.0000001
 43
0.0000001
 44
0.0000000001
 40
0.0
 40
0.0
 40
0.0
 40
0.0
 40
0.0739850526
 40
0.1620623782
 40
0.2646086308
 40
0.3818519238
 40
0.5139361095
 40
0.6609541817
 40
1.0
 40
1.0
 40
1.0
 40
1.0
 10
3.0749001086
 20
3.3379174776
 30
0.0
 10
3.0750341187
 20
3.3376858755
 30
0.0
 10
3.0752969188
 20
3.3371607875
 30
0.0
 10
3.0756595889
 20
3.3362746304
 30
0.0
 10
3.0760241509
 20
3.3352220693
 30
0.0
 10
3.0763904778
 20
3.3340030548
 30
0.0
 10
3.0767585451
 20
3.3326174577
 30
0.0
 10
3.0772764577
 20
3.3304424658
 30
0.0
 10
3.077627901
 20
3.3287195018
 30
0.0
 10
3.0778574507
 20
3.3275149672
 30
0.0
  0
SPLINE
  5
2D0
100
AcDbEntity
  8
0
100
AcDbSpline
 62
7
  6
CONTINUOUS
 70
0
 71
3
 72
77
 73
73
 74
0
 42
0.0000001
 43
0.0000001
 44
0.0000000001
 40
0.0
 40
0.0
 40
0.0
 40
0.0
 40
0.0019123395
 40
0.0040915789
 40
0.0065377053
 40
0.0092500957
 40
0.012227174
 40
0.0154671845
 40
0.0227287007
 40
0.0310198932
 40
0.0403255298
 40
0.0506265024
 40
0.0618990105
 40
0.0741187413
 40
0.0872611935
 40
0.1161998019
 40
0.1319303197
 40
0.1484574397
 40
0.183758212
 40
0.2217888406
 40
0.2622218344
 40
0.3047014104
 40
0.3488600472
 40
0.371448412
 40
0.3943103969
 40
0.417396631
 40
0.4406567667
 40
0.4640396668
 40
0.487494173
 40
0.5109691336
 40
0.5344134345
 40
0.5810057374
 40
0.604051578
 40
0.6268630711
 40
0.6493910705
 40
0.6715865961
 40
0.6934006766
 40
0.7147850898
 40
0.7560825821
 40
0.7759052668
 40
0.7951176118
 40
0.8315493727
 40
0.8650613627
 40
0.8806290582
 40
0.8953607221
 40
0.9221875008
 40
0.9342228481
 40
0.9453059038
 40
0.9554125146
 40
0.9600921045
 40
0.9645185916
 40
0.9726039937
 40
0.9762595529
 40
0.9796548307
 40
0.9827882636
 40
0.9856583737
 40
0.9882638062
 40
0.9906033954
 40
0.9926765927
 40
0.9944837048
 40
0.9960255824
 40
0.9966976124
 40
0.997304127
 40
0.9978456518
 40
0.9983229601
 40
0.9987372233
 40
0.999090285
 40
0.9993851935
 40
0.9996272697
 40
0.9998262024
 40
0.9999148823
 40
1.0
 40
1.0
 40
1.0
 40
1.0
 10
3.0778574507
 20
3.3275149672
 30
0.0
 10
3.0781041611
 20
3.326220384
 30
0.0
 10
3.0785924646
 20
3.3234429715
 30
0.0
 10
3.0792837408
 20
3.3189906862
 30
0.0
 10
3.0799814034
 20
3.313982083
 30
0.0
 10
3.0806850331
 20
3.3084196773
 30
0.0
 10
3.0813926773
 20
3.3023066832
 30
0.0
 10
3.0823769913
 20
3.29307015
 30
0.0
 10
3.0835925872
 20
3.2801759101
 30
0.0
 10
3.0849911444
 20
3.2631017332
 30
0.0
 10
3.0863621315
 20
3.2439247207
 30
0.0
 10
3.0877029142
 20
3.2226865977
 30
0.0
 10
3.0890275006
 20
3.1994357264
 30
0.0
 10
3.0903458795
 20
3.1742234465
 30
0.0
 10
3.0921701285
 20
3.1368467028
 30
0.0
 10
3.0939531494
 20
3.0970458401
 30
0.0
 10
3.0957350121
 20
3.0549103375
 30
0.0
 10
3.0976361484
 20
3.0083915344
 30
0.0
 10
3.1000528019
 20
2.946512977
 30
0.0
 10
3.1028674927
 20
2.8681630404
 30
0.0
 10
3.1055447387
 20
2.7848583627
 30
0.0
 10
3.1081705952
 20
2.6973270884
 30
0.0
 10
3.1103751091
 20
2.6220862954
 30
0.0
 10
3.1121792368
 20
2.5603589629
 30
0.0
 10
3.1135617341
 20
2.5131474743
 30
0.0
 10
3.1149681816
 20
2.4654735413
 30
0.0
 10
3.1163913371
 20
2.417440959
 30
0.0
 10
3.1178155553
 20
2.3691545037
 30
0.0
 10
3.1192277989
 20
2.3207195862
 30
0.0
 10
3.1206117557
 20
2.2722415189
 30
0.0
 10
3.1224099155
 20
2.2078234696
 30
0.0
 10
3.124170797
 20
2.1437002295
 30
0.0
 10
3.1259454734
 20
2.080013634
 30
0.0
 10
3.1272838855
 20
2.0329051481
 30
0.0
 10
3.1286368128
 20
1.9863833115
 30
0.0
 10
3.1300075725
 20
1.9405496612
 30
0.0
 10
3.1313994316
 20
1.895505111
 30
0.0
 10
3.1332652519
 20
1.8373049128
 30
0.0
 10
3.1351668218
 20
1.7804789714
 30
0.0
 10
3.1370617633
 20
1.7251505607
 30
0.0
 10
3.1388541255
 20
1.6731738036
 30
0.0
 10
3.1410179448
 20
1.611770314
 30
0.0
 10
3.1432563697
 20
1.5528827896
 30
0.0
 10
3.1450902275
 20
1.5089456287
 30
0.0
 10
3.1468456502
 20
1.4696165126
 30
0.0
 10
3.1486798924
 20
1.4327275898
 30
0.0
 10
3.1506477129
 20
1.3983642222
 30
0.0
 10
3.1520697842
 20
1.3755114378
 30
0.0
 10
3.1532706
 20
1.3577241281
 30
0.0
 10
3.1542204961
 20
1.3445178736
 30
0.0
 10
3.1551058343
 20
1.3327035558
 30
0.0
 10
3.1559939214
 20
1.3215970969
 30
0.0
 10
3.1569094571
 20
1.3112062147
 30
0.0
 10
3.157570899
 20
1.3042189411
 30
0.0
 10
3.1582327179
 20
1.2977755949
 30
0.0
 10
3.1588973044
 20
1.2918799736
 30
0.0
 10
3.1595667985
 20
1.2865358028
 30
0.0
 10
3.1602437805
 20
1.2817465879
 30
0.0
 10
3.1609291451
 20
1.2775149256
 30
0.0
 10
3.1616202971
 20
1.2738422783
 30
0.0
 10
3.162223091
 20
1.2711366826
 30
0.0
 10
3.1627149208
 20
1.2692560374
 30
0.0
 10
3.1630670357
 20
1.2680519643
 30
0.0
 10
3.1634191658
 20
1.2669883501
 30
0.0
 10
3.1637710282
 20
1.2660651073
 30
0.0
 10
3.1641223796
 20
1.2652819518
 30
0.0
 10
3.164472979
 20
1.2646382687
 30
0.0
 10
3.1648236062
 20
1.2641328631
 30
0.0
 10
3.1651753847
 20
1.2637639876
 30
0.0
 10
3.1654876286
 20
1.2635634299
 30
0.0
 10
3.1657343254
 20
1.263486928
 30
0.0
 10
3.1658544186
 20
1.2634744686
 30
0.0
 10
3.1659130772
 20
1.2634744686
 30
0.0
  0
SPLINE
  5
2D1
100
AcDbEntity
  8
0
100
AcDbSpline
 62
7
  6
CONTINUOUS
 70
0
 71
3
 72
14
 73
10
 74
0
 42
0.0000001
 43
0.0000001
 44
0.0000000001
 40
0.0
 40
0.0
 40
0.0
 40
0.0
 40
0.0744792322
 40
0.1628823709
 40
0.2656043389
 40
0.3828868739
 40
0.5148840801
 40
0.6616968536
 40
1.0
 40
1.0
 40
1.0
 40
1.0
 10
3.6602599441
 20
1.264675412
 30
0.0
 10
3.6601230813
 20
1.2649079712
 30
0.0
 10
3.6598548974
 20
1.2654348751
 30
0.0
 10
3.6594855252
 20
1.2663240382
 30
0.0
 10
3.6591155451
 20
1.2673789002
 30
0.0
 10
3.6587451078
 20
1.2685995308
 30
0.0
 10
3.6583742589
 20
1.2699860796
 30
0.0
 10
3.6578545116
 20
1.272160863
 30
0.0
 10
3.6575037557
 20
1.2738836804
 30
0.0
 10
3.6572753963
 20
1.2750879133
 30
0.0
  0
SPLINE
  5
2D2
100
AcDbEntity
  8
0
100
AcDbSpline
 62
7
  6
CONTINUOUS
 70
0
 71
3
 72
66
 73
62
 74
0
 42
0.0000001
 43
0.0000001
 44
0.0000000001
 40
0.0
 40
0.0
 40
0.0
 40
0.0
 40
0.0019135362
 40
0.0040935823
 40
0.0065402174
 40
0.009253163
 40
0.0122311047
 40
0.0154722298
 40
0.0227363938
 40
0.0310300781
 40
0.0403371775
 40
0.0506409416
 40
0.0619188755
 40
0.07414408
 40
0.0872894634
 40
0.1162313332
 40
0.1484962925
 40
0.1837969667
 40
0.2218335883
 40
0.2622679929
 40
0.3047509158
 40
0.3489115158
 40
0.3943623221
 40
0.4407096182
 40
0.4875467562
 40
0.5344653306
 40
0.5810569368
 40
0.6269133966
 40
0.6716350419
 40
0.7148332691
 40
0.756126906
 40
0.7951614582
 40
0.8315912418
 40
0.8651016176
 40
0.8954020568
 40
0.9092619461
 40
0.9222232981
 40
0.9342589627
 40
0.9453418472
 40
0.9554453161
 40
0.9645484742
 40
0.9726349596
 40
0.9796888568
 40
0.9828237918
 40
0.9856949078
 40
0.988300515
 40
0.9906397608
 40
0.9927125129
 40
0.9945189225
 40
0.9960595982
 40
0.9967307383
 40
0.9973361074
 40
0.9978761669
 40
0.9983516068
 40
0.9987634873
 40
0.9991134992
 40
0.9994044781
 40
0.9996414671
 40
0.9998339011
 40
0.9999188344
 40
1.0
 40
1.0
 40
1.0
 40
1.0
 10
3.6572753963
 20
1.2750879133
 30
0.0
 10
3.6570297214
 20
1.2763834588
 30
0.0
 10
3.6565454043
 20
1.2791628416
 30
0.0
 10
3.6558647021
 20
1.2836182759
 30
0.0
 10
3.6551829712
 20
1.2886301108
 30
0.0
 10
3.6545004626
 20
1.2941961833
 30
0.0
 10
3.6538172142
 20
1.3003133679
 30
0.0
 10
3.6528690043
 20
1.3095563638
 30
0.0
 10
3.6516973789
 20
1.3224582262
 30
0.0
 10
3.6503357117
 20
1.3395389071
 30
0.0
 10
3.6489717504
 20
1.3587199204
 30
0.0
 10
3.6476064982
 20
1.3799619451
 30
0.0
 10
3.6462403026
 20
1.4032185628
 30
0.0
 10
3.6448730432
 20
1.4284363945
 30
0.0
 10
3.6429879852
 20
1.4658161268
 30
0.0
 10
3.640657383
 20
1.5170001102
 30
0.0
 10
3.6379370184
 20
1.5834487151
 30
0.0
 10
3.6352120634
 20
1.6561691796
 30
0.0
 10
3.632485071
 20
1.7345228239
 30
0.0
 10
3.6297554831
 20
1.8178285246
 30
0.0
 10
3.6270246434
 20
1.9053564082
 30
0.0
 10
3.6242927707
 20
1.9963427111
 30
0.0
 10
3.621559942
 20
2.0899931159
 30
0.0
 10
3.6188268619
 20
2.1854887031
 30
0.0
 10
3.6160934083
 20
2.2819961384
 30
0.0
 10
3.6133598826
 20
2.3786719948
 30
0.0
 10
3.6106266245
 20
2.4746717948
 30
0.0
 10
3.6078937232
 20
2.5691570637
 30
0.0
 10
3.6051613878
 20
2.6613029473
 30
0.0
 10
3.6024302227
 20
2.7503031671
 30
0.0
 10
3.5996997066
 20
2.8353824704
 30
0.0
 10
3.5969716397
 20
2.9157951452
 30
0.0
 10
3.5942463202
 20
2.9908411451
 30
0.0
 10
3.5915242921
 20
3.0598642417
 30
0.0
 10
3.5891959072
 20
3.1133373393
 30
0.0
 10
3.5873131813
 20
3.1526553674
 30
0.0
 10
3.5859443187
 20
3.1793970265
 30
0.0
 10
3.584577104
 20
3.2042224368
 30
0.0
 10
3.5832122443
 20
3.2270753819
 30
0.0
 10
3.5818504793
 20
3.2479037961
 30
0.0
 10
3.5804914527
 20
3.2666627486
 30
0.0
 10
3.5791337107
 20
3.2833141605
 30
0.0
 10
3.5779617085
 20
3.2958536698
 30
0.0
 10
3.5770093976
 20
3.3048029809
 30
0.0
 10
3.5763225549
 20
3.310697583
 30
0.0
 10
3.5756344197
 20
3.316039655
 30
0.0
 10
3.5749455517
 20
3.3208264383
 30
0.0
 10
3.5742574541
 20
3.3250563145
 30
0.0
 10
3.5735712763
 20
3.3287279727
 30
0.0
 10
3.5729786415
 20
3.3314335735
 30
0.0
 10
3.5724983638
 20
3.3333147643
 30
0.0
 10
3.5721559441
 20
3.3345190267
 30
0.0
 10
3.5718147541
 20
3.3355828641
 30
0.0
 10
3.5714749725
 20
3.3365063239
 30
0.0
 10
3.5711367433
 20
3.3372896505
 30
0.0
 10
3.5708002589
 20
3.3379334126
 30
0.0
 10
3.5704646897
 20
3.3384388425
 30
0.0
 10
3.5701290441
 20
3.3388078245
 30
0.0
 10
3.5698303537
 20
3.3390098305
 30
0.0
 10
3.5695940595
 20
3.3390869294
 30
0.0
 10
3.5694792661
 20
3.3390994686
 30
0.0
 10
3.5694233342
 20
3.3390994686
 30
0.0
  0
SPLINE
  5
2D3
100
AcDbEntity
  8
0
100
AcDbSpline
 62
7
  6
CONTINUOUS
 70
0
 71
3
 72
14
 73
10
 74
0
 42
0.0000001
 43
0.0000001
 44
0.0000000001
 40
0.0
 40
0.0
 40
0.0
 40
0.0
 40
0.0764011196
 40
0.1662221825
 40
0.269817877
 40
0.3874105472
 40
0.5191447591
 40
0.6651168304
 40
1.0
 40
1.0
 40
1.0
 40
1.0
 10
3.4756563831
 20
1.264815846
 30
0.0
 10
3.4755229221
 20
1.2650536316
 30
0.0
 10
3.4752613334
 20
1.2655871371
 30
0.0
 10
3.4749004218
 20
1.2664804592
 30
0.0
 10
3.4745399413
 20
1.2675307565
 30
0.0
 10
3.4741799019
 20
1.2687380671
 30
0.0
 10
3.4738202232
 20
1.2701024948
 30
0.0
 10
3.4733178139
 20
1.2722305241
 30
0.0
 10
3.4729782836
 20
1.2739133197
 30
0.0
 10
3.4727573312
 20
1.275087932
 30
0.0
  0
SPLINE
  5
2D4
100
AcDbEntity
  8
0
100
AcDbSpline
 62
7
  6
CONTINUOUS
 70
0
 71
3
 72
67
 73
63
 74
0
 42
0.0000001
 43
0.0000001
 44
0.0000000001
 40
0.0
 40
0.0
 40
0.0
 40
0.0
 40
0.0019130425
 40
0.0040926438
 40
0.0065389233
 40
0.009251626
 40
0.012229421
 40
0.0154704697
 40
0.0227346158
 40
0.0310283678
 40
0.0403355426
 40
0.0506393374
 40
0.061917252
 40
0.0741424056
 40
0.0872877217
 40
0.1013260629
 40
0.1162294795
 40
0.148494315
 40
0.1837948615
 40
0.2218313383
 40
0.2622655846
 40
0.3047483411
 40
0.3489087694
 40
0.394359399
 40
0.4407065144
 40
0.4875434694
 40
0.5344618601
 40
0.5810532836
 40
0.6269095632
 40
0.6716310323
 40
0.7148290883
 40
0.7561225607
 40
0.795156959
 40
0.8315866037
 40
0.8650968513
 40
0.8953971588
 40
0.909256979
 40
0.9222182675
 40
0.9342538834
 40
0.9453367458
 40
0.9554402325
 40
0.9645434362
 40
0.9726299527
 40
0.9796838052
 40
0.9828186608
 40
0.9856896387
 40
0.9882950286
 40
0.9906339778
 40
0.9927063779
 40
0.9945124154
 40
0.9960527529
 40
0.9967237624
 40
0.9973290465
 40
0.9978690879
 40
0.998344607
 40
0.9987567071
 40
0.9991071439
 40
0.9993988523
 40
0.9996370262
 40
0.9998312995
 40
0.9999174441
 40
1.0
 40
1.0
 40
1.0
 40
1.0
 10
3.4727573312
 20
1.275087932
 30
0.0
 10
3.4725136247
 20
1.2763835084
 30
0.0
 10
3.4720335371
 20
1.279162978
 30
0.0
 10
3.4713588712
 20
1.2836184396
 30
0.0
 10
3.4706825097
 20
1.2886302879
 30
0.0
 10
3.4700038624
 20
1.2941963293
 30
0.0
 10
3.4693230455
 20
1.3003134811
 30
0.0
 10
3.4683765393
 20
1.3095565164
 30
0.0
 10
3.467204327
 20
1.3224583436
 30
0.0
 10
3.4658398267
 20
1.33953895
 30
0.0
 10
3.4644724308
 20
1.3587199152
 30
0.0
 10
3.4631050138
 20
1.3799619474
 30
0.0
 10
3.4617381866
 20
1.4032185934
 30
0.0
 10
3.4603712665
 20
1.4284364469
 30
0.0
 10
3.4590041251
 20
1.4555591086
 30
0.0
 10
3.4576363839
 20
1.4845295439
 30
0.0
 10
3.4557618794
 20
1.5266660428
 30
0.0
 10
3.4534375907
 20
1.5834488184
 30
0.0
 10
3.4507118813
 20
1.6561692457
 30
0.0
 10
3.4479848611
 20
1.7345229022
 30
0.0
 10
3.4452553976
 20
1.8178286049
 30
0.0
 10
3.4425246451
 20
1.905356489
 30
0.0
 10
3.4397927429
 20
1.996342789
 30
0.0
 10
3.4370598753
 20
2.0899931914
 30
0.0
 10
3.43432679
 20
2.1854887765
 30
0.0
 10
3.4315933456
 20
2.2819962091
 30
0.0
 10
3.4288598292
 20
2.378672062
 30
0.0
 10
3.426126572
 20
2.4746718578
 30
0.0
 10
3.4233936499
 20
2.569157121
 30
0.0
 10
3.4206612847
 20
2.6613029977
 30
0.0
 10
3.4179301371
 20
2.7503032105
 30
0.0
 10
3.4151997284
 20
2.8353825098
 30
0.0
 10
3.412471703
 20
2.9157951829
 30
0.0
 10
3.4097460795
 20
2.990841173
 30
0.0
 10
3.407023699
 20
3.0598642485
 30
0.0
 10
3.4046957218
 20
3.1133373428
 30
0.0
 10
3.4028139344
 20
3.152655386
 30
0.0
 10
3.4014456263
 20
3.1793970526
 30
0.0
 10
3.400078513
 20
3.2042224731
 30
0.0
 10
3.3987130274
 20
3.2270754349
 30
0.0
 10
3.3973494025
 20
3.2479038401
 30
0.0
 10
3.3959878478
 20
3.2666627481
 30
0.0
 10
3.3946282574
 20
3.2833140944
 30
0.0
 10
3.3934562221
 20
3.2958535726
 30
0.0
 10
3.3925056269
 20
3.3048029157
 30
0.0
 10
3.3918209489
 20
3.3106974866
 30
0.0
 10
3.3911361305
 20
3.3160395464
 30
0.0
 10
3.3904514651
 20
3.3208263428
 30
0.0
 10
3.3897678294
 20
3.3250562433
 30
0.0
 10
3.3890858133
 20
3.3287279451
 30
0.0
 10
3.3884960548
 20
3.3314336012
 30
0.0
 10
3.3880173039
 20
3.3333147984
 30
0.0
 10
3.3876755309
 20
3.3345190862
 30
0.0
 10
3.3873344766
 20
3.3355829607
 30
0.0
 10
3.3869942444
 20
3.3365064758
 30
0.0
 10
3.3866549014
 20
3.3372898838
 30
0.0
 10
3.386316546
 20
3.3379337711
 30
0.0
 10
3.3859782441
 20
3.3384393612
 30
0.0
 10
3.3856388175
 20
3.3388085225
 30
0.0
 10
3.385336298
 20
3.3390101102
 30
0.0
 10
3.3850967259
 20
3.3390869776
 30
0.0
 10
3.3849801406
 20
3.3390994686
 30
0.0
 10
3.3849232504
 20
3.3390994686
 30
0.0
  0
SPLINE
  5
2D5
100
AcDbEntity
  8
0
100
AcDbSpline
 62
7
  6
CONTINUOUS
 70
0
 71
3
 72
14
 73
10
 74
0
 42
0.0000001
 43
0.0000001
 44
0.0000000001
 40
0.0
 40
0.0
 40
0.0
 40
0.0
 40
0.0747455115
 40
0.1633819193
 40
0.2662708766
 40
0.3836338937
 40
0.5156121083
 40
0.6622977268
 40
1.0
 40
1.0
 40
1.0
 40
1.0
 10
3.2912673464
 20
1.2647040483
 30
0.0
 10
3.2911325314
 20
1.2649379658
 30
0.0
 10
3.2908678455
 20
1.2654665552
 30
0.0
 10
3.2905019247
 20
1.2663565517
 30
0.0
 10
3.2901343277
 20
1.2674104618
 30
0.0
 10
3.2897653365
 20
1.2686283339
 30
0.0
 10
3.2893951343
 20
1.2700102917
 30
0.0
 10
3.2888755158
 20
1.2721753474
 30
0.0
 10
3.2885237572
 20
1.273889816
 30
0.0
 10
3.2882946089
 20
1.2750879035
 30
0.0
  0
SPLINE
  5
2D6
100
AcDbEntity
  8
0
100
AcDbSpline
 62
7
  6
CONTINUOUS
 70
0
 71
3
 72
66
 73
62
 74
0
 42
0.0000001
 43
0.0000001
 44
0.0000000001
 40
0.0
 40
0.0
 40
0.0
 40
0.0
 40
0.0019140246
 40
0.0040945001
 40
0.0065414616
 40
0.0092546053
 40
0.0122326348
 40
0.0154737661
 40
0.022737779
 40
0.0310311963
 40
0.0403379963
 40
0.0506414847
 40
0.0619191736
 40
0.0741441442
 40
0.0872892894
 40
0.1162306241
 40
0.1484949529
 40
0.1837949283
 40
0.2218308035
 40
0.2622644194
 40
0.3047465136
 40
0.348906251
 40
0.3943561692
 40
0.44070256
 40
0.4875387833
 40
0.5344564415
 40
0.5810471383
 40
0.6269027039
 40
0.6716234773
 40
0.7148208603
 40
0.7561136874
 40
0.795147479
 40
0.8315765676
 40
0.8650863017
 40
0.8953861081
 40
0.9092456787
 40
0.9222067369
 40
0.9342421637
 40
0.9453249057
 40
0.9554283724
 40
0.9645316281
 40
0.9726181688
 40
0.9796718724
 40
0.9828065216
 40
0.985677157
 40
0.9882820211
 40
0.9906202615
 40
0.9926918254
 40
0.9944969809
 40
0.9960365152
 40
0.9967072136
 40
0.9973122935
 40
0.9978522889
 40
0.9983279923
 40
0.9987406113
 40
0.9990920572
 40
0.9993855028
 40
0.9996265003
 40
0.9998251457
 40
0.9999141582
 40
1.0
 40
1.0
 40
1.0
 40
1.0
 10
3.2882946089
 20
1.2750879035
 30
0.0
 10
3.2880468267
 20
1.2763834166
 30
0.0
 10
3.2875579822
 20
1.2791627066
 30
0.0
 10
3.2868708183
 20
1.2836181125
 30
0.0
 10
3.286183339
 20
1.2886299346
 30
0.0
 10
3.2854966963
 20
1.2941960428
 30
0.0
 10
3.2848108441
 20
1.3003132649
 30
0.0
 10
3.283860809
 20
1.3095562211
 30
0.0
 10
3.2826898098
 20
1.3224581246
 30
0.0
 10
3.281331173
 20
1.3395388884
 30
0.0
 10
3.2799708849
 20
1.3587199559
 30
0.0
 10
3.2786079503
 20
1.3799619756
 30
0.0
 10
3.2772424166
 20
1.4032185651
 30
0.0
 10
3.2758748426
 20
1.4284363782
 30
0.0
 10
3.2739885292
 20
1.465816084
 30
0.0
 10
3.2716565209
 20
1.5170000397
 30
0.0
 10
3.2689364243
 20
1.5834486723
 30
0.0
 10
3.2662120511
 20
1.6561691498
 30
0.0
 10
3.2634851513
 20
1.7345227897
 30
0.0
 10
3.2607554076
 20
1.8178284851
 30
0.0
 10
3.2580244794
 20
1.9053563683
 30
0.0
 10
3.2552926361
 20
1.9963426735
 30
0.0
 10
3.2525598436
 20
2.0899930799
 30
0.0
 10
3.2498267573
 20
2.1854886678
 30
0.0
 10
3.2470932928
 20
2.2819961039
 30
0.0
 10
3.2443597873
 20
2.3786719624
 30
0.0
 10
3.2416265491
 20
2.4746717656
 30
0.0
 10
3.2388935943
 20
2.5691570364
 30
0.0
 10
3.236161164
 20
2.66130292
 30
0.0
 10
3.23343006
 20
2.750303141
 30
0.0
 10
3.2306999104
 20
2.8353824553
 30
0.0
 10
3.2279719903
 20
2.9157951468
 30
0.0
 10
3.2252456547
 20
2.990841133
 30
0.0
 10
3.2225224472
 20
3.059864175
 30
0.0
 10
3.2201954383
 20
3.1133372742
 30
0.0
 10
3.2183158727
 20
3.1526553637
 30
0.0
 10
3.2169488779
 20
3.1793970566
 30
0.0
 10
3.2155820071
 20
3.2042225097
 30
0.0
 10
3.2142150452
 20
3.2270755195
 30
0.0
 10
3.2128470277
 20
3.2479039104
 30
0.0
 10
3.2114795019
 20
3.2666627193
 30
0.0
 10
3.2101155463
 20
3.2833139166
 30
0.0
 10
3.2089434345
 20
3.2958533272
 30
0.0
 10
3.2079968955
 20
3.3048027496
 30
0.0
 10
3.2073173336
 20
3.31069725
 30
0.0
 10
3.2066403541
 20
3.3160392839
 30
0.0
 10
3.2059656208
 20
3.3208261119
 30
0.0
 10
3.2052925305
 20
3.3250560698
 30
0.0
 10
3.2046203511
 20
3.3287278738
 30
0.0
 10
3.2040373913
 20
3.3314336609
 30
0.0
 10
3.2035622493
 20
3.3333148753
 30
0.0
 10
3.2032220052
 20
3.3345192241
 30
0.0
 10
3.2028812716
 20
3.3355831874
 30
0.0
 10
3.2025399739
 20
3.3365068349
 30
0.0
 10
3.2021979961
 20
3.3372904381
 30
0.0
 10
3.2018552123
 20
3.3379346219
 30
0.0
 10
3.2015104401
 20
3.3384405882
 30
0.0
 10
3.2011620631
 20
3.3388101395
 30
0.0
 10
3.2008505348
 20
3.3390107374
 30
0.0
 10
3.2006032255
 20
3.3390870839
 30
0.0
 10
3.2004824014
 20
3.3390994686
 30
0.0
 10
3.2004232459
 20
3.3390994686
 30
0.0
  0
SPLINE
  5
2D7
100
AcDbEntity
  8
0
100
AcDbSpline
 62
7
  6
CONTINUOUS
 70
0
 71
3
 72
25
 73
21
 74
0
 42
0.0000001
 43
0.0000001
 44
0.0000000001
 40
0.0
 40
0.0
 40
0.0
 40
0.0
 40
0.0073985111
 40
0.0162728797
 40
0.026670999
 40
0.0386243942
 40
0.0521554387
 40
0.067280921
 40
0.0840082859
 40
0.1023342871
 40
0.1437581149
 40
0.1914973104
 40
0.2454852556
 40
0.3056495613
 40
0.3719143157
 40
0.4442013378
 40
0.5224310054
 40
0.6065248934
 40
0.7919973507
 40
1.0
 40
1.0
 40
1.0
 40
1.0
 10
3.0431354405
 20
1.374848753
 30
0.0
 10
3.0429706687
 20
1.3751333084
 30
0.0
 10
3.0426485439
 20
1.3757824572
 30
0.0
 10
3.0422068389
 20
1.3768831602
 30
0.0
 10
3.0417641258
 20
1.3781991002
 30
0.0
 10
3.0413206308
 20
1.3797313118
 30
0.0
 10
3.0408764923
 20
1.3814809477
 30
0.0
 10
3.0404319537
 20
1.3834485763
 30
0.0
 10
3.0399870833
 20
1.3856340389
 30
0.0
 10
3.0393678776
 20
1.3889762446
 30
0.0
 10
3.0386039973
 20
1.393692589
 30
0.0
 10
3.0377181397
 20
1.3999930987
 30
0.0
 10
3.0368307054
 20
1.4071334975
 30
0.0
 10
3.035942022
 20
1.415102692
 30
0.0
 10
3.0350525297
 20
1.4238896215
 30
0.0
 10
3.0341624796
 20
1.4334831198
 30
0.0
 10
3.0332720224
 20
1.4438721018
 30
0.0
 10
3.0320439121
 20
1.459280711
 30
0.0
 10
3.03052347
 20
1.4804515112
 30
0.0
 10
3.0294039924
 20
1.4979033327
 30
0.0
 10
3.0288385973
 20
1.5071304682
 30
0.0
  0
SPLINE
  5
2D8
100
AcDbEntity
  8
0
100
AcDbSpline
 62
7
  6
CONTINUOUS
 70
0
 71
3
 72
12
 73
8
 74
0
 42
0.0000001
 43
0.0000001
 44
0.0000000001
 40
0.0
 40
0.0
 40
0.0
 40
0.0
 40
0.0836245824
 40
0.1786810234
 40
0.4040772319
 40
0.6776174434
 40
1.0
 40
1.0
 40
1.0
 40
1.0
 10
3.10665211
 20
1.2648143274
 30
0.0
 10
3.1065511215
 20
1.2649935901
 30
0.0
 10
3.1063516343
 20
1.2653858562
 30
0.0
 10
3.1059557755
 20
1.2662982932
 30
0.0
 10
3.1054741095
 20
1.2676799655
 30
0.0
 10
3.1049243991
 20
1.2696251737
 30
0.0
 10
3.104586577
 20
1.2710523947
 30
0.0
 10
3.1044151747
 20
1.271826851
 30
0.0
  0
SPLINE
  5
2D9
100
AcDbEntity
  8
0
100
AcDbSpline
 62
7
  6
CONTINUOUS
 70
0
 71
3
 72
62
 73
58
 74
0
 42
0.0000001
 43
0.0000001
 44
0.0000000001
 40
0.0
 40
0.0
 40
0.0
 40
0.0
 40
0.0014777064
 40
0.0031627399
 40
0.005055602
 40
0.0071564415
 40
0.0094647255
 40
0.0119796037
 40
0.0176252969
 40
0.024085453
 40
0.0313513864
 40
0.0394137255
 40
0.0482592165
 40
0.0578723602
 40
0.0682375568
 40
0.0793391543
 40
0.0911605711
 40
0.1168804907
 40
0.130736394
 40
0.145227846
 40
0.1603320666
 40
0.1760234775
 40
0.2090641586
 40
0.2263614161
 40
0.2441398929
 40
0.2810213124
 40
0.3000645625
 40
0.3194694503
 40
0.3592359777
 40
0.4000609544
 40
0.4416814059
 40
0.4838261642
 40
0.5050098422
 40
0.5262220862
 40
0.5685945602
 40
0.5896859222
 40
0.6106681706
 40
0.6521701871
 40
0.6928319929
 40
0.7323879389
 40
0.7705838573
 40
0.7890933691
 40
0.8071697478
 40
0.8247846622
 40
0.8419100449
 40
0.8585178422
 40
0.8745801056
 40
0.8900709047
 40
0.9049662917
 40
0.9192423903
 40
0.9328753116
 40
0.9458415745
 40
0.9581209946
 40
0.9696949664
 40
0.9805449277
 40
0.9906523642
 40
1.0
 40
1.0
 40
1.0
 40
1.0
 10
3.1044151747
 20
1.271826851
 30
0.0
 10
3.1042052573
 20
1.2727753326
 30
0.0
 10
3.1037925772
 20
1.2748135055
 30
0.0
 10
3.1032154811
 20
1.2780867684
 30
0.0
 10
3.1026400532
 20
1.281775519
 30
0.0
 10
3.1020663466
 20
1.2858786178
 30
0.0
 10
3.1014939259
 20
1.290394374
 30
0.0
 10
3.1007010141
 20
1.2972307964
 30
0.0
 10
3.0997236916
 20
1.3067929603
 30
0.0
 10
3.0985874612
 20
1.3194772504
 30
0.0
 10
3.0974444357
 20
1.3337552949
 30
0.0
 10
3.0962909511
 20
1.3496051363
 30
0.0
 10
3.0951256229
 20
1.3670009199
 30
0.0
 10
3.0939478067
 20
1.3859129105
 30
0.0
 10
3.0927567381
 20
1.4063099295
 30
0.0
 10
3.0915516382
 20
1.4281601805
 30
0.0
 10
3.0898777971
 20
1.4600938804
 30
0.0
 10
3.0882488549
 20
1.4938429543
 30
0.0
 10
3.0866729799
 20
1.5293514615
 30
0.0
 10
3.0854836331
 20
1.5578914755
 30
0.0
 10
3.0843204837
 20
1.587640167
 30
0.0
 10
3.0827643034
 20
1.6295768482
 30
0.0
 10
3.0812561003
 20
1.6729578964
 30
0.0
 10
3.0797497671
 20
1.7177117825
 30
0.0
 10
3.078184635
 20
1.7649899914
 30
0.0
 10
3.0766146799
 20
1.8134164618
 30
0.0
 10
3.0750291297
 20
1.8629121708
 30
0.0
 10
3.0733911019
 20
1.9143038198
 30
0.0
 10
3.0713267556
 20
1.9800083004
 30
0.0
 10
3.0689071805
 20
2.0603131412
 30
0.0
 10
3.0665913407
 20
2.1421851004
 30
0.0
 10
3.0647004572
 20
2.2111518113
 30
0.0
 10
3.0631773809
 20
2.2667073607
 30
0.0
 10
3.0616403891
 20
2.3224122822
 30
0.0
 10
3.0600828347
 20
2.3780559271
 30
0.0
 10
3.0584902302
 20
2.433547317
 30
0.0
 10
3.0568805645
 20
2.4884657398
 30
0.0
 10
3.0548410872
 20
2.5562425382
 30
0.0
 10
3.0524059869
 20
2.6362231601
 30
0.0
 10
3.0500669092
 20
2.7140322869
 30
0.0
 10
3.0481429758
 20
2.7772845644
 30
0.0
 10
3.0466015329
 20
2.8264214099
 30
0.0
 10
3.0454533416
 20
2.8620341222
 30
0.0
 10
3.0442975654
 20
2.8967361838
 30
0.0
 10
3.0431303511
 20
2.9304718691
 30
0.0
 10
3.0419484129
 20
2.9631856994
 30
0.0
 10
3.0407466679
 20
2.9948235
 30
0.0
 10
3.0395276225
 20
3.025334045
 30
0.0
 10
3.038301529
 20
3.054669107
 30
0.0
 10
3.0370771525
 20
3.0827817744
 30
0.0
 10
3.0358631559
 20
3.1096254591
 30
0.0
 10
3.034669668
 20
3.1351560983
 30
0.0
 10
3.0334952126
 20
3.1593325767
 30
0.0
 10
3.0323350154
 20
3.1821168116
 30
0.0
 10
3.0311850375
 20
3.2034717937
 30
0.0
 10
3.0300410389
 20
3.2233612761
 30
0.0
 10
3.029248154
 20
3.236126367
 30
0.0
 10
3.0288487111
 20
3.2422584382
 30
0.0
  0
SPLINE
  5
2DA
100
AcDbEntity
  8
0
100
AcDbSpline
 62
7
  6
CONTINUOUS
 70
0
 71
3
 72
24
 73
20
 74
0
 42
0.0000001
 43
0.0000001
 44
0.0000000001
 40
0.0
 40
0.0
 40
0.0
 40
0.0
 40
0.0704562401
 40
0.1399410276
 40
0.2083907696
 40
0.2757545194
 40
0.3419953286
 40
0.4070768812
 40
0.4709660298
 40
0.5336536936
 40
0.5951595345
 40
0.6555279247
 40
0.7148259892
 40
0.7731560864
 40
0.8020050425
 40
0.8306681052
 40
0.8875142737
 40
0.9438891661
 40
1.0
 40
1.0
 40
1.0
 40
1.0
 10
1.6611173347
 20
3.6328010269
 30
0.0
 10
1.6546821189
 20
3.6263658112
 30
0.0
 10
1.6420376993
 20
3.6134457134
 30
0.0
 10
1.623677478
 20
3.5937578627
 30
0.0
 10
1.6061129319
 20
3.5738861016
 30
0.0
 10
1.5894092154
 20
3.553826962
 30
0.0
 10
1.5736320333
 20
3.5335789691
 30
0.0
 10
1.5588523455
 20
3.5131419332
 30
0.0
 10
1.5451478501
 20
3.492516291
 30
0.0
 10
1.5325969496
 20
3.4717049457
 30
0.0
 10
1.521280374
 20
3.450710919
 30
0.0
 10
1.5112747422
 20
3.4295427329
 30
0.0
 10
1.5026491696
 20
3.4082162462
 30
0.0
 10
1.4966484152
 20
3.3902576523
 30
0.0
 10
1.4926224805
 20
3.3758434839
 30
0.0
 10
1.4891394409
 20
3.3614859547
 30
0.0
 10
1.485754047
 20
3.3434569716
 30
0.0
 10
1.4832848113
 20
3.3217058592
 30
0.0
 10
1.4827282764
 20
3.3071702985
 30
0.0
 10
1.4827282764
 20
3.2999225124
 30
0.0
  0
SPLINE
  5
2DB
100
AcDbEntity
  8
0
100
AcDbSpline
 62
7
  6
CONTINUOUS
 70
0
 71
3
 72
20
 73
16
 74
0
 42
0.0000001
 43
0.0000001
 44
0.0000000001
 40
0.0
 40
0.0
 40
0.0
 40
0.0
 40
0.1378442698
 40
0.2722884957
 40
0.3381474606
 40
0.4030604718
 40
0.4670001561
 40
0.5299428761
 40
0.5918798673
 40
0.6528193999
 40
0.7717889633
 40
0.8299421653
 40
0.8872916357
 40
0.9439379786
 40
1.0
 40
1.0
 40
1.0
 40
1.0
 10
2.8504492181
 20
0.9697729103
 30
0.0
 10
2.8613488536
 20
0.9806725458
 30
0.0
 10
2.8824895543
 20
1.0025982002
 30
0.0
 10
2.9075253474
 20
1.0309576176
 30
0.0
 10
2.9262655625
 20
1.0539485883
 30
0.0
 10
2.9395409167
 20
1.0712110989
 30
0.0
 10
2.9520875134
 20
1.0886104593
 30
0.0
 10
2.9638571208
 20
1.1061456274
 30
0.0
 10
2.9748016563
 20
1.1238156066
 30
0.0
 10
2.9881198203
 20
1.1473586755
 30
0.0
 10
2.9997353033
 20
1.1713631538
 30
0.0
 10
3.0093636487
 20
1.1957614621
 30
0.0
 10
3.0154773253
 20
1.2140260233
 30
0.0
 10
3.0204901075
 20
1.2323804911
 30
0.0
 10
3.0230871694
 20
1.2447228499
 30
0.0
 10
3.0241899657
 20
1.2508942178
 30
0.0
  0
SPLINE
  5
2DC
100
AcDbEntity
  8
0
100
AcDbSpline
 62
7
  6
CONTINUOUS
 70
0
 71
3
 72
22
 73
18
 74
0
 42
0.0000001
 43
0.0000001
 44
0.0000000001
 40
0.0
 40
0.0
 40
0.0
 40
0.0
 40
0.041553555
 40
0.0865556287
 40
0.1349846822
 40
0.186785691
 40
0.2418681721
 40
0.3000686417
 40
0.3611917237
 40
0.4250296853
 40
0.4913557808
 40
0.5598936035
 40
0.6303492143
 40
0.7024239205
 40
0.7758024994
 40
0.8501160048
 40
1.0
 40
1.0
 40
1.0
 40
1.0
 10
6.4643186796
 20
5.3825018748
 30
0.0
 10
6.4622565594
 20
5.3816262733
 30
0.0
 10
6.4578823675
 20
5.3799851464
 30
0.0
 10
6.4509034389
 20
5.377905783
 30
0.0
 10
6.4432747966
 20
5.3761226835
 30
0.0
 10
6.4350285039
 20
5.3746489868
 30
0.0
 10
6.4261999731
 20
5.373497854
 30
0.0
 10
6.4168309143
 20
5.3726723404
 30
0.0
 10
6.4069662842
 20
5.3721764217
 30
0.0
 10
6.3966526158
 20
5.372014152
 30
0.0
 10
6.3859395464
 20
5.3721892625
 30
0.0
 10
6.3748801433
 20
5.3726979165
 30
0.0
 10
6.3635301693
 20
5.3735365377
 30
0.0
 10
6.3519468085
 20
5.3747014555
 30
0.0
 10
6.3401906047
 20
5.3761881116
 30
0.0
 10
6.3243267886
 20
5.3785895314
 30
0.0
 10
6.3124416478
 20
5.3808236681
 30
0.0
 10
6.3045369926
 20
5.3825018748
 30
0.0
  0
SPLINE
  5
2DD
100
AcDbEntity
  8
0
100
AcDbSpline
 62
7
  6
CONTINUOUS
 70
0
 71
3
 72
27
 73
23
 74
0
 42
0.0000001
 43
0.0000001
 44
0.0000000001
 40
0.0
 40
0.0
 40
0.0
 40
0.0
 40
0.0624933799
 40
0.1249920531
 40
0.1874923083
 40
0.2499932607
 40
0.2812436594
 40
0.3124937358
 40
0.3437442198
 40
0.3749956861
 40
0.4374980623
 40
0.4999999976
 40
0.5625019338
 40
0.6250043105
 40
0.6562557762
 40
0.6875062591
 40
0.7187563345
 40
0.7500067323
 40
0.8125076833
 40
0.8750079395
 40
0.9375066173
 40
1.0
 40
1.0
 40
1.0
 40
1.0
 10
6.3045369926
 20
5.3825018748
 30
0.0
 10
6.2706191861
 20
5.3897028329
 30
0.0
 10
6.2026353311
 20
5.4034320281
 30
0.0
 10
6.1002356595
 20
5.421815014
 30
0.0
 10
5.9974273667
 20
5.4377921245
 30
0.0
 10
5.9114423411
 20
5.4489444403
 30
0.0
 10
5.8424963148
 20
5.456488215
 30
0.0
 10
5.790713748
 20
5.4614363169
 30
0.0
 10
5.7388658038
 20
5.4656534142
 30
0.0
 10
5.6696607888
 20
5.4702770645
 30
0.0
 10
5.5830376665
 20
5.4741662751
 30
0.0
 10
5.47899828
 20
5.4757432731
 30
0.0
 10
5.3749588934
 20
5.4741662726
 30
0.0
 10
5.2883357703
 20
5.4702770683
 30
0.0
 10
5.219130756
 20
5.4656534172
 30
0.0
 10
5.1672828136
 20
5.4614363166
 30
0.0
 10
5.1155002485
 20
5.4564882143
 30
0.0
 10
5.0465542241
 20
5.4489444398
 30
0.0
 10
4.9605691991
 20
5.4377921242
 30
0.0
 10
4.8577609046
 20
5.4218150094
 30
0.0
 10
4.7553612277
 20
5.4034320271
 30
0.0
 10
4.6873773682
 20
5.3897028333
 30
0.0
 10
4.6534595602
 20
5.3825018748
 30
0.0
  0
SPLINE
  5
2DE
100
AcDbEntity
  8
0
100
AcDbSpline
 62
7
  6
CONTINUOUS
 70
0
 71
3
 72
22
 73
18
 74
0
 42
0.0000001
 43
0.0000001
 44
0.0000000001
 40
0.0
 40
0.0
 40
0.0
 40
0.0
 40
0.1498845686
 40
0.224198621
 40
0.2975777673
 40
0.369652837
 40
0.4401085378
 40
0.5086463109
 40
0.5749723459
 40
0.6388102106
 40
0.6999330965
 40
0.7581333307
 40
0.8132155874
 40
0.8650162738
 40
0.9134448986
 40
0.9584466013
 40
1.0
 40
1.0
 40
1.0
 40
1.0
 10
4.6534595602
 20
5.3825018748
 30
0.0
 10
4.6455548747
 20
5.3808236617
 30
0.0
 10
4.6336696735
 20
5.3785895192
 30
0.0
 10
4.6178057675
 20
5.3761880858
 30
0.0
 10
4.606049486
 20
5.3747014094
 30
0.0
 10
4.5944660707
 20
5.3735364821
 30
0.0
 10
4.5831160736
 20
5.3726978758
 30
0.0
 10
4.5720566704
 20
5.3721892458
 30
0.0
 10
4.561343612
 20
5.3720141518
 30
0.0
 10
4.5510299628
 20
5.3721764373
 30
0.0
 10
4.5411653624
 20
5.3726723804
 30
0.0
 10
4.5317963409
 20
5.3734979116
 30
0.0
 10
4.5229678516
 20
5.3746490343
 30
0.0
 10
4.5147216079
 20
5.3761227072
 30
0.0
 10
4.507093025
 20
5.3779057957
 30
0.0
 10
4.5001141484
 20
5.3799851535
 30
0.0
 10
4.4957399856
 20
5.3816262766
 30
0.0
 10
4.4936778732
 20
5.3825018748
 30
0.0
  0
SPLINE
  5
2DF
100
AcDbEntity
  8
0
100
AcDbSpline
 62
7
  6
CONTINUOUS
 70
0
 71
3
 72
29
 73
25
 74
0
 42
0.0000001
 43
0.0000001
 44
0.0000000001
 40
0.0
 40
0.0
 40
0.0
 40
0.0
 40
0.0645313918
 40
0.0965404932
 40
0.1283787493
 40
0.1915531201
 40
0.2541043458
 40
0.2851706361
 40
0.3161112184
 40
0.3469402636
 40
0.3776739015
 40
0.4389183783
 40
0.4999999979
 40
0.5610816183
 40
0.6223260953
 40
0.6530597327
 40
0.6838887772
 40
0.7148293586
 40
0.745895648
 40
0.8084468724
 40
0.8716212447
 40
0.9034595027
 40
0.935468606
 40
1.0
 40
1.0
 40
1.0
 40
1.0
 10
4.4936778732
 20
5.3825018748
 30
0.0
 10
4.4768106564
 20
5.3896639018
 30
0.0
 10
4.4513857602
 20
5.3999389436
 30
0.0
 10
4.4171969581
 20
5.412598354
 30
0.0
 10
4.383118326
 20
5.424424295
 30
0.0
 10
4.3403795635
 20
5.4377191032
 30
0.0
 10
4.2972656948
 20
5.4489136351
 30
0.0
 10
4.262709953
 20
5.4564774863
 30
0.0
 10
4.2368132812
 20
5.4614280354
 30
0.0
 10
4.2108828494
 20
5.4656474253
 30
0.0
 10
4.1763132842
 20
5.4702682296
 30
0.0
 10
4.1329973335
 20
5.474163055
 30
0.0
 10
4.0809085169
 20
5.475744183
 30
0.0
 10
4.0288197006
 20
5.4741630526
 30
0.0
 10
3.9855037491
 20
5.4702682334
 30
0.0
 10
3.9509341843
 20
5.4656474283
 30
0.0
 10
3.9250037537
 20
5.4614280351
 30
0.0
 10
3.8991070826
 20
5.4564774856
 30
0.0
 10
3.8645513417
 20
5.4489136346
 30
0.0
 10
3.8214374731
 20
5.4377191028
 30
0.0
 10
3.778698711
 20
5.4244242913
 30
0.0
 10
3.7446200769
 20
5.4125983516
 30
0.0
 10
3.7104312724
 20
5.3999389427
 30
0.0
 10
3.6850063745
 20
5.389663902
 30
0.0
 10
3.6681391571
 20
5.3825018748
 30
0.0
  0
SPLINE
  5
2E0
100
AcDbEntity
  8
0
100
AcDbSpline
 62
7
  6
CONTINUOUS
 70
0
 71
3
 72
29
 73
25
 74
0
 42
0.0000001
 43
0.0000001
 44
0.0000000001
 40
0.0
 40
0.0
 40
0.0
 40
0.0
 40
0.0645313918
 40
0.0965404932
 40
0.1283787493
 40
0.1915531201
 40
0.2541043458
 40
0.2851706361
 40
0.3161112184
 40
0.3469402636
 40
0.3776739015
 40
0.4389183783
 40
0.4999999979
 40
0.5610816183
 40
0.6223260953
 40
0.6530597327
 40
0.6838887772
 40
0.7148293586
 40
0.745895648
 40
0.8084468724
 40
0.8716212447
 40
0.9034595027
 40
0.935468606
 40
1.0
 40
1.0
 40
1.0
 40
1.0
 10
7.2898573957
 20
5.3825018748
 30
0.0
 10
7.2729901789
 20
5.3896639018
 30
0.0
 10
7.2475652827
 20
5.3999389436
 30
0.0
 10
7.2133764806
 20
5.412598354
 30
0.0
 10
7.1792978485
 20
5.424424295
 30
0.0
 10
7.136559086
 20
5.4377191032
 30
0.0
 10
7.0934452173
 20
5.4489136351
 30
0.0
 10
7.0588894755
 20
5.4564774863
 30
0.0
 10
7.0329928036
 20
5.4614280354
 30
0.0
 10
7.0070623719
 20
5.4656474253
 30
0.0
 10
6.9724928067
 20
5.4702682296
 30
0.0
 10
6.9291768559
 20
5.474163055
 30
0.0
 10
6.8770880394
 20
5.475744183
 30
0.0
 10
6.8249992231
 20
5.4741630526
 30
0.0
 10
6.7816832716
 20
5.4702682334
 30
0.0
 10
6.7471137068
 20
5.4656474283
 30
0.0
 10
6.7211832761
 20
5.4614280351
 30
0.0
 10
6.6952866051
 20
5.4564774856
 30
0.0
 10
6.6607308641
 20
5.4489136346
 30
0.0
 10
6.6176169956
 20
5.4377191028
 30
0.0
 10
6.5748782335
 20
5.4244242913
 30
0.0
 10
6.5407995994
 20
5.4125983516
 30
0.0
 10
6.5066107948
 20
5.3999389427
 30
0.0
 10
6.4811858969
 20
5.389663902
 30
0.0
 10
6.4643186796
 20
5.3825018748
 30
0.0
  0
SPLINE
  5
2E1
100
AcDbEntity
  8
0
100
AcDbSpline
 62
7
  6
CONTINUOUS
 70
0
 71
3
 72
22
 73
18
 74
0
 42
0.0000001
 43
0.0000001
 44
0.0000000001
 40
0.0
 40
0.0
 40
0.0
 40
0.0
 40
0.0415544224
 40
0.0865584416
 40
0.1349894781
 40
0.1867914085
 40
0.2418734708
 40
0.3000727973
 40
0.3611940415
 40
0.4250294641
 40
0.4913524288
 40
0.5598872749
 40
0.6303410082
 40
0.7024159006
 40
0.7757965787
 40
0.8501127465
 40
1.0
 40
1.0
 40
1.0
 40
1.0
 10
6.4643186796
 20
4.7408340701
 30
0.0
 10
6.4622565166
 20
4.7417096897
 30
0.0
 10
6.4578821633
 20
4.7433508218
 30
0.0
 10
6.4509029619
 20
4.7454301708
 30
0.0
 10
6.4432740559
 20
4.7472132808
 30
0.0
 10
6.4350276433
 20
4.7486870573
 30
0.0
 10
6.4261991537
 20
4.7498382415
 30
0.0
 10
6.4168302741
 20
4.7506636983
 30
0.0
 10
6.4069659398
 20
4.7511595485
 30
0.0
 10
6.3966526773
 20
4.7513217789
 30
0.0
 10
6.3859400751
 20
4.7511467124
 30
0.0
 10
6.3748811009
 20
4.7506381272
 30
0.0
 10
6.3635313764
 20
4.7497995536
 30
0.0
 10
6.3519479991
 20
4.7486345873
 30
0.0
 10
6.3401915365
 20
4.7471478656
 30
0.0
 10
6.3243272872
 20
4.7447464348
 30
0.0
 10
6.3124418188
 20
4.7425123131
 30
0.0
 10
6.3045369926
 20
4.7408340701
 30
0.0
  0
SPLINE
  5
2E2
100
AcDbEntity
  8
0
100
AcDbSpline
 62
7
  6
CONTINUOUS
 70
0
 71
3
 72
49
 73
45
 74
0
 42
0.0000001
 43
0.0000001
 44
0.0000000001
 40
0.0
 40
0.0
 40
0.0
 40
0.0
 40
0.0978463194
 40
0.1465300638
 40
0.194868673
 40
0.2427251247
 40
0.2899819845
 40
0.3822696331
 40
0.4708790073
 40
0.5549709937
 40
0.6337185391
 40
0.6708486283
 40
0.7063658726
 40
0.7401828569
 40
0.7722146007
 40
0.8023879759
 40
0.8306335119
 40
0.8568817917
 40
0.8810645315
 40
0.9031259086
 40
0.9230182409
 40
0.9406942057
 40
0.9561070954
 40
0.9629527851
 40
0.969220624
 40
0.9749079398
 40
0.9800122023
 40
0.9845310981
 40
0.9884626631
 40
0.990207772
 40
0.9918056165
 40
0.9932562084
 40
0.994559705
 40
0.9957166554
 40
0.9967281003
 40
0.9975956142
 40
0.9983217078
 40
0.9989107038
 40
0.9991563016
 40
0.9993713189
 40
0.9995583042
 40
0.9997211282
 40
0.9998656163
 40
1.0
 40
1.0
 40
1.0
 40
1.0
 10
7.3121279449
 20
2.3012869686
 30
0.0
 10
7.3132331799
 20
2.2521906423
 30
0.0
 10
7.314840851
 20
2.1786652195
 30
0.0
 10
7.316955839
 20
2.0808841082
 30
0.0
 10
7.3185341069
 20
2.0081870131
 30
0.0
 10
7.3201224936
 20
1.936206459
 30
0.0
 10
7.3222372961
 20
1.8421742725
 30
0.0
 10
7.3248844386
 20
1.7276951314
 30
0.0
 10
7.3280774888
 20
1.5947362801
 30
0.0
 10
7.3312585167
 20
1.4685749104
 30
0.0
 10
7.3339585685
 20
1.3682470258
 30
0.0
 10
7.3361343004
 20
1.292293543
 30
0.0
 10
7.337733812
 20
1.2388833592
 30
0.0
 10
7.3393329099
 20
1.1880332067
 30
0.0
 10
7.3409315605
 20
1.1398665041
 30
0.0
 10
7.3425294508
 20
1.094497694
 30
0.0
 10
7.3441264242
 20
1.0520334638
 30
0.0
 10
7.3457222827
 20
1.0125781418
 30
0.0
 10
7.3473172662
 20
0.9762293223
 30
0.0
 10
7.3489109359
 20
0.9430738079
 30
0.0
 10
7.3505022762
 20
0.91318802
 30
0.0
 10
7.3520906532
 20
0.8866441969
 30
0.0
 10
7.3534590811
 20
0.8666475369
 30
0.0
 10
7.3545680648
 20
0.8523731332
 30
0.0
 10
7.3553659691
 20
0.8429707462
 30
0.0
 10
7.356163076
 20
0.8344457388
 30
0.0
 10
7.3569591202
 20
0.8268026152
 30
0.0
 10
7.3577538589
 20
0.8200458995
 30
0.0
 10
7.3584387728
 20
0.8149744068
 30
0.0
 10
7.3589934709
 20
0.8113656334
 30
0.0
 10
7.3593925175
 20
0.8089929962
 30
0.0
 10
7.3597912019
 20
0.8068453397
 30
0.0
 10
7.3601894881
 20
0.8049230595
 30
0.0
 10
7.3605872348
 20
0.8032262667
 30
0.0
 10
7.3609842422
 20
0.801754842
 30
0.0
 10
7.361380196
 20
0.8005080867
 30
0.0
 10
7.3617749764
 20
0.7994855315
 30
0.0
 10
7.3621205944
 20
0.7987803417
 30
0.0
 10
7.3624038158
 20
0.7983354838
 30
0.0
 10
7.3626034843
 20
0.7980782517
 30
0.0
 10
7.3628038371
 20
0.7978764225
 30
0.0
 10
7.3630059305
 20
0.7977300494
 30
0.0
 10
7.3632108201
 20
0.797640205
 30
0.0
 10
7.363351438
 20
0.7976195733
 30
0.0
 10
7.3634188848
 20
0.7976195677
 30
0.0
  0
SPLINE
  5
2E3
100
AcDbEntity
  8
0
100
AcDbSpline
 62
7
  6
CONTINUOUS
 70
0
 71
3
 72
50
 73
46
 74
0
 42
0.0000001
 43
0.0000001
 44
0.0000000001
 40
0.0
 40
0.0
 40
0.0
 40
0.0
 40
0.0978461589
 40
0.1465298327
 40
0.194868374
 40
0.2427247565
 40
0.2899815474
 40
0.3822690694
 40
0.4270863613
 40
0.4708783392
 40
0.5549702367
 40
0.633717717
 40
0.6708477848
 40
0.7063650156
 40
0.7401819943
 40
0.7722137399
 40
0.8023871243
 40
0.8306326772
 40
0.8568809824
 40
0.8810637567
 40
0.9031251772
 40
0.9230175621
 40
0.9406935884
 40
0.9561065488
 40
0.9629522769
 40
0.9692201561
 40
0.9749075144
 40
0.9800118213
 40
0.9845307636
 40
0.988462377
 40
0.9902075108
 40
0.9918053807
 40
0.9932559985
 40
0.9945595213
 40
0.9957164983
 40
0.99672797
 40
0.9975955107
 40
0.998321631
 40
0.998910653
 40
0.9991562632
 40
0.9993712921
 40
0.9995582879
 40
0.9997211205
 40
0.9998656144
 40
1.0
 40
1.0
 40
1.0
 40
1.0
 10
7.5172919449
 20
2.3012869686
 30
0.0
 10
7.518414089
 20
2.2521911086
 30
0.0
 10
7.520026537
 20
2.1786658966
 30
0.0
 10
7.5221312442
 20
2.0808847202
 30
0.0
 10
7.5236993919
 20
2.0081875133
 30
0.0
 10
7.5252821113
 20
1.9362069403
 30
0.0
 10
7.5273956358
 20
1.8421748618
 30
0.0
 10
7.5295382767
 20
1.7496691427
 30
0.0
 10
7.531701914
 20
1.6589033881
 30
0.0
 10
7.5338097854
 20
1.5722508414
 30
0.0
 10
7.5364230251
 20
1.4685761051
 30
0.0
 10
7.5391221164
 20
1.3682482871
 30
0.0
 10
7.5412979181
 20
1.2922948596
 30
0.0
 10
7.5428975846
 20
1.2388847032
 30
0.0
 10
7.5444968704
 20
1.1880345676
 30
0.0
 10
7.5460956059
 20
1.1398678675
 30
0.0
 10
7.5476935023
 20
1.0944990457
 30
0.0
 10
7.5492904365
 20
1.0520347901
 30
0.0
 10
7.5508862401
 20
1.0125794291
 30
0.0
 10
7.5524811888
 20
0.9762305578
 30
0.0
 10
7.554074849
 20
0.9430749789
 30
0.0
 10
7.5556661939
 20
0.9131891134
 30
0.0
 10
7.5572545821
 20
0.8866451994
 30
0.0
 10
7.5586230172
 20
0.866648455
 30
0.0
 10
7.5597320024
 20
0.8523739768
 30
0.0
 10
7.5605299066
 20
0.8429715292
 30
0.0
 10
7.5613270123
 20
0.8344464579
 30
0.0
 10
7.5621230546
 20
0.8268032673
 30
0.0
 10
7.5629177907
 20
0.8200464812
 30
0.0
 10
7.5636027018
 20
0.8149749277
 30
0.0
 10
7.5641573974
 20
0.811366104
 30
0.0
 10
7.5645564426
 20
0.8089934279
 30
0.0
 10
7.5649551256
 20
0.8068457315
 30
0.0
 10
7.5653534105
 20
0.8049234109
 30
0.0
 10
7.565751156
 20
0.8032265769
 30
0.0
 10
7.5661481624
 20
0.8017551103
 30
0.0
 10
7.5665441153
 20
0.8005083125
 30
0.0
 10
7.566938895
 20
0.7994857144
 30
0.0
 10
7.5672845119
 20
0.798780488
 30
0.0
 10
7.5675677319
 20
0.7983355998
 30
0.0
 10
7.5677673999
 20
0.7980783454
 30
0.0
 10
7.5679677519
 20
0.797876494
 30
0.0
 10
7.568169844
 20
0.7977300983
 30
0.0
 10
7.5683747317
 20
0.7976402302
 30
0.0
 10
7.568515351
 20
0.7976195813
 30
0.0
 10
7.5685827987
 20
0.7976195679
 30
0.0
  0
LINE
  5
2E4
100
AcDbEntity
  8
0
100
AcDbLine
 62
7
  6
CONTINUOUS
 10
7.6376482557
 20
2.1070289687
 11
7.6328762301
 21
2.3097716815
  0
SPLINE
  5
2E5
100
AcDbEntity
  8
0
100
AcDbSpline
 62
7
  6
CONTINUOUS
 70
0
 71
3
 72
47
 73
43
 74
0
 42
0.0000001
 43
0.0000001
 44
0.0000000001
 40
0.0
 40
0.0
 40
0.0
 40
0.0
 40
0.0982055748
 40
0.1953987583
 40
0.2906853678
 40
0.3831800432
 40
0.4719439318
 40
0.5560245627
 40
0.6346493969
 40
0.6717188423
 40
0.7071883825
 40
0.7409774529
 40
0.7730046428
 40
0.8031885745
 40
0.8314480556
 40
0.8577056182
 40
0.8818878615
 40
0.9039217127
 40
0.9237343044
 40
0.941268093
 40
0.9565103693
 40
0.9632709956
 40
0.9694574027
 40
0.9750693295
 40
0.9801066783
 40
0.9845695752
 40
0.9884575328
 40
0.990185558
 40
0.9917694973
 40
0.9932094052
 40
0.9945054915
 40
0.9956582004
 40
0.9966683427
 40
0.9975373361
 40
0.9982676676
 40
0.9988638672
 40
0.9991143676
 40
0.9993353007
 40
0.999529371
 40
0.999700594
 40
0.999854818
 40
1.0
 40
1.0
 40
1.0
 40
1.0
 10
7.6328762301
 20
2.3097716815
 30
0.0
 10
7.6318122745
 20
2.3551285772
 30
0.0
 10
7.6296951542
 20
2.4453747848
 30
0.0
 10
7.6265149035
 20
2.5796290208
 30
0.0
 10
7.6233355502
 20
2.7112441866
 30
0.0
 10
7.6201561474
 20
2.8389639917
 30
0.0
 10
7.6169780851
 20
2.9615051967
 30
0.0
 10
7.6137997673
 20
3.0776364967
 30
0.0
 10
7.6111025216
 20
3.1698899036
 30
0.0
 10
7.608932999
 20
3.2396914318
 30
0.0
 10
7.6073387863
 20
3.2887874003
 30
0.0
 10
7.6057452973
 20
3.3355526695
 30
0.0
 10
7.6041522957
 20
3.3798746031
 30
0.0
 10
7.6025596959
 20
3.4216402307
 30
0.0
 10
7.6009672474
 20
3.4607383346
 30
0.0
 10
7.5993751086
 20
3.4970613123
 30
0.0
 10
7.5977840644
 20
3.5305052301
 30
0.0
 10
7.5961948188
 20
3.5609681052
 30
0.0
 10
7.5946081252
 20
3.5883550826
 30
0.0
 10
7.5930226586
 20
3.6125986429
 30
0.0
 10
7.5916562117
 20
3.6308132196
 30
0.0
 10
7.5905496172
 20
3.643789228
 30
0.0
 10
7.5897538621
 20
3.6523262645
 30
0.0
 10
7.5889589351
 20
3.6600634821
 30
0.0
 10
7.5881650591
 20
3.6669999809
 30
0.0
 10
7.587372544
 20
3.6731343694
 30
0.0
 10
7.5866898782
 20
3.6777407741
 30
0.0
 10
7.5861371535
 20
3.6810208811
 30
0.0
 10
7.5857393316
 20
3.6831799248
 30
0.0
 10
7.5853418476
 20
3.6851358177
 30
0.0
 10
7.5849447598
 20
3.6868880856
 30
0.0
 10
7.5845482019
 20
3.6884363491
 30
0.0
 10
7.5841523286
 20
3.6897802703
 30
0.0
 10
7.5837573833
 20
3.6909199916
 30
0.0
 10
7.5833634528
 20
3.6918554548
 30
0.0
 10
7.5830187713
 20
3.6924996875
 30
0.0
 10
7.582736903
 20
3.6929051415
 30
0.0
 10
7.5825375553
 20
3.6931399996
 30
0.0
 10
7.5823374581
 20
3.693323812
 30
0.0
 10
7.58213571
 20
3.6934563164
 30
0.0
 10
7.5819316103
 20
3.6935363903
 30
0.0
 10
7.58179249
 20
3.6935535192
 30
0.0
 10
7.5817254228
 20
3.6935527366
 30
0.0
  0
SPLINE
  5
2E6
100
AcDbEntity
  8
0
100
AcDbSpline
 62
7
  6
CONTINUOUS
 70
0
 71
3
 72
20
 73
16
 74
0
 42
0.0000001
 43
0.0000001
 44
0.0000000001
 40
0.0
 40
0.0
 40
0.0
 40
0.0
 40
0.124964639
 40
0.2499498221
 40
0.3124523155
 40
0.3749577503
 40
0.4999418831
 40
0.5624408187
 40
0.6249470193
 40
0.6874547622
 40
0.7499656252
 40
0.78122646
 40
0.8124913247
 40
0.8750206294
 40
1.0
 40
1.0
 40
1.0
 40
1.0
 10
1.6611173347
 20
2.9670439978
 30
0.0
 10
1.6481598053
 20
2.9411289389
 30
0.0
 10
1.6231409206
 20
2.8888383214
 30
0.0
 10
1.5945288979
 20
2.8222573555
 30
0.0
 10
1.5734964742
 20
2.7682394504
 30
0.0
 10
1.5537977915
 20
2.7137226776
 30
0.0
 10
1.5362492918
 20
2.6584435201
 30
0.0
 10
1.5211801719
 20
2.6024672865
 30
0.0
 10
1.5111913865
 20
2.5601462098
 30
0.0
 10
1.5025841513
 20
2.5175199219
 30
0.0
 10
1.4966215289
 20
2.4817712699
 30
0.0
 10
1.4926133908
 20
2.4530578097
 30
0.0
 10
1.4891235141
 20
2.4242719483
 30
0.0
 10
1.4843902433
 20
2.3737613609
 30
0.0
 10
1.4827282764
 20
2.3302643009
 30
0.0
 10
1.4827282764
 20
2.3012869686
 30
0.0
  0
SPLINE
  5
2E7
100
AcDbEntity
  8
0
100
AcDbSpline
 62
7
  6
CONTINUOUS
 70
0
 71
3
 72
29
 73
25
 74
0
 42
0.0000001
 43
0.0000001
 44
0.0000000001
 40
0.0
 40
0.0
 40
0.0
 40
0.0
 40
0.0645313911
 40
0.0965404919
 40
0.1283787474
 40
0.191553118
 40
0.2541043443
 40
0.2851706349
 40
0.3161112175
 40
0.3469402629
 40
0.3776739008
 40
0.4389183777
 40
0.4999999972
 40
0.5610816176
 40
0.6223260947
 40
0.653059732
 40
0.6838887763
 40
0.7148293574
 40
0.7458956465
 40
0.8084468703
 40
0.8716212429
 40
0.9034595014
 40
0.9354686053
 40
1.0
 40
1.0
 40
1.0
 40
1.0
 10
6.4643186796
 20
4.7408340701
 30
0.0
 10
6.4811858962
 20
4.7336720432
 30
0.0
 10
6.5066107925
 20
4.7233970026
 30
0.0
 10
6.5407995949
 20
4.7107375944
 30
0.0
 10
6.5748782273
 20
4.6989116555
 30
0.0
 10
6.6176169901
 20
4.6856168486
 30
0.0
 10
6.6607308582
 20
4.674422314
 30
0.0
 10
6.6952865998
 20
4.6668584602
 30
0.0
 10
6.7211832715
 20
4.6619079093
 30
0.0
 10
6.7471137033
 20
4.6576885182
 30
0.0
 10
6.7816832684
 20
4.6530677132
 30
0.0
 10
6.8249992193
 20
4.649172888
 30
0.0
 10
6.8770880359
 20
4.6475917618
 30
0.0
 10
6.9291768521
 20
4.6491728942
 30
0.0
 10
6.9724928036
 20
4.6530677136
 30
0.0
 10
7.0070623684
 20
4.6576885179
 30
0.0
 10
7.0329927991
 20
4.6619079099
 30
0.0
 10
7.0588894702
 20
4.6668584577
 30
0.0
 10
7.0934452114
 20
4.674422306
 30
0.0
 10
7.1365590805
 20
4.6856168352
 30
0.0
 10
7.1792978423
 20
4.6989116479
 30
0.0
 10
7.2133764761
 20
4.7107375898
 30
0.0
 10
7.2475652803
 20
4.7233970009
 30
0.0
 10
7.2729901781
 20
4.7336720428
 30
0.0
 10
7.2898573957
 20
4.7408340701
 30
0.0
  0
SPLINE
  5
2E8
100
AcDbEntity
  8
0
100
AcDbSpline
 62
7
  6
CONTINUOUS
 70
0
 71
3
 72
12
 73
8
 74
0
 42
0.0000001
 43
0.0000001
 44
0.0000000001
 40
0.0
 40
0.0
 40
0.0
 40
0.0
 40
0.0828288
 40
0.1772822477
 40
0.4021244583
 40
0.6760896363
 40
1.0
 40
1.0
 40
1.0
 40
1.0
 10
7.477824635
 20
0.9100890411
 30
0.0
 10
7.4777328062
 20
0.9102496221
 30
0.0
 10
7.4775511956
 20
0.9106019097
 30
0.0
 10
7.4771897867
 20
0.9114244633
 30
0.0
 10
7.4767483101
 20
0.9126754021
 30
0.0
 10
7.4762421396
 20
0.9144422614
 30
0.0
 10
7.4759299622
 20
0.9157409149
 30
0.0
 10
7.4757711776
 20
0.9164466688
 30
0.0
  0
SPLINE
  5
2E9
100
AcDbEntity
  8
0
100
AcDbSpline
 62
7
  6
CONTINUOUS
 70
0
 71
3
 72
74
 73
70
 74
0
 42
0.0000001
 43
0.0000001
 44
0.0000000001
 40
0.0
 40
0.0
 40
0.0
 40
0.0
 40
0.0014097268
 40
0.0030994548
 40
0.005070831
 40
0.0073244653
 40
0.009858231
 40
0.0126691218
 40
0.0157540179
 40
0.0191097245
 40
0.0266205254
 40
0.0351752188
 40
0.0447484159
 40
0.0553213405
 40
0.0668773463
 40
0.0793997152
 40
0.0928715815
 40
0.107269144
 40
0.1225572274
 40
0.1386995772
 40
0.1734013764
 40
0.2110477902
 40
0.251256209
 40
0.2936457977
 40
0.3378611853
 40
0.3835471622
 40
0.4302892084
 40
0.4776390395
 40
0.5251654326
 40
0.5724589254
 40
0.6191031475
 40
0.6646595715
 40
0.7086934959
 40
0.7508145937
 40
0.7906518724
 40
0.8278767792
 40
0.8454166788
 40
0.862191688
 40
0.8781598318
 40
0.8932766099
 40
0.9074975128
 40
0.9207780834
 40
0.9330816913
 40
0.9443903899
 40
0.9546890186
 40
0.9639625002
 40
0.9721960476
 40
0.9793770443
 40
0.9825694115
 40
0.9854945828
 40
0.9881512999
 40
0.9905383859
 40
0.9926547883
 40
0.994499653
 40
0.995320091
 40
0.9960724632
 40
0.9967567802
 40
0.9973731283
 40
0.9979217075
 40
0.9984028953
 40
0.9988173625
 40
0.999166294
 40
0.9994518509
 40
0.9995721486
 40
0.9996784839
 40
0.9997721288
 40
0.9998549594
 40
0.99992969
 40
1.0
 40
1.0
 40
1.0
 40
1.0
 10
7.4757711776
 20
0.9164466688
 30
0.0
 10
7.4754843711
 20
0.9177214449
 30
0.0
 10
7.4749267538
 20
0.9205405723
 30
0.0
 10
7.4741611942
 20
0.9251782598
 30
0.0
 10
7.473393472
 20
0.9306068735
 30
0.0
 10
7.4726245351
 20
0.9368242757
 30
0.0
 10
7.4718544348
 20
0.9438248882
 30
0.0
 10
7.4710834744
 20
0.9516000247
 30
0.0
 10
7.4703118415
 20
0.9601403116
 30
0.0
 10
7.4692417605
 20
0.9730272682
 30
0.0
 10
7.4679202671
 20
0.9909801148
 30
0.0
 10
7.4663840738
 20
1.0146944929
 30
0.0
 10
7.4648449031
 20
1.0412521868
 30
0.0
 10
7.4633036973
 20
1.0705957859
 30
0.0
 10
7.4617609675
 20
1.1026762481
 30
0.0
 10
7.4602167955
 20
1.1374464482
 30
0.0
 10
7.4586716103
 20
1.1748527753
 30
0.0
 10
7.457125719
 20
1.2148245827
 30
0.0
 10
7.4555788095
 20
1.2572732936
 30
0.0
 10
7.4534641444
 20
1.3185331981
 30
0.0
 10
7.4508426959
 20
1.400511183
 30
0.0
 10
7.4477674603
 20
1.5047919306
 30
0.0
 10
7.4446890096
 20
1.6162010929
 30
0.0
 10
7.4416066102
 20
1.7337009562
 30
0.0
 10
7.4385212842
 20
1.8562794252
 30
0.0
 10
7.4354348446
 20
1.982893283
 30
0.0
 10
7.4323477643
 20
2.1124132036
 30
0.0
 10
7.4292613045
 20
2.2436394511
 30
0.0
 10
7.4261763108
 20
2.3753769953
 30
0.0
 10
7.4230920144
 20
2.5064603648
 30
0.0
 10
7.420007906
 20
2.6357173128
 30
0.0
 10
7.4169236793
 20
2.7619521691
 30
0.0
 10
7.4138377977
 20
2.8839933241
 30
0.0
 10
7.4107536227
 20
3.0007318304
 30
0.0
 10
7.4076726354
 20
3.1111569975
 30
0.0
 10
7.4050592653
 20
3.1988025031
 30
0.0
 10
7.4029559909
 20
3.2650776754
 30
0.0
 10
7.4014101522
 20
3.3116581925
 30
0.0
 10
7.3998645273
 20
3.3559914904
 30
0.0
 10
7.3983191695
 20
3.397955947
 30
0.0
 10
7.3967743564
 20
3.4374275932
 30
0.0
 10
7.3952299846
 20
3.4742896763
 30
0.0
 10
7.3936852518
 20
3.5084499538
 30
0.0
 10
7.3921416583
 20
3.5398433491
 30
0.0
 10
7.3905997573
 20
3.5684245881
 30
0.0
 10
7.3890603734
 20
3.5941511578
 30
0.0
 10
7.387523973
 20
3.6169824849
 30
0.0
 10
7.3862008871
 20
3.6341783866
 30
0.0
 10
7.3851294169
 20
3.6464579211
 30
0.0
 10
7.3843582522
 20
3.6545540243
 30
0.0
 10
7.3835878278
 20
3.6619001158
 30
0.0
 10
7.3828183559
 20
3.6684921775
 30
0.0
 10
7.3820500349
 20
3.6743261713
 30
0.0
 10
7.3813880683
 20
3.6787089379
 30
0.0
 10
7.3808520948
 20
3.6818311293
 30
0.0
 10
7.3804662156
 20
3.6838874115
 30
0.0
 10
7.3800806304
 20
3.6857509817
 30
0.0
 10
7.3796953966
 20
3.6874213296
 30
0.0
 10
7.3793106422
 20
3.6888980355
 30
0.0
 10
7.3789265147
 20
3.6901807217
 30
0.0
 10
7.3785432364
 20
3.6912694622
 30
0.0
 10
7.378160886
 20
3.6921641484
 30
0.0
 10
7.3778264644
 20
3.692780902
 30
0.0
 10
7.3775531689
 20
3.6931697521
 30
0.0
 10
7.377359702
 20
3.6933956607
 30
0.0
 10
7.3771655326
 20
3.6935729916
 30
0.0
 10
7.3769698427
 20
3.6937014888
 30
0.0
 10
7.3767720104
 20
3.6937801378
 30
0.0
 10
7.3766370621
 20
3.6937982163
 30
0.0
 10
7.3765718935
 20
3.6937983158
 30
0.0
  0
SPLINE
  5
2EA
100
AcDbEntity
  8
0
100
AcDbSpline
 62
7
  6
CONTINUOUS
 70
0
 71
3
 72
40
 73
36
 74
0
 42
0.0000001
 43
0.0000001
 44
0.0000000001
 40
0.0
 40
0.0
 40
0.0
 40
0.0
 40
0.0006004361
 40
0.0013322884
 40
0.0021991863
 40
0.0032032961
 40
0.0043460039
 40
0.0056282376
 40
0.0086127463
 40
0.012157803
 40
0.0162625791
 40
0.0209255069
 40
0.0261445992
 40
0.0319176134
 40
0.0382421424
 40
0.0525354823
 40
0.0689967415
 40
0.0875840065
 40
0.1082534717
 40
0.1309610864
 40
0.1556603664
 40
0.1822916601
 40
0.2107905876
 40
0.2410927078
 40
0.3068391483
 40
0.3789242243
 40
0.4566956015
 40
0.5394369892
 40
0.6263781505
 40
0.7167389044
 40
0.7629543143
 40
0.8097274049
 40
0.8569468803
 40
0.9044848641
 40
1.0
 40
1.0
 40
1.0
 40
1.0
 10
7.5420454094
 20
0.7987817424
 30
0.0
 10
7.5418997819
 20
0.7990451638
 30
0.0
 10
7.541616736
 20
0.7996516893
 30
0.0
 10
7.5412314542
 20
0.8006852223
 30
0.0
 10
7.5408450071
 20
0.8019320716
 30
0.0
 10
7.5404576957
 20
0.8033926433
 30
0.0
 10
7.5400696759
 20
0.8050674778
 30
0.0
 10
7.5395237067
 20
0.8077238932
 30
0.0
 10
7.5388540742
 20
0.8115830754
 30
0.0
 10
7.5380820601
 20
0.8168581801
 30
0.0
 10
7.5373080163
 20
0.8229820961
 30
0.0
 10
7.5365322871
 20
0.8299507468
 30
0.0
 10
7.535755481
 20
0.8377601355
 30
0.0
 10
7.5349777945
 20
0.8464060696
 30
0.0
 10
7.5338953992
 20
0.8595914296
 30
0.0
 10
7.5325604603
 20
0.8781314375
 30
0.0
 10
7.5310126079
 20
0.9028179939
 30
0.0
 10
7.5294616522
 20
0.9307062133
 30
0.0
 10
7.5279082481
 20
0.9617298558
 30
0.0
 10
7.5263531642
 20
0.9958208056
 30
0.0
 10
7.5247971649
 20
1.0329031812
 30
0.0
 10
7.5232401943
 20
1.0728910249
 30
0.0
 10
7.5216824048
 20
1.115689489
 30
0.0
 10
7.5195461261
 20
1.1780879458
 30
0.0
 10
7.5169008176
 20
1.2623310623
 30
0.0
 10
7.5138004433
 20
1.370367224
 30
0.0
 10
7.5106937869
 20
1.4869259217
 30
0.0
 10
7.507584471
 20
1.6109342892
 30
0.0
 10
7.5044842536
 20
1.7412557338
 30
0.0
 10
7.5019234797
 20
1.8532744904
 30
0.0
 10
7.4998530658
 20
1.9451631479
 30
0.0
 10
7.4982772528
 20
2.0154309732
 30
0.0
 10
7.4966926152
 20
2.0863617667
 30
0.0
 10
7.4945853973
 20
2.1817210993
 30
0.0
 10
7.4930405116
 20
2.25341622
 30
0.0
 10
7.492039379
 20
2.3012869686
 30
0.0
  0
SPLINE
  5
2EB
100
AcDbEntity
  8
0
100
AcDbSpline
 62
7
  6
CONTINUOUS
 70
0
 71
3
 72
24
 73
20
 74
0
 42
0.0000001
 43
0.0000001
 44
0.0000000001
 40
0.0
 40
0.0
 40
0.0
 40
0.0
 40
0.0561108395
 40
0.1124857522
 40
0.1693319508
 40
0.1979950287
 40
0.2268439966
 40
0.2851741018
 40
0.3444721657
 40
0.4048405563
 40
0.4663463988
 40
0.5290340541
 40
0.5929231912
 40
0.6580047382
 40
0.7242455505
 40
0.7916092877
 40
0.8600590068
 40
0.9295437715
 40
1.0
 40
1.0
 40
1.0
 40
1.0
 10
1.4827282764
 20
3.2999225124
 30
0.0
 10
1.4827282764
 20
3.2926747255
 30
0.0
 10
1.4832848164
 20
3.2781391616
 30
0.0
 10
1.4857540632
 20
3.2563880434
 30
0.0
 10
1.4891394607
 20
3.2383590527
 30
0.0
 10
1.492622494
 20
3.2240015146
 30
0.0
 10
1.4966484177
 20
3.2095873385
 30
0.0
 10
1.5026491739
 20
3.1916287423
 30
0.0
 10
1.511274756
 20
3.1703022584
 30
0.0
 10
1.5212803966
 20
3.1491340767
 30
0.0
 10
1.5325969685
 20
3.1281400492
 30
0.0
 10
1.5451478669
 20
3.1073287055
 30
0.0
 10
1.558852361
 20
3.0867030665
 30
0.0
 10
1.5736320501
 20
3.0662660339
 30
0.0
 10
1.5894092355
 20
3.0460180464
 30
0.0
 10
1.6061129495
 20
3.0259589103
 30
0.0
 10
1.6236774894
 20
3.006087154
 30
0.0
 10
1.642037704
 20
2.9863993074
 30
0.0
 10
1.65468212
 20
2.9734792125
 30
0.0
 10
1.6611173347
 20
2.9670439978
 30
0.0
  0
SPLINE
  5
2EC
100
AcDbEntity
  8
0
100
AcDbSpline
 62
7
  6
CONTINUOUS
 70
0
 71
3
 72
20
 73
16
 74
0
 42
0.0000001
 43
0.0000001
 44
0.0000000001
 40
0.0
 40
0.0
 40
0.0
 40
0.0
 40
0.1249793971
 40
0.1875087347
 40
0.218773619
 40
0.2500344709
 40
0.312545343
 40
0.3750530776
 40
0.4375592707
 40
0.5000582079
 40
0.6250423211
 40
0.6875477469
 40
0.7500502374
 40
0.8750353884
 40
1.0
 40
1.0
 40
1.0
 40
1.0
 10
3.0288382764
 20
2.3012869686
 30
0.0
 10
3.0288382764
 20
2.330264307
 30
0.0
 10
3.0271762952
 20
2.3737613804
 30
0.0
 10
3.0224430203
 20
2.4242719854
 30
0.0
 10
3.0189531503
 20
2.4530578638
 30
0.0
 10
3.014945024
 20
2.4817713364
 30
0.0
 10
3.0089823998
 20
2.5175199925
 30
0.0
 10
3.0003751539
 20
2.5601462765
 30
0.0
 10
2.9903863579
 20
2.6024673472
 30
0.0
 10
2.9753172437
 20
2.658443576
 30
0.0
 10
2.9577687469
 20
2.7137227279
 30
0.0
 10
2.938070063
 20
2.7682394924
 30
0.0
 10
2.9170376348
 20
2.8222573847
 30
0.0
 10
2.8884256208
 20
2.8888383383
 30
0.0
 10
2.8634067447
 20
2.9411289446
 30
0.0
 10
2.8504492181
 20
2.9670439978
 30
0.0
  0
SPLINE
  5
2ED
100
AcDbEntity
  8
0
100
AcDbSpline
 62
7
  6
CONTINUOUS
 70
0
 71
3
 72
29
 73
25
 74
0
 42
0.0000001
 43
0.0000001
 44
0.0000000001
 40
0.0
 40
0.0
 40
0.0
 40
0.0
 40
0.0645313911
 40
0.0965404919
 40
0.1283787474
 40
0.191553118
 40
0.2541043443
 40
0.2851706349
 40
0.3161112175
 40
0.3469402629
 40
0.3776739008
 40
0.4389183777
 40
0.4999999972
 40
0.5610816176
 40
0.6223260947
 40
0.653059732
 40
0.6838887763
 40
0.7148293574
 40
0.7458956465
 40
0.8084468703
 40
0.8716212429
 40
0.9034595014
 40
0.9354686053
 40
1.0
 40
1.0
 40
1.0
 40
1.0
 10
3.6681391571
 20
4.7408340701
 30
0.0
 10
3.6850063737
 20
4.7336720432
 30
0.0
 10
3.71043127
 20
4.7233970026
 30
0.0
 10
3.7446200724
 20
4.7107375944
 30
0.0
 10
3.7786987048
 20
4.6989116555
 30
0.0
 10
3.8214374676
 20
4.6856168486
 30
0.0
 10
3.8645513358
 20
4.674422314
 30
0.0
 10
3.8991070773
 20
4.6668584602
 30
0.0
 10
3.9250037491
 20
4.6619079093
 30
0.0
 10
3.9509341808
 20
4.6576885182
 30
0.0
 10
3.9855037459
 20
4.6530677132
 30
0.0
 10
4.0288196968
 20
4.649172888
 30
0.0
 10
4.0809085134
 20
4.6475917618
 30
0.0
 10
4.1329973297
 20
4.6491728942
 30
0.0
 10
4.1763132811
 20
4.6530677136
 30
0.0
 10
4.2108828459
 20
4.6576885179
 30
0.0
 10
4.2368132766
 20
4.6619079099
 30
0.0
 10
4.2627099477
 20
4.6668584577
 30
0.0
 10
4.2972656889
 20
4.674422306
 30
0.0
 10
4.340379558
 20
4.6856168352
 30
0.0
 10
4.3831183198
 20
4.6989116479
 30
0.0
 10
4.4171969536
 20
4.7107375898
 30
0.0
 10
4.4513857579
 20
4.7233970009
 30
0.0
 10
4.4768106557
 20
4.7336720428
 30
0.0
 10
4.4936778732
 20
4.7408340701
 30
0.0
  0
LINE
  5
2EE
100
AcDbEntity
  8
0
100
AcDbLine
 62
7
  6
CONTINUOUS
 10
7.5314024241
 20
3.6923936018
 11
7.5319960355
 21
3.6911414162
  0
SPLINE
  5
2EF
100
AcDbEntity
  8
0
100
AcDbSpline
 62
7
  6
CONTINUOUS
 70
0
 71
3
 72
79
 73
75
 74
0
 42
0.0000001
 43
0.0000001
 44
0.0000000001
 40
0.0
 40
0.0
 40
0.0
 40
0.0
 40
0.0004125892
 40
0.0008930268
 40
0.0014420869
 40
0.0020602266
 40
0.0027477128
 40
0.0035046909
 40
0.0052272889
 40
0.0072280204
 40
0.0095063392
 40
0.0120615518
 40
0.0148933533
 40
0.0180014917
 40
0.021385647
 40
0.0289804773
 40
0.0376745856
 40
0.0474636539
 40
0.0583269373
 40
0.0702272811
 40
0.0831267289
 40
0.096987264
 40
0.1117710358
 40
0.1274409373
 40
0.1612913031
 40
0.1982409745
 40
0.2379794197
 40
0.2801857977
 40
0.3244650521
 40
0.3703570786
 40
0.4174176021
 40
0.46523149
 40
0.5133749224
 40
0.5613877771
 40
0.608808006
 40
0.655209756
 40
0.7001824185
 40
0.7433188838
 40
0.7842150846
 40
0.8224723354
 40
0.8404898429
 40
0.8577020355
 40
0.8740635046
 40
0.8895451548
 40
0.9041234104
 40
0.9177747204
 40
0.9304755226
 40
0.9421991267
 40
0.9529134206
 40
0.9625858347
 40
0.9711839367
 40
0.9750700859
 40
0.9786767964
 40
0.9820027299
 40
0.9850466864
 40
0.987807522
 40
0.9902841758
 40
0.9924757139
 40
0.9943814066
 40
0.9952269438
 40
0.9960009248
 40
0.9967034091
 40
0.9973345425
 40
0.9978947402
 40
0.998384753
 40
0.9988056397
 40
0.999158988
 40
0.9994473892
 40
0.9995686715
 40
0.9996757882
 40
0.9997700885
 40
0.9998535336
 40
0.999928923
 40
1.0
 40
1.0
 40
1.0
 40
1.0
 10
7.5319960355
 20
3.6911414162
 30
0.0
 10
7.5321386196
 20
3.6907858497
 30
0.0
 10
7.5324186505
 20
3.6900047595
 30
0.0
 10
7.5328080982
 20
3.6887233257
 30
0.0
 10
7.5331982276
 20
3.6872437698
 30
0.0
 10
7.5335888738
 20
3.6855663979
 30
0.0
 10
7.5339799498
 20
3.6836914766
 30
0.0
 10
7.5345255861
 20
3.6808017777
 30
0.0
 10
7.5351980494
 20
3.6766959352
 30
0.0
 10
7.535976681
 20
3.6711777678
 30
0.0
 10
7.5367568833
 20
3.6648800402
 30
0.0
 10
7.5375384969
 20
3.6578056547
 30
0.0
 10
7.5383210152
 20
3.6499566799
 30
0.0
 10
7.5391042956
 20
3.6413346561
 30
0.0
 10
7.5401916988
 20
3.6282999221
 30
0.0
 10
7.5415355141
 20
3.6100825131
 30
0.0
 10
7.5430965146
 20
3.585919184
 30
0.0
 10
7.5446588393
 20
3.5587155841
 30
0.0
 10
7.5462225261
 20
3.528530708
 30
0.0
 10
7.5477880698
 20
3.4954544246
 30
0.0
 10
7.5493546842
 20
3.4595923857
 30
0.0
 10
7.5509218781
 20
3.421050743
 30
0.0
 10
7.5524893159
 20
3.3799347574
 30
0.0
 10
7.5546351939
 20
3.3202668898
 30
0.0
 10
7.5572955269
 20
3.2400233425
 30
0.0
 10
7.5604181258
 20
3.1374356095
 30
0.0
 10
7.5635458274
 20
3.0270861287
 30
0.0
 10
7.5666739122
 20
2.9099285805
 30
0.0
 10
7.5698015694
 20
2.787055486
 30
0.0
 10
7.5729301826
 20
2.6596739361
 30
0.0
 10
7.5760592312
 20
2.5290095254
 30
0.0
 10
7.57918941
 20
2.396254121
 30
0.0
 10
7.5823211325
 20
2.2626142691
 30
0.0
 10
7.5854536081
 20
2.1293400478
 30
0.0
 10
7.5885862482
 20
1.9976834347
 30
0.0
 10
7.5917173434
 20
1.8688504189
 30
0.0
 10
7.5948456549
 20
1.7439960192
 30
0.0
 10
7.5979713814
 20
1.6242551212
 30
0.0
 10
7.6010961931
 20
1.5107516946
 30
0.0
 10
7.6037497358
 20
1.4205672477
 30
0.0
 10
7.6058868179
 20
1.3523679503
 30
0.0
 10
7.607456837
 20
1.3044911818
 30
0.0
 10
7.6090267338
 20
1.2589702829
 30
0.0
 10
7.6105959608
 20
1.2158965048
 30
0.0
 10
7.6121642669
 20
1.1753408431
 30
0.0
 10
7.6137316445
 20
1.1373692152
 30
0.0
 10
7.6152977867
 20
1.1020504919
 30
0.0
 10
7.6168622471
 20
1.0694615962
 30
0.0
 10
7.6184250269
 20
1.0396879769
 30
0.0
 10
7.619985873
 20
1.0128206787
 30
0.0
 10
7.6213251911
 20
0.9922915467
 30
0.0
 10
7.6224079374
 20
0.9773902838
 30
0.0
 10
7.6231923415
 20
0.967375627
 30
0.0
 10
7.6239763735
 20
0.9581454984
 30
0.0
 10
7.6247599159
 20
0.9497037863
 30
0.0
 10
7.6255427563
 20
0.9420542693
 30
0.0
 10
7.6263245438
 20
0.9352006474
 30
0.0
 10
7.6271050175
 20
0.9291466468
 30
0.0
 10
7.6277776608
 20
0.9246063914
 30
0.0
 10
7.6283223813
 20
0.9213787649
 30
0.0
 10
7.6287141653
 20
0.9192585733
 30
0.0
 10
7.6291055615
 20
0.9173410647
 30
0.0
 10
7.6294965545
 20
0.9156264853
 30
0.0
 10
7.6298870357
 20
0.914114694
 30
0.0
 10
7.6302768105
 20
0.9128051967
 30
0.0
 10
7.6306656632
 20
0.9116968888
 30
0.0
 10
7.631053526
 20
0.9107888577
 30
0.0
 10
7.631392922
 20
0.9101646019
 30
0.0
 10
7.6316702755
 20
0.9097723298
 30
0.0
 10
7.6318664959
 20
0.9095451098
 30
0.0
 10
7.632063442
 20
0.9093672786
 30
0.0
 10
7.6322619403
 20
0.9092390009
 30
0.0
 10
7.6324625784
 20
0.9091612167
 30
0.0
 10
7.6325992262
 20
0.9091440791
 30
0.0
 10
7.6326652202
 20
0.9091444587
 30
0.0
  0
SPLINE
  5
2F0
100
AcDbEntity
  8
0
100
AcDbSpline
 62
7
  6
CONTINUOUS
 70
0
 71
3
 72
43
 73
39
 74
0
 42
0.0000001
 43
0.0000001
 44
0.0000000001
 40
0.0
 40
0.0
 40
0.0
 40
0.0
 40
0.0005654644
 40
0.0012614399
 40
0.0020922138
 40
0.0030602838
 40
0.0041672189
 40
0.0054140626
 40
0.0068014288
 40
0.0083295141
 40
0.0118078312
 40
0.0158484303
 40
0.0204498071
 40
0.0256100039
 40
0.0313267898
 40
0.0375977591
 40
0.0444203893
 40
0.0517920487
 40
0.0681656159
 40
0.0866767395
 40
0.1072813455
 40
0.1299351058
 40
0.1545915974
 40
0.1811913922
 40
0.2096697058
 40
0.2399616798
 40
0.305718205
 40
0.3778520282
 40
0.4557069203
 40
0.5385632894
 40
0.5816250024
 40
0.6256460917
 40
0.7161701677
 40
0.7624737652
 40
0.8093385561
 40
0.8566527407
 40
0.9042876666
 40
1.0
 40
1.0
 40
1.0
 40
1.0
 10
7.4671750464
 20
3.8039840936
 30
0.0
 10
7.4673218063
 20
3.8037415297
 30
0.0
 10
7.4676065212
 20
3.803174811
 30
0.0
 10
7.4679922542
 20
3.8021986488
 30
0.0
 10
7.4683792522
 20
3.8010085084
 30
0.0
 10
7.4687671919
 20
3.7996039047
 30
0.0
 10
7.4691558617
 20
3.7979841587
 30
0.0
 10
7.4695450456
 20
3.7961491138
 30
0.0
 10
7.4699346423
 20
3.7940988299
 30
0.0
 10
7.4704782898
 20
3.7909395025
 30
0.0
 10
7.4711482334
 20
3.7864528417
 30
0.0
 10
7.4719239059
 20
3.7804255528
 30
0.0
 10
7.4727010812
 20
3.7735491329
 30
0.0
 10
7.473479494
 20
3.7658277659
 30
0.0
 10
7.4742587538
 20
3.757265601
 30
0.0
 10
7.4750386574
 20
3.7478668885
 30
0.0
 10
7.4758191001
 20
3.7376359131
 30
0.0
 10
7.4768982738
 20
3.7223481309
 30
0.0
 10
7.4782331779
 20
3.7012039425
 30
0.0
 10
7.4797876333
 20
3.6734266597
 30
0.0
 10
7.4813442704
 20
3.6424963985
 30
0.0
 10
7.4829026253
 20
3.6084816203
 30
0.0
 10
7.4844617453
 20
3.5714582005
 30
0.0
 10
7.4860218301
 20
3.5315121909
 30
0.0
 10
7.4875829172
 20
3.4887387647
 30
0.0
 10
7.4897245119
 20
3.4263416533
 30
0.0
 10
7.4923777883
 20
3.3420619343
 30
0.0
 10
7.4954861304
 20
3.2339386598
 30
0.0
 10
7.4985926571
 20
3.1172387562
 30
0.0
 10
7.501149578
 20
3.0151053911
 30
0.0
 10
7.503211728
 20
2.9299282119
 30
0.0
 10
7.5053262078
 20
2.8409068358
 30
0.0
 10
7.5074191211
 20
2.750259119
 30
0.0
 10
7.5094833495
 20
2.6581846496
 30
0.0
 10
7.5110279558
 20
2.5877680585
 30
0.0
 10
7.5125602676
 20
2.5166835574
 30
0.0
 10
7.5146181736
 20
2.4211140862
 30
0.0
 10
7.5161954282
 20
2.3492615817
 30
0.0
 10
7.5172919449
 20
2.3012869686
 30
0.0
  0
SPLINE
  5
2F1
100
AcDbEntity
  8
0
100
AcDbSpline
 62
7
  6
CONTINUOUS
 70
0
 71
3
 72
22
 73
18
 74
0
 42
0.0000001
 43
0.0000001
 44
0.0000000001
 40
0.0
 40
0.0
 40
0.0
 40
0.0
 40
0.0415535166
 40
0.0865555044
 40
0.1349844688
 40
0.1867854284
 40
0.2418679035
 40
0.3000683748
 40
0.3611914573
 40
0.425029412
 40
0.4913554771
 40
0.5598932561
 40
0.6303488464
 40
0.7024235929
 40
0.7758022688
 40
0.8501158811
 40
1.0
 40
1.0
 40
1.0
 40
1.0
 10
4.4936778732
 20
4.7408340701
 30
0.0
 10
4.4957399915
 20
4.7417096707
 30
0.0
 10
4.5001141772
 20
4.7433507949
 30
0.0
 10
4.5070930959
 20
4.7454301511
 30
0.0
 10
4.5147217278
 20
4.7472132419
 30
0.0
 10
4.5229680142
 20
4.7486869293
 30
0.0
 10
4.5317965421
 20
4.74983806
 30
0.0
 10
4.5411655999
 20
4.7506635809
 30
0.0
 10
4.551030229
 20
4.7511595111
 30
0.0
 10
4.5613438951
 20
4.751321793
 30
0.0
 10
4.5720569603
 20
4.7511466947
 30
0.0
 10
4.5831163587
 20
4.750638052
 30
0.0
 10
4.5944663318
 20
4.7497994374
 30
0.0
 10
4.6060496987
 20
4.7486345176
 30
0.0
 10
4.6178059145
 20
4.7471478529
 30
0.0
 10
4.6336697466
 20
4.7447464215
 30
0.0
 10
4.6455548986
 20
4.7425122782
 30
0.0
 10
4.6534595602
 20
4.7408340701
 30
0.0
  0
SPLINE
  5
2F2
100
AcDbEntity
  8
0
100
AcDbSpline
 62
7
  6
CONTINUOUS
 70
0
 71
3
 72
27
 73
23
 74
0
 42
0.0000001
 43
0.0000001
 44
0.0000000001
 40
0.0
 40
0.0
 40
0.0
 40
0.0
 40
0.0624933798
 40
0.1249920528
 40
0.187492308
 40
0.2499932605
 40
0.2812436591
 40
0.3124937355
 40
0.3437442195
 40
0.3749956859
 40
0.437498062
 40
0.4999999974
 40
0.5625019336
 40
0.6250043102
 40
0.656255776
 40
0.6875062588
 40
0.7187563342
 40
0.750006732
 40
0.812507683
 40
0.8750079392
 40
0.9375066172
 40
1.0
 40
1.0
 40
1.0
 40
1.0
 10
4.6534595602
 20
4.7408340701
 30
0.0
 10
4.6873773666
 20
4.733633112
 30
0.0
 10
4.7553612218
 20
4.7199039184
 30
0.0
 10
4.8577608939
 20
4.7015209363
 30
0.0
 10
4.9605691868
 20
4.6855438274
 30
0.0
 10
5.0465542121
 20
4.6743915089
 30
0.0
 10
5.1155002381
 20
4.6668477315
 30
0.0
 10
5.1672828047
 20
4.6618996278
 30
0.0
 10
5.2191307488
 20
4.6576825293
 30
0.0
 10
5.2883357638
 20
4.6530588783
 30
0.0
 10
5.3749588862
 20
4.6491696679
 30
0.0
 10
5.4789982727
 20
4.6475926718
 30
0.0
 10
5.5830376593
 20
4.6491696741
 30
0.0
 10
5.6696607823
 20
4.6530588787
 30
0.0
 10
5.7388657967
 20
4.657682529
 30
0.0
 10
5.7907137391
 20
4.6618996285
 30
0.0
 10
5.8424963044
 20
4.666847729
 30
0.0
 10
5.9114423291
 20
4.6743915009
 30
0.0
 10
5.9974273545
 20
4.6855438137
 30
0.0
 10
6.1002356488
 20
4.7015209301
 30
0.0
 10
6.2026353252
 20
4.7199039161
 30
0.0
 10
6.2706191846
 20
4.7336331116
 30
0.0
 10
6.3045369926
 20
4.7408340701
 30
0.0
  0
LINE
  5
2F3
100
AcDbEntity
  8
0
100
AcDbLine
 62
7
  6
CONTINUOUS
 10
7.3262242429
 20
3.6926596649
 11
7.3272089813
 21
3.6903234049
  0
SPLINE
  5
2F4
100
AcDbEntity
  8
0
100
AcDbSpline
 62
7
  6
CONTINUOUS
 70
0
 71
3
 72
76
 73
72
 74
0
 42
0.0000001
 43
0.0000001
 44
0.0000000001
 40
0.0
 40
0.0
 40
0.0
 40
0.0
 40
0.0004808964
 40
0.0010305045
 40
0.00164923
 40
0.0023372882
 40
0.0039216516
 40
0.005783631
 40
0.0079226534
 40
0.0103378351
 40
0.0130280864
 40
0.0159921898
 40
0.0192288437
 40
0.0227366898
 40
0.0305603105
 40
0.0394511385
 40
0.0493945699
 40
0.0603750495
 40
0.0723769175
 40
0.0853841138
 40
0.0993679815
 40
0.1142837099
 40
0.1300853989
 40
0.164163789
 40
0.2012638765
 40
0.2410788134
 40
0.2832807415
 40
0.3274865194
 40
0.3732968487
 40
0.4202714127
 40
0.4679580716
 40
0.515921832
 40
0.5637388144
 40
0.6109702638
 40
0.6571571241
 40
0.7018627998
 40
0.7447184879
 40
0.7853628263
 40
0.8234048643
 40
0.8584451396
 40
0.8747301982
 40
0.8901433976
 40
0.9046488244
 40
0.9182110572
 40
0.9308038842
 40
0.9424094993
 40
0.9530104561
 40
0.9625893866
 40
0.9711273438
 40
0.9785986994
 40
0.9819259594
 40
0.9849764873
 40
0.9877470174
 40
0.9902343691
 40
0.9924354937
 40
0.9943480498
 40
0.995196266
 40
0.9959727412
 40
0.9966777697
 40
0.9973117217
 40
0.9978750805
 40
0.998368506
 40
0.9987929489
 40
0.9991498689
 40
0.9994416889
 40
0.9995645439
 40
0.9996730846
 40
0.9997685966
 40
0.9998529572
 40
0.9999288696
 40
1.0
 40
1.0
 40
1.0
 40
1.0
 10
7.3272089813
 20
3.6903234049
 30
0.0
 10
7.3273495326
 20
3.689899708
 30
0.0
 10
7.3276266301
 20
3.6889837526
 30
0.0
 10
7.3280154408
 20
3.6875027862
 30
0.0
 10
7.3284047874
 20
3.6858239094
 30
0.0
 10
7.3289503973
 20
3.6831960093
 30
0.0
 10
7.3296210878
 20
3.6794164795
 30
0.0
 10
7.3303957454
 20
3.6742896114
 30
0.0
 10
7.3311720823
 20
3.6683841812
 30
0.0
 10
7.3319498151
 20
3.6617043212
 30
0.0
 10
7.3327284857
 20
3.6542540651
 30
0.0
 10
7.3335078849
 20
3.6460376036
 30
0.0
 10
7.3342879034
 20
3.6370591524
 30
0.0
 10
7.3353682953
 20
3.62357917
 30
0.0
 10
7.3367045278
 20
3.6048547206
 30
0.0
 10
7.3382591435
 20
3.5801577348
 30
0.0
 10
7.3398164585
 20
3.5525253362
 30
0.0
 10
7.3413759149
 20
3.5220010715
 30
0.0
 10
7.3429368658
 20
3.4886295121
 30
0.0
 10
7.3444980575
 20
3.4524672208
 30
0.0
 10
7.3460591224
 20
3.4135977521
 30
0.0
 10
7.3476209684
 20
3.3721323248
 30
0.0
 10
7.3497580817
 20
3.3120223606
 30
0.0
 10
7.3524067776
 20
3.2313247207
 30
0.0
 10
7.3555161765
 20
3.1283398801
 30
0.0
 10
7.3586294827
 20
3.0178111427
 30
0.0
 10
7.3617460849
 20
2.9006840611
 30
0.0
 10
7.364865117
 20
2.7779898397
 30
0.0
 10
7.3679826451
 20
2.6508639225
 30
0.0
 10
7.3710997062
 20
2.5205058617
 30
0.0
 10
7.3742169556
 20
2.3881482838
 30
0.0
 10
7.3773348479
 20
2.2550085163
 30
0.0
 10
7.3804541324
 20
2.1222914535
 30
0.0
 10
7.3835743603
 20
1.9912243121
 30
0.0
 10
7.3866937447
 20
1.8630461094
 30
0.0
 10
7.3898120278
 20
1.7389309939
 30
0.0
 10
7.3929274741
 20
1.6199624355
 30
0.0
 10
7.3960388637
 20
1.5071816251
 30
0.0
 10
7.3991466064
 20
1.4016584369
 30
0.0
 10
7.4017960787
 20
1.3187437035
 30
0.0
 10
7.4039341247
 20
1.2568292979
 30
0.0
 10
7.4054976541
 20
1.2139683498
 30
0.0
 10
7.4070601613
 20
1.1736366534
 30
0.0
 10
7.4086217777
 20
1.1359250707
 30
0.0
 10
7.4101823867
 20
1.1009077159
 30
0.0
 10
7.4117414733
 20
1.0686420847
 30
0.0
 10
7.4132989434
 20
1.0391776198
 30
0.0
 10
7.4148543151
 20
1.0125649818
 30
0.0
 10
7.4164065917
 20
0.9888627829
 30
0.0
 10
7.4177428417
 20
0.9709626478
 30
0.0
 10
7.4188255488
 20
0.9581524987
 30
0.0
 10
7.419605338
 20
0.9496961807
 30
0.0
 10
7.4203843768
 20
0.9420230621
 30
0.0
 10
7.421162406
 20
0.9351427537
 30
0.0
 10
7.4219391416
 20
0.9290644117
 30
0.0
 10
7.4226092149
 20
0.9245069913
 30
0.0
 10
7.4231519685
 20
0.9212685379
 30
0.0
 10
7.4235423333
 20
0.9191413523
 30
0.0
 10
7.4239323829
 20
0.9172166312
 30
0.0
 10
7.4243220563
 20
0.915494096
 30
0.0
 10
7.424711221
 20
0.9139733778
 30
0.0
 10
7.4250997262
 20
0.9126540669
 30
0.0
 10
7.4254873426
 20
0.9115353044
 30
0.0
 10
7.4258739904
 20
0.9106164206
 30
0.0
 10
7.4262121656
 20
0.9099827795
 30
0.0
 10
7.4264884997
 20
0.9095827069
 30
0.0
 10
7.4266840371
 20
0.9093499064
 30
0.0
 10
7.4268802351
 20
0.9091665409
 30
0.0
 10
7.4270779006
 20
0.9090327404
 30
0.0
 10
7.4272776721
 20
0.9089493652
 30
0.0
 10
7.4274142885
 20
0.9089283624
 30
0.0
 10
7.4274803022
 20
0.9089269867
 30
0.0
  0
SPLINE
  5
2F5
100
AcDbEntity
  8
0
100
AcDbSpline
 62
7
  6
CONTINUOUS
 70
0
 71
3
 72
41
 73
37
 74
0
 42
0.0000001
 43
0.0000001
 44
0.0000000001
 40
0.0
 40
0.0
 40
0.0
 40
0.0
 40
0.0005623092
 40
0.0012549885
 40
0.0020823533
 40
0.0030468924
 40
0.0041501483
 40
0.0053931313
 40
0.00677653
 40
0.0083007282
 40
0.0117715624
 40
0.0158050295
 40
0.0203995604
 40
0.025553122
 40
0.0312634014
 40
0.0375279076
 40
0.0443440305
 40
0.0517090775
 40
0.0680713197
 40
0.0865738455
 40
0.1071715079
 40
0.1298189071
 40
0.1544695636
 40
0.1810656919
 40
0.2095419481
 40
0.239832793
 40
0.3055895089
 40
0.377729144
 40
0.4555928676
 40
0.5384628504
 40
0.6255624376
 40
0.7161050601
 40
0.7624182351
 40
0.8092926604
 40
0.9042632715
 40
1.0
 40
1.0
 40
1.0
 40
1.0
 10
7.2619918425
 20
3.8040105689
 30
0.0
 10
7.2621390154
 20
3.8037701013
 30
0.0
 10
7.2624245378
 20
3.8032073554
 30
0.0
 10
7.2628112748
 20
3.8022368768
 30
0.0
 10
7.2631993304
 20
3.8010524399
 30
0.0
 10
7.2635883376
 20
3.79965362
 30
0.0
 10
7.2639780437
 20
3.7980397922
 30
0.0
 10
7.26436821
 20
3.7962108116
 30
0.0
 10
7.2647586863
 20
3.7941666271
 30
0.0
 10
7.2653033888
 20
3.7910152135
 30
0.0
 10
7.2659742191
 20
3.7865379584
 30
0.0
 10
7.2667504245
 20
3.780521454
 30
0.0
 10
7.2675277948
 20
3.7736553071
 30
0.0
 10
7.268306144
 20
3.76594384
 30
0.0
 10
7.2690851613
 20
3.7573913401
 30
0.0
 10
7.2698647274
 20
3.7480021982
 30
0.0
 10
7.2706448164
 20
3.7377808254
 30
0.0
 10
7.2717237375
 20
3.7225049876
 30
0.0
 10
7.2730586277
 20
3.7013736809
 30
0.0
 10
7.2746133868
 20
3.673609318
 30
0.0
 10
7.2761706144
 20
3.642689427
 30
0.0
 10
7.2777297002
 20
3.6086835686
 30
0.0
 10
7.2792895161
 20
3.5716673547
 30
0.0
 10
7.2808500458
 20
3.5317263172
 30
0.0
 10
7.2824114773
 20
3.4889554371
 30
0.0
 10
7.2845534507
 20
3.4265585223
 30
0.0
 10
7.2872070576
 20
3.342274587
 30
0.0
 10
7.2903159885
 20
3.2341416047
 30
0.0
 10
7.2934249502
 20
3.117425127
 30
0.0
 10
7.2965354215
 20
2.9932056145
 30
0.0
 10
7.2996581989
 20
2.8626275829
 30
0.0
 10
7.3022465572
 20
2.7503708746
 30
0.0
 10
7.3043136018
 20
2.6582755876
 30
0.0
 10
7.306391194
 20
2.5639598846
 30
0.0
 10
7.3089562304
 20
2.4448689939
 30
0.0
 10
7.3110476548
 20
2.3492751978
 30
0.0
 10
7.3121279449
 20
2.3012869686
 30
0.0
  0
SPLINE
  5
2F6
100
AcDbEntity
  8
0
100
AcDbSpline
 62
7
  6
CONTINUOUS
 70
0
 71
3
 72
24
 73
20
 74
0
 42
0.0000001
 43
0.0000001
 44
0.0000000001
 40
0.0
 40
0.0
 40
0.0
 40
0.0
 40
0.0704562401
 40
0.1399410275
 40
0.2083907694
 40
0.2757545191
 40
0.3419953287
 40
0.4070768818
 40
0.470966031
 40
0.5336536949
 40
0.5951595355
 40
0.6555279251
 40
0.714825989
 40
0.773156086
 40
0.8020050422
 40
0.8306681049
 40
0.8875142736
 40
0.943889166
 40
1.0
 40
1.0
 40
1.0
 40
1.0
 10
2.8504492181
 20
2.9670439978
 30
0.0
 10
2.8568844339
 20
2.9734792136
 30
0.0
 10
2.8695288534
 20
2.9863993113
 30
0.0
 10
2.8878890745
 20
3.0060871621
 30
0.0
 10
2.9054536204
 20
3.0259589232
 30
0.0
 10
2.9221573369
 20
3.046018063
 30
0.0
 10
2.9379345191
 20
3.0662660558
 30
0.0
 10
2.9527142072
 20
3.0867030916
 30
0.0
 10
2.966418703
 20
3.1073287337
 30
0.0
 10
2.9789696036
 20
3.128140079
 30
0.0
 10
2.9902861788
 20
3.1491341057
 30
0.0
 10
3.0002918096
 20
3.170302292
 30
0.0
 10
3.0089173812
 20
3.1916287789
 30
0.0
 10
3.0149181352
 20
3.2095873729
 30
0.0
 10
3.01894407
 20
3.2240015411
 30
0.0
 10
3.0224271099
 20
3.2383590703
 30
0.0
 10
3.0258125045
 20
3.2563880533
 30
0.0
 10
3.0282817411
 20
3.2781391655
 30
0.0
 10
3.0288382764
 20
3.2926747262
 30
0.0
 10
3.0288382764
 20
3.2999225124
 30
0.0
  0
SPLINE
  5
2F7
100
AcDbEntity
  8
0
100
AcDbSpline
 62
7
  6
CONTINUOUS
 70
0
 71
3
 72
32
 73
28
 74
0
 42
0.0000001
 43
0.0000001
 44
0.0000000001
 40
0.0
 40
0.0
 40
0.0
 40
0.0
 40
0.095645073
 40
0.1906447604
 40
0.2839194422
 40
0.3744134601
 40
0.4612409703
 40
0.5435966906
 40
0.6206866129
 40
0.6917960156
 40
0.7562780585
 40
0.7858396352
 40
0.8135173467
 40
0.8392677545
 40
0.8630617286
 40
0.8848756223
 40
0.9046936967
 40
0.9225120356
 40
0.9383453527
 40
0.9522492698
 40
0.9643366765
 40
0.9747878383
 40
0.9838889326
 40
0.9880726612
 40
0.9920980724
 40
0.9960453353
 40
1.0
 40
1.0
 40
1.0
 40
1.0
 10
5.2736249798
 20
7.9031067545
 30
0.0
 10
5.2783799078
 20
7.9039119602
 30
0.0
 10
5.2878711427
 20
7.9054385366
 30
0.0
 10
5.3020412987
 20
7.9074797967
 30
0.0
 10
5.3159862445
 20
7.9092495476
 30
0.0
 10
5.3295511742
 20
7.9107237984
 30
0.0
 10
5.3425936294
 20
7.9118882822
 30
0.0
 10
5.3549834441
 20
7.9127335046
 30
0.0
 10
5.3665983697
 20
7.9132489618
 30
0.0
 10
5.3773220949
 20
7.9134306974
 30
0.0
 10
5.385650563
 20
7.9133032818
 30
0.0
 10
5.3917818348
 20
7.9130182393
 30
0.0
 10
5.3959566052
 20
7.9127265529
 30
0.0
 10
5.3998327823
 20
7.9123521153
 30
0.0
 10
5.4034024995
 20
7.9118963995
 30
0.0
 10
5.4066585089
 20
7.9113608693
 30
0.0
 10
5.4095937242
 20
7.9107469636
 30
0.0
 10
5.4122013825
 20
7.9100562304
 30
0.0
 10
5.4144756641
 20
7.9092894261
 30
0.0
 10
5.4164127371
 20
7.9084477452
 30
0.0
 10
5.4180118966
 20
7.9075327354
 30
0.0
 10
5.4192728141
 20
7.9065442847
 30
0.0
 10
5.420060612
 20
7.9056280721
 30
0.0
 10
5.420491321
 20
7.9048660694
 30
0.0
 10
5.4207163896
 20
7.9042935788
 30
0.0
 10
5.4208514225
 20
7.9037052844
 30
0.0
 10
5.4208807764
 20
7.9033061569
 30
0.0
 10
5.4208807764
 20
7.9031067545
 30
0.0
  0
SPLINE
  5
2F8
100
AcDbEntity
  8
0
100
AcDbSpline
 62
7
  6
CONTINUOUS
 70
0
 71
3
 72
32
 73
28
 74
0
 42
0.0000001
 43
0.0000001
 44
0.0000000001
 40
0.0
 40
0.0
 40
0.0
 40
0.0
 40
0.003954667
 40
0.007901946
 40
0.0119273988
 40
0.0161111994
 40
0.0252125177
 40
0.0356639515
 40
0.0477515823
 40
0.061655573
 40
0.0774887348
 40
0.0953067614
 40
0.1151244378
 40
0.1369379138
 40
0.1607315179
 40
0.1864816705
 40
0.2141593111
 40
0.2437211106
 40
0.3082042614
 40
0.3793149747
 40
0.4564056132
 40
0.5387612642
 40
0.6255881899
 40
0.7160813885
 40
0.8093555053
 40
0.9043549547
 40
1.0
 40
1.0
 40
1.0
 40
1.0
 10
5.5371157764
 20
7.9031067545
 30
0.0
 10
5.5371157764
 20
7.903306157
 30
0.0
 10
5.5371451336
 20
7.9037052854
 30
0.0
 10
5.5372801798
 20
7.9042935798
 30
0.0
 10
5.537505268
 20
7.9048660698
 30
0.0
 10
5.5379360109
 20
7.9056280726
 30
0.0
 10
5.5387238563
 20
7.906544281
 30
0.0
 10
5.5399848209
 20
7.9075327277
 30
0.0
 10
5.5415840113
 20
7.9084477385
 30
0.0
 10
5.5435210876
 20
7.909289426
 30
0.0
 10
5.5457953416
 20
7.9100562463
 30
0.0
 10
5.5484029507
 20
7.910746991
 30
0.0
 10
5.5513381048
 20
7.9113609063
 30
0.0
 10
5.5545940513
 20
7.911896443
 30
0.0
 10
5.5581637136
 20
7.9123521626
 30
0.0
 10
5.562039854
 20
7.9127266003
 30
0.0
 10
5.5662146178
 20
7.913018284
 30
0.0
 10
5.5723459515
 20
7.9133033123
 30
0.0
 10
5.5806745501
 20
7.9134306949
 30
0.0
 10
5.5913984283
 20
7.9132489253
 30
0.0
 10
5.6030134476
 20
7.9127334599
 30
0.0
 10
5.615403261
 20
7.9118882424
 30
0.0
 10
5.6284456376
 20
7.910723772
 30
0.0
 10
5.6420104644
 20
7.909249542
 30
0.0
 10
5.6559553232
 20
7.9074797989
 30
0.0
 10
5.6701254309
 20
7.9054385368
 30
0.0
 10
5.6796166483
 20
7.9039119596
 30
0.0
 10
5.684371573
 20
7.9031067545
 30
0.0
  0
SPLINE
  5
2F9
100
AcDbEntity
  8
0
100
AcDbSpline
 62
9
  6
CONTINUOUS
 70
0
 71
3
 72
44
 73
40
 74
0
 42
0.0000001
 43
0.0000001
 44
0.0000000001
 40
0.0
 40
0.0
 40
0.0
 40
0.0
 40
0.1139249064
 40
0.2223542634
 40
0.3248984314
 40
0.4211673178
 40
0.5107988856
 40
0.593542384
 40
0.669174097
 40
0.7374699983
 40
0.7982178916
 40
0.8257090327
 40
0.8512526969
 40
0.8748296704
 40
0.8964207315
 40
0.9160066504
 40
0.9335681906
 40
0.949088366
 40
0.9625589567
 40
0.9685237542
 40
0.973973871
 40
0.9789085453
 40
0.9833270156
 40
0.9872285199
 40
0.9906122965
 40
0.9934775834
 40
0.9947155551
 40
0.9958236186
 40
0.9968016787
 40
0.9976496401
 40
0.9983674074
 40
0.9989548856
 40
0.9994119792
 40
0.999591602
 40
0.999738593
 40
0.9998529402
 40
0.9999346317
 40
0.9999836556
 40
1.0
 40
1.0
 40
1.0
 40
1.0
 10
8.6987950518
 20
7.3414152116
 30
0.0
 10
8.7136144002
 20
7.3406336494
 30
0.0
 10
8.7425412142
 20
7.3391641055
 30
0.0
 10
8.7848160252
 20
7.3371745803
 30
0.0
 10
8.8247998588
 20
7.3354338974
 30
0.0
 10
8.8623425869
 20
7.3339240457
 30
0.0
 10
8.8973123353
 20
7.3326264304
 30
0.0
 10
8.9295990545
 20
7.3315223648
 30
0.0
 10
8.9591107853
 20
7.3305923445
 30
0.0
 10
8.9857607099
 20
7.3298168158
 30
0.0
 10
9.006143634
 20
7.3292657419
 30
0.0
 10
9.0209602178
 20
7.3288870927
 30
0.0
 10
9.0309366972
 20
7.3286412072
 30
0.0
 10
9.0401450508
 20
7.3284221098
 30
0.0
 10
9.0485777183
 20
7.3282280878
 30
0.0
 10
9.0562271389
 20
7.3280574251
 30
0.0
 10
9.0630860464
 20
7.3279084215
 30
0.0
 10
9.06914861
 20
7.3277793003
 30
0.0
 10
9.0737009558
 20
7.3276842498
 30
0.0
 10
9.0769418759
 20
7.3276176421
 30
0.0
 10
9.0790711451
 20
7.3275743279
 30
0.0
 10
9.0809990383
 20
7.3275355136
 30
0.0
 10
9.0827252563
 20
7.3275011201
 30
0.0
 10
9.0842494994
 20
7.3274710684
 30
0.0
 10
9.0855714685
 20
7.3274452796
 30
0.0
 10
9.0865465537
 20
7.3274264596
 30
0.0
 10
9.0872252602
 20
7.3274134704
 30
0.0
 10
9.0876581809
 20
7.3274052303
 30
0.0
 10
9.0880403085
 20
7.3273979958
 30
0.0
 10
9.0883716055
 20
7.3273917602
 30
0.0
 10
9.0886520352
 20
7.3273865044
 30
0.0
 10
9.0888815577
 20
7.3273822444
 30
0.0
 10
9.0890409977
 20
7.3273792596
 30
0.0
 10
9.0891430624
 20
7.327377427
 30
0.0
 10
9.0892005016
 20
7.3273762682
 30
0.0
 10
9.089245154
 20
7.3273757149
 30
0.0
 10
9.0892771237
 20
7.32737453
 30
0.0
 10
9.0892961838
 20
7.3273752357
 30
0.0
 10
9.0893047934
 20
7.3273739888
 30
0.0
 10
9.0893068826
 20
7.3273743987
 30
0.0
  0
SPLINE
  5
2FA
100
AcDbEntity
  8
0
100
AcDbSpline
 62
9
  6
CONTINUOUS
 70
0
 71
3
 72
23
 73
19
 74
0
 42
0.0000001
 43
0.0000001
 44
0.0000000001
 40
0.0
 40
0.0
 40
0.0
 40
0.0
 40
0.0699230496
 40
0.1410262854
 40
0.212760811
 40
0.2846117912
 40
0.3560847075
 40
0.4266167166
 40
0.4956423459
 40
0.5626373976
 40
0.6271795447
 40
0.6890393836
 40
0.7480366671
 40
0.8040214963
 40
0.8569614268
 40
0.9070946303
 40
0.9546926703
 40
1.0
 40
1.0
 40
1.0
 40
1.0
 10
2.2591958616
 20
7.3414149298
 30
0.0
 10
2.2591393646
 20
7.3452951229
 30
0.0
 10
2.2592251683
 20
7.3531253086
 30
0.0
 10
2.2599563481
 20
7.3649155289
 30
0.0
 10
2.2613216315
 20
7.3767578109
 30
0.0
 10
2.2633511569
 20
7.388526243
 30
0.0
 10
2.2660723979
 20
7.4000863437
 30
0.0
 10
2.269457819
 20
7.4113063427
 30
0.0
 10
2.2734800458
 20
7.4220500597
 30
0.0
 10
2.2781121982
 20
7.4321827797
 30
0.0
 10
2.2833333299
 20
7.4415737978
 30
0.0
 10
2.2890585263
 20
7.4501377576
 30
0.0
 10
2.2952074104
 20
7.4578040096
 30
0.0
 10
2.3017040375
 20
7.4645070468
 30
0.0
 10
2.3084853417
 20
7.4701844447
 30
0.0
 10
2.3154538097
 20
7.4748374459
 30
0.0
 10
2.3225222493
 20
7.4784863906
 30
0.0
 10
2.327361417
 20
7.4803075866
 30
0.0
 10
2.3297651556
 20
7.4810455769
 30
0.0
  0
SPLINE
  5
2FB
100
AcDbEntity
  8
0
100
AcDbSpline
 62
9
  6
CONTINUOUS
 70
0
 71
3
 72
32
 73
28
 74
0
 42
0.0000001
 43
0.0000001
 44
0.0000000001
 40
0.0
 40
0.0
 40
0.0
 40
0.0
 40
0.026428766
 40
0.0533063126
 40
0.0806194778
 40
0.1083547558
 40
0.1364983381
 40
0.1650361492
 40
0.1939538789
 40
0.2232373075
 40
0.28284929
 40
0.3437690683
 40
0.3746867746
 40
0.4058920994
 40
0.4691109197
 40
0.5333093051
 40
0.5983680049
 40
0.6311826533
 40
0.664167567
 40
0.697307503
 40
0.7305870474
 40
0.7975033332
 40
0.8311092976
 40
0.8647933069
 40
0.8985399938
 40
0.932333813
 40
1.0
 40
1.0
 40
1.0
 40
1.0
 10
2.2592107233
 20
7.3414155687
 30
0.0
 10
2.2875300399
 20
7.3430984818
 30
0.0
 10
2.3446650689
 20
7.3462361294
 30
0.0
 10
2.4311104088
 20
7.3502766452
 30
0.0
 10
2.5189847388
 20
7.3537283587
 30
0.0
 10
2.6082385998
 20
7.3566280325
 30
0.0
 10
2.6988226413
 20
7.3590124397
 30
0.0
 10
2.7906874695
 20
7.360918341
 30
0.0
 10
2.8837840199
 20
7.3623825573
 30
0.0
 10
3.0102398688
 20
7.3638031845
 30
0.0
 10
3.171054491
 20
7.3646376766
 30
0.0
 10
3.333624673
 20
7.3644699997
 30
0.0
 10
3.4657005562
 20
7.3638811928
 30
0.0
 10
3.6002428708
 20
7.3630234061
 30
0.0
 10
3.7705059226
 20
7.3615457429
 30
0.0
 10
3.977102681
 20
7.3593579142
 30
0.0
 10
4.1510630297
 20
7.3573684463
 30
0.0
 10
4.2915204755
 20
7.3557800787
 30
0.0
 10
4.3977181465
 20
7.3546155947
 30
0.0
 10
4.5044154034
 20
7.3534998954
 30
0.0
 10
4.6475343402
 20
7.3520938355
 30
0.0
 10
4.7911551138
 20
7.3508479059
 30
0.0
 10
4.9352117163
 20
7.3498195227
 30
0.0
 10
5.0436649977
 20
7.349170322
 30
0.0
 10
5.1523206845
 20
7.3486610174
 30
0.0
 10
5.2974540437
 20
7.3481769056
 30
0.0
 10
5.4063637443
 20
7.3480317145
 30
0.0
 10
5.4789982673
 20
7.3480317168
 30
0.0
  0
SPLINE
  5
2FC
100
AcDbEntity
  8
0
100
AcDbSpline
 62
9
  6
CONTINUOUS
 70
0
 71
3
 72
34
 73
30
 74
0
 42
0.0000001
 43
0.0000001
 44
0.0000000001
 40
0.0
 40
0.0
 40
0.0
 40
0.0
 40
0.2227126536
 40
0.3252061797
 40
0.4214199152
 40
0.5110747891
 40
0.5938911728
 40
0.6695889248
 40
0.7378874374
 40
0.7985366575
 40
0.851410145
 40
0.8964123086
 40
0.915931744
 40
0.9334474514
 40
0.9489474515
 40
0.9624197579
 40
0.9738523782
 40
0.9832333133
 40
0.9871506475
 40
0.9905505579
 40
0.9934315428
 40
0.9957921002
 40
0.9976307276
 40
0.998353848
 40
0.9989459223
 40
0.9994067625
 40
0.9997361809
 40
0.9999339894
 40
1.0
 40
1.0
 40
1.0
 40
1.0
 10
2.3297651261
 20
7.4810455676
 30
0.0
 10
2.3046138439
 20
7.4795467539
 30
0.0
 10
2.267877737
 20
7.4775224547
 30
0.0
 10
2.2202578114
 20
7.4752085711
 30
0.0
 10
2.1876671979
 20
7.4737543941
 30
0.0
 10
2.1572957136
 20
7.4725116196
 30
0.0
 10
2.1292395722
 20
7.4714591215
 30
0.0
 10
2.1035950054
 20
7.4705757425
 30
0.0
 10
2.0804547343
 20
7.4698404575
 30
0.0
 10
2.0598939669
 20
7.4692312304
 30
0.0
 10
2.04196653
 20
7.4687376773
 30
0.0
 10
2.0286896938
 20
7.4683996953
 30
0.0
 10
2.019411295
 20
7.4681784554
 30
0.0
 10
2.0134694414
 20
7.4680428575
 30
0.0
 10
2.008211414
 20
7.4679282055
 30
0.0
 10
2.003641316
 20
7.4678331644
 30
0.0
 10
1.9997632511
 20
7.4677563992
 30
0.0
 10
1.996965893
 20
7.4677037999
 30
0.0
 10
1.995077103
 20
7.4676697671
 30
0.0
 10
1.9939235352
 20
7.4676495543
 30
0.0
 10
1.9929460531
 20
7.4676329035
 30
0.0
 10
1.9921451697
 20
7.4676196647
 30
0.0
 10
1.9915883718
 20
7.4676107037
 30
0.0
 10
1.9912316179
 20
7.4676051464
 30
0.0
 10
1.9910307153
 20
7.4676019829
 30
0.0
 10
1.9908743482
 20
7.4675997784
 30
0.0
 10
1.9907625769
 20
7.467597726
 30
0.0
 10
1.9906954733
 20
7.4675974107
 30
0.0
 10
1.9906656267
 20
7.4675962824
 30
0.0
 10
1.990658161
 20
7.4675964616
 30
0.0
  0
SPLINE
  5
2FD
100
AcDbEntity
  8
0
100
AcDbSpline
 62
9
  6
CONTINUOUS
 70
0
 71
3
 72
39
 73
35
 74
0
 42
0.0000001
 43
0.0000001
 44
0.0000000001
 40
0.0
 40
0.0
 40
0.0
 40
0.0
 40
0.0132082937
 40
0.0266382057
 40
0.0402839995
 40
0.0541397531
 40
0.0824565298
 40
0.1115383657
 40
0.1413331073
 40
0.1717872012
 40
0.2028461367
 40
0.2344547383
 40
0.2665566391
 40
0.299092217
 40
0.3320010213
 40
0.3652226223
 40
0.4323589398
 40
0.4999996055
 40
0.5676403304
 40
0.6347767445
 40
0.667998375
 40
0.7009072028
 40
0.7334428133
 40
0.7655447708
 40
0.7971534582
 40
0.8282124738
 40
0.8586665973
 40
0.8884612731
 40
0.9175429415
 40
0.9458595977
 40
0.9597153671
 40
0.9733612589
 40
0.9867913741
 40
1.0
 40
1.0
 40
1.0
 40
1.0
 10
8.6282314185
 20
7.4810455301
 30
0.0
 10
8.6005456221
 20
7.4826953335
 30
0.0
 10
8.5446937135
 20
7.4857622568
 30
0.0
 10
8.4601951369
 20
7.4896855198
 30
0.0
 10
8.3743103056
 20
7.4930087403
 30
0.0
 10
8.2571602996
 20
7.4967167645
 30
0.0
 10
8.1075721877
 20
7.5000115899
 30
0.0
 10
7.9244928262
 20
7.5021532642
 30
0.0
 10
7.7369148793
 20
7.5028133932
 30
0.0
 10
7.5451857281
 20
7.5022688627
 30
0.0
 10
7.3496530413
 20
7.5007966229
 30
0.0
 10
7.1506663641
 20
7.4986738644
 30
0.0
 10
6.948583252
 20
7.4961775032
 30
0.0
 10
6.7437720333
 20
7.4935038691
 30
0.0
 10
6.5366091837
 20
7.4908498755
 30
0.0
 10
6.2567932919
 20
7.4875888436
 30
0.0
 10
5.9040398324
 20
7.4845648761
 30
0.0
 10
5.4790006691
 20
7.4831676823
 30
0.0
 10
5.0539613029
 20
7.4845648493
 30
0.0
 10
4.7012074543
 20
7.4875888004
 30
0.0
 10
4.4213912484
 20
7.4908498333
 30
0.0
 10
4.214228219
 20
7.4935038304
 30
0.0
 10
4.0094167635
 20
7.4961774674
 30
0.0
 10
3.8073332836
 20
7.4986738277
 30
0.0
 10
3.6083461386
 20
7.500796577
 30
0.0
 10
3.4128130411
 20
7.5022688115
 30
0.0
 10
3.2210837979
 20
7.5028133514
 30
0.0
 10
3.0335062788
 20
7.5021532577
 30
0.0
 10
2.8504276598
 20
7.5000116452
 30
0.0
 10
2.7008401187
 20
7.4967168558
 30
0.0
 10
2.5836901266
 20
7.4930088411
 30
0.0
 10
2.4978046296
 20
7.4896856018
 30
0.0
 10
2.4133047238
 20
7.4857622931
 30
0.0
 10
2.3574516911
 20
7.4826953346
 30
0.0
 10
2.3297651973
 20
7.4810455109
 30
0.0
  0
SPLINE
  5
2FE
100
AcDbEntity
  8
0
100
AcDbSpline
 62
9
  6
CONTINUOUS
 70
0
 71
3
 72
23
 73
19
 74
0
 42
0.0000001
 43
0.0000001
 44
0.0000000001
 40
0.0
 40
0.0
 40
0.0
 40
0.0
 40
0.045307336
 40
0.0929053835
 40
0.1430385955
 40
0.1959785345
 40
0.2519633715
 40
0.3109606614
 40
0.372820505
 40
0.4373626546
 40
0.504357706
 40
0.5733833326
 40
0.6439153368
 40
0.7153882463
 40
0.7872392181
 40
0.8589737343
 40
0.9300769602
 40
1.0
 40
1.0
 40
1.0
 40
1.0
 10
8.6282313972
 20
7.4810455708
 30
0.0
 10
8.6306351346
 20
7.4803075782
 30
0.0
 10
8.6354742997
 20
7.4784863777
 30
0.0
 10
8.6425427348
 20
7.474837427
 30
0.0
 10
8.649511198
 20
7.4701844207
 30
0.0
 10
8.6562924968
 20
7.4645070185
 30
0.0
 10
8.6627891182
 20
7.4578039781
 30
0.0
 10
8.6689379965
 20
7.4501377239
 30
0.0
 10
8.6746631871
 20
7.4415737631
 30
0.0
 10
8.6798843131
 20
7.4321827452
 30
0.0
 10
8.6845164601
 20
7.4220500265
 30
0.0
 10
8.6885386819
 20
7.4113063119
 30
0.0
 10
8.6919240984
 20
7.4000863161
 30
0.0
 10
8.6946453355
 20
7.3885262193
 30
0.0
 10
8.6966748575
 20
7.3767577918
 30
0.0
 10
8.6980401383
 20
7.3649155147
 30
0.0
 10
8.6987713161
 20
7.3531252995
 30
0.0
 10
8.6988571189
 20
7.3452951173
 30
0.0
 10
8.6988006215
 20
7.3414149259
 30
0.0
  0
SPLINE
  5
2FF
100
AcDbEntity
  8
0
100
AcDbSpline
 62
9
  6
CONTINUOUS
 70
0
 71
3
 72
28
 73
24
 74
0
 42
0.0000001
 43
0.0000001
 44
0.0000000001
 40
0.0
 40
0.0
 40
0.0
 40
0.0
 40
0.2223468742
 40
0.3248929402
 40
0.42116385
 40
0.5107961344
 40
0.5935394432
 40
0.6691706605
 40
0.7374661757
 40
0.7982140137
 40
0.8512490275
 40
0.8964174421
 40
0.9335653822
 40
0.9490858256
 40
0.9625567062
 40
0.9739719333
 40
0.9833254151
 40
0.9906110581
 40
0.9958227675
 40
0.9976489922
 40
0.9989544474
 40
0.9997383707
 40
1.0
 40
1.0
 40
1.0
 40
1.0
 10
8.6987950518
 20
7.3414152116
 30
0.0
 10
8.7277212109
 20
7.3399541216
 30
0.0
 10
8.7699924353
 20
7.3379027652
 30
0.0
 10
8.8247995834
 20
7.3354699523
 30
0.0
 10
8.8623412963
 20
7.3339210711
 30
0.0
 10
8.8973107607
 20
7.3326074193
 30
0.0
 10
8.9295974666
 20
7.3315036181
 30
0.0
 10
8.9591093101
 20
7.330582579
 30
0.0
 10
8.9857593829
 20
7.3298175356
 30
0.0
 10
9.0094684848
 20
7.329180885
 30
0.0
 10
9.0301670478
 20
7.3286607872
 30
0.0
 10
9.0477931171
 20
7.3282456915
 30
0.0
 10
9.0605342643
 20
7.3279630119
 30
0.0
 10
9.0691476302
 20
7.327778587
 30
0.0
 10
9.074409858
 20
7.3276683816
 30
0.0
 10
9.0788689933
 20
7.3275771055
 30
0.0
 10
9.0825226388
 20
7.3275039968
 30
0.0
 10
9.0853683991
 20
7.3274484461
 30
0.0
 10
9.0872338555
 20
7.3274127322
 30
0.0
 10
9.0883204826
 20
7.3273925586
 30
0.0
 10
9.0888304406
 20
7.3273828883
 30
0.0
 10
9.0891366399
 20
7.3273777385
 30
0.0
 10
9.0892728052
 20
7.3273748241
 30
0.0
 10
9.0893068825
 20
7.3273744013
 30
0.0
  0
SPLINE
  5
300
100
AcDbEntity
  8
0
100
AcDbSpline
 62
9
  6
CONTINUOUS
 70
0
 71
3
 72
31
 73
27
 74
0
 42
0.0000001
 43
0.0000001
 44
0.0000000001
 40
0.0
 40
0.0
 40
0.0
 40
0.0
 40
0.0532983362
 40
0.0806113723
 40
0.1083474897
 40
0.1364921457
 40
0.1650308265
 40
0.1939490496
 40
0.2232326674
 40
0.2528688509
 40
0.2828449546
 40
0.3437652976
 40
0.4058891602
 40
0.4373690553
 40
0.4691086256
 40
0.5333073206
 40
0.5983661562
 40
0.631180869
 40
0.6641658768
 40
0.730585636
 40
0.7975022782
 40
0.8311084306
 40
0.864792626
 40
0.8985394921
 40
0.9323334829
 40
1.0
 40
1.0
 40
1.0
 40
1.0
 10
2.2592107233
 20
7.3414155687
 30
0.0
 10
2.3163433609
 20
7.3444173618
 30
0.0
 10
2.402779879
 20
7.3484807058
 30
0.0
 10
2.5189938945
 20
7.3530189786
 30
0.0
 10
2.6082454166
 20
7.356029112
 30
0.0
 10
2.6988266878
 20
7.3586036367
 30
0.0
 10
2.7906888866
 20
7.3607280801
 30
0.0
 10
2.8837834415
 20
7.3623885144
 30
0.0
 10
2.9780634496
 20
7.3635690884
 30
0.0
 10
3.0734833727
 20
7.3643162774
 30
0.0
 10
3.2028647589
 20
7.3648019035
 30
0.0
 10
3.3671205558
 20
7.3645558336
 30
0.0
 10
3.5329867147
 20
7.3635187128
 30
0.0
 10
3.6675280409
 20
7.3624078734
 30
0.0
 10
3.8042951901
 20
7.3611334552
 30
0.0
 10
3.9771029298
 20
7.3593082432
 30
0.0
 10
4.1510632624
 20
7.3573454091
 30
0.0
 10
4.2915205561
 20
7.3557770748
 30
0.0
 10
4.4334390684
 20
7.3542349536
 30
0.0
 10
4.6119624123
 20
7.3524187432
 30
0.0
 10
4.7911550292
 20
7.3508598008
 30
0.0
 10
4.9352116639
 20
7.3498257054
 30
0.0
 10
5.043664976
 20
7.3491719617
 30
0.0
 10
5.152320685
 20
7.348658865
 30
0.0
 10
5.2974540466
 20
7.3481712062
 30
0.0
 10
5.4063637488
 20
7.3480249413
 30
0.0
 10
5.4789982673
 20
7.3480249433
 30
0.0
  0
SPLINE
  5
301
100
AcDbEntity
  8
0
100
AcDbSpline
 62
9
  6
CONTINUOUS
 70
0
 71
3
 72
31
 73
27
 74
0
 42
0.0000001
 43
0.0000001
 44
0.0000000001
 40
0.0
 40
0.0
 40
0.0
 40
0.0
 40
0.0676665583
 40
0.1014605697
 40
0.135207456
 40
0.1688916709
 40
0.2024978421
 40
0.2694145193
 40
0.3358343098
 40
0.3688193318
 40
0.4016340573
 40
0.4666929139
 40
0.5308916241
 40
0.5626312001
 40
0.5941110996
 40
0.6562349636
 40
0.7171552952
 40
0.7471313875
 40
0.7767675554
 40
0.8060511529
 40
0.8349693516
 40
0.8635080054
 40
0.8916526321
 40
0.9193887189
 40
0.9467017238
 40
1.0
 40
1.0
 40
1.0
 40
1.0
 10
5.4789982673
 20
7.3480249433
 30
0.0
 10
5.5516330391
 20
7.3480249454
 30
0.0
 10
5.6605431208
 20
7.3481712174
 30
0.0
 10
5.805676988
 20
7.3486588769
 30
0.0
 10
5.9143330744
 20
7.3491719641
 30
0.0
 10
6.0227867613
 20
7.3498257068
 30
0.0
 10
6.1668438892
 20
7.3508598088
 30
0.0
 10
6.3460371129
 20
7.3524187703
 30
0.0
 10
6.5245610568
 20
7.3542350044
 30
0.0
 10
6.6664800398
 20
7.3557771384
 30
0.0
 10
6.8069377888
 20
7.3573454895
 30
0.0
 10
6.9808986741
 20
7.3593083434
 30
0.0
 10
7.153706956
 20
7.3611335438
 30
0.0
 10
7.2904745264
 20
7.3624079192
 30
0.0
 10
7.4250162528
 20
7.3635186793
 30
0.0
 10
7.5908828836
 20
7.3645556942
 30
0.0
 10
7.7551391301
 20
7.3648017215
 30
0.0
 10
7.8845208473
 20
7.3643161307
 30
0.0
 10
7.9799409946
 20
7.3635690084
 30
0.0
 10
8.0742212106
 20
7.3623885602
 30
0.0
 10
8.1673159592
 20
7.3607282772
 30
0.0
 10
8.2591783386
 20
7.3586039535
 30
0.0
 10
8.3497597794
 20
7.3560294995
 30
0.0
 10
8.4390114608
 20
7.3530193597
 30
0.0
 10
8.5552256749
 20
7.3484809432
 30
0.0
 10
8.6416623317
 20
7.3444173
 30
0.0
 10
8.6987950525
 20
7.3414151804
 30
0.0
  0
SPLINE
  5
302
100
AcDbEntity
  8
0
100
AcDbSpline
 62
9
  6
CONTINUOUS
 70
0
 71
3
 72
31
 73
27
 74
0
 42
0.0000001
 43
0.0000001
 44
0.0000000001
 40
0.0
 40
0.0
 40
0.0
 40
0.0
 40
0.000261433
 40
0.0005880604
 40
0.0010451682
 40
0.0023504431
 40
0.0041764953
 40
0.0065225626
 40
0.0093878825
 40
0.0127716929
 40
0.0166732317
 40
0.0260264461
 40
0.0374414299
 40
0.0509120885
 40
0.0664323284
 40
0.0839939341
 40
0.1035799239
 40
0.1487481011
 40
0.2017830337
 40
0.2625310237
 40
0.3308269846
 40
0.4064587427
 40
0.4892022839
 40
0.5788339051
 40
0.7776468031
 40
1.0
 40
1.0
 40
1.0
 40
1.0
 10
1.8686896702
 20
7.3273743986
 30
0.0
 10
1.868723702
 20
7.3273756619
 30
0.0
 10
1.8688003202
 20
7.3273760491
 30
0.0
 10
1.8689364301
 20
7.3273790812
 30
0.0
 10
1.869208514
 20
7.3273838208
 30
0.0
 10
1.8696758692
 20
7.3273927773
 30
0.0
 10
1.8703892507
 20
7.3274061452
 30
0.0
 10
1.8713058057
 20
7.3274236881
 30
0.0
 10
1.8724252402
 20
7.3274452788
 30
0.0
 10
1.8737472527
 20
7.3274710734
 30
0.0
 10
1.8759142332
 20
7.3275137953
 30
0.0
 10
1.8791271599
 20
7.3275782023
 30
0.0
 10
1.8835863083
 20
7.3276694399
 30
0.0
 10
1.8888485829
 20
7.3277793134
 30
0.0
 10
1.8949113114
 20
7.3279084397
 30
0.0
 10
1.9017704025
 20
7.3280574509
 30
0.0
 10
1.9124904959
 20
7.3282966157
 30
0.0
 10
1.9278299472
 20
7.3286557689
 30
0.0
 10
1.94852899
 20
7.3291758776
 30
0.0
 10
1.9722386178
 20
7.3298168974
 30
0.0
 10
1.998889181
 20
7.330592446
 30
0.0
 10
2.0284016079
 20
7.3315224926
 30
0.0
 10
2.0606890886
 20
7.3326265893
 30
0.0
 10
2.10900824
 20
7.3344196084
 30
0.0
 10
2.1754887336
 20
7.3372071762
 30
0.0
 10
2.2302863629
 20
7.3398902181
 30
0.0
 10
2.2592107252
 20
7.3414156506
 30
0.0
  0
SPLINE
  5
303
100
AcDbEntity
  8
0
100
AcDbSpline
 62
9
  6
CONTINUOUS
 70
0
 71
3
 72
35
 73
31
 74
0
 42
0.0000001
 43
0.0000001
 44
0.0000000001
 40
0.0
 40
0.0
 40
0.0
 40
0.0
 40
0.0000660045
 40
0.0002638077
 40
0.0005932213
 40
0.0010540574
 40
0.0016461279
 40
0.0023692447
 40
0.0042078653
 40
0.0065684155
 40
0.0094493918
 40
0.0128492912
 40
0.0167666111
 40
0.0261475034
 40
0.0375800557
 40
0.0510522611
 40
0.0665521191
 40
0.0840676357
 40
0.1035868235
 40
0.1250977018
 40
0.1485882965
 40
0.2014607665
 40
0.2621085849
 40
0.3304053225
 40
0.4061012211
 40
0.4889160367
 40
0.5785699916
 40
0.674783821
 40
0.7772788181
 40
1.0
 40
1.0
 40
1.0
 40
1.0
 10
8.9673383921
 20
7.4675964617
 30
0.0
 10
8.9673309382
 20
7.4675969081
 30
0.0
 10
8.9673010657
 20
7.4675965172
 30
0.0
 10
8.9672339903
 20
7.4675983008
 30
0.0
 10
8.9671222056
 20
7.4675995184
 30
0.0
 10
8.9669658466
 20
7.4676020933
 30
0.0
 10
8.9667649427
 20
7.4676051151
 30
0.0
 10
8.9664081916
 20
7.4676107422
 30
0.0
 10
8.9658513947
 20
7.4676196606
 30
0.0
 10
8.9650505141
 20
7.467632921
 30
0.0
 10
8.9640730348
 20
7.4676495669
 30
0.0
 10
8.9629194707
 20
7.467669784
 30
0.0
 10
8.9610306881
 20
7.4677038184
 30
0.0
 10
8.9582333437
 20
7.4677564209
 30
0.0
 10
8.954355302
 20
7.4678331879
 30
0.0
 10
8.9497852384
 20
7.4679282303
 30
0.0
 10
8.944527259
 20
7.468042882
 30
0.0
 10
8.93858547
 20
7.4681784799
 30
0.0
 10
8.9319639777
 20
7.4683363605
 30
0.0
 10
8.9246668881
 20
7.4685178588
 30
0.0
 10
8.9135979356
 20
7.4688046445
 30
0.0
 10
8.8981034922
 20
7.4692312265
 30
0.0
 10
8.8775431951
 20
7.469840419
 30
0.0
 10
8.8544034876
 20
7.4705756703
 30
0.0
 10
8.8287595029
 20
7.4714590104
 30
0.0
 10
8.8007038462
 20
7.4725114755
 30
0.0
 10
8.7703326262
 20
7.4737542294
 30
0.0
 10
8.7377419334
 20
7.4752084058
 30
0.0
 10
8.6901208581
 20
7.4775223459
 30
0.0
 10
8.653383615
 20
7.479546713
 30
0.0
 10
8.6282313645
 20
7.4810455802
 30
0.0
  0
ENDSEC
  0
SECTION
  2
OBJECTS
  0
DICTIONARY
  5
C
100
AcDbDictionary
280
0
281
1
  3
ACAD_GROUP
350
D
  3
ACAD_MLINESTYLE
350
17
  3
ACAD_LAYOUT
350
1A
  3
ACAD_PLOTSETTINGS
350
19
  3
ACAD_PLOTSTYLENAME
350
E
  0
DICTIONARY
  5
D
102
{ACAD_REACTORS
330
C
102
}
100
AcDbDictionary
280
0
281
1
  0
ACDBDICTIONARYWDFLT
  5
E
102
{ACAD_REACTORS
330
C
102
}
100
AcDbDictionary
281
1
  3
Normal
350
F
100
AcDbDictionaryWithDefault
340
F
  0
DICTIONARY
  5
17
102
{ACAD_REACTORS
330
C
102
}
100
AcDbDictionary
280
0
281
1
  3
Standard
350
18
  0
DICTIONARY
  5
19
102
{ACAD_REACTORS
330
C
102
}
100
AcDbDictionary
281
1
  0
DICTIONARY
  5
1A
102
{ACAD_REACTORS
330
C
102
}
100
AcDbDictionary
281
1
  3
Model
350
304
  3
Layout1
350
305
  0
ACDBPLACEHOLDER
  5
F
102
{ACAD_REACTORS
330
E
102
}
  0
MLINESTYLE
  5
18
102
{ACAD_REACTORS
330
17
102
}
100
AcDbMlineStyle
  2
STANDARD
 70
0
  3

 62
256
 51
90.0
 52
90.0
 71
2
 49
0.5
 62
256
  6
BYLAYER
 49
-0.5
 62
256
  6
BYLAYER
  0
LAYOUT
  5
304
102
{ACAD_REACTORS
330
1A
102
}
100
AcDbPlotSettings
  1

  2
none_device
  4
ANSI_A_(11.00_x_8.50_Inches)
  6

 40
0.0
 41
0.0
 42
0.0
 43
0.0
 44
279.4
 45
215.9
 46
0.0
 47
0.0
 48
0.0
 49
0.0
140
0.0
141
0.0
142
1.0
143
1.0
 70
1024
 72
0
 73
0
 74
0
  7

 75
0
147
1.0
148
0.0
149
0.0
100
AcDbLayout
  1
Model
 70
0
 71
0
 10
0.0
 20
0.0
 11
11.0
 21
8.5
 12
0.0
 22
0.0
 32
0.0
 14
0.0
 24
0.0
 34
0.0
 15
0.0
 25
0.0
 35
0.0
146
0.0
 13
0.0
 23
0.0
 33
0.0
 16
1.0
 26
0.0
 36
0.0
 17
0.0
 27
1.0
 37
0.0
 76
0
330
21D
345
0
346
0
  0
LAYOUT
  5
305
102
{ACAD_REACTORS
330
1A
102
}
100
AcDbPlotSettings
  1

  2
none_device
  4
ANSI_A_(11.00_x_8.50_Inches)
  6

 40
0.0
 41
0.0
 42
0.0
 43
0.0
 44
279.4
 45
215.9
 46
0.0
 47
0.0
 48
0.0
 49
0.0
140
0.0
141
0.0
142
1.0
143
1.0
 70
0
 72
0
 73
0
 74
0
  7

 75
0
147
1.0
148
0.0
149
0.0
100
AcDbLayout
  1
Layout1
 70
0
 71
1
 10
0.0
 20
0.0
 11
11.0
 21
8.5
 12
0.0
 22
0.0
 32
0.0
 14
0.0
 24
0.0
 34
0.0
 15
0.0
 25
0.0
 35
0.0
146
0.0
 13
0.0
 23
0.0
 33
0.0
 16
1.0
 26
0.0
 36
0.0
 17
0.0
 27
1.0
 37
0.0
 76
0
330
21E
345
0
346
0
  0
ENDSEC
  0
EOF
