999
DXF file: C:\Prowork\plots\412_top.dxf
999
Pro/ENGINEER 2018500 by Parametric Technology Corporation
  0
SECTION
  2
HEADER
  9
$ACADVER
  1
AC1032
  9
$DWGCODEPAGE
  3
ANSI_1252
  9
$EXTMAX
 10
11.0
 20
8.5
 30
0.0
  9
$EXTMIN
 10
0.0
 20
0.0
 30
0.0
  9
$LIMMIN
 10
0.0
 20
0.0
  9
$LIMMAX
 10
11.0
 20
8.5
  9
$VIEWCTR
 10
5.5
 20
4.25
  9
$VIEWSIZE
 40
8.5
  9
$CLAYER
  8
0
  9
$LTSCALE
 40
0.605
  9
$CELTYPE
  6
BYLAYER
  9
$DIMSCALE
 40
1.0
  9
$DIMASZ
 40
0.1
  9
$DIMEXO
 40
0.0625
  9
$DIMDLI
 40
0.418
  9
$DIMEXE
 40
0.125
  9
$DIMCEN
 40
0.099
  9
$DIMLFAC
 40
1.0
  9
$DIMBLK
  1
_FILLED
  9
$DIMALT
 70
1
  9
$DIMALTD
 70
2
  9
$DIMALTTD
 70
2
  9
$DIMALTF
 40
25.4
  9
$DIMTXT
 40
0.08
  9
$DIMTOL
 70
1
  9
$DIMLIM
 70
0
  9
$DIMTFAC
 40
1.0
  9
$DIMTP
 40
0.001
  9
$DIMTM
 40
0.001
  9
$DIMGAP
 40
0.09
  9
$DIMDSEP
 70
46
  9
$AUNITS
 70
0
  9
$PDMODE
 70
3
  9
$PDSIZE
 40
0.06
  9
$HANDSEED
  5
277
  9
$TILEMODE
 70
1
  9
$MEASUREMENT
 70
0
  9
$INSUNITS
 70
1
  0
ENDSEC
  0
SECTION
  2
CLASSES
  0
CLASS
  1
ACDBDICTIONARYWDFLT
  2
AcDbDictionaryWithDefault
  3
AutoCAD 2000
 90
0
 91
1
280
0
281
0
  0
CLASS
  1
ACDBPLACEHOLDER
  2
AcDbPlaceHolder
  3
AutoCAD 2000
 90
0
 91
1
280
0
281
0
  0
CLASS
  1
LAYOUT
  2
AcDbLayout
  3
AutoCAD 2000
 90
0
 91
0
280
0
281
0
  0
ENDSEC
  0
SECTION
  2
TABLES
  0
TABLE
  2
VPORT
  5
8
100
AcDbSymbolTable
 70
2
  0
VPORT
  5
1F4
100
AcDbSymbolTableRecord
100
AcDbViewportTableRecord
  2
*ACTIVE
 70
0
 10
0.0
 20
0.0
 11
1.0
 21
1.0
 12
5.5
 22
4.25
 13
0.0
 23
0.0
 14
1.0
 24
1.0
 15
0.0
 25
0.0
 16
0.0
 26
0.0
 36
1.0
 17
0.0
 27
0.0
 37
0.0
 40
8.5
 41
1.2941176471
 42
50.0
 43
0.0
 44
0.0
 50
0.0
 51
0.0
 71
0
 72
100
 73
1
 74
1
 75
0
 76
0
 77
0
 78
0
  0
ENDTAB
  0
TABLE
  2
LTYPE
  5
5
100
AcDbSymbolTable
 70
6
  0
LTYPE
  5
14
100
AcDbSymbolTableRecord
100
AcDbLinetypeTableRecord
  2
BYBLOCK
 70
0
  3

 72
65
 73
0
 40
0.0
  0
LTYPE
  5
15
100
AcDbSymbolTableRecord
100
AcDbLinetypeTableRecord
  2
BYLAYER
 70
0
  3

 72
65
 73
0
 40
0.0
  0
LTYPE
  5
16
100
AcDbSymbolTableRecord
100
AcDbLinetypeTableRecord
  2
CONTINUOUS
 70
64
  3
Solid line
 72
65
 73
0
 40
0.0
  0
LTYPE
  5
1F5
100
AcDbSymbolTableRecord
100
AcDbLinetypeTableRecord
  2
CENTER
 70
64
  3
____ _ ____ _ ____ _ ____ _ ____ _ ____ _ ____
 72
65
 73
4
 40
0.6
 49
0.375
 74
0
 49
-0.075
 74
0
 49
0.075
 74
0
 49
-0.075
 74
0
  0
LTYPE
  5
1F6
100
AcDbSymbolTableRecord
100
AcDbLinetypeTableRecord
  2
HIDDEN
 70
64
  3
- - - - - - - - - - - - - - - - - - - -
 72
65
 73
2
 40
0.2
 49
0.1
 74
0
 49
-0.1
 74
0
  0
LTYPE
  5
1F7
100
AcDbSymbolTableRecord
100
AcDbLinetypeTableRecord
  2
PHANTOM
 70
64
  3
_____ _ _ _____ _ _ _____ _ _ _____
 72
65
 73
6
 40
0.8
 49
0.45
 74
0
 49
-0.05
 74
0
 49
0.1
 74
0
 49
-0.05
 74
0
 49
0.1
 74
0
 49
-0.05
 74
0
  0
LTYPE
  5
1F8
100
AcDbSymbolTableRecord
100
AcDbLinetypeTableRecord
  2
DOT
 70
64
  3
. . . . . . . . . . . . . . . . . . . .
 72
65
 73
2
 40
0.2
 49
0.1
 74
0
 49
-0.1
 74
0
  0
LTYPE
  5
1F9
100
AcDbSymbolTableRecord
100
AcDbLinetypeTableRecord
  2
DASHED
 70
64
  3
- - - - - - - - - - - - - - - - - - - -
 72
65
 73
2
 40
0.2
 49
0.1
 74
0
 49
-0.1
 74
0
  0
ENDTAB
  0
TABLE
  2
LAYER
  5
2
100
AcDbSymbolTable
 70
36
  0
LAYER
  5
10
100
AcDbSymbolTableRecord
100
AcDbLayerTableRecord
  2
0
 70
0
 62
7
  6
CONTINUOUS
370
-3
390
F
  0
LAYER
  5
1FA
100
AcDbSymbolTableRecord
100
AcDbLayerTableRecord
  2
DEFAULT_1
 70
0
 62
7
  6
CENTER
370
-3
390
F
  0
LAYER
  5
1FB
100
AcDbSymbolTableRecord
100
AcDbLayerTableRecord
  2
DEFAULT_2
 70
0
 62
8
  6
HIDDEN
370
-3
390
F
  0
LAYER
  5
1FC
100
AcDbSymbolTableRecord
100
AcDbLayerTableRecord
  2
DEFAULT_3
 70
0
 62
7
  6
PHANTOM
370
-3
390
F
  0
LAYER
  5
1FD
100
AcDbSymbolTableRecord
100
AcDbLayerTableRecord
  2
50350
 70
0
 62
7
  6
CONTINUOUS
370
-3
390
F
  0
LAYER
  5
1FE
100
AcDbSymbolTableRecord
100
AcDbLayerTableRecord
  2
50355
 70
0
 62
7
  6
CONTINUOUS
370
-3
390
F
  0
LAYER
  5
1FF
100
AcDbSymbolTableRecord
100
AcDbLayerTableRecord
  2
50359
 70
0
 62
7
  6
CONTINUOUS
370
-3
390
F
  0
LAYER
  5
200
100
AcDbSymbolTableRecord
100
AcDbLayerTableRecord
  2
50362
 70
0
 62
7
  6
CONTINUOUS
370
-3
390
F
  0
LAYER
  5
201
100
AcDbSymbolTableRecord
100
AcDbLayerTableRecord
  2
50663
 70
0
 62
7
  6
CONTINUOUS
370
-3
390
F
  0
LAYER
  5
202
100
AcDbSymbolTableRecord
100
AcDbLayerTableRecord
  2
50664
 70
0
 62
7
  6
CONTINUOUS
370
-3
390
F
  0
LAYER
  5
203
100
AcDbSymbolTableRecord
100
AcDbLayerTableRecord
  2
50670
 70
0
 62
7
  6
CONTINUOUS
370
-3
390
F
  0
LAYER
  5
204
100
AcDbSymbolTableRecord
100
AcDbLayerTableRecord
  2
50675
 70
0
 62
7
  6
CONTINUOUS
370
-3
390
F
  0
LAYER
  5
205
100
AcDbSymbolTableRecord
100
AcDbLayerTableRecord
  2
50677
 70
0
 62
7
  6
CONTINUOUS
370
-3
390
F
  0
LAYER
  5
206
100
AcDbSymbolTableRecord
100
AcDbLayerTableRecord
  2
50678
 70
0
 62
7
  6
CONTINUOUS
370
-3
390
F
  0
LAYER
  5
207
100
AcDbSymbolTableRecord
100
AcDbLayerTableRecord
  2
6-412
 70
0
 62
7
  6
CONTINUOUS
370
-3
390
F
  0
LAYER
  5
208
100
AcDbSymbolTableRecord
100
AcDbLayerTableRecord
  2
92073
 70
0
 62
7
  6
CONTINUOUS
370
-3
390
F
  0
LAYER
  5
209
100
AcDbSymbolTableRecord
100
AcDbLayerTableRecord
  2
DEFAULT_COORDINATE_SYSTEM
 70
0
 62
7
  6
CONTINUOUS
370
-3
390
F
  0
LAYER
  5
20A
100
AcDbSymbolTableRecord
100
AcDbLayerTableRecord
  2
DEFAULT_DATUM_AXES
 70
0
 62
7
  6
CONTINUOUS
370
-3
390
F
  0
LAYER
  5
20B
100
AcDbSymbolTableRecord
100
AcDbLayerTableRecord
  2
DEFAULT_DATUM_PLANES
 70
0
 62
7
  6
CONTINUOUS
370
-3
390
F
  0
LAYER
  5
20C
100
AcDbSymbolTableRecord
100
AcDbLayerTableRecord
  2
INTF_50350
 70
0
 62
7
  6
CONTINUOUS
370
-3
390
F
  0
LAYER
  5
20D
100
AcDbSymbolTableRecord
100
AcDbLayerTableRecord
  2
INTF_50355
 70
0
 62
7
  6
CONTINUOUS
370
-3
390
F
  0
LAYER
  5
20E
100
AcDbSymbolTableRecord
100
AcDbLayerTableRecord
  2
INTF_50359
 70
0
 62
7
  6
CONTINUOUS
370
-3
390
F
  0
LAYER
  5
20F
100
AcDbSymbolTableRecord
100
AcDbLayerTableRecord
  2
INTF_50362
 70
0
 62
7
  6
CONTINUOUS
370
-3
390
F
  0
LAYER
  5
210
100
AcDbSymbolTableRecord
100
AcDbLayerTableRecord
  2
INTF_50663
 70
0
 62
7
  6
CONTINUOUS
370
-3
390
F
  0
LAYER
  5
211
100
AcDbSymbolTableRecord
100
AcDbLayerTableRecord
  2
INTF_50664
 70
0
 62
7
  6
CONTINUOUS
370
-3
390
F
  0
LAYER
  5
212
100
AcDbSymbolTableRecord
100
AcDbLayerTableRecord
  2
INTF_50670
 70
0
 62
7
  6
CONTINUOUS
370
-3
390
F
  0
LAYER
  5
213
100
AcDbSymbolTableRecord
100
AcDbLayerTableRecord
  2
INTF_50675
 70
0
 62
7
  6
CONTINUOUS
370
-3
390
F
  0
LAYER
  5
214
100
AcDbSymbolTableRecord
100
AcDbLayerTableRecord
  2
INTF_50677
 70
0
 62
7
  6
CONTINUOUS
370
-3
390
F
  0
LAYER
  5
215
100
AcDbSymbolTableRecord
100
AcDbLayerTableRecord
  2
INTF_50678
 70
0
 62
7
  6
CONTINUOUS
370
-3
390
F
  0
LAYER
  5
216
100
AcDbSymbolTableRecord
100
AcDbLayerTableRecord
  2
INTF_92073
 70
0
 62
7
  6
CONTINUOUS
370
-3
390
F
  0
LAYER
  5
217
100
AcDbSymbolTableRecord
100
AcDbLayerTableRecord
  2
INTF_BLANK
 70
0
 62
7
  6
CONTINUOUS
370
-3
390
F
  0
LAYER
  5
218
100
AcDbSymbolTableRecord
100
AcDbLayerTableRecord
  2
NONE
 70
0
 62
7
  6
CONTINUOUS
370
-3
390
F
  0
LAYER
  5
219
100
AcDbSymbolTableRecord
100
AcDbLayerTableRecord
  2
PLATED_SURFACE
 70
0
 62
7
  6
CONTINUOUS
370
-3
390
F
  0
LAYER
  5
21A
100
AcDbSymbolTableRecord
100
AcDbLayerTableRecord
  2
_BLACK_HOLE
 70
0
 62
7
  6
CONTINUOUS
370
-3
390
F
  0
ENDTAB
  0
TABLE
  2
STYLE
  5
3
100
AcDbSymbolTable
 70
1
  0
STYLE
  5
11
100
AcDbSymbolTableRecord
100
AcDbTextStyleTableRecord
  2
STANDARD
 70
0
 40
0.0
 41
0.8
 50
0.0
 71
0
 42
0.2
  3
txt
  4

  0
STYLE
  5
21B
100
AcDbSymbolTableRecord
100
AcDbTextStyleTableRecord
  2
TEXTSTYLE_1
 70
0
 40
0.0
 41
0.8
 50
0.0
 71
0
 42
0.2
  3
gdt
  4

  0
ENDTAB
  0
TABLE
  2
VIEW
  5
6
100
AcDbSymbolTable
 70
0
  0
ENDTAB
  0
TABLE
  2
UCS
  5
7
100
AcDbSymbolTable
 70
0
  0
ENDTAB
  0
TABLE
  2
APPID
  5
9
100
AcDbSymbolTable
 70
1
  0
APPID
  5
21C
100
AcDbSymbolTableRecord
100
AcDbRegAppTableRecord
  2
ACAD
 70
0
  0
ENDTAB
  0
TABLE
  2
BLOCK_RECORD
  5
1
100
AcDbSymbolTable
 70
0
  0
BLOCK_RECORD
  5
21D
100
AcDbSymbolTableRecord
100
AcDbBlockTableRecord
  2
*Model_Space
  0
BLOCK_RECORD
  5
21E
100
AcDbSymbolTableRecord
100
AcDbBlockTableRecord
  2
*Paper_Space
  0
BLOCK_RECORD
  5
21F
100
AcDbSymbolTableRecord
100
AcDbBlockTableRecord
  2
_FILLED
  0
ENDTAB
  0
TABLE
  2
DIMSTYLE
  5
A
100
AcDbSymbolTable
 70
1
100
AcDbDimStyleTable
 71
0
  0
DIMSTYLE
105
220
100
AcDbSymbolTableRecord
100
AcDbDimStyleTableRecord
  2
STANDARD
 70
0
  3

  4

 40
1.0
 41
0.1
 42
0.0625
 43
0.38
 44
0.125
 45
0.0
 46
0.0
 47
0.001
 48
0.001
140
0.08
141
0.09
142
0.0
143
25.4
144
1.0
145
0.0
146
1.0
147
0.09
 71
1.0
 72
0.0
 73
1
 74
1
 75
0
 76
0
 77
0
 78
4
 79
1
170
1
171
2
172
0
173
0
174
0
175
0
176
0
177
0
178
0
270
2
179
3
271
3
272
3
273
2
274
2
275
0
280
0
281
0
282
0
283
1
284
4
285
0
286
0
287
3
288
0
340
11
278
46
341
21F
342
21F
343
21F
344
21F
  0
ENDTAB
  0
ENDSEC
  0
SECTION
  2
BLOCKS
  0
BLOCK
  5
20
100
AcDbEntity
  8
0
100
AcDbBlockBegin
  2
*Model_Space
 70
0
 10
0.0
 20
0.0
 30
0.0
  3
*Model_Space
  1

  0
ENDBLK
  5
21
100
AcDbEntity
  8
0
100
AcDbBlockEnd
  0
BLOCK
  5
1C
100
AcDbEntity
  8
0
100
AcDbBlockBegin
  2
*Paper_Space
 70
0
 10
0.0
 20
0.0
 30
0.0
  3
*Paper_Space
  1

  0
ENDBLK
  5
1D
100
AcDbEntity
  8
0
100
AcDbBlockEnd
  0
BLOCK
  5
221
100
AcDbEntity
  8
0
100
AcDbBlockBegin
  2
_FILLED
 70
64
 10
0.0
 20
0.0
  3
_FILLED
  1

  0
SOLID
  5
222
100
AcDbEntity
  8
0
  6
BYBLOCK
 62
0
100
AcDbTrace
 10
0.0
 20
0.0
 11
-1.0
 21
0.2
 12
-1.0
 22
-0.2
 13
-1.0
 23
-0.2
  0
ENDBLK
  5
223
100
AcDbEntity
  8
0
  6
BYBLOCK
 62
0
100
AcDbBlockEnd
  0
ENDSEC
  0
SECTION
  2
ENTITIES
  0
MTEXT
  5
224
100
AcDbEntity
  8
0
100
AcDbMText
 62
7
  6
CONTINUOUS
  7
STANDARD
 71
1
 72
1
 10
9.2867211762
 20
0.3771748835
 30
0.0
 11
1.0
 21
0.0
 31
0.0
 73
2
 44
0.9
  1
SCALE: 3.69
 40
0.08
 41
0.704
  0
LINE
  5
225
100
AcDbEntity
  8
0
100
AcDbLine
 62
7
  6
CONTINUOUS
 10
0.0
 20
0.0
 11
0.0
 21
8.5
  0
LINE
  5
226
100
AcDbEntity
  8
0
100
AcDbLine
 62
7
  6
CONTINUOUS
 10
0.0
 20
0.0
 11
11.0
 21
0.0
  0
LINE
  5
227
100
AcDbEntity
  8
0
100
AcDbLine
 62
7
  6
CONTINUOUS
 10
0.0
 20
8.5
 11
11.0
 21
8.5
  0
LINE
  5
228
100
AcDbEntity
  8
0
100
AcDbLine
 62
7
  6
CONTINUOUS
 10
11.0
 20
0.0
 11
11.0
 21
8.5
  0
LINE
  5
229
100
AcDbEntity
  8
0
100
AcDbLine
 62
7
  6
CONTINUOUS
 10
4.4909937885
 20
0.1066243362
 11
6.7972437891
 21
0.1066243362
  0
LINE
  5
22A
100
AcDbEntity
  8
0
100
AcDbLine
 62
9
  6
CONTINUOUS
 10
6.4859468953
 20
7.337270008
 11
6.4681748762
 21
7.3226911116
  0
LINE
  5
22B
100
AcDbEntity
  8
0
100
AcDbLine
 62
9
  6
CONTINUOUS
 10
6.4859468953
 20
0.8685186643
 11
6.4681824204
 21
0.8831067831
  0
LINE
  5
22C
100
AcDbEntity
  8
0
100
AcDbLine
 62
7
  6
CONTINUOUS
 10
4.0297437888
 20
8.3371693362
 11
4.0297437888
 21
6.2615443362
  0
LINE
  5
22D
100
AcDbEntity
  8
0
100
AcDbLine
 62
7
  6
CONTINUOUS
 10
4.4909937888
 20
0.1066243362
 11
4.4909937888
 21
1.2910671948
  0
LINE
  5
22E
100
AcDbEntity
  8
0
100
AcDbLine
 62
7
  6
CONTINUOUS
 10
5.5469537286
 20
4.0734206315
 11
5.5469186565
 21
4.0738624785
  0
LINE
  5
22F
100
AcDbEntity
  8
0
100
AcDbLine
 62
7
  6
CONTINUOUS
 10
5.5860012888
 20
3.7080959782
 11
5.5860012888
 21
4.4976926942
  0
LINE
  5
230
100
AcDbEntity
  8
0
100
AcDbLine
 62
7
  6
CONTINUOUS
 10
5.6441187888
 20
8.3371693362
 11
5.6441187888
 21
7.7356965686
  0
LINE
  5
231
100
AcDbEntity
  8
0
100
AcDbLine
 62
7
  6
CONTINUOUS
 10
5.6441187888
 20
4.6840693362
 11
5.6441187888
 21
4.6602344932
  0
LINE
  5
232
100
AcDbEntity
  8
0
100
AcDbLine
 62
7
  6
CONTINUOUS
 10
5.6441187888
 20
3.5455541792
 11
5.6441187888
 21
3.5217565983
  0
LINE
  5
233
100
AcDbEntity
  8
0
100
AcDbLine
 62
7
  6
CONTINUOUS
 10
5.6441187888
 20
0.4700921038
 11
5.6441187888
 21
0.2850133945
  0
LINE
  5
234
100
AcDbEntity
  8
0
100
AcDbLine
 62
7
  6
CONTINUOUS
 10
5.6441187888
 20
4.0447768362
 11
5.6441187888
 21
4.1610118362
  0
LINE
  5
235
100
AcDbEntity
  8
0
100
AcDbLine
 62
7
  6
CONTINUOUS
 10
5.5469930625
 20
4.0739564485
 11
5.5469783618
 21
4.07345211
  0
LINE
  5
236
100
AcDbEntity
  8
0
100
AcDbLine
 62
7
  6
CONTINUOUS
 10
5.5469783618
 20
4.07345211
 11
5.5469537286
 21
4.0734206315
  0
LINE
  5
237
100
AcDbEntity
  8
0
100
AcDbLine
 62
7
  6
CONTINUOUS
 10
5.2493204308
 20
4.0447768362
 11
6.0389171468
 21
4.0447768362
  0
LINE
  5
238
100
AcDbEntity
  8
0
100
AcDbLine
 62
7
  6
CONTINUOUS
 10
5.7022362888
 20
4.1028943362
 11
5.5860012888
 21
4.1028943362
  0
LINE
  5
239
100
AcDbEntity
  8
0
100
AcDbLine
 62
7
  6
CONTINUOUS
 10
5.2493204308
 20
4.1610118362
 11
6.0389171468
 21
4.1610118362
  0
LINE
  5
23A
100
AcDbEntity
  8
0
100
AcDbLine
 62
7
  6
CONTINUOUS
 10
5.5860012888
 20
4.1610118362
 11
5.7022362888
 21
4.0447768362
  0
LINE
  5
23B
100
AcDbEntity
  8
0
100
AcDbLine
 62
7
  6
CONTINUOUS
 10
5.7022362888
 20
3.7080959782
 11
5.7022362888
 21
4.4976926942
  0
LINE
  5
23C
100
AcDbEntity
  8
0
100
AcDbLine
 62
7
  6
CONTINUOUS
 10
5.7022362888
 20
4.1610118362
 11
5.5860012888
 21
4.0447768362
  0
LINE
  5
23D
100
AcDbEntity
  8
0
100
AcDbLine
 62
7
  6
CONTINUOUS
 10
5.5522747308
 20
4.0730523927
 11
5.5469661341
 21
4.0713275251
  0
LINE
  5
23E
100
AcDbEntity
  8
0
100
AcDbLine
 62
7
  6
CONTINUOUS
 10
6.7972437888
 20
0.1066243362
 11
6.7972437888
 21
1.2910670473
  0
LINE
  5
23F
100
AcDbEntity
  8
0
100
AcDbLine
 62
7
  6
CONTINUOUS
 10
7.2584937888
 20
8.3371693362
 11
7.2584937888
 21
6.2615443362
  0
LINE
  5
240
100
AcDbEntity
  8
0
100
AcDbLine
 62
9
  6
CONTINUOUS
 10
4.8200626978
 20
0.8830975634
 11
4.8022906824
 21
0.8685186643
  0
LINE
  5
241
100
AcDbEntity
  8
0
100
AcDbLine
 62
7
  6
CONTINUOUS
 10
7.2584937888
 20
6.2615443362
 11
7.1647435241
 21
6.2615443362
  0
LINE
  5
242
100
AcDbEntity
  8
0
100
AcDbLine
 62
7
  6
CONTINUOUS
 10
4.1258383732
 20
6.2615443362
 11
4.0297437888
 21
6.2615443362
  0
LINE
  5
243
100
AcDbEntity
  8
0
100
AcDbLine
 62
9
  6
CONTINUOUS
 10
4.8022906824
 20
7.337270008
 11
4.8200551469
 21
7.3226818766
  0
LINE
  5
244
100
AcDbEntity
  8
0
100
AcDbLine
 62
7
  6
CONTINUOUS
 10
7.2584937888
 20
8.3371693362
 11
4.0297437888
 21
8.3371693362
  0
ARC
  5
245
100
AcDbEntity
  8
0
100
AcDbCircle
 62
7
  6
CONTINUOUS
 10
5.6441157
 20
2.9375550601
 40
1.5612196265
100
AcDbArc
 50
89.9998866427
 51
92.1332552178
  0
ARC
  5
246
100
AcDbEntity
  8
0
100
AcDbCircle
 62
7
  6
CONTINUOUS
 10
2.5405668213
 20
4.1028943362
 40
5.1016869675
100
AcDbArc
 50
320.6555074171
 51
39.3444925829
  0
ARC
  5
247
100
AcDbEntity
  8
0
100
AcDbCircle
 62
7
  6
CONTINUOUS
 10
4.4787367497
 20
4.1028943362
 40
1.5612624749
100
AcDbArc
 50
357.866689923
 51
2.133310077
  0
ARC
  5
248
100
AcDbEntity
  8
0
100
AcDbCircle
 62
7
  6
CONTINUOUS
 10
5.6441056117
 20
5.2676917338
 40
1.5606777481
100
AcDbArc
 50
267.866374379
 51
270.0004837606
  0
ARC
  5
249
100
AcDbEntity
  8
0
100
AcDbCircle
 62
7
  6
CONTINUOUS
 10
5.5690886136
 20
4.202311083
 40
0.1303478078
100
AcDbArc
 50
260.2073502504
 51
261.8718255346
  0
ARC
  5
24A
100
AcDbEntity
  8
0
100
AcDbCircle
 62
7
  6
CONTINUOUS
 10
5.5689364298
 20
4.2012752043
 40
0.1293008183
100
AcDbArc
 50
261.873684054
 51
262.596280929
  0
ARC
  5
24B
100
AcDbEntity
  8
0
100
AcDbCircle
 62
7
  6
CONTINUOUS
 10
5.6278408496
 20
4.1248808813
 40
0.0916399152
100
AcDbArc
 50
208.3914253722
 51
210.9112933062
  0
ARC
  5
24C
100
AcDbEntity
  8
0
100
AcDbCircle
 62
7
  6
CONTINUOUS
 10
5.6254611994
 20
4.1235021107
 40
0.0888900063
100
AcDbArc
 50
209.8995927901
 51
213.6000733636
  0
ARC
  5
24D
100
AcDbEntity
  8
0
100
AcDbCircle
 62
7
  6
CONTINUOUS
 10
5.6441218775
 20
2.9375550545
 40
1.5612196321
100
AcDbArc
 50
87.866744786
 51
90.0001133535
  0
ARC
  5
24E
100
AcDbEntity
  8
0
100
AcDbCircle
 62
7
  6
CONTINUOUS
 10
6.809457767
 20
4.1028912418
 40
1.5612193286
100
AcDbArc
 50
179.9998864391
 51
182.1332554213
  0
ARC
  5
24F
100
AcDbEntity
  8
0
100
AcDbCircle
 62
7
  6
CONTINUOUS
 10
6.8089175578
 20
4.1028811846
 40
1.5606791194
100
AcDbArc
 50
179.9995171772
 51
182.1336246832
  0
ARC
  5
250
100
AcDbEntity
  8
0
100
AcDbCircle
 62
7
  6
CONTINUOUS
 10
5.6441187888
 20
1.5586393362
 40
1.08855
100
AcDbArc
 50
219.3444925829
 51
320.6555074171
  0
ARC
  5
251
100
AcDbEntity
  8
0
100
AcDbCircle
 62
9
  6
CONTINUOUS
 10
5.6441187866
 20
1.5572713225
 40
1.0647154011
100
AcDbArc
 50
219.2871598574
 51
320.7134812556
  0
ARC
  5
252
100
AcDbEntity
  8
0
100
AcDbCircle
 62
7
  6
CONTINUOUS
 10
5.7896059159
 20
4.0700695967
 40
0.2426428549
100
AcDbArc
 50
177.3455894743
 51
179.6996413954
  0
ARC
  5
253
100
AcDbEntity
  8
0
100
AcDbCircle
 62
7
  6
CONTINUOUS
 10
8.7476707564
 20
4.1028943362
 40
5.1016869675
100
AcDbArc
 50
140.6555074171
 51
219.3444925829
  0
ARC
  5
254
100
AcDbEntity
  8
0
100
AcDbCircle
 62
7
  6
CONTINUOUS
 10
5.6441218776
 20
5.2682336116
 40
1.5612196258
100
AcDbArc
 50
269.9998866421
 51
272.1332552182
  0
ARC
  5
255
100
AcDbEntity
  8
0
100
AcDbCircle
 62
7
  6
CONTINUOUS
 10
6.8094577674
 20
4.1028974305
 40
1.561219329
100
AcDbArc
 50
177.866744579
 51
180.0001135606
  0
ARC
  5
256
100
AcDbEntity
  8
0
100
AcDbCircle
 62
7
  6
CONTINUOUS
 10
6.8089175562
 20
4.1029074878
 40
1.5606791178
100
AcDbArc
 50
177.8663753157
 51
180.0004828239
  0
ARC
  5
257
100
AcDbEntity
  8
0
100
AcDbCircle
 62
7
  6
CONTINUOUS
 10
5.6441319661
 20
5.2676917272
 40
1.5606777415
100
AcDbArc
 50
269.9995162349
 51
272.1336256255
  0
ARC
  5
258
100
AcDbEntity
  8
0
100
AcDbCircle
 62
7
  6
CONTINUOUS
 10
5.6441187888
 20
6.6471493362
 40
1.08855
100
AcDbArc
 50
39.3444925829
 51
140.6555074171
  0
ARC
  5
259
100
AcDbEntity
  8
0
100
AcDbCircle
 62
9
  6
CONTINUOUS
 10
5.6441187911
 20
6.64851721
 40
1.0647154011
100
AcDbArc
 50
39.2871659141
 51
140.7134763122
  0
CIRCLE
  5
25A
100
AcDbEntity
  8
0
100
AcDbCircle
 62
7
  6
CONTINUOUS
 10
5.6441187888
 20
4.1028943362
 40
0.60885
  0
CIRCLE
  5
25B
100
AcDbEntity
  8
0
100
AcDbCircle
 62
7
  6
CONTINUOUS
 10
5.6441187888
 20
4.1028943362
 40
0.581175
  0
CIRCLE
  5
25C
100
AcDbEntity
  8
0
100
AcDbCircle
 62
9
  6
CONTINUOUS
 10
5.6441187888
 20
4.1028943362
 40
0.557340157
  0
SPLINE
  5
25D
100
AcDbEntity
  8
0
100
AcDbSpline
 62
7
  6
CONTINUOUS
 70
0
 71
3
 72
22
 73
18
 74
0
 42
0.0000001
 43
0.0000001
 44
0.0000000001
 40
0.0
 40
0.0
 40
0.0
 40
0.0
 40
0.1270316309
 40
0.2534773936
 40
0.3164721394
 40
0.3793070003
 40
0.4419732438
 40
0.5044720697
 40
0.5668159144
 40
0.6290166463
 40
0.6910803539
 40
0.7530235298
 40
0.7839600787
 40
0.8148769501
 40
0.8766508119
 40
0.9383546828
 40
1.0
 40
1.0
 40
1.0
 40
1.0
 10
4.4909937888
 20
0.2850133945
 30
0.0
 10
4.5133861534
 20
0.2720851568
 30
0.0
 10
4.5585575075
 20
0.2471235306
 30
0.0
 10
4.6162801455
 20
0.2184723439
 30
0.0
 10
4.6631176561
 20
0.1974124967
 30
0.0
 10
4.6985306506
 20
0.1826356187
 30
0.0
 10
4.7342669443
 20
0.1689366478
 30
0.0
 10
4.7703204113
 20
0.1563940353
 30
0.0
 10
4.8066825404
 20
0.1450890292
 30
0.0
 10
4.8433364733
 20
0.1350977438
 30
0.0
 10
4.8802560118
 20
0.1264879016
 30
0.0
 10
4.9112333135
 20
0.120520583
 30
0.0
 10
4.9361117622
 20
0.1165103474
 30
0.0
 10
4.9610337763
 20
0.1130212787
 30
0.0
 10
4.9922875297
 20
0.1096389392
 30
0.0
 10
5.0298984228
 20
0.1071783999
 30
0.0
 10
5.0550087791
 20
0.1066243362
 30
0.0
 10
5.0675562888
 20
0.1066243362
 30
0.0
  0
SPLINE
  5
25E
100
AcDbEntity
  8
0
100
AcDbSpline
 62
7
  6
CONTINUOUS
 70
0
 71
3
 72
22
 73
18
 74
0
 42
0.0000001
 43
0.0000001
 44
0.0000000001
 40
0.0
 40
0.0
 40
0.0
 40
0.0
 40
0.1270316309
 40
0.2534773936
 40
0.3164721394
 40
0.3793070003
 40
0.4419732438
 40
0.5044720697
 40
0.5668159144
 40
0.6290166463
 40
0.6910803539
 40
0.7530235298
 40
0.7839600787
 40
0.8148769501
 40
0.8766508119
 40
0.9383546828
 40
1.0
 40
1.0
 40
1.0
 40
1.0
 10
5.6441187888
 20
0.2850133945
 30
0.0
 10
5.6665111534
 20
0.2720851568
 30
0.0
 10
5.7116825075
 20
0.2471235306
 30
0.0
 10
5.7694051455
 20
0.2184723439
 30
0.0
 10
5.8162426561
 20
0.1974124967
 30
0.0
 10
5.8516556506
 20
0.1826356187
 30
0.0
 10
5.8873919443
 20
0.1689366478
 30
0.0
 10
5.9234454113
 20
0.1563940353
 30
0.0
 10
5.9598075404
 20
0.1450890292
 30
0.0
 10
5.9964614733
 20
0.1350977438
 30
0.0
 10
6.0333810118
 20
0.1264879016
 30
0.0
 10
6.0643583135
 20
0.120520583
 30
0.0
 10
6.0892367622
 20
0.1165103474
 30
0.0
 10
6.1141587763
 20
0.1130212787
 30
0.0
 10
6.1454125297
 20
0.1096389392
 30
0.0
 10
6.1830234228
 20
0.1071783999
 30
0.0
 10
6.2081337791
 20
0.1066243362
 30
0.0
 10
6.2206812888
 20
0.1066243362
 30
0.0
  0
SPLINE
  5
25F
100
AcDbEntity
  8
0
100
AcDbSpline
 62
7
  6
CONTINUOUS
 70
0
 71
3
 72
22
 73
18
 74
0
 42
0.0000001
 43
0.0000001
 44
0.0000000001
 40
0.0
 40
0.0
 40
0.0
 40
0.0
 40
0.0616453227
 40
0.123349214
 40
0.1851231079
 40
0.2160399982
 40
0.2469765635
 40
0.3089197488
 40
0.3709834498
 40
0.4331841759
 40
0.4955280228
 40
0.5580268411
 40
0.6206930725
 40
0.6835279245
 40
0.7465226682
 40
0.8729683978
 40
1.0
 40
1.0
 40
1.0
 40
1.0
 10
5.0675562888
 20
0.1066243362
 30
0.0
 10
5.0801037997
 20
0.1066243362
 30
0.0
 10
5.1052141612
 20
0.107178405
 30
0.0
 10
5.1428250652
 20
0.1096389553
 30
0.0
 10
5.1740788326
 20
0.1130212987
 30
0.0
 10
5.1990008613
 20
0.116510361
 30
0.0
 10
5.223879321
 20
0.1205205853
 30
0.0
 10
5.2548566266
 20
0.1264879054
 30
0.0
 10
5.2917761621
 20
0.1350977575
 30
0.0
 10
5.32843009
 20
0.1450890525
 30
0.0
 10
5.3647922179
 20
0.1563940543
 30
0.0
 10
5.4008456818
 20
0.1689366645
 30
0.0
 10
5.4365819698
 20
0.1826356338
 30
0.0
 10
5.4719949586
 20
0.1974125132
 30
0.0
 10
5.5188324571
 20
0.2184723649
 30
0.0
 10
5.5765550847
 20
0.2471235425
 30
0.0
 10
5.6217264294
 20
0.2720851597
 30
0.0
 10
5.6441187888
 20
0.2850133945
 30
0.0
  0
SPLINE
  5
260
100
AcDbEntity
  8
0
100
AcDbSpline
 62
7
  6
CONTINUOUS
 70
0
 71
3
 72
22
 73
18
 74
0
 42
0.0000001
 43
0.0000001
 44
0.0000000001
 40
0.0
 40
0.0
 40
0.0
 40
0.0
 40
0.0616453227
 40
0.123349214
 40
0.1851231079
 40
0.2160399982
 40
0.2469765635
 40
0.3089197488
 40
0.3709834498
 40
0.4331841759
 40
0.4955280228
 40
0.5580268411
 40
0.6206930725
 40
0.6835279245
 40
0.7465226682
 40
0.8729683978
 40
1.0
 40
1.0
 40
1.0
 40
1.0
 10
6.2206812888
 20
0.1066243362
 30
0.0
 10
6.2332287997
 20
0.1066243362
 30
0.0
 10
6.2583391612
 20
0.107178405
 30
0.0
 10
6.2959500652
 20
0.1096389553
 30
0.0
 10
6.3272038326
 20
0.1130212987
 30
0.0
 10
6.3521258613
 20
0.116510361
 30
0.0
 10
6.377004321
 20
0.1205205853
 30
0.0
 10
6.4079816266
 20
0.1264879054
 30
0.0
 10
6.4449011621
 20
0.1350977575
 30
0.0
 10
6.48155509
 20
0.1450890525
 30
0.0
 10
6.5179172179
 20
0.1563940543
 30
0.0
 10
6.5539706818
 20
0.1689366645
 30
0.0
 10
6.5897069698
 20
0.1826356338
 30
0.0
 10
6.6251199586
 20
0.1974125132
 30
0.0
 10
6.6719574571
 20
0.2184723649
 30
0.0
 10
6.7296800847
 20
0.2471235425
 30
0.0
 10
6.7748514294
 20
0.2720851597
 30
0.0
 10
6.7972437888
 20
0.2850133945
 30
0.0
  0
SPLINE
  5
261
100
AcDbEntity
  8
0
100
AcDbSpline
 62
7
  6
CONTINUOUS
 70
0
 71
3
 72
40
 73
36
 74
0
 42
0.0000001
 43
0.0000001
 44
0.0000000001
 40
0.0
 40
0.0
 40
0.0
 40
0.0
 40
0.0033390762
 40
0.0059687218
 40
0.0079198878
 40
0.0092302042
 40
0.0099652273
 40
0.0103856351
 40
0.0111137885
 40
0.0123420399
 40
0.0163139728
 40
0.0221801723
 40
0.0297468748
 40
0.0388105473
 40
0.0491646516
 40
0.0606014529
 40
0.0858898221
 40
0.1130075677
 40
0.1402896049
 40
0.1665639399
 40
0.1917317848
 40
0.2389175365
 40
0.2821861275
 40
0.3218691706
 40
0.3917562106
 40
0.451054592
 40
0.5020447776
 40
0.5468440261
 40
0.6263789813
 40
0.6663280299
 40
0.7106181602
 40
0.7627777021
 40
0.8262542949
 40
0.9043016272
 40
1.0
 40
1.0
 40
1.0
 40
1.0
 10
5.547050138
 20
4.0788540228
 30
0.0
 10
5.5470510486
 20
4.0788597055
 30
0.0
 10
5.5470527671
 20
4.0788698757
 30
0.0
 10
5.5470555032
 20
4.0788831649
 30
0.0
 10
5.5470579676
 20
4.0788932254
 30
0.0
 10
5.5470603836
 20
4.0788992808
 30
0.0
 10
5.5470623819
 20
4.0789037774
 30
0.0
 10
5.5470662174
 20
4.0789035122
 30
0.0
 10
5.5470677939
 20
4.0788991376
 30
0.0
 10
5.5470708322
 20
4.0788898143
 30
0.0
 10
5.5470733983
 20
4.0788704541
 30
0.0
 10
5.5470764819
 20
4.0788408417
 30
0.0
 10
5.5470791521
 20
4.0788020628
 30
0.0
 10
5.5470817294
 20
4.0787556567
 30
0.0
 10
5.5470841514
 20
4.0787025202
 30
0.0
 10
5.5470874123
 20
4.078621445
 30
0.0
 10
5.5470913594
 20
4.0785114749
 30
0.0
 10
5.5470964993
 20
4.078374223
 30
0.0
 10
5.5471027449
 20
4.078235312
 30
0.0
 10
5.5471106928
 20
4.0780998528
 30
0.0
 10
5.5471229474
 20
4.077930298
 30
0.0
 10
5.5471413887
 20
4.0777318405
 30
0.0
 10
5.5471686064
 20
4.0775091616
 30
0.0
 10
5.5472082994
 20
4.0772487106
 30
0.0
 10
5.5472645108
 20
4.0769629388
 30
0.0
 10
5.547341345
 20
4.0766619452
 30
0.0
 10
5.5474179678
 20
4.0764057421
 30
0.0
 10
5.5475078313
 20
4.0761175699
 30
0.0
 10
5.5475778796
 20
4.0758410946
 30
0.0
 10
5.5475870829
 20
4.0755577582
 30
0.0
 10
5.5475584222
 20
4.0753235956
 30
0.0
 10
5.5474887443
 20
4.0750562609
 30
0.0
 10
5.5473728957
 20
4.0747427871
 30
0.0
 10
5.5472050632
 20
4.0743697222
 30
0.0
 10
5.5470696497
 20
4.0741025335
 30
0.0
 10
5.5469930625
 20
4.0739564485
 30
0.0
  0
LINE
  5
262
100
AcDbEntity
  8
0
100
AcDbLine
 62
7
  6
CONTINUOUS
 10
5.5522747308
 20
4.0730523927
 11
5.5511090068
 21
4.0747109068
  0
SPLINE
  5
263
100
AcDbEntity
  8
0
100
AcDbSpline
 62
7
  6
CONTINUOUS
 70
0
 71
3
 72
13
 73
9
 74
0
 42
0.0000001
 43
0.0000001
 44
0.0000000001
 40
0.0
 40
0.0
 40
0.0
 40
0.0
 40
0.2496500498
 40
0.5051832909
 40
0.6324339737
 40
0.757239361
 40
0.8792152028
 40
1.0
 40
1.0
 40
1.0
 40
1.0
 10
5.5511090068
 20
4.0747109068
 30
0.0
 10
5.5509059871
 20
4.0750172351
 30
0.0
 10
5.5505154475
 20
4.0756524275
 30
0.0
 10
5.5501338388
 20
4.0765026896
 30
0.0
 10
5.5498092217
 20
4.0771756964
 30
0.0
 10
5.5495390614
 20
4.0776562726
 30
0.0
 10
5.5492222181
 20
4.0780967388
 30
0.0
 10
5.5489665911
 20
4.0783501695
 30
0.0
 10
5.5488278404
 20
4.0784613517
 30
0.0
  0
SPLINE
  5
264
100
AcDbEntity
  8
0
100
AcDbSpline
 62
7
  6
CONTINUOUS
 70
0
 71
3
 72
11
 73
7
 74
0
 42
0.0000001
 43
0.0000001
 44
0.0000000001
 40
0.0
 40
0.0
 40
0.0
 40
0.0
 40
0.2588444167
 40
0.5134977013
 40
0.7587517594
 40
1.0
 40
1.0
 40
1.0
 40
1.0
 10
5.5488278404
 20
4.0784613517
 30
0.0
 10
5.5486996194
 20
4.0785640964
 30
0.0
 10
5.5484251681
 20
4.078744332
 30
0.0
 10
5.5479736755
 20
4.0789229173
 30
0.0
 10
5.5475006171
 20
4.0789822467
 30
0.0
 10
5.5471905792
 20
4.078915077
 30
0.0
 10
5.547050138
 20
4.0788540228
 30
0.0
  0
SPLINE
  5
265
100
AcDbEntity
  8
0
100
AcDbSpline
 62
7
  6
CONTINUOUS
 70
0
 71
3
 72
25
 73
21
 74
0
 42
0.0000001
 43
0.0000001
 44
0.0000000001
 40
0.0
 40
0.0
 40
0.0
 40
0.0
 40
0.0618834554
 40
0.1241051588
 40
0.1865391989
 40
0.249080204
 40
0.3116999754
 40
0.3743935824
 40
0.4057773859
 40
0.4371797396
 40
0.500000613
 40
0.5628216399
 40
0.5942241597
 40
0.6256081411
 40
0.6883019717
 40
0.7509216622
 40
0.8134621676
 40
0.8758955355
 40
0.9381167302
 40
1.0
 40
1.0
 40
1.0
 40
1.0
 10
5.4387454922
 20
4.0447768362
 30
0.0
 10
5.4435127779
 20
4.0447768362
 30
0.0
 10
5.4530798358
 20
4.0442981621
 30
0.0
 10
5.4673148207
 20
4.0421795311
 30
0.0
 10
5.4813279512
 20
4.0386763678
 30
0.0
 10
5.4949565673
 20
4.0337985977
 30
0.0
 10
5.5080585813
 20
4.0276002953
 30
0.0
 10
5.5184325865
 20
4.021386793
 30
0.0
 10
5.5263388319
 20
4.0158191312
 30
0.0
 10
5.5339676101
 20
4.0098609273
 30
0.0
 10
5.5429441966
 20
4.0017195862
 30
0.0
 10
5.5510853643
 20
3.9927428293
 30
0.0
 10
5.5570435044
 20
3.9851139541
 30
0.0
 10
5.562611159
 20
3.977207651
 30
0.0
 10
5.5688246806
 20
3.966833631
 30
0.0
 10
5.5750230471
 20
3.9537316813
 30
0.0
 10
5.579900933
 20
3.9401032083
 30
0.0
 10
5.5834040938
 20
3.926090206
 30
0.0
 10
5.5855226516
 20
3.9118553155
 30
0.0
 10
5.5860012888
 20
3.902288311
 30
0.0
 10
5.5860012888
 20
3.8975210396
 30
0.0
  0
SPLINE
  5
266
100
AcDbEntity
  8
0
100
AcDbSpline
 62
7
  6
CONTINUOUS
 70
0
 71
3
 72
25
 73
21
 74
0
 42
0.0000001
 43
0.0000001
 44
0.0000000001
 40
0.0
 40
0.0
 40
0.0
 40
0.0
 40
0.0618833278
 40
0.1241047712
 40
0.1865385673
 40
0.2490794737
 40
0.3116992826
 40
0.3743929472
 40
0.4057767755
 40
0.437179146
 40
0.5000000303
 40
0.5628210485
 40
0.5942235528
 40
0.6256075107
 40
0.6883012872
 40
0.7509209431
 40
0.8134615468
 40
0.8758951549
 40
0.9381166049
 40
1.0
 40
1.0
 40
1.0
 40
1.0
 10
5.5860012888
 20
4.3082676328
 30
0.0
 10
5.5860012888
 20
4.3035003569
 30
0.0
 10
5.5855225977
 20
4.2939333287
 30
0.0
 10
5.5834039132
 20
4.2796984004
 30
0.0
 10
5.5799006937
 20
4.2656853326
 30
0.0
 10
5.5750229244
 20
4.2520567448
 30
0.0
 10
5.5688247047
 20
4.2389546944
 30
0.0
 10
5.5626112682
 20
4.2285806377
 30
0.0
 10
5.5570436282
 20
4.220674367
 30
0.0
 10
5.5510854338
 20
4.2130455761
 30
0.0
 10
5.5429440959
 20
4.2040689843
 30
0.0
 10
5.5339673438
 20
4.1959278134
 30
0.0
 10
5.5263384807
 20
4.1899696643
 30
0.0
 10
5.5184322017
 20
4.1844019886
 30
0.0
 10
5.5080582319
 20
4.1781884026
 30
0.0
 10
5.4949563176
 20
4.1719899547
 30
0.0
 10
5.4813278167
 20
4.167112068
 30
0.0
 10
5.4673147528
 20
4.1636089622
 30
0.0
 10
5.4530798068
 20
4.1614904568
 30
0.0
 10
5.4435127732
 20
4.1610118362
 30
0.0
 10
5.4387454922
 20
4.1610118362
 30
0.0
  0
SPLINE
  5
267
100
AcDbEntity
  8
0
100
AcDbSpline
 62
7
  6
CONTINUOUS
 70
0
 71
3
 72
25
 73
21
 74
0
 42
0.0000001
 43
0.0000001
 44
0.0000000001
 40
0.0
 40
0.0
 40
0.0
 40
0.0
 40
0.0618833278
 40
0.1241047712
 40
0.1865385673
 40
0.2490794737
 40
0.3116992826
 40
0.3743929472
 40
0.4057767755
 40
0.437179146
 40
0.5000000303
 40
0.5628210485
 40
0.5942235528
 40
0.6256075107
 40
0.6883012872
 40
0.7509209431
 40
0.8134615468
 40
0.8758951549
 40
0.9381166049
 40
1.0
 40
1.0
 40
1.0
 40
1.0
 10
5.7022362888
 20
3.8975210396
 30
0.0
 10
5.7022362888
 20
3.9022883154
 30
0.0
 10
5.7027149799
 20
3.9118553436
 30
0.0
 10
5.7048336644
 20
3.9260902719
 30
0.0
 10
5.7083368839
 20
3.9401033397
 30
0.0
 10
5.7132146533
 20
3.9537319276
 30
0.0
 10
5.7194128729
 20
3.9668339779
 30
0.0
 10
5.7256263095
 20
3.9772080347
 30
0.0
 10
5.7311939494
 20
3.9851143053
 30
0.0
 10
5.7371521438
 20
3.9927430962
 30
0.0
 10
5.7452934817
 20
4.001719688
 30
0.0
 10
5.7542702339
 20
4.0098608589
 30
0.0
 10
5.761899097
 20
4.0158190081
 30
0.0
 10
5.7698053759
 20
4.0213866838
 30
0.0
 10
5.7801793457
 20
4.0276002698
 30
0.0
 10
5.79328126
 20
4.0337987177
 30
0.0
 10
5.8069097609
 20
4.0386766044
 30
0.0
 10
5.8209228249
 20
4.0421797102
 30
0.0
 10
5.8351577708
 20
4.0442982156
 30
0.0
 10
5.8447248044
 20
4.0447768362
 30
0.0
 10
5.8494920854
 20
4.0447768362
 30
0.0
  0
SPLINE
  5
268
100
AcDbEntity
  8
0
100
AcDbSpline
 62
9
  6
CONTINUOUS
 70
0
 71
3
 72
29
 73
25
 74
0
 42
0.0000001
 43
0.0000001
 44
0.0000000001
 40
0.0
 40
0.0
 40
0.0
 40
0.0
 40
0.1892155574
 40
0.283084781
 40
0.3750249064
 40
0.4639577972
 40
0.5488003732
 40
0.6284687691
 40
0.7018801489
 40
0.7680628417
 40
0.8264848657
 40
0.8767263112
 40
0.8986497957
 40
0.9183735008
 40
0.935863519
 40
0.9511510844
 40
0.9642853741
 40
0.975319005
 40
0.9843109826
 40
0.9913335432
 40
0.9941382544
 40
0.9964954091
 40
0.9984337171
 40
1.0
 40
1.0
 40
1.0
 40
1.0
 10
6.371336373
 20
0.9536612279
 30
0.0
 10
6.3772462879
 20
0.9489217437
 30
0.0
 10
6.3861155517
 20
0.9418651252
 30
0.0
 10
6.3979252177
 20
0.9325926782
 30
0.0
 10
6.4066092689
 20
0.9258410402
 30
0.0
 10
6.4150431821
 20
0.9193567124
 30
0.0
 10
6.4231238987
 20
0.9132193541
 30
0.0
 10
6.4307480774
 20
0.9075086663
 30
0.0
 10
6.4378157001
 20
0.902301524
 30
0.0
 10
6.4442447264
 20
0.8976622719
 30
0.0
 10
6.449970108
 20
0.8936340402
 30
0.0
 10
6.4542909664
 20
0.8906897792
 30
0.0
 10
6.457364466
 20
0.8886677148
 30
0.0
 10
6.4593589678
 20
0.887391701
 30
0.0
 10
6.4611474536
 20
0.8862871119
 30
0.0
 10
6.4627302628
 20
0.8853521441
 30
0.0
 10
6.4641103238
 20
0.8845831263
 30
0.0
 10
6.4652912372
 20
0.8839755872
 30
0.0
 10
6.4662765796
 20
0.8835255416
 30
0.0
 10
6.4669827942
 20
0.8832591442
 30
0.0
 10
6.4674536722
 20
0.8831303019
 30
0.0
 10
6.4677336004
 20
0.8830780468
 30
0.0
 10
6.4679682778
 20
0.8830617886
 30
0.0
 10
6.4681092282
 20
0.8830764578
 30
0.0
 10
6.4681699924
 20
0.8830919545
 30
0.0
  0
SPLINE
  5
269
100
AcDbEntity
  8
0
100
AcDbSpline
 62
9
  6
CONTINUOUS
 70
0
 71
3
 72
29
 73
25
 74
0
 42
0.0000001
 43
0.0000001
 44
0.0000000001
 40
0.0
 40
0.0
 40
0.0
 40
0.0
 40
0.0015711491
 40
0.0035164654
 40
0.0058829308
 40
0.0086992534
 40
0.0157516422
 40
0.024781574
 40
0.0358603589
 40
0.0490460385
 40
0.0643902513
 40
0.0819411911
 40
0.1017290126
 40
0.1237183535
 40
0.1740905289
 40
0.2326316136
 40
0.2989092578
 40
0.3723803976
 40
0.4520677432
 40
0.5368842037
 40
0.6257416557
 40
0.7175545336
 40
0.8112493178
 40
1.0
 40
1.0
 40
1.0
 40
1.0
 10
4.8200675388
 20
7.3226967507
 30
0.0
 10
4.8201284917
 20
7.3227122958
 30
0.0
 10
4.8202699334
 20
7.3227269502
 30
0.0
 10
4.820505447
 20
7.3227104656
 30
0.0
 10
4.8207864374
 20
7.3226577943
 30
0.0
 10
4.8212591826
 20
7.3225280745
 30
0.0
 10
4.8219682044
 20
7.3222601052
 30
0.0
 10
4.8229574239
 20
7.3218076656
 30
0.0
 10
4.8241428606
 20
7.321197147
 30
0.0
 10
4.8255279953
 20
7.320424634
 30
0.0
 10
4.8271163317
 20
7.3194857225
 30
0.0
 10
4.8289106994
 20
7.3183768135
 30
0.0
 10
4.8309113238
 20
7.3170961872
 30
0.0
 10
4.8339930978
 20
7.3150677082
 30
0.0
 10
4.8383238636
 20
7.312115544
 30
0.0
 10
4.8440599451
 20
7.3080785326
 30
0.0
 10
4.8504973166
 20
7.3034321123
 30
0.0
 10
4.8575700413
 20
7.2982201712
 30
0.0
 10
4.865195455
 20
7.2925076176
 30
0.0
 10
4.8732731434
 20
7.2863717378
 30
0.0
 10
4.8816994682
 20
7.2798925667
 30
0.0
 10
4.890371352
 20
7.2731498755
 30
0.0
 10
4.9021566386
 20
7.263896072
 30
0.0
 10
4.9110058
 20
7.2568552976
 30
0.0
 10
4.9169011963
 20
7.252127457
 30
0.0
  0
SPLINE
  5
26A
100
AcDbEntity
  8
0
100
AcDbSpline
 62
9
  6
CONTINUOUS
 70
0
 71
3
 72
29
 73
25
 74
0
 42
0.0000001
 43
0.0000001
 44
0.0000000001
 40
0.0
 40
0.0
 40
0.0
 40
0.0
 40
0.1887507558
 40
0.282445565
 40
0.3742584599
 40
0.4631159211
 40
0.5479323837
 40
0.6276197255
 40
0.7010908567
 40
0.7673684885
 40
0.8259095582
 40
0.876281717
 40
0.8982710496
 40
0.9180588626
 40
0.9356097942
 40
0.9509539991
 40
0.9641396709
 40
0.9752184486
 40
0.9842483735
 40
0.991300756
 40
0.9941170757
 40
0.9964835385
 40
0.9984288526
 40
1.0
 40
1.0
 40
1.0
 40
1.0
 10
6.3713363799
 20
7.252127457
 30
0.0
 10
6.3772317735
 20
7.256855295
 30
0.0
 10
6.3860809305
 20
7.2638960652
 30
0.0
 10
6.3978662109
 20
7.2731498629
 30
0.0
 10
6.406538089
 20
7.2798925489
 30
0.0
 10
6.4149644076
 20
7.2863717145
 30
0.0
 10
6.4230420895
 20
7.2925075886
 30
0.0
 10
6.4306674965
 20
7.2982201364
 30
0.0
 10
6.4377402146
 20
7.3034320718
 30
0.0
 10
6.4441775796
 20
7.3080784867
 30
0.0
 10
6.449913655
 20
7.3121154931
 30
0.0
 10
6.4542444159
 20
7.3150676533
 30
0.0
 10
6.4573261864
 20
7.3170961294
 30
0.0
 10
6.4593268083
 20
7.3183767537
 30
0.0
 10
6.4611211738
 20
7.319485661
 30
0.0
 10
6.4627095082
 20
7.3204245708
 30
0.0
 10
6.464094641
 20
7.3211970824
 30
0.0
 10
6.4652800761
 20
7.3218075997
 30
0.0
 10
6.4662692941
 20
7.3222600382
 30
0.0
 10
6.4669783148
 20
7.3225280067
 30
0.0
 10
6.4674510593
 20
7.3226577259
 30
0.0
 10
6.4677320492
 20
7.3227103969
 30
0.0
 10
6.4679675623
 20
7.3227268812
 30
0.0
 10
6.4681090037
 20
7.3227122266
 30
0.0
 10
6.4681699565
 20
7.3226966813
 30
0.0
  0
SPLINE
  5
26B
100
AcDbEntity
  8
0
100
AcDbSpline
 62
9
  6
CONTINUOUS
 70
0
 71
3
 72
29
 73
25
 74
0
 42
0.0000001
 43
0.0000001
 44
0.0000000001
 40
0.0
 40
0.0
 40
0.0
 40
0.0
 40
0.1892155572
 40
0.2830847808
 40
0.3750249062
 40
0.463957797
 40
0.548800373
 40
0.628468769
 40
0.7018801488
 40
0.7680628417
 40
0.8264848657
 40
0.8767263112
 40
0.8986497957
 40
0.9183735009
 40
0.9358635191
 40
0.9511510844
 40
0.9642853742
 40
0.975319005
 40
0.9843109826
 40
0.9913335432
 40
0.9941382544
 40
0.9964954091
 40
0.9984337171
 40
1.0
 40
1.0
 40
1.0
 40
1.0
 10
4.9169012047
 20
7.2521274445
 30
0.0
 10
4.9109912897
 20
7.2568669287
 30
0.0
 10
4.9021220259
 20
7.2639235472
 30
0.0
 10
4.8903123599
 20
7.2731959942
 30
0.0
 10
4.8816283087
 20
7.2799476323
 30
0.0
 10
4.8731943954
 20
7.28643196
 30
0.0
 10
4.8651136788
 20
7.2925693184
 30
0.0
 10
4.8574895001
 20
7.2982800062
 30
0.0
 10
4.8504218774
 20
7.3034871485
 30
0.0
 10
4.843992851
 20
7.3081264006
 30
0.0
 10
4.8382674694
 20
7.3121546324
 30
0.0
 10
4.833946611
 20
7.3150988933
 30
0.0
 10
4.8308731114
 20
7.3171209578
 30
0.0
 10
4.8288786095
 20
7.3183969715
 30
0.0
 10
4.8270901237
 20
7.3195015607
 30
0.0
 10
4.8255073146
 20
7.3204365285
 30
0.0
 10
4.8241272535
 20
7.3212055463
 30
0.0
 10
4.8229463402
 20
7.3218130854
 30
0.0
 10
4.8219609978
 20
7.322263131
 30
0.0
 10
4.8212547832
 20
7.3225295283
 30
0.0
 10
4.8207839052
 20
7.3226583707
 30
0.0
 10
4.820503977
 20
7.3227106257
 30
0.0
 10
4.8202692996
 20
7.322726884
 30
0.0
 10
4.8201283492
 20
7.3227122147
 30
0.0
 10
4.820067585
 20
7.3226967181
 30
0.0
  0
SPLINE
  5
26C
100
AcDbEntity
  8
0
100
AcDbSpline
 62
9
  6
CONTINUOUS
 70
0
 71
3
 72
45
 73
41
 74
0
 42
0.0000001
 43
0.0000001
 44
0.0000000001
 40
0.0
 40
0.0
 40
0.0
 40
0.0
 40
0.0312144602
 40
0.0624558262
 40
0.0937114838
 40
0.1093416507
 40
0.1249709999
 40
0.1562252075
 40
0.1874769137
 40
0.218727559
 40
0.2499786553
 40
0.2812303579
 40
0.3124822345
 40
0.3281090456
 40
0.3437358422
 40
0.3749877126
 40
0.4062397709
 40
0.4374920821
 40
0.4531193193
 40
0.468746715
 40
0.500000016
 40
0.5312533171
 40
0.5468807129
 40
0.5625079502
 40
0.5937602615
 40
0.6250123197
 40
0.6562641899
 40
0.6718909864
 40
0.6875177973
 40
0.7187696738
 40
0.7500213767
 40
0.781272474
 40
0.8125231201
 40
0.8437748254
 40
0.8750290288
 40
0.8906583743
 40
0.9062885369
 40
0.9375441866
 40
0.9687855457
 40
1.0
 40
1.0
 40
1.0
 40
1.0
 10
4.8200551469
 20
7.3226818766
 30
0.0
 10
4.7741327443
 20
7.2665014472
 30
0.0
 10
4.6846412811
 20
7.152111289
 30
0.0
 10
4.557803039
 20
6.9749291807
 30
0.0
 10
4.4584299969
 20
6.8228413536
 30
0.0
 10
4.3828651797
 20
6.6986988291
 30
0.0
 10
4.309971048
 20
6.5729732887
 30
0.0
 10
4.2239167002
 20
6.412951426
 30
0.0
 10
4.1289495337
 20
6.2167116904
 30
0.0
 10
4.0424572637
 20
6.0165974533
 30
0.0
 10
3.9646259673
 20
5.8129581272
 30
0.0
 10
3.8955861111
 20
5.6061719119
 30
0.0
 10
3.8454828391
 20
5.4315348883
 30
0.0
 10
3.8099265901
 20
5.2906424297
 30
0.0
 10
3.7774083
 20
5.1490180196
 30
0.0
 10
3.7424799108
 20
4.9707234732
 30
0.0
 10
3.7097884635
 20
4.7551792112
 30
0.0
 10
3.6902825274
 20
4.5745434901
 30
0.0
 10
3.6793555794
 20
4.4296417877
 30
0.0
 10
3.671551129
 20
4.2845358422
 30
0.0
 10
3.6676484129
 20
4.1028882597
 30
0.0
 10
3.6715515686
 20
3.9212406865
 30
0.0
 10
3.6793563659
 20
3.776134759
 30
0.0
 10
3.6902836542
 20
3.6312330817
 30
0.0
 10
3.7097900242
 20
3.450597407
 30
0.0
 10
3.7424819938
 20
3.2350532247
 30
0.0
 10
3.7774108122
 20
3.0567587633
 30
0.0
 10
3.8099294343
 20
2.9151344304
 30
0.0
 10
3.8454860175
 20
2.7742420573
 30
0.0
 10
3.8955897102
 20
2.5996051543
 30
0.0
 10
3.9646300677
 20
2.3928191035
 30
0.0
 10
4.0424618462
 20
2.1891799566
 30
0.0
 10
4.1289545914
 20
1.9890659225
 30
0.0
 10
4.2239222259
 20
1.7928264244
 30
0.0
 10
4.3099769473
 20
1.632804786
 30
0.0
 10
4.3828713615
 20
1.5070794419
 30
0.0
 10
4.4584364539
 20
1.3829371282
 30
0.0
 10
4.5578098385
 20
1.230849578
 30
0.0
 10
4.6846484745
 20
1.0536678112
 30
0.0
 10
4.7741401804
 20
0.9392778813
 30
0.0
 10
4.8200626978
 20
0.8830975634
 30
0.0
  0
SPLINE
  5
26D
100
AcDbEntity
  8
0
100
AcDbSpline
 62
9
  6
CONTINUOUS
 70
0
 71
3
 72
29
 73
25
 74
0
 42
0.0000001
 43
0.0000001
 44
0.0000000001
 40
0.0
 40
0.0
 40
0.0
 40
0.0
 40
0.0015662809
 40
0.0035045867
 40
0.0058617393
 40
0.0086664485
 40
0.0156890055
 40
0.0246809803
 40
0.035714609
 40
0.0488488976
 40
0.0641364626
 40
0.0816264814
 40
0.1013501882
 40
0.1232736752
 40
0.1735151279
 40
0.2319371613
 40
0.298119865
 40
0.3715312559
 40
0.4511996619
 40
0.5360422455
 40
0.6249751398
 40
0.7169152634
 40
0.810784479
 40
1.0
 40
1.0
 40
1.0
 40
1.0
 10
4.8200675089
 20
0.8830918931
 30
0.0
 10
4.820128273
 20
0.8830763964
 30
0.0
 10
4.8202692233
 20
0.883061727
 30
0.0
 10
4.8205039007
 20
0.8830779851
 30
0.0
 10
4.8207838289
 20
0.88313024
 30
0.0
 10
4.821254707
 20
0.8832590824
 30
0.0
 10
4.8219609219
 20
0.8835254797
 30
0.0
 10
4.8229462647
 20
0.8839755255
 30
0.0
 10
4.8241271787
 20
0.884583065
 30
0.0
 10
4.8255072406
 20
0.8853520833
 30
0.0
 10
4.8270900509
 20
0.8862870518
 30
0.0
 10
4.8288785381
 20
0.887391642
 30
0.0
 10
4.8308730416
 20
0.8886676568
 30
0.0
 10
4.8339465438
 20
0.8906897232
 30
0.0
 10
4.838267406
 20
0.8936339869
 30
0.0
 10
4.8439927928
 20
0.8976622226
 30
0.0
 10
4.8504218249
 20
0.9023014791
 30
0.0
 10
4.8574894539
 20
0.9075086262
 30
0.0
 10
4.8651136391
 20
0.9132193193
 30
0.0
 10
4.8731943624
 20
0.9193566829
 30
0.0
 10
4.8816282822
 20
0.925841016
 30
0.0
 10
4.8903123397
 20
0.9325926592
 30
0.0
 10
4.902122013
 20
0.9418651124
 30
0.0
 10
4.9109912819
 20
0.9489217353
 30
0.0
 10
4.9169012002
 20
0.9536612222
 30
0.0
  0
SPLINE
  5
26E
100
AcDbEntity
  8
0
100
AcDbSpline
 62
9
  6
CONTINUOUS
 70
0
 71
3
 72
29
 73
25
 74
0
 42
0.0000001
 43
0.0000001
 44
0.0000000001
 40
0.0
 40
0.0
 40
0.0
 40
0.0
 40
0.001571149
 40
0.0035164653
 40
0.0058829306
 40
0.0086992531
 40
0.0157516416
 40
0.024781573
 40
0.0358603575
 40
0.0490460365
 40
0.0643902488
 40
0.081941188
 40
0.1017290089
 40
0.1237183492
 40
0.1740905232
 40
0.2326316068
 40
0.2989092501
 40
0.3723803893
 40
0.4520677347
 40
0.5368841954
 40
0.6257416483
 40
0.7175545274
 40
0.8112493133
 40
1.0
 40
1.0
 40
1.0
 40
1.0
 10
6.4681700392
 20
0.8830919214
 30
0.0
 10
6.4681090863
 20
0.8830763762
 30
0.0
 10
6.4679676446
 20
0.8830617219
 30
0.0
 10
6.467732131
 20
0.8830782064
 30
0.0
 10
6.4674511406
 20
0.8831308778
 30
0.0
 10
6.4669783954
 20
0.8832605975
 30
0.0
 10
6.4662693736
 20
0.8835285669
 30
0.0
 10
6.4652801542
 20
0.8839810064
 30
0.0
 10
6.4640947175
 20
0.884591525
 30
0.0
 10
6.4627095829
 20
0.885364038
 30
0.0
 10
6.4611212465
 20
0.8863029494
 30
0.0
 10
6.4593268788
 20
0.8874118584
 30
0.0
 10
6.4573262546
 20
0.8886924846
 30
0.0
 10
6.4542444806
 20
0.8907209636
 30
0.0
 10
6.4499137149
 20
0.8936731277
 30
0.0
 10
6.4441776334
 20
0.8977101391
 30
0.0
 10
6.437740262
 20
0.9023565594
 30
0.0
 10
6.4306675373
 20
0.9075685004
 30
0.0
 10
6.4230421236
 20
0.913281054
 30
0.0
 10
6.4149644352
 20
0.9194169339
 30
0.0
 10
6.4065381103
 20
0.925896105
 30
0.0
 10
6.3978662264
 20
0.9326387963
 30
0.0
 10
6.3860809394
 20
0.9418926001
 30
0.0
 10
6.3772317778
 20
0.9489333746
 30
0.0
 10
6.3713363813
 20
0.9536612153
 30
0.0
  0
SPLINE
  5
26F
100
AcDbEntity
  8
0
100
AcDbSpline
 62
9
  6
CONTINUOUS
 70
0
 71
3
 72
45
 73
41
 74
0
 42
0.0000001
 43
0.0000001
 44
0.0000000001
 40
0.0
 40
0.0
 40
0.0
 40
0.0
 40
0.0312104583
 40
0.0624522587
 40
0.0937101368
 40
0.1093413343
 40
0.1249713489
 40
0.1562259394
 40
0.1874773105
 40
0.2187274766
 40
0.2499783584
 40
0.2812300809
 40
0.3124820728
 40
0.3281089409
 40
0.3437357788
 40
0.3749876863
 40
0.4062397483
 40
0.4374920565
 40
0.453119296
 40
0.4687466975
 40
0.5000000158
 40
0.5312533343
 40
0.5468807358
 40
0.5625079754
 40
0.5937602836
 40
0.6250123455
 40
0.6562642529
 40
0.6718910906
 40
0.6875179586
 40
0.7187699503
 40
0.7500216731
 40
0.7812725562
 40
0.8125227233
 40
0.8437740934
 40
0.8750286791
 40
0.8906586893
 40
0.9062898818
 40
0.9375477509
 40
0.9687895447
 40
1.0
 40
1.0
 40
1.0
 40
1.0
 10
6.4681824204
 20
0.8831067831
 30
0.0
 10
6.5140881565
 20
0.939288773
 30
0.0
 10
6.603562362
 20
1.0536813202
 30
0.0
 10
6.7304025843
 20
1.2308576924
 30
0.0
 10
6.8297931087
 20
1.382944155
 30
0.0
 10
6.9053719797
 20
1.5070887328
 30
0.0
 10
6.9782744999
 20
1.6328149426
 30
0.0
 10
7.0643314693
 20
1.7928373072
 30
0.0
 10
7.1592945887
 20
1.9890778341
 30
0.0
 10
7.2457804084
 20
2.1891921172
 30
0.0
 10
7.3236087893
 20
2.3928307066
 30
0.0
 10
7.392648811
 20
2.5996165308
 30
0.0
 10
7.4427534535
 20
2.774253526
 30
0.0
 10
7.4783108047
 20
2.9151461471
 30
0.0
 10
7.5108298546
 20
3.0567706348
 30
0.0
 10
7.5457585445
 20
3.2350652373
 30
0.0
 10
7.5784497226
 20
3.450609527
 30
0.0
 10
7.5979552127
 20
3.6312452141
 30
0.0
 10
7.60888188
 20
3.7761468771
 30
0.0
 10
7.6166861345
 20
3.9212528204
 30
0.0
 10
7.6205887507
 20
4.102900407
 30
0.0
 10
7.616685695
 20
4.2845479844
 30
0.0
 10
7.6088810937
 20
4.4296539097
 30
0.0
 10
7.5979540862
 20
4.5745555476
 30
0.0
 10
7.5784481622
 20
4.755191188
 30
0.0
 10
7.5457564625
 20
4.9707353979
 30
0.0
 10
7.5108273446
 20
5.1490299154
 30
0.0
 10
7.4783079643
 20
5.2906543261
 30
0.0
 10
7.4427502807
 20
5.4315468621
 30
0.0
 10
7.3926452192
 20
5.6061837374
 30
0.0
 10
7.3236046959
 20
5.8129693976
 30
0.0
 10
7.2457758279
 20
6.0166078072
 30
0.0
 10
7.1592895252
 20
6.2167218847
 30
0.0
 10
7.0643259357
 20
6.4129621717
 30
0.0
 10
6.9782685999
 20
6.5729843121
 30
0.0
 10
6.9053658119
 20
6.6987103287
 30
0.0
 10
6.8297866849
 20
6.8228547007
 30
0.0
 10
6.7303958387
 20
6.9749408958
 30
0.0
 10
6.6035552233
 20
7.1521169335
 30
0.0
 10
6.5140807501
 20
7.2665092432
 30
0.0
 10
6.4681748771
 20
7.3226911123
 30
0.0
  0
SPLINE
  5
270
100
AcDbEntity
  8
0
100
AcDbSpline
 62
9
  6
CONTINUOUS
 70
0
 71
3
 72
39
 73
35
 74
0
 42
0.0000001
 43
0.0000001
 44
0.0000000001
 40
0.0
 40
0.0
 40
0.0
 40
0.0
 40
0.0313149048
 40
0.0626336133
 40
0.093948633
 40
0.1252529327
 40
0.1565414553
 40
0.187814232
 40
0.2190724725
 40
0.2503176699
 40
0.2815517064
 40
0.3127760452
 40
0.3439919571
 40
0.375200977
 40
0.4064050097
 40
0.4376054373
 40
0.468803275
 40
0.4999996345
 40
0.5311960094
 40
0.5623938839
 40
0.5935943555
 40
0.6247984253
 40
0.6560074661
 40
0.6872233932
 40
0.718447757
 40
0.7496818442
 40
0.7809271235
 40
0.8121854398
 40
0.8434582377
 40
0.8747466775
 40
0.9060507843
 40
0.937365666
 40
0.9686845
 40
1.0
 40
1.0
 40
1.0
 40
1.0
 10
6.3713364129
 20
7.2521274783
 30
0.0
 10
6.4169355769
 20
7.1972244075
 30
0.0
 10
6.5058086951
 20
7.085451563
 30
0.0
 10
6.6318445324
 20
6.9122814629
 30
0.0
 10
6.7503674756
 20
6.7339089996
 30
0.0
 10
6.8611055298
 20
6.5506825126
 30
0.0
 10
6.963794673
 20
6.3629356789
 30
0.0
 10
7.0582506994
 20
6.1710320924
 30
0.0
 10
7.1442988113
 20
5.9753217547
 30
0.0
 10
7.2217648878
 20
5.7761526526
 30
0.0
 10
7.2904735091
 20
5.5738767795
 30
0.0
 10
7.3503119511
 20
5.3688714374
 30
0.0
 10
7.4011673388
 20
5.1615135301
 30
0.0
 10
7.4429263633
 20
4.9521806546
 30
0.0
 10
7.4754750193
 20
4.7412549591
 30
0.0
 10
7.4987744484
 20
4.5291342609
 30
0.0
 10
7.5127856148
 20
4.3162157059
 30
0.0
 10
7.5174691967
 20
4.1028968186
 30
0.0
 10
7.51278578
 20
3.8895778439
 30
0.0
 10
7.4987747874
 20
3.6766590578
 30
0.0
 10
7.4754755436
 20
3.4645380692
 30
0.0
 10
7.4429270869
 20
3.2536121079
 30
0.0
 10
7.4011682629
 20
3.044279022
 30
0.0
 10
7.3503130382
 20
2.8369209306
 30
0.0
 10
7.2904746799
 20
2.6319153474
 30
0.0
 10
7.2217660247
 20
2.4296391055
 30
0.0
 10
7.1442998121
 20
2.2304695464
 30
0.0
 10
7.0582516015
 20
2.0347588073
 30
0.0
 10
6.9637956806
 20
1.8428551335
 30
0.0
 10
6.861106981
 20
1.6551087191
 30
0.0
 10
6.7503695557
 20
1.4718829524
 30
0.0
 10
6.6318468924
 20
1.2935108638
 30
0.0
 10
6.5058102553
 20
1.1203397031
 30
0.0
 10
6.4169362204
 20
1.008565495
 30
0.0
 10
6.3713363384
 20
0.9536612571
 30
0.0
  0
SPLINE
  5
271
100
AcDbEntity
  8
0
100
AcDbSpline
 62
9
  6
CONTINUOUS
 70
0
 71
3
 72
27
 73
23
 74
0
 42
0.0000001
 43
0.0000001
 44
0.0000000001
 40
0.0
 40
0.0
 40
0.0
 40
0.0
 40
0.031110222
 40
0.0622480103
 40
0.0934137828
 40
0.124605701
 40
0.1870314517
 40
0.2495229409
 40
0.3120756306
 40
0.3746901505
 40
0.4373410614
 40
0.4999994295
 40
0.5626578874
 40
0.6253089503
 40
0.687923488
 40
0.750475848
 40
0.8129665924
 40
0.8753917609
 40
0.9065836978
 40
0.9377498317
 40
0.9688884264
 40
1.0
 40
1.0
 40
1.0
 40
1.0
 10
6.3713364201
 20
0.9536611859
 30
0.0
 10
6.3603599313
 20
0.9404458076
 30
0.0
 10
6.3376428239
 20
0.9146198436
 30
0.0
 10
6.3014450114
 20
0.8778341794
 30
0.0
 10
6.2632329922
 20
0.8430741505
 30
0.0
 10
6.2097707248
 20
0.7995566063
 30
0.0
 10
6.1385260966
 20
0.7506920832
 30
0.0
 10
6.047080597
 20
0.7017280968
 30
0.0
 10
5.9506641713
 20
0.6631747603
 30
0.0
 10
5.8505539266
 20
0.6353076142
 30
0.0
 10
5.7479672294
 20
0.6183761293
 30
0.0
 10
5.6441196857
 20
0.6126430901
 30
0.0
 10
5.5402720761
 20
0.618376382
 30
0.0
 10
5.4376852516
 20
0.6353079123
 30
0.0
 10
5.3375750213
 20
0.6631747333
 30
0.0
 10
5.2411589028
 20
0.7017272279
 30
0.0
 10
5.1497137936
 20
0.7506900069
 30
0.0
 10
5.0784695219
 20
0.7995537994
 30
0.0
 10
5.0250072864
 20
0.8430712093
 30
0.0
 10
4.9867948041
 20
0.8778317055
 30
0.0
 10
4.9505960745
 20
0.9146184205
 30
0.0
 10
4.9278782072
 20
0.9404453024
 30
0.0
 10
4.9169012337
 20
0.9536612484
 30
0.0
  0
SPLINE
  5
272
100
AcDbEntity
  8
0
100
AcDbSpline
 62
9
  6
CONTINUOUS
 70
0
 71
3
 72
39
 73
35
 74
0
 42
0.0000001
 43
0.0000001
 44
0.0000000001
 40
0.0
 40
0.0
 40
0.0
 40
0.0
 40
0.0313149099
 40
0.0626336269
 40
0.0939486568
 40
0.1252529668
 40
0.1565414985
 40
0.1878142831
 40
0.2190725305
 40
0.2503177341
 40
0.2815517762
 40
0.3127761207
 40
0.3439920394
 40
0.3752010679
 40
0.4064051115
 40
0.4376055506
 40
0.4688033984
 40
0.4999997642
 40
0.5311961403
 40
0.562394012
 40
0.5935944783
 40
0.6247985421
 40
0.6560075775
 40
0.6872234998
 40
0.7184478592
 40
0.7496819421
 40
0.780927217
 40
0.8121855274
 40
0.8434583163
 40
0.8747467427
 40
0.9060508308
 40
0.9373656924
 40
0.9686845092
 40
1.0
 40
1.0
 40
1.0
 40
1.0
 10
4.9169011649
 20
0.9536611942
 30
0.0
 10
4.8713019937
 20
1.0085642743
 30
0.0
 10
4.7824288577
 20
1.1203371444
 30
0.0
 10
4.6563929914
 20
1.2935072906
 30
0.0
 10
4.5378700153
 20
1.4718798112
 30
0.0
 10
4.4271319315
 20
1.6551063591
 30
0.0
 10
4.3244427677
 20
1.8428532527
 30
0.0
 10
4.2299867302
 20
2.0347568948
 30
0.0
 10
4.1439386147
 20
2.2304672832
 30
0.0
 10
4.0664725401
 20
2.4296364316
 30
0.0
 10
3.9977639233
 20
2.6319123484
 30
0.0
 10
3.9379254895
 20
2.8369177359
 30
0.0
 10
3.8870701139
 20
3.0442756958
 30
0.0
 10
3.8453111062
 20
3.2536086358
 30
0.0
 10
3.8127624724
 20
3.4645344063
 30
0.0
 10
3.7894630692
 20
3.6766551817
 30
0.0
 10
3.7754519316
 20
3.8895738025
 30
0.0
 10
3.7707683809
 20
4.1028927307
 30
0.0
 10
3.7754518317
 20
4.3162117154
 30
0.0
 10
3.7894628599
 20
4.5291304832
 30
0.0
 10
3.8127621389
 20
4.7412514355
 30
0.0
 10
3.8453106282
 20
4.9521773534
 30
0.0
 10
3.8870694794
 20
5.1615103962
 30
0.0
 10
3.9379247275
 20
5.3688684476
 30
0.0
 10
3.9977631068
 20
5.5738739927
 30
0.0
 10
4.0664717819
 20
5.7761501964
 30
0.0
 10
4.143938013
 20
5.9753197125
 30
0.0
 10
4.2299862333
 20
6.1710303991
 30
0.0
 10
4.3244421473
 20
6.3629340042
 30
0.0
 10
4.4271308161
 20
6.5506803286
 30
0.0
 10
4.5378681868
 20
6.7339059888
 30
0.0
 10
4.6563907858
 20
6.9122779672
 30
0.0
 10
4.7824273676
 20
7.0854490369
 30
0.0
 10
4.8713013694
 20
7.1972231946
 30
0.0
 10
4.916901239
 20
7.2521274154
 30
0.0
  0
SPLINE
  5
273
100
AcDbEntity
  8
0
100
AcDbSpline
 62
9
  6
CONTINUOUS
 70
0
 71
3
 72
27
 73
23
 74
0
 42
0.0000001
 43
0.0000001
 44
0.0000000001
 40
0.0
 40
0.0
 40
0.0
 40
0.0
 40
0.031110233
 40
0.0622480328
 40
0.0934138171
 40
0.1246057468
 40
0.187031518
 40
0.2495230211
 40
0.3120757153
 40
0.3746902328
 40
0.4373411383
 40
0.4999995014
 40
0.5626579568
 40
0.6253090185
 40
0.6879235541
 40
0.7504759091
 40
0.8129666438
 40
0.8753917985
 40
0.9065837272
 40
0.9377498521
 40
0.968888437
 40
1.0
 40
1.0
 40
1.0
 40
1.0
 10
4.916901158
 20
7.2521274861
 30
0.0
 10
4.9278776512
 20
7.2653428686
 30
0.0
 10
4.9505947684
 20
7.2911688406
 30
0.0
 10
4.986792597
 20
7.3279545155
 30
0.0
 10
5.0250046335
 20
7.362714554
 30
0.0
 10
5.0784669236
 20
7.4062321085
 30
0.0
 10
5.1497115767
 20
7.4550966399
 30
0.0
 10
5.2411570989
 20
7.5040606297
 30
0.0
 10
5.3375735363
 20
7.5426139612
 30
0.0
 10
5.4376837828
 20
7.5704810945
 30
0.0
 10
5.5402704758
 20
7.5874125619
 30
0.0
 10
5.6441180134
 20
7.5931455822
 30
0.0
 10
5.7479656171
 20
7.5874122736
 30
0.0
 10
5.8505524362
 20
7.5704807304
 30
0.0
 10
5.9506626591
 20
7.5426139008
 30
0.0
 10
6.0470787661
 20
7.5040614024
 30
0.0
 10
6.138523858
 20
7.4550986246
 30
0.0
 10
6.2097681119
 20
7.4062348371
 30
0.0
 10
6.2632303312
 20
7.3627174346
 30
0.0
 10
6.3014428004
 20
7.3279569462
 30
0.0
 10
6.3376415165
 20
7.2911702407
 30
0.0
 10
6.3603593751
 20
7.2653433663
 30
0.0
 10
6.3713363443
 20
7.2521274243
 30
0.0
  0
SPLINE
  5
274
100
AcDbEntity
  8
0
100
AcDbSpline
 62
7
  6
CONTINUOUS
 70
0
 71
3
 72
25
 73
21
 74
0
 42
0.0000001
 43
0.0000001
 44
0.0000000001
 40
0.0
 40
0.0
 40
0.0
 40
0.0
 40
0.0618834554
 40
0.1241051588
 40
0.1865391989
 40
0.249080204
 40
0.3116999754
 40
0.3743935824
 40
0.4057773859
 40
0.4371797396
 40
0.500000613
 40
0.5628216399
 40
0.5942241597
 40
0.6256081411
 40
0.6883019717
 40
0.7509216622
 40
0.8134621676
 40
0.8758955355
 40
0.9381167302
 40
1.0
 40
1.0
 40
1.0
 40
1.0
 10
5.8494920854
 20
4.1610118362
 30
0.0
 10
5.8447247997
 20
4.1610118362
 30
0.0
 10
5.8351577419
 20
4.1614905103
 30
0.0
 10
5.820922757
 20
4.1636091413
 30
0.0
 10
5.8069096264
 20
4.1671123046
 30
0.0
 10
5.7932810104
 20
4.1719900747
 30
0.0
 10
5.7801789964
 20
4.1781883771
 30
0.0
 10
5.7698049912
 20
4.1844018794
 30
0.0
 10
5.7618987457
 20
4.1899695412
 30
0.0
 10
5.7542699675
 20
4.195927745
 30
0.0
 10
5.745293381
 20
4.2040690862
 30
0.0
 10
5.7371522133
 20
4.2130458431
 30
0.0
 10
5.7311940732
 20
4.2206747182
 30
0.0
 10
5.7256264187
 20
4.2285810213
 30
0.0
 10
5.7194128971
 20
4.2389550413
 30
0.0
 10
5.7132145305
 20
4.252056991
 30
0.0
 10
5.7083366447
 20
4.265685464
 30
0.0
 10
5.7048334838
 20
4.2796984663
 30
0.0
 10
5.702714926
 20
4.2939333569
 30
0.0
 10
5.7022362888
 20
4.3035003614
 30
0.0
 10
5.7022362888
 20
4.3082676328
 30
0.0
  0
ENDSEC
  0
SECTION
  2
OBJECTS
  0
DICTIONARY
  5
C
100
AcDbDictionary
280
0
281
1
  3
ACAD_GROUP
350
D
  3
ACAD_MLINESTYLE
350
17
  3
ACAD_LAYOUT
350
1A
  3
ACAD_PLOTSETTINGS
350
19
  3
ACAD_PLOTSTYLENAME
350
E
  0
DICTIONARY
  5
D
102
{ACAD_REACTORS
330
C
102
}
100
AcDbDictionary
280
0
281
1
  0
ACDBDICTIONARYWDFLT
  5
E
102
{ACAD_REACTORS
330
C
102
}
100
AcDbDictionary
281
1
  3
Normal
350
F
100
AcDbDictionaryWithDefault
340
F
  0
DICTIONARY
  5
17
102
{ACAD_REACTORS
330
C
102
}
100
AcDbDictionary
280
0
281
1
  3
Standard
350
18
  0
DICTIONARY
  5
19
102
{ACAD_REACTORS
330
C
102
}
100
AcDbDictionary
281
1
  0
DICTIONARY
  5
1A
102
{ACAD_REACTORS
330
C
102
}
100
AcDbDictionary
281
1
  3
Model
350
275
  3
Layout1
350
276
  0
ACDBPLACEHOLDER
  5
F
102
{ACAD_REACTORS
330
E
102
}
  0
MLINESTYLE
  5
18
102
{ACAD_REACTORS
330
17
102
}
100
AcDbMlineStyle
  2
STANDARD
 70
0
  3

 62
256
 51
90.0
 52
90.0
 71
2
 49
0.5
 62
256
  6
BYLAYER
 49
-0.5
 62
256
  6
BYLAYER
  0
LAYOUT
  5
275
102
{ACAD_REACTORS
330
1A
102
}
100
AcDbPlotSettings
  1

  2
none_device
  4
ANSI_A_(11.00_x_8.50_Inches)
  6

 40
0.0
 41
0.0
 42
0.0
 43
0.0
 44
279.4
 45
215.9
 46
0.0
 47
0.0
 48
0.0
 49
0.0
140
0.0
141
0.0
142
1.0
143
1.0
 70
1024
 72
0
 73
0
 74
0
  7

 75
0
147
1.0
148
0.0
149
0.0
100
AcDbLayout
  1
Model
 70
0
 71
0
 10
0.0
 20
0.0
 11
11.0
 21
8.5
 12
0.0
 22
0.0
 32
0.0
 14
0.0
 24
0.0
 34
0.0
 15
0.0
 25
0.0
 35
0.0
146
0.0
 13
0.0
 23
0.0
 33
0.0
 16
1.0
 26
0.0
 36
0.0
 17
0.0
 27
1.0
 37
0.0
 76
0
330
21D
345
0
346
0
  0
LAYOUT
  5
276
102
{ACAD_REACTORS
330
1A
102
}
100
AcDbPlotSettings
  1

  2
none_device
  4
ANSI_A_(11.00_x_8.50_Inches)
  6

 40
0.0
 41
0.0
 42
0.0
 43
0.0
 44
279.4
 45
215.9
 46
0.0
 47
0.0
 48
0.0
 49
0.0
140
0.0
141
0.0
142
1.0
143
1.0
 70
0
 72
0
 73
0
 74
0
  7

 75
0
147
1.0
148
0.0
149
0.0
100
AcDbLayout
  1
Layout1
 70
0
 71
1
 10
0.0
 20
0.0
 11
11.0
 21
8.5
 12
0.0
 22
0.0
 32
0.0
 14
0.0
 24
0.0
 34
0.0
 15
0.0
 25
0.0
 35
0.0
146
0.0
 13
0.0
 23
0.0
 33
0.0
 16
1.0
 26
0.0
 36
0.0
 17
0.0
 27
1.0
 37
0.0
 76
0
330
21E
345
0
346
0
  0
ENDSEC
  0
EOF
