999
DXF file: C:\Prowork\plots\416x_right.dxf
999
Pro/ENGINEER 2018500 by Parametric Technology Corporation
  0
SECTION
  2
HEADER
  9
$ACADVER
  1
AC1032
  9
$DWGCODEPAGE
  3
ANSI_1252
  9
$EXTMAX
 10
11.0
 20
8.5
 30
0.0
  9
$EXTMIN
 10
0.0
 20
0.0
 30
0.0
  9
$LIMMIN
 10
0.0
 20
0.0
  9
$LIMMAX
 10
11.0
 20
8.5
  9
$VIEWCTR
 10
5.5
 20
4.25
  9
$VIEWSIZE
 40
8.5
  9
$CLAYER
  8
0
  9
$LTSCALE
 40
0.605
  9
$CELTYPE
  6
BYLAYER
  9
$DIMSCALE
 40
1.0
  9
$DIMASZ
 40
0.1
  9
$DIMEXO
 40
0.0625
  9
$DIMDLI
 40
0.418
  9
$DIMEXE
 40
0.125
  9
$DIMCEN
 40
0.099
  9
$DIMLFAC
 40
1.0
  9
$DIMBLK
  1
_FILLED
  9
$DIMALT
 70
1
  9
$DIMALTD
 70
2
  9
$DIMALTTD
 70
2
  9
$DIMALTF
 40
25.4
  9
$DIMTXT
 40
0.08
  9
$DIMTOL
 70
1
  9
$DIMLIM
 70
0
  9
$DIMTFAC
 40
1.0
  9
$DIMTP
 40
0.001
  9
$DIMTM
 40
0.001
  9
$DIMGAP
 40
0.09
  9
$DIMDSEP
 70
46
  9
$AUNITS
 70
0
  9
$PDMODE
 70
3
  9
$PDSIZE
 40
0.06
  9
$HANDSEED
  5
40B
  9
$TILEMODE
 70
1
  9
$MEASUREMENT
 70
0
  9
$INSUNITS
 70
1
  0
ENDSEC
  0
SECTION
  2
CLASSES
  0
CLASS
  1
ACDBDICTIONARYWDFLT
  2
AcDbDictionaryWithDefault
  3
AutoCAD 2000
 90
0
 91
1
280
0
281
0
  0
CLASS
  1
ACDBPLACEHOLDER
  2
AcDbPlaceHolder
  3
AutoCAD 2000
 90
0
 91
1
280
0
281
0
  0
CLASS
  1
LAYOUT
  2
AcDbLayout
  3
AutoCAD 2000
 90
0
 91
0
280
0
281
0
  0
ENDSEC
  0
SECTION
  2
TABLES
  0
TABLE
  2
VPORT
  5
8
100
AcDbSymbolTable
 70
2
  0
VPORT
  5
1F4
100
AcDbSymbolTableRecord
100
AcDbViewportTableRecord
  2
*ACTIVE
 70
0
 10
0.0
 20
0.0
 11
1.0
 21
1.0
 12
5.5
 22
4.25
 13
0.0
 23
0.0
 14
1.0
 24
1.0
 15
0.0
 25
0.0
 16
0.0
 26
0.0
 36
1.0
 17
0.0
 27
0.0
 37
0.0
 40
8.5
 41
1.2941176471
 42
50.0
 43
0.0
 44
0.0
 50
0.0
 51
0.0
 71
0
 72
100
 73
1
 74
1
 75
0
 76
0
 77
0
 78
0
  0
ENDTAB
  0
TABLE
  2
LTYPE
  5
5
100
AcDbSymbolTable
 70
6
  0
LTYPE
  5
14
100
AcDbSymbolTableRecord
100
AcDbLinetypeTableRecord
  2
BYBLOCK
 70
0
  3

 72
65
 73
0
 40
0.0
  0
LTYPE
  5
15
100
AcDbSymbolTableRecord
100
AcDbLinetypeTableRecord
  2
BYLAYER
 70
0
  3

 72
65
 73
0
 40
0.0
  0
LTYPE
  5
16
100
AcDbSymbolTableRecord
100
AcDbLinetypeTableRecord
  2
CONTINUOUS
 70
64
  3
Solid line
 72
65
 73
0
 40
0.0
  0
LTYPE
  5
1F5
100
AcDbSymbolTableRecord
100
AcDbLinetypeTableRecord
  2
CENTER
 70
64
  3
____ _ ____ _ ____ _ ____ _ ____ _ ____ _ ____
 72
65
 73
4
 40
0.6
 49
0.375
 74
0
 49
-0.075
 74
0
 49
0.075
 74
0
 49
-0.075
 74
0
  0
LTYPE
  5
1F6
100
AcDbSymbolTableRecord
100
AcDbLinetypeTableRecord
  2
HIDDEN
 70
64
  3
- - - - - - - - - - - - - - - - - - - -
 72
65
 73
2
 40
0.2
 49
0.1
 74
0
 49
-0.1
 74
0
  0
LTYPE
  5
1F7
100
AcDbSymbolTableRecord
100
AcDbLinetypeTableRecord
  2
PHANTOM
 70
64
  3
_____ _ _ _____ _ _ _____ _ _ _____
 72
65
 73
6
 40
0.8
 49
0.45
 74
0
 49
-0.05
 74
0
 49
0.1
 74
0
 49
-0.05
 74
0
 49
0.1
 74
0
 49
-0.05
 74
0
  0
LTYPE
  5
1F8
100
AcDbSymbolTableRecord
100
AcDbLinetypeTableRecord
  2
DOT
 70
64
  3
. . . . . . . . . . . . . . . . . . . .
 72
65
 73
2
 40
0.2
 49
0.1
 74
0
 49
-0.1
 74
0
  0
LTYPE
  5
1F9
100
AcDbSymbolTableRecord
100
AcDbLinetypeTableRecord
  2
DASHED
 70
64
  3
- - - - - - - - - - - - - - - - - - - -
 72
65
 73
2
 40
0.2
 49
0.1
 74
0
 49
-0.1
 74
0
  0
ENDTAB
  0
TABLE
  2
LAYER
  5
2
100
AcDbSymbolTable
 70
36
  0
LAYER
  5
10
100
AcDbSymbolTableRecord
100
AcDbLayerTableRecord
  2
0
 70
0
 62
7
  6
CONTINUOUS
370
-3
390
F
  0
LAYER
  5
1FA
100
AcDbSymbolTableRecord
100
AcDbLayerTableRecord
  2
DEFAULT_1
 70
0
 62
7
  6
CENTER
370
-3
390
F
  0
LAYER
  5
1FB
100
AcDbSymbolTableRecord
100
AcDbLayerTableRecord
  2
DEFAULT_2
 70
0
 62
8
  6
HIDDEN
370
-3
390
F
  0
LAYER
  5
1FC
100
AcDbSymbolTableRecord
100
AcDbLayerTableRecord
  2
DEFAULT_3
 70
0
 62
7
  6
PHANTOM
370
-3
390
F
  0
LAYER
  5
1FD
100
AcDbSymbolTableRecord
100
AcDbLayerTableRecord
  2
50350
 70
0
 62
7
  6
CONTINUOUS
370
-3
390
F
  0
LAYER
  5
1FE
100
AcDbSymbolTableRecord
100
AcDbLayerTableRecord
  2
50356
 70
0
 62
7
  6
CONTINUOUS
370
-3
390
F
  0
LAYER
  5
1FF
100
AcDbSymbolTableRecord
100
AcDbLayerTableRecord
  2
50359
 70
0
 62
7
  6
CONTINUOUS
370
-3
390
F
  0
LAYER
  5
200
100
AcDbSymbolTableRecord
100
AcDbLayerTableRecord
  2
50378
 70
0
 62
7
  6
CONTINUOUS
370
-3
390
F
  0
LAYER
  5
201
100
AcDbSymbolTableRecord
100
AcDbLayerTableRecord
  2
50673
 70
0
 62
7
  6
CONTINUOUS
370
-3
390
F
  0
LAYER
  5
202
100
AcDbSymbolTableRecord
100
AcDbLayerTableRecord
  2
50674
 70
0
 62
7
  6
CONTINUOUS
370
-3
390
F
  0
LAYER
  5
203
100
AcDbSymbolTableRecord
100
AcDbLayerTableRecord
  2
50674_1
 70
0
 62
7
  6
CONTINUOUS
370
-3
390
F
  0
LAYER
  5
204
100
AcDbSymbolTableRecord
100
AcDbLayerTableRecord
  2
50675
 70
0
 62
7
  6
CONTINUOUS
370
-3
390
F
  0
LAYER
  5
205
100
AcDbSymbolTableRecord
100
AcDbLayerTableRecord
  2
50677
 70
0
 62
7
  6
CONTINUOUS
370
-3
390
F
  0
LAYER
  5
206
100
AcDbSymbolTableRecord
100
AcDbLayerTableRecord
  2
50685
 70
0
 62
7
  6
CONTINUOUS
370
-3
390
F
  0
LAYER
  5
207
100
AcDbSymbolTableRecord
100
AcDbLayerTableRecord
  2
50854
 70
0
 62
7
  6
CONTINUOUS
370
-3
390
F
  0
LAYER
  5
208
100
AcDbSymbolTableRecord
100
AcDbLayerTableRecord
  2
525
 70
0
 62
7
  6
CONTINUOUS
370
-3
390
F
  0
LAYER
  5
209
100
AcDbSymbolTableRecord
100
AcDbLayerTableRecord
  2
6-416
 70
0
 62
7
  6
CONTINUOUS
370
-3
390
F
  0
LAYER
  5
20A
100
AcDbSymbolTableRecord
100
AcDbLayerTableRecord
  2
92000
 70
0
 62
7
  6
CONTINUOUS
370
-3
390
F
  0
LAYER
  5
20B
100
AcDbSymbolTableRecord
100
AcDbLayerTableRecord
  2
ALL_FEATURES_1
 70
0
 62
7
  6
CONTINUOUS
370
-3
390
F
  0
LAYER
  5
20C
100
AcDbSymbolTableRecord
100
AcDbLayerTableRecord
  2
COLOR103
 70
0
 62
7
  6
CONTINUOUS
370
-3
390
F
  0
LAYER
  5
20D
100
AcDbSymbolTableRecord
100
AcDbLayerTableRecord
  2
COLOR122
 70
0
 62
7
  6
CONTINUOUS
370
-3
390
F
  0
LAYER
  5
20E
100
AcDbSymbolTableRecord
100
AcDbLayerTableRecord
  2
COLOR135
 70
0
 62
7
  6
CONTINUOUS
370
-3
390
F
  0
LAYER
  5
20F
100
AcDbSymbolTableRecord
100
AcDbLayerTableRecord
  2
COLOR32
 70
0
 62
7
  6
CONTINUOUS
370
-3
390
F
  0
LAYER
  5
210
100
AcDbSymbolTableRecord
100
AcDbLayerTableRecord
  2
COLOR36
 70
0
 62
7
  6
CONTINUOUS
370
-3
390
F
  0
LAYER
  5
211
100
AcDbSymbolTableRecord
100
AcDbLayerTableRecord
  2
COLOR67
 70
0
 62
7
  6
CONTINUOUS
370
-3
390
F
  0
LAYER
  5
212
100
AcDbSymbolTableRecord
100
AcDbLayerTableRecord
  2
DEFAULT_COORDINATE_SYSTEM
 70
0
 62
7
  6
CONTINUOUS
370
-3
390
F
  0
LAYER
  5
213
100
AcDbSymbolTableRecord
100
AcDbLayerTableRecord
  2
DEFAULT_DATUM_AXES
 70
0
 62
7
  6
CONTINUOUS
370
-3
390
F
  0
LAYER
  5
214
100
AcDbSymbolTableRecord
100
AcDbLayerTableRecord
  2
DEFAULT_DATUM_PLANES
 70
0
 62
7
  6
CONTINUOUS
370
-3
390
F
  0
LAYER
  5
215
100
AcDbSymbolTableRecord
100
AcDbLayerTableRecord
  2
DEFAULT_SURFACES
 70
0
 62
7
  6
CONTINUOUS
370
-3
390
F
  0
LAYER
  5
216
100
AcDbSymbolTableRecord
100
AcDbLayerTableRecord
  2
INTF_50350
 70
0
 62
7
  6
CONTINUOUS
370
-3
390
F
  0
LAYER
  5
217
100
AcDbSymbolTableRecord
100
AcDbLayerTableRecord
  2
INTF_50356
 70
0
 62
7
  6
CONTINUOUS
370
-3
390
F
  0
LAYER
  5
218
100
AcDbSymbolTableRecord
100
AcDbLayerTableRecord
  2
INTF_50359
 70
0
 62
7
  6
CONTINUOUS
370
-3
390
F
  0
LAYER
  5
219
100
AcDbSymbolTableRecord
100
AcDbLayerTableRecord
  2
INTF_50378
 70
0
 62
7
  6
CONTINUOUS
370
-3
390
F
  0
LAYER
  5
21A
100
AcDbSymbolTableRecord
100
AcDbLayerTableRecord
  2
INTF_50673
 70
0
 62
7
  6
CONTINUOUS
370
-3
390
F
  0
LAYER
  5
21B
100
AcDbSymbolTableRecord
100
AcDbLayerTableRecord
  2
INTF_50675
 70
0
 62
7
  6
CONTINUOUS
370
-3
390
F
  0
LAYER
  5
21C
100
AcDbSymbolTableRecord
100
AcDbLayerTableRecord
  2
INTF_50677
 70
0
 62
7
  6
CONTINUOUS
370
-3
390
F
  0
LAYER
  5
21D
100
AcDbSymbolTableRecord
100
AcDbLayerTableRecord
  2
INTF_50685
 70
0
 62
7
  6
CONTINUOUS
370
-3
390
F
  0
LAYER
  5
21E
100
AcDbSymbolTableRecord
100
AcDbLayerTableRecord
  2
INTF_50854
 70
0
 62
7
  6
CONTINUOUS
370
-3
390
F
  0
LAYER
  5
21F
100
AcDbSymbolTableRecord
100
AcDbLayerTableRecord
  2
INTF_92000
 70
0
 62
7
  6
CONTINUOUS
370
-3
390
F
  0
LAYER
  5
220
100
AcDbSymbolTableRecord
100
AcDbLayerTableRecord
  2
INTF_BLANK
 70
0
 62
7
  6
CONTINUOUS
370
-3
390
F
  0
LAYER
  5
221
100
AcDbSymbolTableRecord
100
AcDbLayerTableRecord
  2
INTF_CYAN
 70
0
 62
7
  6
CONTINUOUS
370
-3
390
F
  0
LAYER
  5
222
100
AcDbSymbolTableRecord
100
AcDbLayerTableRecord
  2
PLATED_SURFACE
 70
0
 62
7
  6
CONTINUOUS
370
-3
390
F
  0
LAYER
  5
223
100
AcDbSymbolTableRecord
100
AcDbLayerTableRecord
  2
PLATED_SURFACE_1
 70
0
 62
7
  6
CONTINUOUS
370
-3
390
F
  0
LAYER
  5
224
100
AcDbSymbolTableRecord
100
AcDbLayerTableRecord
  2
_BLACK_HOLE
 70
0
 62
7
  6
CONTINUOUS
370
-3
390
F
  0
ENDTAB
  0
TABLE
  2
STYLE
  5
3
100
AcDbSymbolTable
 70
1
  0
STYLE
  5
11
100
AcDbSymbolTableRecord
100
AcDbTextStyleTableRecord
  2
STANDARD
 70
0
 40
0.0
 41
0.8
 50
0.0
 71
0
 42
0.2
  3
txt
  4

  0
STYLE
  5
225
100
AcDbSymbolTableRecord
100
AcDbTextStyleTableRecord
  2
TEXTSTYLE_1
 70
0
 40
0.0
 41
0.8
 50
0.0
 71
0
 42
0.2
  3
gdt
  4

  0
ENDTAB
  0
TABLE
  2
VIEW
  5
6
100
AcDbSymbolTable
 70
0
  0
ENDTAB
  0
TABLE
  2
UCS
  5
7
100
AcDbSymbolTable
 70
0
  0
ENDTAB
  0
TABLE
  2
APPID
  5
9
100
AcDbSymbolTable
 70
1
  0
APPID
  5
226
100
AcDbSymbolTableRecord
100
AcDbRegAppTableRecord
  2
ACAD
 70
0
  0
ENDTAB
  0
TABLE
  2
BLOCK_RECORD
  5
1
100
AcDbSymbolTable
 70
0
  0
BLOCK_RECORD
  5
227
100
AcDbSymbolTableRecord
100
AcDbBlockTableRecord
  2
*Model_Space
  0
BLOCK_RECORD
  5
228
100
AcDbSymbolTableRecord
100
AcDbBlockTableRecord
  2
*Paper_Space
  0
BLOCK_RECORD
  5
229
100
AcDbSymbolTableRecord
100
AcDbBlockTableRecord
  2
_FILLED
  0
ENDTAB
  0
TABLE
  2
DIMSTYLE
  5
A
100
AcDbSymbolTable
 70
1
100
AcDbDimStyleTable
 71
0
  0
DIMSTYLE
105
22A
100
AcDbSymbolTableRecord
100
AcDbDimStyleTableRecord
  2
STANDARD
 70
0
  3

  4

 40
1.0
 41
0.1
 42
0.0625
 43
0.38
 44
0.125
 45
0.0
 46
0.0
 47
0.001
 48
0.001
140
0.08
141
0.09
142
0.0
143
25.4
144
1.0
145
0.0
146
1.0
147
0.09
 71
1.0
 72
0.0
 73
1
 74
1
 75
0
 76
0
 77
0
 78
4
 79
1
170
1
171
2
172
0
173
0
174
0
175
0
176
0
177
0
178
0
270
2
179
3
271
3
272
3
273
2
274
2
275
0
280
0
281
0
282
0
283
1
284
4
285
0
286
0
287
3
288
0
340
11
278
46
341
229
342
229
343
229
344
229
  0
ENDTAB
  0
ENDSEC
  0
SECTION
  2
BLOCKS
  0
BLOCK
  5
20
100
AcDbEntity
  8
0
100
AcDbBlockBegin
  2
*Model_Space
 70
0
 10
0.0
 20
0.0
 30
0.0
  3
*Model_Space
  1

  0
ENDBLK
  5
21
100
AcDbEntity
  8
0
100
AcDbBlockEnd
  0
BLOCK
  5
1C
100
AcDbEntity
  8
0
100
AcDbBlockBegin
  2
*Paper_Space
 70
0
 10
0.0
 20
0.0
 30
0.0
  3
*Paper_Space
  1

  0
ENDBLK
  5
1D
100
AcDbEntity
  8
0
100
AcDbBlockEnd
  0
BLOCK
  5
22B
100
AcDbEntity
  8
0
100
AcDbBlockBegin
  2
_FILLED
 70
64
 10
0.0
 20
0.0
  3
_FILLED
  1

  0
SOLID
  5
22C
100
AcDbEntity
  8
0
  6
BYBLOCK
 62
0
100
AcDbTrace
 10
0.0
 20
0.0
 11
-1.0
 21
0.2
 12
-1.0
 22
-0.2
 13
-1.0
 23
-0.2
  0
ENDBLK
  5
22D
100
AcDbEntity
  8
0
  6
BYBLOCK
 62
0
100
AcDbBlockEnd
  0
ENDSEC
  0
SECTION
  2
ENTITIES
  0
MTEXT
  5
22E
100
AcDbEntity
  8
0
100
AcDbMText
 62
7
  6
CONTINUOUS
  7
STANDARD
 71
1
 72
1
 10
9.4142663043
 20
0.3872631988
 30
0.0
 11
1.0
 21
0.0
 31
0.0
 73
2
 44
0.9
  1
SCALE: 1.15
 40
0.08
 41
0.704
  0
LINE
  5
22F
100
AcDbEntity
  8
0
100
AcDbLine
 62
7
  6
CONTINUOUS
 10
0.0
 20
0.0
 11
0.0
 21
8.5
  0
LINE
  5
230
100
AcDbEntity
  8
0
100
AcDbLine
 62
7
  6
CONTINUOUS
 10
0.0
 20
0.0
 11
11.0
 21
0.0
  0
LINE
  5
231
100
AcDbEntity
  8
0
100
AcDbLine
 62
7
  6
CONTINUOUS
 10
0.0
 20
8.5
 11
11.0
 21
8.5
  0
LINE
  5
232
100
AcDbEntity
  8
0
100
AcDbLine
 62
7
  6
CONTINUOUS
 10
11.0
 20
0.0
 11
11.0
 21
8.5
  0
LINE
  5
233
100
AcDbEntity
  8
0
100
AcDbLine
 62
9
  6
CONTINUOUS
 10
1.4097895103
 20
3.9558810221
 11
1.409789508
 21
3.9559372705
  0
LINE
  5
234
100
AcDbEntity
  8
0
100
AcDbLine
 62
7
  6
CONTINUOUS
 10
1.4448532299
 20
4.1841063108
 11
1.444481327
 21
4.1829305935
  0
LINE
  5
235
100
AcDbEntity
  8
0
100
AcDbLine
 62
7
  6
CONTINUOUS
 10
1.4448600617
 20
4.1841020435
 11
1.4444806679
 21
4.1829297898
  0
LINE
  5
236
100
AcDbEntity
  8
0
100
AcDbLine
 62
9
  6
CONTINUOUS
 10
1.4974723116
 20
4.3080735618
 11
1.4974462365
 21
4.3080256088
  0
LINE
  5
237
100
AcDbEntity
  8
0
100
AcDbLine
 62
9
  6
CONTINUOUS
 10
1.9419827796
 20
4.6035296774
 11
1.9419567044
 21
4.6034817244
  0
LINE
  5
238
100
AcDbEntity
  8
0
100
AcDbLine
 62
9
  6
CONTINUOUS
 10
1.4974723116
 20
3.6037982289
 11
1.4974910596
 21
3.6037637778
  0
LINE
  5
239
100
AcDbEntity
  8
0
100
AcDbLine
 62
9
  6
CONTINUOUS
 10
1.9419379565
 20
3.3084245173
 11
1.9419567044
 21
3.3083900663
  0
LINE
  5
23A
100
AcDbEntity
  8
0
100
AcDbLine
 62
7
  6
CONTINUOUS
 10
2.356239508
 20
4.3176108953
 11
2.356239508
 21
3.5942608953
  0
LINE
  5
23B
100
AcDbEntity
  8
0
100
AcDbLine
 62
7
  6
CONTINUOUS
 10
2.003620122
 20
3.7585971041
 11
2.0039239229
 21
3.7597262868
  0
LINE
  5
23C
100
AcDbEntity
  8
0
100
AcDbLine
 62
7
  6
CONTINUOUS
 10
2.0036061174
 20
3.7586036673
 11
2.0039247229
 21
3.7597271413
  0
LINE
  5
23D
100
AcDbEntity
  8
0
100
AcDbLine
 62
9
  6
CONTINUOUS
 10
1.4974462365
 20
3.3083421133
 11
1.4974723116
 21
3.3083900663
  0
LINE
  5
23E
100
AcDbEntity
  8
0
100
AcDbLine
 62
9
  6
CONTINUOUS
 10
1.4974910596
 20
4.6034472733
 11
1.4974723116
 21
4.6034817244
  0
LINE
  5
23F
100
AcDbEntity
  8
0
100
AcDbLine
 62
7
  6
CONTINUOUS
 10
2.0039248469
 20
4.1521441867
 11
2.0036085402
 21
4.1532602543
  0
LINE
  5
240
100
AcDbEntity
  8
0
100
AcDbLine
 62
7
  6
CONTINUOUS
 10
2.0039240266
 20
4.1521450884
 11
2.0036222555
 21
4.1532667515
  0
LINE
  5
241
100
AcDbEntity
  8
0
100
AcDbLine
 62
7
  6
CONTINUOUS
 10
2.384989508
 20
3.5942608953
 11
2.384989508
 21
4.3176108953
  0
LINE
  5
242
100
AcDbEntity
  8
0
100
AcDbLine
 62
7
  6
CONTINUOUS
 10
2.4798442798
 20
4.5202957835
 11
2.4830952429
 21
4.5279993227
  0
LINE
  5
243
100
AcDbEntity
  8
0
100
AcDbLine
 62
7
  6
CONTINUOUS
 10
2.384989508
 20
4.3176108953
 11
2.4830952429
 21
4.5279993227
  0
LINE
  5
244
100
AcDbEntity
  8
0
100
AcDbLine
 62
9
  6
CONTINUOUS
 10
1.9419567044
 20
3.6037982289
 11
1.9419827796
 21
3.6038461818
  0
LINE
  5
245
100
AcDbEntity
  8
0
100
AcDbLine
 62
9
  6
CONTINUOUS
 10
1.9419567044
 20
4.3080735618
 11
1.9419379565
 21
4.3081080128
  0
LINE
  5
246
100
AcDbEntity
  8
0
100
AcDbLine
 62
7
  6
CONTINUOUS
 10
2.479563974
 20
3.3914452985
 11
2.384989508
 21
3.5942608953
  0
LINE
  5
247
100
AcDbEntity
  8
0
100
AcDbLine
 62
7
  6
CONTINUOUS
 10
2.4830952429
 20
3.3838724679
 11
2.4798442798
 21
3.3915760072
  0
LINE
  5
248
100
AcDbEntity
  8
0
100
AcDbLine
 62
7
  6
CONTINUOUS
 10
2.7576534262
 20
3.6456447169
 11
2.7576791984
 21
3.6447861609
  0
LINE
  5
249
100
AcDbEntity
  8
0
100
AcDbLine
 62
7
  6
CONTINUOUS
 10
2.8006236117
 20
4.2672890504
 11
2.8006473564
 21
4.2664983623
  0
LINE
  5
24A
100
AcDbEntity
  8
0
100
AcDbLine
 62
7
  6
CONTINUOUS
 10
2.7503995068
 20
3.9561228158
 11
2.7512244773
 21
3.9168839389
  0
LINE
  5
24B
100
AcDbEntity
  8
0
100
AcDbLine
 62
7
  6
CONTINUOUS
 10
2.7939415596
 20
3.9362431514
 11
2.7931879934
 21
3.9720939401
  0
LINE
  5
24C
100
AcDbEntity
  8
0
100
AcDbLine
 62
7
  6
CONTINUOUS
 10
2.712739508
 20
4.4504358953
 11
2.712739508
 21
3.4614358953
  0
LINE
  5
24D
100
AcDbEntity
  8
0
100
AcDbLine
 62
7
  6
CONTINUOUS
 10
2.741489508
 20
4.450435445
 11
2.741489508
 21
3.4614363457
  0
LINE
  5
24E
100
AcDbEntity
  8
0
100
AcDbLine
 62
7
  6
CONTINUOUS
 10
2.810489508
 20
4.4216191742
 11
2.810489508
 21
3.519951847
  0
LINE
  5
24F
100
AcDbEntity
  8
0
100
AcDbLine
 62
7
  6
CONTINUOUS
 10
2.8670190021
 20
4.7015314013
 11
2.8670190021
 21
5.0721903893
  0
LINE
  5
250
100
AcDbEntity
  8
0
100
AcDbLine
 62
7
  6
CONTINUOUS
 10
2.925489508
 20
4.4734358953
 11
2.925489508
 21
3.4384358953
  0
LINE
  5
251
100
AcDbEntity
  8
0
100
AcDbLine
 62
7
  6
CONTINUOUS
 10
3.0372790914
 20
5.1277858953
 11
3.057739508
 21
5.1979358953
  0
LINE
  5
252
100
AcDbEntity
  8
0
100
AcDbLine
 62
7
  6
CONTINUOUS
 10
2.7537029219
 20
4.4228238703
 11
2.7421019591
 21
4.4027465273
  0
LINE
  5
253
100
AcDbEntity
  8
0
100
AcDbLine
 62
7
  6
CONTINUOUS
 10
2.810489508
 20
4.4214835289
 11
2.7932187006
 21
4.3915982981
  0
LINE
  5
254
100
AcDbEntity
  8
0
100
AcDbLine
 62
7
  6
CONTINUOUS
 10
2.922614508
 20
5.1277858953
 11
2.8670190021
 21
5.0721903893
  0
LINE
  5
255
100
AcDbEntity
  8
0
100
AcDbLine
 62
7
  6
CONTINUOUS
 10
2.764363446
 20
3.5204427913
 11
2.7825146622
 21
3.4890352197
  0
LINE
  5
256
100
AcDbEntity
  8
0
100
AcDbLine
 62
7
  6
CONTINUOUS
 10
2.958552008
 20
4.626041244
 11
2.958552008
 21
4.6178410467
  0
LINE
  5
257
100
AcDbEntity
  8
0
100
AcDbLine
 62
7
  6
CONTINUOUS
 10
2.958552008
 20
4.578120744
 11
2.958552008
 21
4.5699205467
  0
LINE
  5
258
100
AcDbEntity
  8
0
100
AcDbLine
 62
7
  6
CONTINUOUS
 10
2.958552008
 20
4.530200244
 11
2.958552008
 21
4.4734358953
  0
LINE
  5
259
100
AcDbEntity
  8
0
100
AcDbLine
 62
7
  6
CONTINUOUS
 10
2.9877673597
 20
4.4991901453
 11
2.9877673597
 21
4.5051816453
  0
LINE
  5
25A
100
AcDbEntity
  8
0
100
AcDbLine
 62
7
  6
CONTINUOUS
 10
2.987787582
 20
4.6009698762
 11
2.9877875812
 21
4.5949778148
  0
LINE
  5
25B
100
AcDbEntity
  8
0
100
AcDbLine
 62
7
  6
CONTINUOUS
 10
2.9878067544
 20
4.5530532461
 11
2.9878067544
 21
4.5470617461
  0
LINE
  5
25C
100
AcDbEntity
  8
0
100
AcDbLine
 62
7
  6
CONTINUOUS
 10
2.9878985282
 20
4.6459358953
 11
2.9878985282
 21
4.6428945213
  0
LINE
  5
25D
100
AcDbEntity
  8
0
100
AcDbLine
 62
7
  6
CONTINUOUS
 10
3.074504255
 20
4.7015314013
 11
3.074504255
 21
5.0721903893
  0
LINE
  5
25E
100
AcDbEntity
  8
0
100
AcDbLine
 62
7
  6
CONTINUOUS
 10
2.6765710878
 20
3.3838724679
 11
2.676609017
 21
3.3839665243
  0
LINE
  5
25F
100
AcDbEntity
  8
0
100
AcDbLine
 62
7
  6
CONTINUOUS
 10
2.676609017
 20
3.3839665243
 11
2.6798220509
 21
3.3915760072
  0
LINE
  5
260
100
AcDbEntity
  8
0
100
AcDbLine
 62
7
  6
CONTINUOUS
 10
2.6765710878
 20
3.3838724679
 11
2.712739508
 21
3.4614358953
  0
LINE
  5
261
100
AcDbEntity
  8
0
100
AcDbLine
 62
7
  6
CONTINUOUS
 10
2.958552008
 20
4.626041244
 11
2.9588103249
 21
4.6263460802
  0
LINE
  5
262
100
AcDbEntity
  8
0
100
AcDbLine
 62
7
  6
CONTINUOUS
 10
2.958552008
 20
4.578120744
 11
2.958810904
 21
4.5784259218
  0
LINE
  5
263
100
AcDbEntity
  8
0
100
AcDbLine
 62
7
  6
CONTINUOUS
 10
2.9880852571
 20
4.5953215975
 11
2.9877875812
 21
4.5949778148
  0
LINE
  5
264
100
AcDbEntity
  8
0
100
AcDbLine
 62
7
  6
CONTINUOUS
 10
2.958552008
 20
4.530200244
 11
2.9588217208
 21
4.5305117326
  0
LINE
  5
265
100
AcDbEntity
  8
0
100
AcDbLine
 62
7
  6
CONTINUOUS
 10
2.712739508
 20
4.4504358953
 11
2.6801023567
 21
4.5204264922
  0
LINE
  5
266
100
AcDbEntity
  8
0
100
AcDbLine
 62
7
  6
CONTINUOUS
 10
2.6798220509
 20
4.5202957835
 11
2.6765710878
 21
4.5279993227
  0
LINE
  5
267
100
AcDbEntity
  8
0
100
AcDbLine
 62
7
  6
CONTINUOUS
 10
2.6780222442
 20
4.5245489632
 11
2.6775783493
 21
4.5256061167
  0
LINE
  5
268
100
AcDbEntity
  8
0
100
AcDbLine
 62
7
  6
CONTINUOUS
 10
2.6766088422
 20
4.5279054486
 11
2.6765710878
 21
4.5279993227
  0
LINE
  5
269
100
AcDbEntity
  8
0
100
AcDbLine
 62
7
  6
CONTINUOUS
 10
3.489474761
 20
5.0721903893
 11
3.489474761
 21
4.7015314013
  0
LINE
  5
26A
100
AcDbEntity
  8
0
100
AcDbLine
 62
9
  6
CONTINUOUS
 10
3.520817602
 20
4.6201816453
 11
3.520817602
 21
4.6141901453
  0
LINE
  5
26B
100
AcDbEntity
  8
0
100
AcDbLine
 62
7
  6
CONTINUOUS
 10
2.741489508
 20
3.504153203
 11
2.7509153779
 21
3.5204689877
  0
LINE
  5
26C
100
AcDbEntity
  8
0
100
AcDbLine
 62
7
  6
CONTINUOUS
 10
2.7902401248
 20
3.4890107866
 11
2.808365269
 21
3.5203852935
  0
LINE
  5
26D
100
AcDbEntity
  8
0
100
AcDbLine
 62
7
  6
CONTINUOUS
 10
2.9881011202
 20
4.4994924851
 11
2.9878075748
 21
4.4991901453
  0
LINE
  5
26E
100
AcDbEntity
  8
0
100
AcDbLine
 62
7
  6
CONTINUOUS
 10
2.9585578909
 20
4.482325744
 11
2.9588323093
 21
4.4825972889
  0
LINE
  5
26F
100
AcDbEntity
  8
0
100
AcDbLine
 62
7
  6
CONTINUOUS
 10
2.7931998254
 20
4.3915983135
 11
2.7935525132
 21
4.3919245497
  0
LINE
  5
270
100
AcDbEntity
  8
0
100
AcDbLine
 62
7
  6
CONTINUOUS
 10
2.7539935924
 20
4.4231233953
 11
2.7536658697
 21
4.4228238963
  0
LINE
  5
271
100
AcDbEntity
  8
0
100
AcDbLine
 62
7
  6
CONTINUOUS
 10
2.7644347292
 20
3.5204428441
 11
2.7647636871
 21
3.5201664184
  0
LINE
  5
272
100
AcDbEntity
  8
0
100
AcDbLine
 62
7
  6
CONTINUOUS
 10
2.7827436095
 20
3.4887483953
 11
2.7824229147
 21
3.4890351567
  0
LINE
  5
273
100
AcDbEntity
  8
0
100
AcDbLine
 62
7
  6
CONTINUOUS
 10
2.7794888385
 20
4.3916742782
 11
2.7614757738
 21
4.4228518993
  0
LINE
  5
274
100
AcDbEntity
  8
0
100
AcDbLine
 62
7
  6
CONTINUOUS
 10
3.5760613807
 20
4.6189525196
 11
3.5760613807
 21
4.6249440196
  0
LINE
  5
275
100
AcDbEntity
  8
0
100
AcDbLine
 62
7
  6
CONTINUOUS
 10
3.5762030707
 20
4.5710320061
 11
3.5762030707
 21
4.5770235061
  0
LINE
  5
276
100
AcDbEntity
  8
0
100
AcDbLine
 62
7
  6
CONTINUOUS
 10
3.5762168733
 20
4.5231033958
 11
3.5762168733
 21
4.5290948958
  0
LINE
  5
277
100
AcDbEntity
  8
0
100
AcDbLine
 62
7
  6
CONTINUOUS
 10
3.605427008
 20
4.4734358953
 11
3.605427008
 21
4.506239994
  0
LINE
  5
278
100
AcDbEntity
  8
0
100
AcDbLine
 62
7
  6
CONTINUOUS
 10
3.605427008
 20
4.5459602967
 11
3.605427008
 21
4.554160494
  0
LINE
  5
279
100
AcDbEntity
  8
0
100
AcDbLine
 62
7
  6
CONTINUOUS
 10
3.605427008
 20
4.5938807967
 11
3.605427008
 21
4.602080994
  0
LINE
  5
27A
100
AcDbEntity
  8
0
100
AcDbLine
 62
7
  6
CONTINUOUS
 10
3.605427008
 20
4.6418012967
 11
3.605427008
 21
4.6459358953
  0
LINE
  5
27B
100
AcDbEntity
  8
0
100
AcDbLine
 62
7
  6
CONTINUOUS
 10
3.638489508
 20
3.4384358953
 11
3.638489508
 21
4.4734358953
  0
LINE
  5
27C
100
AcDbEntity
  8
0
100
AcDbLine
 62
7
  6
CONTINUOUS
 10
3.696960014
 20
4.7015314013
 11
3.696960014
 21
5.0721903893
  0
LINE
  5
27D
100
AcDbEntity
  8
0
100
AcDbLine
 62
7
  6
CONTINUOUS
 10
3.605427008
 20
4.5938807967
 11
3.6051704407
 21
4.5935769946
  0
LINE
  5
27E
100
AcDbEntity
  8
0
100
AcDbLine
 62
7
  6
CONTINUOUS
 10
3.605427008
 20
4.5459602967
 11
3.6051648307
 21
4.5456531908
  0
LINE
  5
27F
100
AcDbEntity
  8
0
100
AcDbLine
 62
7
  6
CONTINUOUS
 10
3.605427008
 20
4.6418012967
 11
3.6051601758
 21
4.6414914761
  0
LINE
  5
280
100
AcDbEntity
  8
0
100
AcDbLine
 62
7
  6
CONTINUOUS
 10
3.5757598995
 20
4.6245954852
 11
3.5760613807
 21
4.6249440196
  0
LINE
  5
281
100
AcDbEntity
  8
0
100
AcDbLine
 62
7
  6
CONTINUOUS
 10
3.575925121
 20
4.5287582116
 11
3.5762168733
 21
4.5290948958
  0
LINE
  5
282
100
AcDbEntity
  8
0
100
AcDbLine
 62
7
  6
CONTINUOUS
 10
3.696960014
 20
4.7015314013
 11
3.641364508
 21
4.6459358953
  0
LINE
  5
283
100
AcDbEntity
  8
0
100
AcDbLine
 62
9
  6
CONTINUOUS
 10
3.5207775874
 20
4.6201816453
 11
3.5444837325
 21
4.6370460467
  0
LINE
  5
284
100
AcDbEntity
  8
0
100
AcDbLine
 62
7
  6
CONTINUOUS
 10
2.9881995231
 20
4.643242383
 11
2.9588104146
 21
4.6262508834
  0
LINE
  5
285
100
AcDbEntity
  8
0
100
AcDbLine
 62
7
  6
CONTINUOUS
 10
2.9880852571
 20
4.5953215975
 11
2.9588109256
 21
4.5784030142
  0
LINE
  5
286
100
AcDbEntity
  8
0
100
AcDbLine
 62
7
  6
CONTINUOUS
 10
2.9881058047
 20
4.5474073687
 11
2.9588217495
 21
4.5304819884
  0
LINE
  5
287
100
AcDbEntity
  8
0
100
AcDbLine
 62
7
  6
CONTINUOUS
 10
2.9881011202
 20
4.4994924851
 11
2.9585578909
 21
4.482325744
  0
LINE
  5
288
100
AcDbEntity
  8
0
100
AcDbLine
 62
7
  6
CONTINUOUS
 10
3.897239508
 20
4.4159358953
 11
3.897239508
 21
3.4959358953
  0
LINE
  5
289
100
AcDbEntity
  8
0
100
AcDbLine
 62
7
  6
CONTINUOUS
 10
2.8082330666
 20
3.5203853995
 11
2.8078790004
 21
3.5200628169
  0
LINE
  5
28A
100
AcDbEntity
  8
0
100
AcDbLine
 62
7
  6
CONTINUOUS
 10
2.7507332868
 20
3.5204691284
 11
2.7503887973
 21
3.5201664184
  0
LINE
  5
28B
100
AcDbEntity
  8
0
100
AcDbLine
 62
7
  6
CONTINUOUS
 10
3.5757598995
 20
4.6245954852
 11
3.6051600771
 21
4.6415945156
  0
LINE
  5
28C
100
AcDbEntity
  8
0
100
AcDbLine
 62
7
  6
CONTINUOUS
 10
3.5759067823
 20
4.5766814393
 11
3.6051704256
 21
4.5935931032
  0
LINE
  5
28D
100
AcDbEntity
  8
0
100
AcDbLine
 62
7
  6
CONTINUOUS
 10
3.575925121
 20
4.5287582116
 11
3.605164829
 21
4.545655012
  0
LINE
  5
28E
100
AcDbEntity
  8
0
100
AcDbLine
 62
7
  6
CONTINUOUS
 10
2.7611854365
 20
4.4231233953
 11
2.7614974407
 21
4.4228519137
  0
LINE
  5
28F
100
AcDbEntity
  8
0
100
AcDbLine
 62
7
  6
CONTINUOUS
 10
2.9881051262
 20
4.5527082121
 11
2.9878067544
 21
4.5530532461
  0
LINE
  5
290
100
AcDbEntity
  8
0
100
AcDbLine
 62
7
  6
CONTINUOUS
 10
3.506239508
 20
5.1979358953
 11
3.5266999247
 21
5.1277858953
  0
LINE
  5
291
100
AcDbEntity
  8
0
100
AcDbLine
 62
7
  6
CONTINUOUS
 10
2.7794854718
 20
4.3916742758
 11
2.7791775073
 21
4.3919245497
  0
LINE
  5
292
100
AcDbEntity
  8
0
100
AcDbLine
 62
7
  6
CONTINUOUS
 10
2.8670190021
 20
4.7015314013
 11
2.922614508
 21
4.6459358953
  0
LINE
  5
293
100
AcDbEntity
  8
0
100
AcDbLine
 62
7
  6
CONTINUOUS
 10
3.575909667
 20
4.5713715698
 11
3.5762030707
 21
4.5710320061
  0
LINE
  5
294
100
AcDbEntity
  8
0
100
AcDbLine
 62
7
  6
CONTINUOUS
 10
2.6765710878
 20
3.3838724679
 11
2.4830952429
 21
3.3838724679
  0
LINE
  5
295
100
AcDbEntity
  8
0
100
AcDbLine
 62
9
  6
CONTINUOUS
 10
2.4798442798
 20
3.3915760072
 11
2.6798220509
 21
3.3915760072
  0
LINE
  5
296
100
AcDbEntity
  8
0
100
AcDbLine
 62
7
  6
CONTINUOUS
 10
2.9585578909
 20
4.5220460467
 11
2.9877673597
 21
4.5051816453
  0
LINE
  5
297
100
AcDbEntity
  8
0
100
AcDbLine
 62
7
  6
CONTINUOUS
 10
2.9588312881
 20
4.5696276537
 11
2.9881051262
 21
4.5527082121
  0
LINE
  5
298
100
AcDbEntity
  8
0
100
AcDbLine
 62
7
  6
CONTINUOUS
 10
2.9588341558
 20
4.6175312249
 11
2.9880830292
 21
4.6006274649
  0
LINE
  5
299
100
AcDbEntity
  8
0
100
AcDbLine
 62
9
  6
CONTINUOUS
 10
3.520817602
 20
4.6141901453
 11
3.5445277196
 21
4.597325744
  0
LINE
  5
29A
100
AcDbEntity
  8
0
100
AcDbLine
 62
7
  6
CONTINUOUS
 10
2.925489508
 20
3.4384358953
 11
3.638489508
 21
3.4384358953
  0
LINE
  5
29B
100
AcDbEntity
  8
0
100
AcDbLine
 62
7
  6
CONTINUOUS
 10
2.712739508
 20
3.4614358953
 11
2.741489508
 21
3.4614358953
  0
LINE
  5
29C
100
AcDbEntity
  8
0
100
AcDbLine
 62
7
  6
CONTINUOUS
 10
2.7899354422
 20
3.4887483953
 11
2.782843678
 21
3.4887483953
  0
LINE
  5
29D
100
AcDbEntity
  8
0
100
AcDbLine
 62
7
  6
CONTINUOUS
 10
3.638489508
 20
3.4959358953
 11
3.897239508
 21
3.4959358953
  0
LINE
  5
29E
100
AcDbEntity
  8
0
100
AcDbLine
 62
7
  6
CONTINUOUS
 10
2.8079886493
 20
3.5200628169
 11
2.810489508
 21
3.5200628169
  0
LINE
  5
29F
100
AcDbEntity
  8
0
100
AcDbLine
 62
7
  6
CONTINUOUS
 10
2.7505594784
 20
3.5201664184
 11
2.7646837792
 21
3.5201664184
  0
LINE
  5
2A0
100
AcDbEntity
  8
0
100
AcDbLine
 62
7
  6
CONTINUOUS
 10
2.925489508
 20
3.5333108953
 11
2.810489508
 21
3.5333108953
  0
LINE
  5
2A1
100
AcDbEntity
  8
0
100
AcDbLine
 62
7
  6
CONTINUOUS
 10
3.897239508
 20
3.5649358953
 11
8.324739508
 21
3.5649358953
  0
LINE
  5
2A2
100
AcDbEntity
  8
0
100
AcDbLine
 62
7
  6
CONTINUOUS
 10
2.356239508
 20
3.5942608953
 11
2.384989508
 21
3.5942608953
  0
LINE
  5
2A3
100
AcDbEntity
  8
0
100
AcDbLine
 62
9
  6
CONTINUOUS
 10
2.6798220509
 20
3.6488577209
 11
2.4798442798
 21
3.6488577209
  0
LINE
  5
2A4
100
AcDbEntity
  8
0
100
AcDbLine
 62
9
  6
CONTINUOUS
 10
2.4798442798
 20
3.6986541816
 11
2.6798220509
 21
3.6986541816
  0
LINE
  5
2A5
100
AcDbEntity
  8
0
100
AcDbLine
 62
7
  6
CONTINUOUS
 10
3.6051668795
 20
4.5065424833
 11
3.5759242962
 21
4.5234409884
  0
LINE
  5
2A6
100
AcDbEntity
  8
0
100
AcDbLine
 62
7
  6
CONTINUOUS
 10
3.6051489777
 20
4.5544741109
 11
3.575909667
 21
4.5713715698
  0
LINE
  5
2A7
100
AcDbEntity
  8
0
100
AcDbLine
 62
7
  6
CONTINUOUS
 10
3.6051353948
 20
4.602316076
 11
3.5757608065
 21
4.6193002665
  0
LINE
  5
2A8
100
AcDbEntity
  8
0
100
AcDbLine
 62
7
  6
CONTINUOUS
 10
3.641364508
 20
5.1277858953
 11
3.696960014
 21
5.0721903893
  0
LINE
  5
2A9
100
AcDbEntity
  8
0
100
AcDbLine
 62
7
  6
CONTINUOUS
 10
1.9982554194
 20
3.7397358953
 11
2.356239508
 21
3.7397358953
  0
LINE
  5
2AA
100
AcDbEntity
  8
0
100
AcDbLine
 62
7
  6
CONTINUOUS
 10
2.925489508
 20
3.7415803768
 11
3.638489508
 21
3.7415803768
  0
LINE
  5
2AB
100
AcDbEntity
  8
0
100
AcDbLine
 62
7
  6
CONTINUOUS
 10
2.925489508
 20
4.1702914139
 11
3.638489508
 21
4.1702914139
  0
LINE
  5
2AC
100
AcDbEntity
  8
0
100
AcDbLine
 62
7
  6
CONTINUOUS
 10
1.9982589643
 20
4.1721358953
 11
2.356239508
 21
4.1721358953
  0
LINE
  5
2AD
100
AcDbEntity
  8
0
100
AcDbLine
 62
9
  6
CONTINUOUS
 10
2.6798220509
 20
4.213217609
 11
2.4798442798
 21
4.213217609
  0
LINE
  5
2AE
100
AcDbEntity
  8
0
100
AcDbLine
 62
9
  6
CONTINUOUS
 10
2.4798442798
 20
4.2630140698
 11
2.6798220509
 21
4.2630140698
  0
LINE
  5
2AF
100
AcDbEntity
  8
0
100
AcDbLine
 62
7
  6
CONTINUOUS
 10
2.384989508
 20
4.3176108953
 11
2.356239508
 21
4.3176108953
  0
LINE
  5
2B0
100
AcDbEntity
  8
0
100
AcDbLine
 62
7
  6
CONTINUOUS
 10
8.324739508
 20
4.3469358953
 11
3.897239508
 21
4.3469358953
  0
LINE
  5
2B1
100
AcDbEntity
  8
0
100
AcDbLine
 62
7
  6
CONTINUOUS
 10
2.810489508
 20
4.3785608953
 11
2.925489508
 21
4.3785608953
  0
LINE
  5
2B2
100
AcDbEntity
  8
0
100
AcDbLine
 62
7
  6
CONTINUOUS
 10
2.7935912463
 20
4.3919245497
 11
2.7792029518
 21
4.3919245497
  0
LINE
  5
2B3
100
AcDbEntity
  8
0
100
AcDbLine
 62
7
  6
CONTINUOUS
 10
3.897239508
 20
4.4159358953
 11
3.638489508
 21
4.4159358953
  0
LINE
  5
2B4
100
AcDbEntity
  8
0
100
AcDbLine
 62
7
  6
CONTINUOUS
 10
2.7611632781
 20
4.4231233953
 11
2.7540491692
 21
4.4231233953
  0
LINE
  5
2B5
100
AcDbEntity
  8
0
100
AcDbLine
 62
7
  6
CONTINUOUS
 10
2.712739508
 20
4.4504358953
 11
2.741489508
 21
4.4504358953
  0
LINE
  5
2B6
100
AcDbEntity
  8
0
100
AcDbLine
 62
7
  6
CONTINUOUS
 10
2.925489508
 20
4.4734358953
 11
3.0397839588
 21
4.4734358953
  0
LINE
  5
2B7
100
AcDbEntity
  8
0
100
AcDbLine
 62
7
  6
CONTINUOUS
 10
3.5241950573
 20
4.4734358953
 11
3.638489508
 21
4.4734358953
  0
LINE
  5
2B8
100
AcDbEntity
  8
0
100
AcDbLine
 62
9
  6
CONTINUOUS
 10
2.6798220509
 20
4.5202957835
 11
2.4798442798
 21
4.5202957835
  0
LINE
  5
2B9
100
AcDbEntity
  8
0
100
AcDbLine
 62
7
  6
CONTINUOUS
 10
2.6765710878
 20
4.5279993227
 11
2.4830952429
 21
4.5279993227
  0
LINE
  5
2BA
100
AcDbEntity
  8
0
100
AcDbLine
 62
7
  6
CONTINUOUS
 10
3.6413486261
 20
4.6459358953
 11
2.92263039
 21
4.6459358953
  0
LINE
  5
2BB
100
AcDbEntity
  8
0
100
AcDbLine
 62
7
  6
CONTINUOUS
 10
8.352090775
 20
4.5596858953
 11
9.612739508
 21
5.3359358953
  0
LINE
  5
2BC
100
AcDbEntity
  8
0
100
AcDbLine
 62
7
  6
CONTINUOUS
 10
3.6413486261
 20
5.1277858953
 11
2.92263039
 21
5.1277858953
  0
LINE
  5
2BD
100
AcDbEntity
  8
0
100
AcDbLine
 62
7
  6
CONTINUOUS
 10
8.352090775
 20
3.3521858953
 11
9.612739508
 21
2.5759358953
  0
LINE
  5
2BE
100
AcDbEntity
  8
0
100
AcDbLine
 62
7
  6
CONTINUOUS
 10
3.506239508
 20
5.1979358953
 11
3.057739508
 21
5.1979358953
  0
LINE
  5
2BF
100
AcDbEntity
  8
0
100
AcDbLine
 62
7
  6
CONTINUOUS
 10
8.324739508
 20
4.5107236252
 11
8.324739508
 21
3.4011481654
  0
LINE
  5
2C0
100
AcDbEntity
  8
0
100
AcDbLine
 62
9
  6
CONTINUOUS
 10
8.352090775
 20
4.5596858953
 11
8.352090775
 21
3.3521858953
  0
LINE
  5
2C1
100
AcDbEntity
  8
0
100
AcDbLine
 62
7
  6
CONTINUOUS
 10
9.612739508
 20
2.5759358953
 11
9.612739508
 21
5.3359358953
  0
LINE
  5
2C2
100
AcDbEntity
  8
0
100
AcDbLine
 62
7
  6
CONTINUOUS
 10
9.6247990013
 20
5.3163509873
 11
9.6247990013
 21
2.5955208034
  0
LINE
  5
2C3
100
AcDbEntity
  8
0
100
AcDbLine
 62
7
  6
CONTINUOUS
 10
9.612739508
 20
2.5759358953
 11
9.6247990013
 21
2.5955208034
  0
LINE
  5
2C4
100
AcDbEntity
  8
0
100
AcDbLine
 62
7
  6
CONTINUOUS
 10
9.612739508
 20
5.3359358953
 11
9.6247990013
 21
5.3163509873
  0
ARC
  5
2C5
100
AcDbEntity
  8
0
100
AcDbCircle
 62
7
  6
CONTINUOUS
 10
-9.8033472625
 20
3.93769087
 40
12.5765521729
100
AcDbArc
 50
1.4978008219
 51
1.6182816042
  0
ARC
  5
2C6
100
AcDbEntity
  8
0
100
AcDbCircle
 62
7
  6
CONTINUOUS
 10
-8.8517040129
 20
3.9643036757
 40
11.6173475134
100
AcDbArc
 50
1.5499050623
 51
1.6722305872
  0
ARC
  5
2C7
100
AcDbEntity
  8
0
100
AcDbCircle
 62
7
  6
CONTINUOUS
 10
-6.2933506863
 20
3.9944538336
 40
9.0836973464
100
AcDbArc
 50
1.6890496807
 51
1.8435157695
  0
ARC
  5
2C8
100
AcDbEntity
  8
0
100
AcDbCircle
 62
7
  6
CONTINUOUS
 10
-5.251212733
 20
4.0261135997
 40
8.055447481
100
AcDbArc
 50
1.7156589632
 51
1.8865254343
  0
ARC
  5
2C9
100
AcDbEntity
  8
0
100
AcDbCircle
 62
7
  6
CONTINUOUS
 10
-4.9605101633
 20
4.0376154903
 40
7.7070578679
100
AcDbArc
 50
1.7250987844
 51
1.8977245345
  0
ARC
  5
2CA
100
AcDbEntity
  8
0
100
AcDbCircle
 62
7
  6
CONTINUOUS
 10
3.0394558397
 20
3.6151552688
 40
0.9115790344
100
AcDbArc
 50
93.1374368784
 51
93.8246868713
  0
ARC
  5
2CB
100
AcDbEntity
  8
0
100
AcDbCircle
 62
7
  6
CONTINUOUS
 10
2.2374366898
 20
3.4609940644
 40
0.4806220565
100
AcDbArc
 50
22.4425217586
 51
23.0090214946
  0
ARC
  5
2CC
100
AcDbEntity
  8
0
100
AcDbCircle
 62
7
  6
CONTINUOUS
 10
2.4368392928
 20
3.5202168865
 40
0.2718731184
100
AcDbArc
 50
358.2209125225
 51
1.7779701883
  0
ARC
  5
2CD
100
AcDbEntity
  8
0
100
AcDbCircle
 62
7
  6
CONTINUOUS
 10
1.719714508
 20
3.1874876009
 40
0.253
100
AcDbArc
 50
151.4532700444
 51
28.5467299556
  0
ARC
  5
2CE
100
AcDbEntity
  8
0
100
AcDbCircle
 62
7
  6
CONTINUOUS
 10
-3.1708300779
 20
4.0948416825
 40
5.9595634425
100
AcDbArc
 50
1.8446231979
 51
2.1428197088
  0
ARC
  5
2CF
100
AcDbEntity
  8
0
100
AcDbCircle
 62
7
  6
CONTINUOUS
 10
-2.8282490605
 20
4.1066499353
 40
5.6311458702
100
AcDbArc
 50
1.8791140926
 51
2.1000990588
  0
ARC
  5
2D0
100
AcDbEntity
  8
0
100
AcDbCircle
 62
7
  6
CONTINUOUS
 10
3.0385011749
 20
3.6803061534
 40
0.894320781
100
AcDbArc
 50
93.1612997902
 51
93.8756616457
  0
ARC
  5
2D1
100
AcDbEntity
  8
0
100
AcDbCircle
 62
7
  6
CONTINUOUS
 10
1.758022037
 20
3.7544439612
 40
0.3194771248
100
AcDbArc
 50
168.6485583319
 51
171.4322518266
  0
ARC
  5
2D2
100
AcDbEntity
  8
0
100
AcDbCircle
 62
7
  6
CONTINUOUS
 10
1.7548539727
 20
3.7549578488
 40
0.3162679201
100
AcDbArc
 50
168.6269365951
 51
171.4387563365
  0
ARC
  5
2D3
100
AcDbEntity
  8
0
100
AcDbCircle
 62
7
  6
CONTINUOUS
 10
1.6960114612
 20
3.8105799224
 40
0.2695960596
100
AcDbArc
 50
175.6331337098
 51
175.9449699155
  0
ARC
  5
2D4
100
AcDbEntity
  8
0
100
AcDbCircle
 62
7
  6
CONTINUOUS
 10
1.6775019496
 20
3.811853563
 40
0.2510428228
100
AcDbArc
 50
175.9361967757
 51
177.6534053773
  0
ARC
  5
2D5
100
AcDbEntity
  8
0
100
AcDbCircle
 62
7
  6
CONTINUOUS
 10
1.6404438767
 20
3.8134226836
 40
0.2139515851
100
AcDbArc
 50
177.6669254022
 51
179.9443055333
  0
ARC
  5
2D6
100
AcDbEntity
  8
0
100
AcDbCircle
 62
7
  6
CONTINUOUS
 10
1.6056685651
 20
3.813578842
 40
0.17917618
100
AcDbArc
 50
179.9834313667
 51
182.5443679387
  0
ARC
  5
2D7
100
AcDbEntity
  8
0
100
AcDbCircle
 62
7
  6
CONTINUOUS
 10
1.4644771688
 20
3.7835469365
 40
0.0330320085
100
AcDbArc
 50
215.689160119
 51
220.6889265845
  0
ARC
  5
2D8
100
AcDbEntity
  8
0
100
AcDbCircle
 62
7
  6
CONTINUOUS
 10
1.289030008
 20
3.9604188244
 40
0.7401570125
100
AcDbArc
 50
15.014416123
 51
16.634762229
  0
ARC
  5
2D9
100
AcDbEntity
  8
0
100
AcDbCircle
 62
7
  6
CONTINUOUS
 10
1.2898850341
 20
3.9512101404
 40
0.7392682581
100
AcDbArc
 50
343.3455200209
 51
344.9865661872
  0
ARC
  5
2DA
100
AcDbEntity
  8
0
100
AcDbCircle
 62
7
  6
CONTINUOUS
 10
1.2951776036
 20
3.9622480165
 40
0.7337430572
100
AcDbArc
 50
16.6353269516
 51
18.3316535532
  0
ARC
  5
2DB
100
AcDbEntity
  8
0
100
AcDbCircle
 62
7
  6
CONTINUOUS
 10
1.2966284945
 20
3.9491669862
 40
0.732222116
100
AcDbArc
 50
341.6440520708
 51
343.3474584718
  0
ARC
  5
2DC
100
AcDbEntity
  8
0
100
AcDbCircle
 62
7
  6
CONTINUOUS
 10
1.3085925473
 20
3.9667440854
 40
0.7195948088
100
AcDbArc
 50
18.3277779413
 51
23.4241934826
  0
ARC
  5
2DD
100
AcDbEntity
  8
0
100
AcDbCircle
 62
7
  6
CONTINUOUS
 10
1.3124160661
 20
3.943668279
 40
0.7155062342
100
AcDbArc
 50
336.5507560095
 51
341.6638401044
  0
ARC
  5
2DE
100
AcDbEntity
  8
0
100
AcDbCircle
 62
7
  6
CONTINUOUS
 10
1.3320269267
 20
3.9767078215
 40
0.6941308145
100
AcDbArc
 50
23.4385066231
 51
28.5145727168
  0
ARC
  5
2DF
100
AcDbEntity
  8
0
100
AcDbCircle
 62
7
  6
CONTINUOUS
 10
1.3369407841
 20
3.9327690667
 40
0.6886697874
100
AcDbArc
 50
331.4653435237
 51
336.5707066128
  0
ARC
  5
2E0
100
AcDbEntity
  8
0
100
AcDbCircle
 62
7
  6
CONTINUOUS
 10
1.2340031786
 20
3.9577080044
 40
0.2127348671
100
AcDbArc
 50
346.135829829
 51
352.1594006186
  0
ARC
  5
2E1
100
AcDbEntity
  8
0
100
AcDbCircle
 62
7
  6
CONTINUOUS
 10
1.2354963283
 20
3.9544501602
 40
0.2112166188
100
AcDbArc
 50
7.7929847223
 51
13.8858551411
  0
ARC
  5
2E2
100
AcDbEntity
  8
0
100
AcDbCircle
 62
7
  6
CONTINUOUS
 10
1.2409391832
 20
3.9566260211
 40
0.205716141
100
AcDbArc
 50
352.1944035494
 51
352.6396387334
  0
ARC
  5
2E3
100
AcDbEntity
  8
0
100
AcDbCircle
 62
7
  6
CONTINUOUS
 10
1.2424276664
 20
3.9554393147
 40
0.2042151757
100
AcDbArc
 50
6.4352774804
 51
7.7817145631
  0
ARC
  5
2E4
100
AcDbEntity
  8
0
100
AcDbCircle
 62
7
  6
CONTINUOUS
 10
1.2443846575
 20
3.9561937455
 40
0.2022436792
100
AcDbArc
 50
352.636045278
 51
355.2686693093
  0
ARC
  5
2E5
100
AcDbEntity
  8
0
100
AcDbCircle
 62
7
  6
CONTINUOUS
 10
1.246213752
 20
3.9559328489
 40
0.2004004406
100
AcDbArc
 50
358.3589136143
 51
3.9093944151
  0
ARC
  5
2E6
100
AcDbEntity
  8
0
100
AcDbCircle
 62
7
  6
CONTINUOUS
 10
1.2468292384
 20
3.9559192042
 40
0.1997875519
100
AcDbArc
 50
4.6397599376
 51
6.4399996016
  0
ARC
  5
2E7
100
AcDbEntity
  8
0
100
AcDbCircle
 62
7
  6
CONTINUOUS
 10
1.2476413252
 20
3.9558745042
 40
0.1989717828
100
AcDbArc
 50
355.2829325373
 51
358.3639348352
  0
ARC
  5
2E8
100
AcDbEntity
  8
0
100
AcDbCircle
 62
7
  6
CONTINUOUS
 10
1.2484811187
 20
3.956061049
 40
0.1981296111
100
AcDbArc
 50
3.9171111796
 51
4.6375163483
  0
ARC
  5
2E9
100
AcDbEntity
  8
0
100
AcDbCircle
 62
7
  6
CONTINUOUS
 10
1.2918460008
 20
3.9559361955
 40
0.1856841632
100
AcDbArc
 50
353.1978415086
 51
6.7290008452
  0
ARC
  5
2EA
100
AcDbEntity
  8
0
100
AcDbCircle
 62
7
  6
CONTINUOUS
 10
1.5286884278
 20
4.1563908547
 40
0.088287864
100
AcDbArc
 50
161.6121008953
 51
162.5080830843
  0
ARC
  5
2EB
100
AcDbEntity
  8
0
100
AcDbCircle
 62
7
  6
CONTINUOUS
 10
1.5088177866
 20
4.1095492832
 40
0.0814729113
100
AcDbArc
 50
165.1208956071
 51
166.9604487664
  0
ARC
  5
2EC
100
AcDbEntity
  8
0
100
AcDbCircle
 62
7
  6
CONTINUOUS
 10
1.5084215745
 20
4.1096711495
 40
0.081058693
100
AcDbArc
 50
165.1322337592
 51
166.974195054
  0
ARC
  5
2ED
100
AcDbEntity
  8
0
100
AcDbCircle
 62
7
  6
CONTINUOUS
 10
2.1752112648
 20
3.9559532072
 40
0.7654218718
100
AcDbArc
 50
181.0600860935
 51
181.4988729723
  0
ARC
  5
2EE
100
AcDbEntity
  8
0
100
AcDbCircle
 62
7
  6
CONTINUOUS
 10
2.1752100976
 20
3.9559185544
 40
0.7654207051
100
AcDbArc
 50
178.4981081987
 51
178.9379065858
  0
ARC
  5
2EF
100
AcDbEntity
  8
0
100
AcDbCircle
 62
7
  6
CONTINUOUS
 10
2.1743038415
 20
3.9559331859
 40
0.7645143334
100
AcDbArc
 50
178.937744005
 51
181.0602485366
  0
ARC
  5
2F0
100
AcDbEntity
  8
0
100
AcDbCircle
 62
7
  6
CONTINUOUS
 10
2.1708572293
 20
3.9556929154
 40
0.7610625317
100
AcDbArc
 50
181.4878579554
 51
190.4680663884
  0
ARC
  5
2F1
100
AcDbEntity
  8
0
100
AcDbCircle
 62
7
  6
CONTINUOUS
 10
2.168916584
 20
3.9563445334
 40
0.7591182335
100
AcDbArc
 50
166.9351219072
 51
178.5177985658
  0
ARC
  5
2F2
100
AcDbEntity
  8
0
100
AcDbCircle
 62
7
  6
CONTINUOUS
 10
2.1631581984
 20
3.9544367247
 40
0.7532634246
100
AcDbArc
 50
190.4805053779
 51
191.9784655229
  0
ARC
  5
2F3
100
AcDbEntity
  8
0
100
AcDbCircle
 62
7
  6
CONTINUOUS
 10
2.1427384329
 20
3.9491661942
 40
0.7321625688
100
AcDbArc
 50
197.5048577523
 51
198.3501889773
  0
ARC
  5
2F4
100
AcDbEntity
  8
0
100
AcDbCircle
 62
7
  6
CONTINUOUS
 10
2.1420078322
 20
3.9629425786
 40
0.7313945146
100
AcDbArc
 50
161.6367538815
 51
162.4932680641
  0
ARC
  5
2F5
100
AcDbEntity
  8
0
100
AcDbCircle
 62
7
  6
CONTINUOUS
 10
2.1350516814
 20
3.9465902828
 40
0.7240557298
100
AcDbArc
 50
198.3482144317
 51
201.2566239934
  0
ARC
  5
2F6
100
AcDbEntity
  8
0
100
AcDbCircle
 62
7
  6
CONTINUOUS
 10
2.1327677294
 20
3.9661039936
 40
0.7216289659
100
AcDbArc
 50
158.7249178683
 51
161.6438540867
  0
ARC
  5
2F7
100
AcDbEntity
  8
0
100
AcDbCircle
 62
7
  6
CONTINUOUS
 10
2.1220008113
 20
3.9415730565
 40
0.710073791
100
AcDbArc
 50
201.261114697
 51
204.1732543345
  0
ARC
  5
2F8
100
AcDbEntity
  8
0
100
AcDbCircle
 62
7
  6
CONTINUOUS
 10
2.11956449
 20
3.9713193114
 40
0.7074331852
100
AcDbArc
 50
155.8155570931
 51
158.7305181235
  0
ARC
  5
2F9
100
AcDbEntity
  8
0
100
AcDbCircle
 62
7
  6
CONTINUOUS
 10
2.10492413
 20
3.9339352406
 40
0.6913668766
100
AcDbArc
 50
204.1753085168
 51
208.5231298142
  0
ARC
  5
2FA
100
AcDbEntity
  8
0
100
AcDbCircle
 62
7
  6
CONTINUOUS
 10
2.100708346
 20
3.980024987
 40
0.6866655522
100
AcDbArc
 50
151.4620059086
 51
155.8336380879
  0
ARC
  5
2FB
100
AcDbEntity
  8
0
100
AcDbCircle
 62
7
  6
CONTINUOUS
 10
2.1950880651
 20
3.952344145
 40
0.214731098
100
AcDbArc
 50
163.680729629
 51
168.9665893759
  0
ARC
  5
2FC
100
AcDbEntity
  8
0
100
AcDbCircle
 62
7
  6
CONTINUOUS
 10
2.1949717174
 20
3.9595439587
 40
0.2146239888
100
AcDbArc
 50
192.7496809383
 51
196.3322197878
  0
ARC
  5
2FD
100
AcDbEntity
  8
0
100
AcDbCircle
 62
7
  6
CONTINUOUS
 10
2.1945602182
 20
3.9524715202
 40
0.2141886315
100
AcDbArc
 50
163.6737514963
 51
168.9730098844
  0
ARC
  5
2FE
100
AcDbEntity
  8
0
100
AcDbCircle
 62
7
  6
CONTINUOUS
 10
2.1933210412
 20
3.9591322815
 40
0.2129243134
100
AcDbArc
 50
192.7397999823
 51
196.3508129493
  0
ARC
  5
2FF
100
AcDbEntity
  8
0
100
AcDbCircle
 62
7
  6
CONTINUOUS
 10
2.1871183031
 20
3.9577252455
 40
0.2065639919
100
AcDbArc
 50
190.9892256927
 51
192.7385391403
  0
ARC
  5
300
100
AcDbEntity
  8
0
100
AcDbCircle
 62
7
  6
CONTINUOUS
 10
2.1845455663
 20
3.9572224066
 40
0.2039425779
100
AcDbArc
 50
189.8618774909
 51
190.9883289271
  0
ARC
  5
301
100
AcDbEntity
  8
0
100
AcDbCircle
 62
7
  6
CONTINUOUS
 10
2.1841161
 20
3.9571811673
 40
0.2035131347
100
AcDbArc
 50
189.8711372757
 51
190.9999769061
  0
ARC
  5
302
100
AcDbEntity
  8
0
100
AcDbCircle
 62
7
  6
CONTINUOUS
 10
2.1836357658
 20
3.9570640429
 40
0.2030190976
100
AcDbArc
 50
189.1780351545
 51
189.8618213913
  0
ARC
  5
303
100
AcDbEntity
  8
0
100
AcDbCircle
 62
7
  6
CONTINUOUS
 10
2.1829192776
 20
3.9569726155
 40
0.2022982776
100
AcDbArc
 50
189.1848139806
 51
189.8710552176
  0
ARC
  5
304
100
AcDbEntity
  8
0
100
AcDbCircle
 62
7
  6
CONTINUOUS
 10
2.1824821621
 20
3.956879358
 40
0.2018508053
100
AcDbArc
 50
188.0332500482
 51
189.1785127356
  0
ARC
  5
305
100
AcDbEntity
  8
0
100
AcDbCircle
 62
7
  6
CONTINUOUS
 10
2.1821288552
 20
3.955073384
 40
0.2014892017
100
AcDbArc
 50
169.023074861
 51
174.4986142443
  0
ARC
  5
306
100
AcDbEntity
  8
0
100
AcDbCircle
 62
7
  6
CONTINUOUS
 10
2.1815300141
 20
3.9551600942
 40
0.2008848078
100
AcDbArc
 50
169.014831325
 51
174.5068570055
  0
ARC
  5
307
100
AcDbEntity
  8
0
100
AcDbCircle
 62
7
  6
CONTINUOUS
 10
2.181445387
 20
3.9567364529
 40
0.2008055881
100
AcDbArc
 50
188.0328018014
 51
189.1854209076
  0
ARC
  5
308
100
AcDbEntity
  8
0
100
AcDbCircle
 62
7
  6
CONTINUOUS
 10
2.1812030531
 20
3.9566972494
 40
0.2005587987
100
AcDbArc
 50
187.3353700236
 51
188.0328018014
  0
ARC
  5
309
100
AcDbEntity
  8
0
100
AcDbCircle
 62
7
  6
CONTINUOUS
 10
2.1799227247
 20
3.9565336705
 40
0.1992680634
100
AcDbArc
 50
186.3297072674
 51
187.3357231816
  0
ARC
  5
30A
100
AcDbEntity
  8
0
100
AcDbCircle
 62
7
  6
CONTINUOUS
 10
2.1798480505
 20
3.9565089753
 40
0.1991921366
100
AcDbArc
 50
187.3357231816
 51
188.0335871432
  0
ARC
  5
30B
100
AcDbEntity
  8
0
100
AcDbCircle
 62
7
  6
CONTINUOUS
 10
2.1784573912
 20
3.9563704209
 40
0.1977936645
100
AcDbArc
 50
185.5062507091
 51
186.3295039573
  0
ARC
  5
30C
100
AcDbEntity
  8
0
100
AcDbCircle
 62
7
  6
CONTINUOUS
 10
2.1782794144
 20
3.9563086663
 40
0.1976107635
100
AcDbArc
 50
186.3295039573
 51
187.3317725193
  0
ARC
  5
30D
100
AcDbEntity
  8
0
100
AcDbCircle
 62
7
  6
CONTINUOUS
 10
2.1765118853
 20
3.9561121095
 40
0.1958323393
100
AcDbArc
 50
185.4856408797
 51
186.3171176037
  0
ARC
  5
30E
100
AcDbEntity
  8
0
100
AcDbCircle
 62
7
  6
CONTINUOUS
 10
2.1750974734
 20
3.9558895209
 40
0.1944120132
100
AcDbArc
 50
174.5393672637
 51
179.9863328408
  0
ARC
  5
30F
100
AcDbEntity
  8
0
100
AcDbCircle
 62
7
  6
CONTINUOUS
 10
2.1745504857
 20
3.9559562023
 40
0.193865021
100
AcDbArc
 50
180.0060016286
 51
185.4951897501
  0
ARC
  5
310
100
AcDbEntity
  8
0
100
AcDbCircle
 62
7
  6
CONTINUOUS
 10
2.1724331419
 20
3.9560168749
 40
0.191747696
100
AcDbArc
 50
174.5014883722
 51
180.0241944227
  0
ARC
  5
311
100
AcDbEntity
  8
0
100
AcDbCircle
 62
7
  6
CONTINUOUS
 10
2.1705056689
 20
3.9557616655
 40
0.1898202858
100
AcDbArc
 50
179.9474071264
 51
185.5536568012
  0
ARC
  5
312
100
AcDbEntity
  8
0
100
AcDbCircle
 62
7
  6
CONTINUOUS
 10
2.2349691028
 20
4.4519112446
 40
0.4832973082
100
AcDbArc
 50
336.9925464272
 51
337.5559129051
  0
ARC
  5
313
100
AcDbEntity
  8
0
100
AcDbCircle
 62
7
  6
CONTINUOUS
 10
1.719714508
 20
4.7243841898
 40
0.253
100
AcDbArc
 50
331.4532700444
 51
208.5467299556
  0
ARC
  5
314
100
AcDbEntity
  8
0
100
AcDbCircle
 62
7
  6
CONTINUOUS
 10
2.9708344242
 20
4.7364267365
 40
0.0904908704
100
AcDbArc
 50
263.1529539948
 51
269.9539082298
  0
ARC
  5
315
100
AcDbEntity
  8
0
100
AcDbCircle
 62
7
  6
CONTINUOUS
 10
16.3544769595
 20
4.051574714
 40
13.6172502914
100
AcDbArc
 50
181.4336901351
 51
181.7091266191
  0
ARC
  5
316
100
AcDbEntity
  8
0
100
AcDbCircle
 62
7
  6
CONTINUOUS
 10
15.382524388
 20
3.9752686229
 40
12.6118166819
100
AcDbArc
 50
181.4981741666
 51
181.6215633183
  0
ARC
  5
317
100
AcDbEntity
  8
0
100
AcDbCircle
 62
7
  6
CONTINUOUS
 10
11.2545584433
 20
3.8982957894
 40
8.4575561135
100
AcDbArc
 50
181.7133579501
 51
181.8628378537
  0
ARC
  5
318
100
AcDbEntity
  8
0
100
AcDbCircle
 62
7
  6
CONTINUOUS
 10
10.9868872981
 20
3.8915077765
 40
8.2472743505
100
AcDbArc
 50
181.717041782
 51
181.8841003831
  0
ARC
  5
319
100
AcDbEntity
  8
0
100
AcDbCircle
 62
7
  6
CONTINUOUS
 10
10.3036723516
 20
3.8691219911
 40
7.5493251317
100
AcDbArc
 50
181.7882154506
 51
181.9641348402
  0
ARC
  5
31A
100
AcDbEntity
  8
0
100
AcDbCircle
 62
7
  6
CONTINUOUS
 10
8.5201717487
 20
3.809642134
 40
5.7792008421
100
AcDbArc
 50
181.8769509815
 51
182.0931822943
  0
ARC
  5
31B
100
AcDbEntity
  8
0
100
AcDbCircle
 62
7
  6
CONTINUOUS
 10
7.9346666317
 20
3.7882627268
 40
5.1789399083
100
AcDbArc
 50
181.9683756176
 51
182.1994071041
  0
ARC
  5
31C
100
AcDbEntity
  8
0
100
AcDbCircle
 62
7
  6
CONTINUOUS
 10
3.5423939991
 20
3.5912817194
 40
0.739058834
100
AcDbArc
 50
183.1919237532
 51
184.108153939
  0
ARC
  5
31D
100
AcDbEntity
  8
0
100
AcDbCircle
 62
7
  6
CONTINUOUS
 10
8.382239508
 20
3.4011481654
 40
0.0575
100
AcDbArc
 50
180.0
 51
238.3771329645
  0
ARC
  5
31E
100
AcDbEntity
  8
0
100
AcDbCircle
 62
7
  6
CONTINUOUS
 10
3.5251549615
 20
5.4484795022
 40
0.8990352104
100
AcDbArc
 50
273.1671429217
 51
273.8759027829
  0
ARC
  5
31F
100
AcDbEntity
  8
0
100
AcDbCircle
 62
7
  6
CONTINUOUS
 10
3.5339680192
 20
5.3956418922
 40
0.7582836453
100
AcDbArc
 50
273.3199375831
 51
273.9507837931
  0
ARC
  5
320
100
AcDbEntity
  8
0
100
AcDbCircle
 62
7
  6
CONTINUOUS
 10
3.5593162433
 20
5.0348948323
 40
0.3966476186
100
AcDbArc
 50
273.8882839131
 51
274.8838641603
  0
ARC
  5
321
100
AcDbEntity
  8
0
100
AcDbCircle
 62
7
  6
CONTINUOUS
 10
3.5904651622
 20
4.7505593121
 40
0.1048937402
100
AcDbArc
 50
283.4290018785
 51
289.7398171714
  0
ARC
  5
322
100
AcDbEntity
  8
0
100
AcDbCircle
 62
7
  6
CONTINUOUS
 10
3.5923401991
 20
4.7425670925
 40
0.0966845865
100
AcDbArc
 50
278.1148422071
 51
283.4481695417
  0
ARC
  5
323
100
AcDbEntity
  8
0
100
AcDbCircle
 62
7
  6
CONTINUOUS
 10
3.5927868701
 20
4.7395945225
 40
0.0936787322
100
AcDbArc
 50
277.2156071897
 51
278.1010211757
  0
ARC
  5
324
100
AcDbEntity
  8
0
100
AcDbCircle
 62
7
  6
CONTINUOUS
 10
3.5931918012
 20
4.7357156494
 40
0.0897797577
100
AcDbArc
 50
270.0163287279
 51
277.2701562244
  0
ARC
  5
325
100
AcDbEntity
  8
0
100
AcDbCircle
 62
7
  6
CONTINUOUS
 10
8.382239508
 20
4.5107236252
 40
0.0575
100
AcDbArc
 50
121.6228670355
 51
180.0
  0
SPLINE
  5
326
100
AcDbEntity
  8
0
100
AcDbSpline
 62
7
  6
CONTINUOUS
 70
0
 71
3
 72
21
 73
17
 74
0
 42
0.0000001
 43
0.0000001
 44
0.0000000001
 40
0.0
 40
0.0
 40
0.0
 40
0.0
 40
0.1283573461
 40
0.1915367313
 40
0.2540930442
 40
0.3161013256
 40
0.3776635895
 40
0.4389114898
 40
0.4999999972
 40
0.5610885034
 40
0.6223364017
 40
0.6838986646
 40
0.7459069448
 40
0.8084632581
 40
0.8716426471
 40
1.0
 40
1.0
 40
1.0
 40
1.0
 10
2.4798442798
 20
3.6488577209
 30
0.0
 10
2.4754049043
 20
3.6384025927
 30
0.0
 10
2.4693166966
 20
3.6225593878
 30
0.0
 10
2.4626342356
 20
3.6010835483
 30
0.0
 10
2.4584592126
 20
3.5849954772
 30
0.0
 10
2.455144991
 20
3.5688538539
 30
0.0
 10
2.4527341065
 20
3.5526687385
 30
0.0
 10
2.4512767401
 20
3.5364509482
 30
0.0
 10
2.4507926423
 20
3.520216865
 30
0.0
 10
2.4512767378
 20
3.5039827819
 30
0.0
 10
2.4527341085
 20
3.4877649923
 30
0.0
 10
2.455144992
 20
3.4715798772
 30
0.0
 10
2.4584592112
 20
3.4554382535
 30
0.0
 10
2.4626342359
 20
3.4393501826
 30
0.0
 10
2.4693166976
 20
3.4178743424
 30
0.0
 10
2.475404904
 20
3.4020311359
 30
0.0
 10
2.4798442798
 20
3.3915760072
 30
0.0
  0
SPLINE
  5
327
100
AcDbEntity
  8
0
100
AcDbSpline
 62
7
  6
CONTINUOUS
 70
0
 71
3
 72
14
 73
10
 74
0
 42
0.0000001
 43
0.0000001
 44
0.0000000001
 40
0.0
 40
0.0
 40
0.0
 40
0.0
 40
0.2564864327
 40
0.3828549688
 40
0.5080384814
 40
0.6321575543
 40
0.75537572
 40
0.8779039809
 40
1.0
 40
1.0
 40
1.0
 40
1.0
 10
2.6798220509
 20
3.3915760072
 30
0.0
 10
2.6839755328
 20
3.40135783
 30
0.0
 10
2.689705296
 20
3.416169968
 30
0.0
 10
2.6961065658
 20
3.4362279911
 30
0.0
 10
2.7001859284
 20
3.4512551187
 30
0.0
 10
2.7035228613
 20
3.466331049
 30
0.0
 10
2.7060824771
 20
3.4814475674
 30
0.0
 10
2.707826797
 20
3.4965956441
 30
0.0
 10
2.7084242624
 20
3.5067199128
 30
0.0
 10
2.7085813571
 20
3.5117763287
 30
0.0
  0
SPLINE
  5
328
100
AcDbEntity
  8
0
100
AcDbSpline
 62
7
  6
CONTINUOUS
 70
0
 71
3
 72
11
 73
7
 74
0
 42
0.0000001
 43
0.0000001
 44
0.0000000001
 40
0.0
 40
0.0
 40
0.0
 40
0.0
 40
0.2468235068
 40
0.4951929179
 40
0.7460327946
 40
1.0
 40
1.0
 40
1.0
 40
1.0
 10
2.7085815216
 20
3.5286521452
 30
0.0
 10
2.708359531
 20
3.5358018531
 30
0.0
 10
2.7073444864
 20
3.5501347137
 30
0.0
 10
2.7041449772
 20
3.5715368238
 30
0.0
 10
2.6993807007
 20
3.5928554225
 30
0.0
 10
2.6952549423
 20
3.6069027661
 30
0.0
 10
2.6929768928
 20
3.613901537
 30
0.0
  0
SPLINE
  5
329
100
AcDbEntity
  8
0
100
AcDbSpline
 62
7
  6
CONTINUOUS
 70
0
 71
3
 72
9
 73
5
 74
0
 42
0.0000001
 43
0.0000001
 44
0.0000000001
 40
0.0
 40
0.0
 40
0.0
 40
0.0
 40
0.2481082668
 40
1.0
 40
1.0
 40
1.0
 40
1.0
 10
2.6929768928
 20
3.613901537
 30
0.0
 10
2.6921422717
 20
3.6164657141
 30
0.0
 10
2.6886686294
 20
3.6267647886
 30
0.0
 10
2.6847774732
 20
3.6369214888
 30
0.0
 10
2.681657859
 20
3.6444746192
 30
0.0
  0
SPLINE
  5
32A
100
AcDbEntity
  8
0
100
AcDbSpline
 62
7
  6
CONTINUOUS
 70
0
 71
3
 72
15
 73
11
 74
0
 42
0.0000001
 43
0.0000001
 44
0.0000000001
 40
0.0
 40
0.0
 40
0.0
 40
0.0
 40
0.0864409144
 40
0.186683884
 40
0.2999578748
 40
0.4249711727
 40
0.5598588265
 40
0.7025449065
 40
0.8503068742
 40
1.0
 40
1.0
 40
1.0
 40
1.0
 10
2.6798220509
 20
3.6488577209
 30
0.0
 10
2.6792544931
 20
3.6501943705
 30
0.0
 10
2.678281957
 20
3.6531890686
 30
0.0
 10
2.6772914525
 20
3.6581372467
 30
0.0
 10
2.6766915772
 20
3.6637996732
 30
0.0
 10
2.6765033158
 20
3.67007067
 30
0.0
 10
2.6767232707
 20
3.6768342225
 30
0.0
 10
2.6773554043
 20
3.6839549841
 30
0.0
 10
2.6783775689
 20
3.6912808196
 30
0.0
 10
2.6792997937
 20
3.696194256
 30
0.0
 10
2.6798220509
 20
3.6986541816
 30
0.0
  0
SPLINE
  5
32B
100
AcDbEntity
  8
0
100
AcDbSpline
 62
7
  6
CONTINUOUS
 70
0
 71
3
 72
21
 73
17
 74
0
 42
0.0000001
 43
0.0000001
 44
0.0000000001
 40
0.0
 40
0.0
 40
0.0
 40
0.0
 40
0.1249829181
 40
0.1874839035
 40
0.2499875874
 40
0.3124911226
 40
0.3749920796
 40
0.4374943671
 40
0.4999999964
 40
0.5625056246
 40
0.6250079094
 40
0.6875088655
 40
0.7500124005
 40
0.8125160841
 40
0.8750170733
 40
1.0
 40
1.0
 40
1.0
 40
1.0
 10
2.6798220509
 20
3.6986541816
 30
0.0
 10
2.6843102196
 20
3.7197942624
 30
0.0
 10
2.690414735
 20
3.751646602
 30
0.0
 10
2.6970549564
 20
3.7943632046
 30
0.0
 10
2.7012235101
 20
3.8265207582
 30
0.0
 10
2.7045314839
 20
3.8587782978
 30
0.0
 10
2.7069369939
 20
3.8911159188
 30
0.0
 10
2.7083905985
 20
3.9235110005
 30
0.0
 10
2.708873399
 20
3.9559358934
 30
0.0
 10
2.7083906017
 20
3.988360786
 30
0.0
 10
2.7069369936
 20
4.0207558668
 30
0.0
 10
2.704531486
 20
4.0530934872
 30
0.0
 10
2.7012235156
 20
4.085351027
 30
0.0
 10
2.6970549598
 20
4.1175085808
 30
0.0
 10
2.6904147355
 20
4.1602251851
 30
0.0
 10
2.6843102199
 20
4.1920775268
 30
0.0
 10
2.6798220509
 20
4.213217609
 30
0.0
  0
SPLINE
  5
32C
100
AcDbEntity
  8
0
100
AcDbSpline
 62
7
  6
CONTINUOUS
 70
0
 71
3
 72
15
 73
11
 74
0
 42
0.0000001
 43
0.0000001
 44
0.0000000001
 40
0.0
 40
0.0
 40
0.0
 40
0.0
 40
0.1496935588
 40
0.2974566007
 40
0.4401438756
 40
0.5750316681
 40
0.700044365
 40
0.813317524
 40
0.9135595224
 40
1.0
 40
1.0
 40
1.0
 40
1.0
 10
2.6798220509
 20
4.213217609
 30
0.0
 10
2.6792997921
 20
4.215677542
 30
0.0
 10
2.6783775757
 20
4.2205910064
 30
0.0
 10
2.6773554328
 20
4.2279168909
 30
0.0
 10
2.6767232882
 20
4.2350376923
 30
0.0
 10
2.676503316
 20
4.241801257
 30
0.0
 10
2.6766915629
 20
4.2480722328
 30
0.0
 10
2.6772914219
 20
4.2537346214
 30
0.0
 10
2.678281948
 20
4.2586827586
 30
0.0
 10
2.679254496
 20
4.2616774268
 30
0.0
 10
2.6798220509
 20
4.2630140698
 30
0.0
  0
SPLINE
  5
32D
100
AcDbEntity
  8
0
100
AcDbSpline
 62
7
  6
CONTINUOUS
 70
0
 71
3
 72
15
 73
11
 74
0
 42
0.0000001
 43
0.0000001
 44
0.0000000001
 40
0.0
 40
0.0
 40
0.0
 40
0.0
 40
0.1291931726
 40
0.2567975978
 40
0.3828974069
 40
0.507671996
 40
0.631385786
 40
0.7543951204
 40
0.877122546
 40
1.0
 40
1.0
 40
1.0
 40
1.0
 10
2.6816578673
 20
4.2673971916
 30
0.0
 10
2.6841791965
 20
4.2735017704
 30
0.0
 10
2.6889382008
 20
4.285742598
 30
0.0
 10
2.6951599138
 20
4.3043108904
 30
0.0
 10
2.7003223298
 20
4.3229692235
 30
0.0
 10
2.7043379622
 20
4.3417057013
 30
0.0
 10
2.7071410268
 20
4.3605036562
 30
0.0
 10
2.7086521479
 20
4.379345949
 30
0.0
 10
2.7088512626
 20
4.3982040625
 30
0.0
 10
2.7081134734
 20
4.4107503148
 30
0.0
 10
2.7075290514
 20
4.4170049605
 30
0.0
  0
SPLINE
  5
32E
100
AcDbEntity
  8
0
100
AcDbSpline
 62
7
  6
CONTINUOUS
 70
0
 71
3
 72
11
 73
7
 74
0
 42
0.0000001
 43
0.0000001
 44
0.0000000001
 40
0.0
 40
0.0
 40
0.0
 40
0.0
 40
0.2447508411
 40
0.4924674939
 40
0.7440690297
 40
1.0
 40
1.0
 40
1.0
 40
1.0
 10
2.7075290514
 20
4.4170049605
 30
0.0
 10
2.7067143086
 20
4.4257245637
 30
0.0
 10
2.7042310984
 20
4.443199633
 30
0.0
 10
2.6981975653
 20
4.4691604642
 30
0.0
 10
2.6900334906
 20
4.4949465967
 30
0.0
 10
2.6834012028
 20
4.5118665594
 30
0.0
 10
2.6798220509
 20
4.5202957835
 30
0.0
  0
SPLINE
  5
32F
100
AcDbEntity
  8
0
100
AcDbSpline
 62
7
  6
CONTINUOUS
 70
0
 71
3
 72
18
 73
14
 74
0
 42
0.0000001
 43
0.0000001
 44
0.0000000001
 40
0.0
 40
0.0
 40
0.0
 40
0.0
 40
0.1124047951
 40
0.1692719467
 40
0.2268058861
 40
0.2851614116
 40
0.3444736373
 40
0.4663444161
 40
0.5290592759
 40
0.5929654164
 40
0.7242614458
 40
0.8600744965
 40
1.0
 40
1.0
 40
1.0
 40
1.0
 10
3.5932173875
 20
5.1277858953
 30
0.0
 10
3.588693245
 20
5.1277858953
 30
0.0
 10
3.5818674038
 20
5.1272553223
 30
0.0
 10
3.5728915525
 20
5.125566929
 30
0.0
 10
3.5661577941
 20
5.123810261
 30
0.0
 10
3.5594629512
 20
5.1215799802
 30
0.0
 10
3.5505208871
 20
5.1179620179
 30
0.0
 10
3.5417560365
 20
5.1134930826
 30
0.0
 10
3.5331897719
 20
5.1083270501
 30
0.0
 10
3.5245399941
 20
5.1025818571
 30
0.0
 10
3.5138920341
 20
5.0945529509
 30
0.0
 10
3.5014729194
 20
5.0838554139
 30
0.0
 10
3.493457055
 20
5.0761726833
 30
0.0
 10
3.489474761
 20
5.0721903893
 30
0.0
  0
SPLINE
  5
330
100
AcDbEntity
  8
0
100
AcDbSpline
 62
7
  6
CONTINUOUS
 70
0
 71
3
 72
15
 73
11
 74
0
 42
0.0000001
 43
0.0000001
 44
0.0000000001
 40
0.0
 40
0.0
 40
0.0
 40
0.0
 40
0.2498740626
 40
0.3748666981
 40
0.4998884333
 40
0.6248926182
 40
0.687409922
 40
0.7499535925
 40
0.8750360981
 40
1.0
 40
1.0
 40
1.0
 40
1.0
 10
3.074504255
 20
4.7015314013
 30
0.0
 10
3.0906520957
 20
4.693457481
 30
0.0
 10
3.1153173749
 20
4.6821721615
 30
0.0
 10
3.1491360327
 20
4.6694563761
 30
0.0
 10
3.1749756417
 20
4.661256026
 30
0.0
 10
3.1968795214
 20
4.6556991113
 30
0.0
 10
3.2145925758
 20
4.6521212972
 30
0.0
 10
3.2324242608
 20
4.6491563025
 30
0.0
 10
3.2548879279
 20
4.6466321939
 30
0.0
 10
3.2729606492
 20
4.6459358953
 30
0.0
 10
3.281989508
 20
4.6459358953
 30
0.0
  0
SPLINE
  5
331
100
AcDbEntity
  8
0
100
AcDbSpline
 62
7
  6
CONTINUOUS
 70
0
 71
3
 72
15
 73
11
 74
0
 42
0.0000001
 43
0.0000001
 44
0.0000000001
 40
0.0
 40
0.0
 40
0.0
 40
0.0
 40
0.1249639143
 40
0.2500464654
 40
0.3125901684
 40
0.3751074871
 40
0.5001116446
 40
0.6251333378
 40
0.7501259544
 40
1.0
 40
1.0
 40
1.0
 40
1.0
 10
3.281989508
 20
5.1277858953
 30
0.0
 10
3.2729606483
 20
5.1277858953
 30
0.0
 10
3.2548879228
 20
5.1270895923
 30
0.0
 10
3.2324242501
 20
5.1245654784
 30
0.0
 10
3.2145925574
 20
5.1216004899
 30
0.0
 10
3.1968795004
 20
5.1180226813
 30
0.0
 10
3.1749756247
 20
5.1124657659
 30
0.0
 10
3.1491360242
 20
5.1042654104
 30
0.0
 10
3.1153173729
 20
5.0915496243
 30
0.0
 10
3.0906520946
 20
5.0802643091
 30
0.0
 10
3.074504255
 20
5.0721903893
 30
0.0
  0
SPLINE
  5
332
100
AcDbEntity
  8
0
100
AcDbSpline
 62
7
  6
CONTINUOUS
 70
0
 71
3
 72
15
 73
11
 74
0
 42
0.0000001
 43
0.0000001
 44
0.0000000001
 40
0.0
 40
0.0
 40
0.0
 40
0.0
 40
0.2498740614
 40
0.3748666962
 40
0.49988843
 40
0.6248926138
 40
0.6874099182
 40
0.74995359
 40
0.8750360974
 40
1.0
 40
1.0
 40
1.0
 40
1.0
 10
3.489474761
 20
5.0721903893
 30
0.0
 10
3.4733269204
 20
5.0802643097
 30
0.0
 10
3.4486616413
 20
5.0915496292
 30
0.0
 10
3.414842984
 20
5.1042654154
 30
0.0
 10
3.3890033756
 20
5.1124657666
 30
0.0
 10
3.367099496
 20
5.1180226818
 30
0.0
 10
3.3493864414
 20
5.1216004955
 30
0.0
 10
3.331554756
 20
5.1245654895
 30
0.0
 10
3.3090910885
 20
5.1270895971
 30
0.0
 10
3.2910183669
 20
5.1277858953
 30
0.0
 10
3.281989508
 20
5.1277858953
 30
0.0
  0
SPLINE
  5
333
100
AcDbEntity
  8
0
100
AcDbSpline
 62
7
  6
CONTINUOUS
 70
0
 71
3
 72
15
 73
11
 74
0
 42
0.0000001
 43
0.0000001
 44
0.0000000001
 40
0.0
 40
0.0
 40
0.0
 40
0.0
 40
0.1249649929
 40
0.2500493156
 40
0.312593623
 40
0.3751104753
 40
0.5001106951
 40
0.6251269697
 40
0.750118611
 40
1.0
 40
1.0
 40
1.0
 40
1.0
 10
3.281989508
 20
4.6459358953
 30
0.0
 10
3.291018446
 20
4.6459358953
 30
0.0
 10
3.3090913779
 20
4.6466323621
 30
0.0
 10
3.331555272
 20
4.6491566538
 30
0.0
 10
3.3493871384
 20
4.6521214321
 30
0.0
 10
3.3670999704
 20
4.6556989777
 30
0.0
 10
3.3890031669
 20
4.6612557068
 30
0.0
 10
3.4148420254
 20
4.669455934
 30
0.0
 10
3.4486607063
 20
4.6821718314
 30
0.0
 10
3.4733264464
 20
4.693457244
 30
0.0
 10
3.489474761
 20
4.7015314013
 30
0.0
  0
SPLINE
  5
334
100
AcDbEntity
  8
0
100
AcDbSpline
 62
7
  6
CONTINUOUS
 70
0
 71
3
 72
18
 73
14
 74
0
 42
0.0000001
 43
0.0000001
 44
0.0000000001
 40
0.0
 40
0.0
 40
0.0
 40
0.0
 40
0.1399287605
 40
0.2757464064
 40
0.4070415845
 40
0.4709450862
 40
0.5336573754
 40
0.6555242035
 40
0.7148356583
 40
0.7731914455
 40
0.8307261483
 40
0.8875941769
 40
1.0
 40
1.0
 40
1.0
 40
1.0
 10
3.489474761
 20
4.7015314013
 30
0.0
 10
3.4934571476
 20
4.6975490147
 30
0.0
 10
3.5014732737
 20
4.6898661001
 30
0.0
 10
3.5138926141
 20
4.6791683961
 30
0.0
 10
3.5245405842
 20
4.6711394317
 30
0.0
 10
3.5331901366
 20
4.6653943409
 30
0.0
 10
3.5417560586
 20
4.660228456
 30
0.0
 10
3.5505206556
 20
4.6557596565
 30
0.0
 10
3.5594626263
 20
4.6521419356
 30
0.0
 10
3.5661575292
 20
4.6499118102
 30
0.0
 10
3.5728913553
 20
4.6481551113
 30
0.0
 10
3.5818672897
 20
4.6464665934
 30
0.0
 10
3.5886932038
 20
4.6459358953
 30
0.0
 10
3.5932173875
 20
4.6459358953
 30
0.0
  0
SPLINE
  5
335
100
AcDbEntity
  8
0
100
AcDbSpline
 62
7
  6
CONTINUOUS
 70
0
 71
3
 72
9
 73
5
 74
0
 42
0.0000001
 43
0.0000001
 44
0.0000000001
 40
0.0
 40
0.0
 40
0.0
 40
0.0
 40
0.2443520185
 40
1.0
 40
1.0
 40
1.0
 40
1.0
 10
3.6258929645
 20
4.6518295418
 30
0.0
 10
3.6278109336
 20
4.6525147696
 30
0.0
 10
3.6355830503
 20
4.6555341742
 30
0.0
 10
3.6430344032
 20
4.6593485534
 30
0.0
 10
3.6484642032
 20
4.6625402847
 30
0.0
  0
SPLINE
  5
336
100
AcDbEntity
  8
0
100
AcDbSpline
 62
7
  6
CONTINUOUS
 70
0
 71
3
 72
11
 73
7
 74
0
 42
0.0000001
 43
0.0000001
 44
0.0000000001
 40
0.0
 40
0.0
 40
0.0
 40
0.0
 40
0.2377263177
 40
0.483932243
 40
0.7382700515
 40
1.0
 40
1.0
 40
1.0
 40
1.0
 10
3.6484642032
 20
4.6625402847
 30
0.0
 10
3.6527256836
 20
4.6650452572
 30
0.0
 10
3.6611695163
 20
4.6705440548
 30
0.0
 10
3.6733806177
 20
4.6798650907
 30
0.0
 10
3.6853666817
 20
4.6902494766
 30
0.0
 10
3.69311172
 20
4.6976831073
 30
0.0
 10
3.696960014
 20
4.7015314013
 30
0.0
  0
SPLINE
  5
337
100
AcDbEntity
  8
0
100
AcDbSpline
 62
7
  6
CONTINUOUS
 70
0
 71
3
 72
18
 73
14
 74
0
 42
0.0000001
 43
0.0000001
 44
0.0000000001
 40
0.0
 40
0.0
 40
0.0
 40
0.0
 40
0.1124058341
 40
0.1692738779
 40
0.2268085991
 40
0.2851644025
 40
0.3444758602
 40
0.4663426656
 40
0.5290549407
 40
0.5929584322
 40
0.724253601
 40
0.8600712422
 40
1.0
 40
1.0
 40
1.0
 40
1.0
 10
2.9707616286
 20
4.6459358953
 30
0.0
 10
2.9752858127
 20
4.6459358953
 30
0.0
 10
2.9821117277
 20
4.646466596
 30
0.0
 10
2.9910876634
 20
4.6481551163
 30
0.0
 10
2.9978214914
 20
4.6499118159
 30
0.0
 10
3.004516397
 20
4.6521419377
 30
0.0
 10
3.0134583691
 20
4.6557596547
 30
0.0
 10
3.0222229645
 20
4.6602284549
 30
0.0
 10
3.0307888834
 20
4.6653943412
 30
0.0
 10
3.039438433
 20
4.6711394337
 30
0.0
 10
3.0500864016
 20
4.6791683983
 30
0.0
 10
3.0625057422
 20
4.6898661009
 30
0.0
 10
3.0705218686
 20
4.6975490148
 30
0.0
 10
3.074504255
 20
4.7015314013
 30
0.0
  0
SPLINE
  5
338
100
AcDbEntity
  8
0
100
AcDbSpline
 62
7
  6
CONTINUOUS
 70
0
 71
3
 72
10
 73
6
 74
0
 42
0.0000001
 43
0.0000001
 44
0.0000000001
 40
0.0
 40
0.0
 40
0.0
 40
0.0
 40
0.2463128423
 40
0.4943388645
 40
1.0
 40
1.0
 40
1.0
 40
1.0
 10
2.9707616286
 20
5.1277858953
 30
0.0
 10
2.9680346843
 20
5.1277858953
 30
0.0
 10
2.9625581598
 20
5.1275302263
 30
0.0
 10
2.9515800384
 20
5.1260226206
 30
0.0
 10
2.9434823929
 20
5.1238133999
 30
0.0
 10
2.9382084005
 20
5.1219359284
 30
0.0
  0
SPLINE
  5
339
100
AcDbEntity
  8
0
100
AcDbSpline
 62
7
  6
CONTINUOUS
 70
0
 71
3
 72
9
 73
5
 74
0
 42
0.0000001
 43
0.0000001
 44
0.0000000001
 40
0.0
 40
0.0
 40
0.0
 40
0.0
 40
0.2442376422
 40
1.0
 40
1.0
 40
1.0
 40
1.0
 10
2.9382084005
 20
5.1219359284
 30
0.0
 10
2.9362521778
 20
5.121239539
 30
0.0
 10
2.9283227
 20
5.118164076
 30
0.0
 10
2.920726834
 20
5.1142615935
 30
0.0
 10
2.9151950271
 20
5.1109928194
 30
0.0
  0
SPLINE
  5
33A
100
AcDbEntity
  8
0
100
AcDbSpline
 62
7
  6
CONTINUOUS
 70
0
 71
3
 72
11
 73
7
 74
0
 42
0.0000001
 43
0.0000001
 44
0.0000000001
 40
0.0
 40
0.0
 40
0.0
 40
0.0
 40
0.2378286061
 40
0.4840649934
 40
0.7383628802
 40
1.0
 40
1.0
 40
1.0
 40
1.0
 10
2.9151950271
 20
5.1109928194
 30
0.0
 10
2.9109627925
 20
5.1084919695
 30
0.0
 10
2.9025768809
 20
5.1030095809
 30
0.0
 10
2.8904467745
 20
5.0937301983
 30
0.0
 10
2.878539023
 20
5.0834029224
 30
0.0
 10
2.8708430488
 20
5.0760144361
 30
0.0
 10
2.8670190021
 20
5.0721903893
 30
0.0
  0
SPLINE
  5
33B
100
AcDbEntity
  8
0
100
AcDbSpline
 62
7
  6
CONTINUOUS
 70
0
 71
3
 72
18
 73
14
 74
0
 42
0.0000001
 43
0.0000001
 44
0.0000000001
 40
0.0
 40
0.0
 40
0.0
 40
0.0
 40
0.1399255125
 40
0.2757385774
 40
0.4070346172
 40
0.4709407669
 40
0.5336556414
 40
0.6555264444
 40
0.7148386651
 40
0.7731941694
 40
0.8307280854
 40
0.8875952179
 40
1.0
 40
1.0
 40
1.0
 40
1.0
 10
3.074504255
 20
5.0721903893
 30
0.0
 10
3.0705219608
 20
5.0761726836
 30
0.0
 10
3.0625060962
 20
5.0838554154
 30
0.0
 10
3.0500869812
 20
5.0945529543
 30
0.0
 10
3.0394390192
 20
5.1025818604
 30
0.0
 10
3.0307892383
 20
5.1083270513
 30
0.0
 10
3.0222229703
 20
5.1134930823
 30
0.0
 10
3.0134581182
 20
5.117962017
 30
0.0
 10
3.0045160562
 20
5.1215799843
 30
0.0
 10
2.9978212167
 20
5.1238102693
 30
0.0
 10
2.9910874605
 20
5.1255669362
 30
0.0
 10
2.9821116107
 20
5.1272553258
 30
0.0
 10
2.9752857706
 20
5.1277858953
 30
0.0
 10
2.9707616286
 20
5.1277858953
 30
0.0
  0
SPLINE
  5
33C
100
AcDbEntity
  8
0
100
AcDbSpline
 62
7
  6
CONTINUOUS
 70
0
 71
3
 72
11
 73
7
 74
0
 42
0.0000001
 43
0.0000001
 44
0.0000000001
 40
0.0
 40
0.0
 40
0.0
 40
0.0
 40
0.2616378963
 40
0.5159360727
 40
0.7621721956
 40
1.0
 40
1.0
 40
1.0
 40
1.0
 10
3.696960014
 20
5.0721903893
 30
0.0
 10
3.693135751
 20
5.0760146523
 30
0.0
 10
3.6854393403
 20
5.0834035418
 30
0.0
 10
3.6735308908
 20
5.0937313289
 30
0.0
 10
3.6614000581
 20
5.1030110852
 30
0.0
 10
3.653013624
 20
5.10849362
 30
0.0
 10
3.6487811251
 20
5.1109945076
 30
0.0
  0
SPLINE
  5
33D
100
AcDbEntity
  8
0
100
AcDbSpline
 62
7
  6
CONTINUOUS
 70
0
 71
3
 72
9
 73
5
 74
0
 42
0.0000001
 43
0.0000001
 44
0.0000000001
 40
0.0
 40
0.0
 40
0.0
 40
0.0
 40
0.2562795162
 40
1.0
 40
1.0
 40
1.0
 40
1.0
 10
3.6487811251
 20
5.1109945076
 30
0.0
 10
3.6469053418
 20
5.1121028654
 30
0.0
 10
3.6395010587
 20
5.1162791493
 30
0.0
 10
3.6317232181
 20
5.1198171366
 30
0.0
 10
3.6257665563
 20
5.1219373756
 30
0.0
  0
SPLINE
  5
33E
100
AcDbEntity
  8
0
100
AcDbSpline
 62
7
  6
CONTINUOUS
 70
0
 71
3
 72
10
 73
6
 74
0
 42
0.0000001
 43
0.0000001
 44
0.0000000001
 40
0.0
 40
0.0
 40
0.0
 40
0.0
 40
0.5056598419
 40
0.7536862987
 40
1.0
 40
1.0
 40
1.0
 40
1.0
 10
3.6257665563
 20
5.1219373756
 30
0.0
 10
3.6204931891
 20
5.1238143998
 30
0.0
 10
3.6123965406
 20
5.1260230719
 30
0.0
 10
3.6014198171
 20
5.1275302927
 30
0.0
 10
3.5959439882
 20
5.1277858953
 30
0.0
 10
3.5932173875
 20
5.1277858953
 30
0.0
  0
SPLINE
  5
33F
100
AcDbEntity
  8
0
100
AcDbSpline
 62
7
  6
CONTINUOUS
 70
0
 71
3
 72
11
 73
7
 74
0
 42
0.0000001
 43
0.0000001
 44
0.0000000001
 40
0.0
 40
0.0
 40
0.0
 40
0.0
 40
0.2617303813
 40
0.5160683439
 40
0.7622741199
 40
1.0
 40
1.0
 40
1.0
 40
1.0
 10
2.8670190021
 20
4.7015314013
 30
0.0
 10
2.8708674183
 20
4.697682985
 30
0.0
 10
2.8786127034
 20
4.6902491261
 30
0.0
 10
2.8905991622
 20
4.6798644513
 30
0.0
 10
2.9028106753
 20
4.6705432052
 30
0.0
 10
2.9112548051
 20
4.6650443271
 30
0.0
 10
2.9155164358
 20
4.6625393344
 30
0.0
  0
SPLINE
  5
340
100
AcDbEntity
  8
0
100
AcDbSpline
 62
7
  6
CONTINUOUS
 70
0
 71
3
 72
9
 73
5
 74
0
 42
0.0000001
 43
0.0000001
 44
0.0000000001
 40
0.0
 40
0.0
 40
0.0
 40
0.0
 40
0.2561491094
 40
1.0
 40
1.0
 40
1.0
 40
1.0
 10
2.9155164358
 20
4.6625393344
 30
0.0
 10
2.9173570144
 20
4.6614574396
 30
0.0
 10
2.9246244523
 20
4.6573774062
 30
0.0
 10
2.9322506845
 20
4.6539141283
 30
0.0
 10
2.9380893073
 20
4.6518283781
 30
0.0
  0
SPLINE
  5
341
100
AcDbEntity
  8
0
100
AcDbSpline
 62
7
  6
CONTINUOUS
 70
0
 71
3
 72
9
 73
5
 74
0
 42
0.0000001
 43
0.0000001
 44
0.0000000001
 40
0.0
 40
0.0
 40
0.0
 40
0.0
 40
0.5049767293
 40
1.0
 40
1.0
 40
1.0
 40
1.0
 10
2.9380893073
 20
4.6518283781
 30
0.0
 10
2.9416734198
 20
4.650548014
 30
0.0
 10
2.9489068646
 20
4.6483744175
 30
0.0
 10
2.9563417221
 20
4.6470249446
 30
0.0
 10
2.9600461696
 20
4.6465812514
 30
0.0
  0
SPLINE
  5
342
100
AcDbEntity
  8
0
100
AcDbSpline
 62
7
  6
CONTINUOUS
 70
0
 71
3
 72
21
 73
17
 74
0
 42
0.0000001
 43
0.0000001
 44
0.0000000001
 40
0.0
 40
0.0
 40
0.0
 40
0.0
 40
0.1283573461
 40
0.1915367313
 40
0.2540930442
 40
0.3161013256
 40
0.3776635895
 40
0.4389114898
 40
0.4999999972
 40
0.5610885034
 40
0.6223364017
 40
0.6838986646
 40
0.7459069448
 40
0.8084632581
 40
0.8716426471
 40
1.0
 40
1.0
 40
1.0
 40
1.0
 10
2.4798442798
 20
4.5202957835
 30
0.0
 10
2.4754049043
 20
4.5098406553
 30
0.0
 10
2.4693166966
 20
4.4939974504
 30
0.0
 10
2.4626342356
 20
4.4725216109
 30
0.0
 10
2.4584592126
 20
4.4564335398
 30
0.0
 10
2.455144991
 20
4.4402919164
 30
0.0
 10
2.4527341065
 20
4.4241068011
 30
0.0
 10
2.4512767401
 20
4.4078890108
 30
0.0
 10
2.4507926423
 20
4.3916549276
 30
0.0
 10
2.4512767378
 20
4.3754208444
 30
0.0
 10
2.4527341085
 20
4.3592030548
 30
0.0
 10
2.455144992
 20
4.3430179398
 30
0.0
 10
2.4584592112
 20
4.3268763161
 30
0.0
 10
2.4626342359
 20
4.3107882451
 30
0.0
 10
2.4693166976
 20
4.2893124049
 30
0.0
 10
2.475404904
 20
4.2734691985
 30
0.0
 10
2.4798442798
 20
4.2630140698
 30
0.0
  0
SPLINE
  5
343
100
AcDbEntity
  8
0
100
AcDbSpline
 62
7
  6
CONTINUOUS
 70
0
 71
3
 72
15
 73
11
 74
0
 42
0.0000001
 43
0.0000001
 44
0.0000000001
 40
0.0
 40
0.0
 40
0.0
 40
0.0
 40
0.0864410718
 40
0.1866842943
 40
0.2999584241
 40
0.4249718098
 40
0.5598594488
 40
0.7025452925
 40
0.8503070041
 40
1.0
 40
1.0
 40
1.0
 40
1.0
 10
2.4798442798
 20
4.2630140698
 30
0.0
 10
2.4804118387
 20
4.2616774176
 30
0.0
 10
2.4813843848
 20
4.258682716
 30
0.0
 10
2.4823749086
 20
4.2537345317
 30
0.0
 10
2.4829747854
 20
4.2480720962
 30
0.0
 10
2.4831630134
 20
4.2418010941
 30
0.0
 10
2.4829430274
 20
4.2350375457
 30
0.0
 10
2.4823108969
 20
4.2279167925
 30
0.0
 10
2.481288752
 20
4.2205909646
 30
0.0
 10
2.4803665367
 20
4.2156775326
 30
0.0
 10
2.4798442798
 20
4.213217609
 30
0.0
  0
SPLINE
  5
344
100
AcDbEntity
  8
0
100
AcDbSpline
 62
7
  6
CONTINUOUS
 70
0
 71
3
 72
21
 73
17
 74
0
 42
0.0000001
 43
0.0000001
 44
0.0000000001
 40
0.0
 40
0.0
 40
0.0
 40
0.0
 40
0.1249829184
 40
0.187483904
 40
0.2499875878
 40
0.3124911231
 40
0.3749920801
 40
0.4374943675
 40
0.4999999968
 40
0.562505625
 40
0.6250079099
 40
0.6875088659
 40
0.7500124009
 40
0.8125160845
 40
0.8750170736
 40
1.0
 40
1.0
 40
1.0
 40
1.0
 10
2.4798442798
 20
4.213217609
 30
0.0
 10
2.4753561111
 20
4.1920775282
 30
0.0
 10
2.469251595
 20
4.1602251887
 30
0.0
 10
2.4626113726
 20
4.1175085861
 30
0.0
 10
2.4584428187
 20
4.0853510326
 30
0.0
 10
2.4551348453
 20
4.0530934929
 30
0.0
 10
2.4527293361
 20
4.0207558719
 30
0.0
 10
2.4512757318
 20
3.9883607902
 30
0.0
 10
2.4507929318
 20
3.9559358972
 30
0.0
 10
2.4512757295
 20
3.9235110047
 30
0.0
 10
2.4527293381
 20
3.8911159239
 30
0.0
 10
2.4551348463
 20
3.8587783035
 30
0.0
 10
2.4584428172
 20
3.8265207638
 30
0.0
 10
2.4626113728
 20
3.79436321
 30
0.0
 10
2.4692515961
 20
3.7516466056
 30
0.0
 10
2.4753561109
 20
3.7197942638
 30
0.0
 10
2.4798442798
 20
3.6986541816
 30
0.0
  0
SPLINE
  5
345
100
AcDbEntity
  8
0
100
AcDbSpline
 62
7
  6
CONTINUOUS
 70
0
 71
3
 72
15
 73
11
 74
0
 42
0.0000001
 43
0.0000001
 44
0.0000000001
 40
0.0
 40
0.0
 40
0.0
 40
0.0
 40
0.1496936878
 40
0.2974569846
 40
0.4401444957
 40
0.5750323048
 40
0.7000449156
 40
0.8133179362
 40
0.9135596807
 40
1.0
 40
1.0
 40
1.0
 40
1.0
 10
2.4798442798
 20
3.6986541816
 30
0.0
 10
2.4803665391
 20
3.6961942467
 30
0.0
 10
2.4812887649
 20
3.6912807778
 30
0.0
 10
2.4823109276
 20
3.6839548858
 30
0.0
 10
2.4829430754
 20
3.676834076
 30
0.0
 10
2.4831630165
 20
3.6700705072
 30
0.0
 10
2.482974736
 20
3.6637995366
 30
0.0
 10
2.4823748786
 20
3.658137157
 30
0.0
 10
2.4813843717
 20
3.653189026
 30
0.0
 10
2.4804118337
 20
3.6501943614
 30
0.0
 10
2.4798442798
 20
3.6488577209
 30
0.0
  0
SPLINE
  5
346
100
AcDbEntity
  8
0
100
AcDbSpline
 62
7
  6
CONTINUOUS
 70
0
 71
3
 72
9
 73
5
 74
0
 42
0.0000001
 43
0.0000001
 44
0.0000000001
 40
0.0
 40
0.0
 40
0.0
 40
0.0
 40
0.5218371393
 40
1.0
 40
1.0
 40
1.0
 40
1.0
 10
1.4294461488
 20
3.7839376968
 30
0.0
 10
1.4298917321
 20
3.7820228811
 30
0.0
 10
1.4308687545
 20
3.778380536
 30
0.0
 10
1.4321334136
 20
3.7748259073
 30
0.0
 10
1.4328189809
 20
3.7731600218
 30
0.0
  0
SPLINE
  5
347
100
AcDbEntity
  8
0
100
AcDbSpline
 62
7
  6
CONTINUOUS
 70
0
 71
3
 72
9
 73
5
 74
0
 42
0.0000001
 43
0.0000001
 44
0.0000000001
 40
0.0
 40
0.0
 40
0.0
 40
0.0
 40
0.2688268775
 40
1.0
 40
1.0
 40
1.0
 40
1.0
 10
1.4328189809
 20
3.7731600218
 30
0.0
 10
1.4331642333
 20
3.7723210802
 30
0.0
 10
1.4345248415
 20
3.7692333656
 30
0.0
 10
1.4362083415
 20
3.7662798722
 30
0.0
 10
1.4376487726
 20
3.7642764736
 30
0.0
  0
SPLINE
  5
348
100
AcDbEntity
  8
0
100
AcDbSpline
 62
7
  6
CONTINUOUS
 70
0
 71
3
 72
18
 73
14
 74
0
 42
0.0000001
 43
0.0000001
 44
0.0000000001
 40
0.0
 40
0.0
 40
0.0
 40
0.0
 40
0.0434037714
 40
0.089810792
 40
0.1391665756
 40
0.1914026422
 40
0.2464409142
 40
0.3041943934
 40
0.4274028601
 40
0.5600565123
 40
0.7009462566
 40
0.8482786324
 40
1.0
 40
1.0
 40
1.0
 40
1.0
 10
1.4294486308
 20
4.1279409577
 30
0.0
 10
1.4290426257
 20
4.1261893925
 30
0.0
 10
1.4283149951
 20
4.1225384035
 30
0.0
 10
1.4274879037
 20
4.1168308334
 30
0.0
 10
1.4268962017
 20
4.1107264608
 30
0.0
 10
1.4265479048
 20
4.1042455958
 30
0.0
 10
1.4264512875
 20
4.0974082892
 30
0.0
 10
1.4266721311
 20
4.0876326466
 30
0.0
 10
1.4276045434
 20
4.0746663774
 30
0.0
 10
1.4296245043
 20
4.0583499577
 30
0.0
 10
1.4325051056
 20
4.0411501367
 30
0.0
 10
1.4361549064
 20
4.0232914608
 30
0.0
 10
1.439008973
 20
4.0112342689
 30
0.0
 10
1.4405405354
 20
4.0051386625
 30
0.0
  0
SPLINE
  5
349
100
AcDbEntity
  8
0
100
AcDbSpline
 62
7
  6
CONTINUOUS
 70
0
 71
3
 72
9
 73
5
 74
0
 42
0.0000001
 43
0.0000001
 44
0.0000000001
 40
0.0
 40
0.0
 40
0.0
 40
0.0
 40
0.4792469253
 40
1.0
 40
1.0
 40
1.0
 40
1.0
 10
2.0039169502
 20
4.1521583382
 30
0.0
 10
2.0046503937
 20
4.149420265
 30
0.0
 10
2.0059088779
 20
4.1436324053
 30
0.0
 10
2.0067027809
 20
4.1377652415
 30
0.0
 10
2.0070117185
 20
4.1347006725
 30
0.0
  0
SPLINE
  5
34A
100
AcDbEntity
  8
0
100
AcDbSpline
 62
7
  6
CONTINUOUS
 70
0
 71
3
 72
10
 73
6
 74
0
 42
0.0000001
 43
0.0000001
 44
0.0000000001
 40
0.0
 40
0.0
 40
0.0
 40
0.0
 40
0.2304703479
 40
0.4742514748
 40
1.0
 40
1.0
 40
1.0
 40
1.0
 10
2.0070117185
 20
4.1347006725
 30
0.0
 10
2.0072730088
 20
4.1321087512
 30
0.0
 10
2.007656913
 20
4.1267588254
 30
0.0
 10
2.0079058128
 20
4.1154552794
 30
0.0
 10
2.0075060791
 20
4.1067532121
 30
0.0
 10
2.0070261125
 20
4.1008299722
 30
0.0
  0
SPLINE
  5
34B
100
AcDbEntity
  8
0
100
AcDbSpline
 62
7
  6
CONTINUOUS
 70
0
 71
3
 72
9
 73
5
 74
0
 42
0.0000001
 43
0.0000001
 44
0.0000000001
 40
0.0
 40
0.0
 40
0.0
 40
0.0
 40
0.4821822784
 40
1.0
 40
1.0
 40
1.0
 40
1.0
 10
2.0070261125
 20
4.1008299722
 30
0.0
 10
2.0064905816
 20
4.0942210165
 30
0.0
 10
2.0048443591
 20
4.0805563712
 30
0.0
 10
2.0024032378
 20
4.0670170627
 30
0.0
 10
2.0009786523
 20
4.060040372
 30
0.0
  0
SPLINE
  5
34C
100
AcDbEntity
  8
0
100
AcDbSpline
 62
7
  6
CONTINUOUS
 70
0
 71
3
 72
9
 73
5
 74
0
 42
0.0000001
 43
0.0000001
 44
0.0000000001
 40
0.0
 40
0.0
 40
0.0
 40
0.0
 40
0.4905618399
 40
1.0
 40
1.0
 40
1.0
 40
1.0
 10
2.0009786523
 20
4.060040372
 30
0.0
 10
1.9993802255
 20
4.05221232
 30
0.0
 10
1.9957089236
 20
4.0363378995
 30
0.0
 10
1.9913683965
 20
4.0206356165
 30
0.0
 10
1.9890084937
 20
4.0126812954
 30
0.0
  0
LINE
  5
34D
100
AcDbEntity
  8
0
100
AcDbLine
 62
7
  6
CONTINUOUS
 10
1.4444818352
 20
3.7289418872
 11
1.4422707457
 21
3.7372529853
  0
SPLINE
  5
34E
100
AcDbEntity
  8
0
100
AcDbSpline
 62
7
  6
CONTINUOUS
 70
0
 71
3
 72
9
 73
5
 74
0
 42
0.0000001
 43
0.0000001
 44
0.0000000001
 40
0.0
 40
0.0
 40
0.0
 40
0.0
 40
0.4753762654
 40
1.0
 40
1.0
 40
1.0
 40
1.0
 10
1.4422707457
 20
3.7372529853
 30
0.0
 10
1.4412408387
 20
3.7419289845
 30
0.0
 10
1.4397421073
 20
3.7519167591
 30
0.0
 10
1.4393069538
 20
3.7619957035
 30
0.0
 10
1.4393010229
 20
3.7672798061
 30
0.0
  0
SPLINE
  5
34F
100
AcDbEntity
  8
0
100
AcDbSpline
 62
7
  6
CONTINUOUS
 70
0
 71
3
 72
9
 73
5
 74
0
 42
0.0000001
 43
0.0000001
 44
0.0000000001
 40
0.0
 40
0.0
 40
0.0
 40
0.0
 40
0.5246899774
 40
1.0
 40
1.0
 40
1.0
 40
1.0
 10
1.4328188984
 20
3.7731600604
 30
0.0
 10
1.4334964047
 20
3.7715127231
 30
0.0
 10
1.4349384425
 20
3.7684317536
 30
0.0
 10
1.4367286164
 20
3.765535071
 30
0.0
 10
1.4376718007
 20
3.7642258533
 30
0.0
  0
LINE
  5
350
100
AcDbEntity
  8
0
100
AcDbLine
 62
7
  6
CONTINUOUS
 10
1.4376718007
 20
3.7642258533
 11
1.4394442463
 21
3.7619828755
  0
SPLINE
  5
351
100
AcDbEntity
  8
0
100
AcDbSpline
 62
7
  6
CONTINUOUS
 70
0
 71
3
 72
16
 73
12
 74
0
 42
0.0000001
 43
0.0000001
 44
0.0000000001
 40
0.0
 40
0.0
 40
0.0
 40
0.0
 40
0.1038101068
 40
0.2167275936
 40
0.3369841078
 40
0.4630488894
 40
0.5278080571
 40
0.5934828112
 40
0.7270577041
 40
0.8628627792
 40
1.0
 40
1.0
 40
1.0
 40
1.0
 10
1.4974754555
 20
4.3080791994
 30
0.0
 10
1.5000104054
 20
4.3127420658
 30
0.0
 10
1.504979676
 20
4.3226553273
 30
0.0
 10
1.5117241185
 20
4.3385210172
 30
0.0
 10
1.5178240767
 20
4.3558574145
 30
0.0
 10
1.5221833578
 20
4.371163616
 30
0.0
 10
1.5251934429
 20
4.383929106
 30
0.0
 10
1.5278751212
 20
4.3971597021
 30
0.0
 10
1.5304879525
 20
4.4141013016
 30
0.0
 10
1.53240345
 20
4.4348081678
 30
0.0
 10
1.532839508
 20
4.4487663846
 30
0.0
 10
1.532839508
 20
4.4557776431
 30
0.0
  0
SPLINE
  5
352
100
AcDbEntity
  8
0
100
AcDbSpline
 62
7
  6
CONTINUOUS
 70
0
 71
3
 72
16
 73
12
 74
0
 42
0.0000001
 43
0.0000001
 44
0.0000000001
 40
0.0
 40
0.0
 40
0.0
 40
0.0
 40
0.1372506812
 40
0.2730947402
 40
0.4066253698
 40
0.5369136995
 40
0.6629132337
 40
0.7831731403
 40
0.8406601326
 40
0.8961081603
 40
1.0
 40
1.0
 40
1.0
 40
1.0
 10
1.906589508
 20
4.4557776431
 30
0.0
 10
1.906589508
 20
4.4487597858
 30
0.0
 10
1.9070292845
 20
4.4347922612
 30
0.0
 10
1.9089529345
 20
4.4140778826
 30
0.0
 10
1.9120709963
 20
4.3938688998
 30
0.0
 10
1.9163178274
 20
4.3743809312
 30
0.0
 10
1.9216071315
 20
4.3558554337
 30
0.0
 10
1.9267774073
 20
4.3411990896
 30
0.0
 10
1.9312682123
 20
4.3301514968
 30
0.0
 10
1.9357650583
 20
4.3200162595
 30
0.0
 10
1.9394300061
 20
4.3127313819
 30
0.0
 10
1.9419740541
 20
4.3080680243
 30
0.0
  0
SPLINE
  5
353
100
AcDbEntity
  8
0
100
AcDbSpline
 62
7
  6
CONTINUOUS
 70
0
 71
3
 72
10
 73
6
 74
0
 42
0.0000001
 43
0.0000001
 44
0.0000000001
 40
0.0
 40
0.0
 40
0.0
 40
0.0
 40
0.2303236836
 40
0.4740809298
 40
1.0
 40
1.0
 40
1.0
 40
1.0
 10
2.0070117828
 20
4.1347006019
 30
0.0
 10
2.007272096
 20
4.1321102805
 30
0.0
 10
2.0076544298
 20
4.1267622581
 30
0.0
 10
2.0079022026
 20
4.1154588508
 30
0.0
 10
2.0075040571
 20
4.1067552717
 30
0.0
 10
2.0070260908
 20
4.1008300093
 30
0.0
  0
SPLINE
  5
354
100
AcDbEntity
  8
0
100
AcDbSpline
 62
7
  6
CONTINUOUS
 70
0
 71
3
 72
9
 73
5
 74
0
 42
0.0000001
 43
0.0000001
 44
0.0000000001
 40
0.0
 40
0.0
 40
0.0
 40
0.0
 40
0.4823284576
 40
1.0
 40
1.0
 40
1.0
 40
1.0
 10
2.0070260908
 20
4.1008300093
 30
0.0
 10
2.0064927903
 20
4.0942187778
 30
0.0
 10
2.0048538159
 20
4.0805530719
 30
0.0
 10
2.0024099402
 20
4.0670137028
 30
0.0
 10
2.0009785935
 20
4.0600403621
 30
0.0
  0
SPLINE
  5
355
100
AcDbEntity
  8
0
100
AcDbSpline
 62
7
  6
CONTINUOUS
 70
0
 71
3
 72
9
 73
5
 74
0
 42
0.0000001
 43
0.0000001
 44
0.0000000001
 40
0.0
 40
0.0
 40
0.0
 40
0.0
 40
0.4902035698
 40
1.0
 40
1.0
 40
1.0
 40
1.0
 10
2.0009785935
 20
4.0600403621
 30
0.0
 10
1.99937336
 20
4.0522198665
 30
0.0
 10
1.9956721466
 20
4.0363527559
 30
0.0
 10
1.9913401864
 20
4.0206497812
 30
0.0
 10
1.9890083981
 20
4.0126813127
 30
0.0
  0
SPLINE
  5
356
100
AcDbEntity
  8
0
100
AcDbSpline
 62
7
  6
CONTINUOUS
 70
0
 71
3
 72
16
 73
12
 74
0
 42
0.0000001
 43
0.0000001
 44
0.0000000001
 40
0.0
 40
0.0
 40
0.0
 40
0.0
 40
0.1038101068
 40
0.2167275936
 40
0.3369841078
 40
0.4630488894
 40
0.5278080571
 40
0.5934828112
 40
0.7270577041
 40
0.8628627792
 40
1.0
 40
1.0
 40
1.0
 40
1.0
 10
1.9419535606
 20
3.6037925913
 30
0.0
 10
1.9394186107
 20
3.5991297248
 30
0.0
 10
1.9344493401
 20
3.5892164633
 30
0.0
 10
1.9277048976
 20
3.5733507735
 30
0.0
 10
1.9216049393
 20
3.5560143762
 30
0.0
 10
1.9172456583
 20
3.5407081747
 30
0.0
 10
1.9142355732
 20
3.5279426846
 30
0.0
 10
1.9115538949
 20
3.5147120886
 30
0.0
 10
1.9089410635
 20
3.4977704891
 30
0.0
 10
1.9070255661
 20
3.4770636228
 30
0.0
 10
1.906589508
 20
3.4631054061
 30
0.0
 10
1.906589508
 20
3.4560941476
 30
0.0
  0
SPLINE
  5
357
100
AcDbEntity
  8
0
100
AcDbSpline
 62
7
  6
CONTINUOUS
 70
0
 71
3
 72
16
 73
12
 74
0
 42
0.0000001
 43
0.0000001
 44
0.0000000001
 40
0.0
 40
0.0
 40
0.0
 40
0.0
 40
0.1372506812
 40
0.2730947402
 40
0.4066253698
 40
0.5369136995
 40
0.6629132337
 40
0.7831731403
 40
0.8406601326
 40
0.8961081603
 40
1.0
 40
1.0
 40
1.0
 40
1.0
 10
1.532839508
 20
3.4560941476
 30
0.0
 10
1.532839508
 20
3.4631120049
 30
0.0
 10
1.5323997315
 20
3.4770795295
 30
0.0
 10
1.5304760816
 20
3.4977939081
 30
0.0
 10
1.5273580198
 20
3.5180028909
 30
0.0
 10
1.5231111887
 20
3.5374908595
 30
0.0
 10
1.5178218845
 20
3.556016357
 30
0.0
 10
1.5126516088
 20
3.570672701
 30
0.0
 10
1.5081608037
 20
3.5817202938
 30
0.0
 10
1.5036639578
 20
3.5918555312
 30
0.0
 10
1.49999901
 20
3.5991404088
 30
0.0
 10
1.4974549619
 20
3.6038037664
 30
0.0
  0
LINE
  5
358
100
AcDbEntity
  8
0
100
AcDbLine
 62
7
  6
CONTINUOUS
 10
1.4444805872
 20
3.7289421093
 11
1.4422706629
 21
3.737252627
  0
SPLINE
  5
359
100
AcDbEntity
  8
0
100
AcDbSpline
 62
7
  6
CONTINUOUS
 70
0
 71
3
 72
9
 73
5
 74
0
 42
0.0000001
 43
0.0000001
 44
0.0000000001
 40
0.0
 40
0.0
 40
0.0
 40
0.0
 40
0.4759207334
 40
1.0
 40
1.0
 40
1.0
 40
1.0
 10
1.4422706629
 20
3.737252627
 30
0.0
 10
1.4412397933
 20
3.7419341403
 30
0.0
 10
1.4397379151
 20
3.7519214312
 30
0.0
 10
1.4393010229
 20
3.762001065
 30
0.0
 10
1.4393010229
 20
3.7672798061
 30
0.0
  0
SPLINE
  5
35A
100
AcDbEntity
  8
0
100
AcDbSpline
 62
7
  6
CONTINUOUS
 70
0
 71
3
 72
16
 73
12
 74
0
 42
0.0000001
 43
0.0000001
 44
0.0000000001
 40
0.0
 40
0.0
 40
0.0
 40
0.0
 40
0.1038101068
 40
0.2167275936
 40
0.3369841078
 40
0.4630488894
 40
0.5278080571
 40
0.5934828112
 40
0.7270577041
 40
0.8628627792
 40
1.0
 40
1.0
 40
1.0
 40
1.0
 10
1.9419535606
 20
4.6034760868
 30
0.0
 10
1.9394186107
 20
4.5988132204
 30
0.0
 10
1.9344493401
 20
4.5888999589
 30
0.0
 10
1.9277048976
 20
4.573034269
 30
0.0
 10
1.9216049393
 20
4.5556978717
 30
0.0
 10
1.9172456583
 20
4.5403916702
 30
0.0
 10
1.9142355732
 20
4.5276261801
 30
0.0
 10
1.9115538949
 20
4.5143955841
 30
0.0
 10
1.9089410635
 20
4.4974539846
 30
0.0
 10
1.9070255661
 20
4.4767471184
 30
0.0
 10
1.906589508
 20
4.4627889016
 30
0.0
 10
1.906589508
 20
4.4557776431
 30
0.0
  0
SPLINE
  5
35B
100
AcDbEntity
  8
0
100
AcDbSpline
 62
7
  6
CONTINUOUS
 70
0
 71
3
 72
16
 73
12
 74
0
 42
0.0000001
 43
0.0000001
 44
0.0000000001
 40
0.0
 40
0.0
 40
0.0
 40
0.0
 40
0.1372506812
 40
0.2730947402
 40
0.4066253698
 40
0.5369136995
 40
0.6629132337
 40
0.7831731403
 40
0.8406601326
 40
0.8961081603
 40
1.0
 40
1.0
 40
1.0
 40
1.0
 10
1.532839508
 20
4.4557776431
 30
0.0
 10
1.532839508
 20
4.4627955004
 30
0.0
 10
1.5323997315
 20
4.476763025
 30
0.0
 10
1.5304760816
 20
4.4974774036
 30
0.0
 10
1.5273580198
 20
4.5176863864
 30
0.0
 10
1.5231111887
 20
4.537174355
 30
0.0
 10
1.5178218845
 20
4.5556998525
 30
0.0
 10
1.5126516088
 20
4.5703561966
 30
0.0
 10
1.5081608037
 20
4.5814037894
 30
0.0
 10
1.5036639578
 20
4.5915390267
 30
0.0
 10
1.49999901
 20
4.5988239043
 30
0.0
 10
1.4974549619
 20
4.6034872619
 30
0.0
  0
SPLINE
  5
35C
100
AcDbEntity
  8
0
100
AcDbSpline
 62
7
  6
CONTINUOUS
 70
0
 71
3
 72
16
 73
12
 74
0
 42
0.0000001
 43
0.0000001
 44
0.0000000001
 40
0.0
 40
0.0
 40
0.0
 40
0.0
 40
0.1038101068
 40
0.2167275936
 40
0.3369841078
 40
0.4630488894
 40
0.5278080571
 40
0.5934828112
 40
0.7270577041
 40
0.8628627792
 40
1.0
 40
1.0
 40
1.0
 40
1.0
 10
1.4974754555
 20
3.3083957039
 30
0.0
 10
1.5000104054
 20
3.3130585703
 30
0.0
 10
1.504979676
 20
3.3229718318
 30
0.0
 10
1.5117241185
 20
3.3388375217
 30
0.0
 10
1.5178240767
 20
3.3561739189
 30
0.0
 10
1.5221833578
 20
3.3714801205
 30
0.0
 10
1.5251934429
 20
3.3842456105
 30
0.0
 10
1.5278751212
 20
3.3974762066
 30
0.0
 10
1.5304879525
 20
3.414417806
 30
0.0
 10
1.53240345
 20
3.4351246723
 30
0.0
 10
1.532839508
 20
3.4490828891
 30
0.0
 10
1.532839508
 20
3.4560941476
 30
0.0
  0
SPLINE
  5
35D
100
AcDbEntity
  8
0
100
AcDbSpline
 62
7
  6
CONTINUOUS
 70
0
 71
3
 72
16
 73
12
 74
0
 42
0.0000001
 43
0.0000001
 44
0.0000000001
 40
0.0
 40
0.0
 40
0.0
 40
0.0
 40
0.1372506812
 40
0.2730947402
 40
0.4066253698
 40
0.5369136995
 40
0.6629132337
 40
0.7831731403
 40
0.8406601326
 40
0.8961081603
 40
1.0
 40
1.0
 40
1.0
 40
1.0
 10
1.906589508
 20
3.4560941476
 30
0.0
 10
1.906589508
 20
3.4490762903
 30
0.0
 10
1.9070292845
 20
3.4351087656
 30
0.0
 10
1.9089529345
 20
3.4143943871
 30
0.0
 10
1.9120709963
 20
3.3941854043
 30
0.0
 10
1.9163178274
 20
3.3746974356
 30
0.0
 10
1.9216071315
 20
3.3561719382
 30
0.0
 10
1.9267774073
 20
3.3415155941
 30
0.0
 10
1.9312682123
 20
3.3304680013
 30
0.0
 10
1.9357650583
 20
3.3203327639
 30
0.0
 10
1.9394300061
 20
3.3130478864
 30
0.0
 10
1.9419740541
 20
3.3083845287
 30
0.0
  0
SPLINE
  5
35E
100
AcDbEntity
  8
0
100
AcDbSpline
 62
7
  6
CONTINUOUS
 70
0
 71
3
 72
9
 73
5
 74
0
 42
0.0000001
 43
0.0000001
 44
0.0000000001
 40
0.0
 40
0.0
 40
0.0
 40
0.0
 40
0.5098237674
 40
1.0
 40
1.0
 40
1.0
 40
1.0
 10
1.4654622874
 20
4.0226687157
 30
0.0
 10
1.4621539175
 20
4.0318541509
 30
0.0
 10
1.4560323352
 20
4.0500063617
 30
0.0
 10
1.4508362432
 20
4.0684508758
 30
0.0
 10
1.4485904608
 20
4.0775650888
 30
0.0
  0
SPLINE
  5
35F
100
AcDbEntity
  8
0
100
AcDbSpline
 62
7
  6
CONTINUOUS
 70
0
 71
3
 72
10
 73
6
 74
0
 42
0.0000001
 43
0.0000001
 44
0.0000000001
 40
0.0
 40
0.0
 40
0.0
 40
0.0
 40
0.5176816514
 40
0.7636525403
 40
1.0
 40
1.0
 40
1.0
 40
1.0
 10
1.4485904608
 20
4.0775650888
 30
0.0
 10
1.4466318186
 20
4.0855139811
 30
0.0
 10
1.4440784265
 20
4.0973294282
 30
0.0
 10
1.4415828221
 20
4.1129481115
 30
0.0
 10
1.440680582
 20
4.12052485
 30
0.0
 10
1.4403238363
 20
4.1242453973
 30
0.0
  0
SPLINE
  5
360
100
AcDbEntity
  8
0
100
AcDbSpline
 62
7
  6
CONTINUOUS
 70
0
 71
3
 72
9
 73
5
 74
0
 42
0.0000001
 43
0.0000001
 44
0.0000000001
 40
0.0
 40
0.0
 40
0.0
 40
0.0
 40
0.2443475999
 40
1.0
 40
1.0
 40
1.0
 40
1.0
 10
1.4447944158
 20
3.8173255213
 30
0.0
 10
1.445211359
 20
3.8194145918
 30
0.0
 10
1.4469944059
 20
3.8279488002
 30
0.0
 10
1.4490679152
 20
3.8364214225
 30
0.0
 10
1.4507696595
 20
3.8427857675
 30
0.0
  0
SPLINE
  5
361
100
AcDbEntity
  8
0
100
AcDbSpline
 62
7
  6
CONTINUOUS
 70
0
 71
3
 72
9
 73
5
 74
0
 42
0.0000001
 43
0.0000001
 44
0.0000000001
 40
0.0
 40
0.0
 40
0.0
 40
0.0
 40
0.492215503
 40
1.0
 40
1.0
 40
1.0
 40
1.0
 10
1.4507696595
 20
3.8427857675
 30
0.0
 10
1.4528335774
 20
3.8505046039
 30
0.0
 10
1.4574312084
 20
3.866079678
 30
0.0
 10
1.4626692207
 20
3.8814483486
 30
0.0
 10
1.4654624018
 20
3.8892033979
 30
0.0
  0
SPLINE
  5
362
100
AcDbEntity
  8
0
100
AcDbSpline
 62
7
  6
CONTINUOUS
 70
0
 71
3
 72
9
 73
5
 74
0
 42
0.0000001
 43
0.0000001
 44
0.0000000001
 40
0.0
 40
0.0
 40
0.0
 40
0.0
 40
0.2472992222
 40
1.0
 40
1.0
 40
1.0
 40
1.0
 10
1.4654624018
 20
3.8892033979
 30
0.0
 10
1.4667492852
 20
3.8927763227
 30
0.0
 10
1.4715814021
 20
3.9073528775
 30
0.0
 10
1.4748515012
 20
3.922466486
 30
0.0
 10
1.4762231589
 20
3.933943545
 30
0.0
  0
SPLINE
  5
363
100
AcDbEntity
  8
0
100
AcDbSpline
 62
7
  6
CONTINUOUS
 70
0
 71
3
 72
9
 73
5
 74
0
 42
0.0000001
 43
0.0000001
 44
0.0000000001
 40
0.0
 40
0.0
 40
0.0
 40
0.0
 40
0.5097981476
 40
1.0
 40
1.0
 40
1.0
 40
1.0
 10
1.9890083839
 20
3.8991903189
 30
0.0
 10
1.9913404549
 20
3.8912208807
 30
0.0
 10
1.9956729132
 20
3.8755160441
 30
0.0
 10
1.9993744636
 20
3.8596470304
 30
0.0
 10
2.0009797855
 20
3.8518256174
 30
0.0
  0
SPLINE
  5
364
100
AcDbEntity
  8
0
100
AcDbSpline
 62
7
  6
CONTINUOUS
 70
0
 71
3
 72
9
 73
5
 74
0
 42
0.0000001
 43
0.0000001
 44
0.0000000001
 40
0.0
 40
0.0
 40
0.0
 40
0.0
 40
0.5176700521
 40
1.0
 40
1.0
 40
1.0
 40
1.0
 10
2.0009797855
 20
3.8518256174
 30
0.0
 10
2.00241085
 20
3.8448532177
 30
0.0
 10
2.0048542355
 20
3.8313156419
 30
0.0
 10
2.0064928906
 20
3.8176517664
 30
0.0
 10
2.0070261126
 20
3.8110414035
 30
0.0
  0
SPLINE
  5
365
100
AcDbEntity
  8
0
100
AcDbSpline
 62
7
  6
CONTINUOUS
 70
0
 71
3
 72
10
 73
6
 74
0
 42
0.0000001
 43
0.0000001
 44
0.0000000001
 40
0.0
 40
0.0
 40
0.0
 40
0.0
 40
0.5259377089
 40
0.769690519
 40
1.0
 40
1.0
 40
1.0
 40
1.0
 10
2.0070261126
 20
3.8110414035
 30
0.0
 10
2.0075043493
 20
3.8051126951
 30
0.0
 10
2.0079025416
 20
3.796404177
 30
0.0
 10
2.0076538294
 20
3.7850946104
 30
0.0
 10
2.0072707014
 20
3.7797439157
 30
0.0
 10
2.0070098999
 20
3.7771523762
 30
0.0
  0
SPLINE
  5
366
100
AcDbEntity
  8
0
100
AcDbSpline
 62
7
  6
CONTINUOUS
 70
0
 71
3
 72
9
 73
5
 74
0
 42
0.0000001
 43
0.0000001
 44
0.0000000001
 40
0.0
 40
0.0
 40
0.0
 40
0.0
 40
0.5094566127
 40
1.0
 40
1.0
 40
1.0
 40
1.0
 10
1.4654623031
 20
4.0226686677
 30
0.0
 10
1.4621148836
 20
4.0318328632
 30
0.0
 10
1.4559812403
 20
4.0499840976
 30
0.0
 10
1.4508269319
 20
4.0684409709
 30
0.0
 10
1.4485904608
 20
4.0775650889
 30
0.0
  0
SPLINE
  5
367
100
AcDbEntity
  8
0
100
AcDbSpline
 62
7
  6
CONTINUOUS
 70
0
 71
3
 72
10
 73
6
 74
0
 42
0.0000001
 43
0.0000001
 44
0.0000000001
 40
0.0
 40
0.0
 40
0.0
 40
0.0
 40
0.5178367129
 40
0.7637485384
 40
1.0
 40
1.0
 40
1.0
 40
1.0
 10
1.4485904608
 20
4.0775650889
 30
0.0
 10
1.4466409216
 20
4.0855186126
 30
0.0
 10
1.4440900268
 20
4.0973354718
 30
0.0
 10
1.4415879786
 20
4.1129528681
 30
0.0
 10
1.4406820245
 20
4.1205265742
 30
0.0
 10
1.4403238389
 20
4.1242453998
 30
0.0
  0
SPLINE
  5
368
100
AcDbEntity
  8
0
100
AcDbSpline
 62
7
  6
CONTINUOUS
 70
0
 71
3
 72
12
 73
8
 74
0
 42
0.0000001
 43
0.0000001
 44
0.0000000001
 40
0.0
 40
0.0
 40
0.0
 40
0.0
 40
0.2833614821
 40
0.4169044744
 40
0.5448438659
 40
0.7835822176
 40
1.0
 40
1.0
 40
1.0
 40
1.0
 10
1.4403238389
 20
4.1242453998
 30
0.0
 10
1.4397876454
 20
4.1298123733
 30
0.0
 10
1.439279303
 20
4.1380360378
 30
0.0
 10
1.4392933874
 20
4.1487925435
 30
0.0
 10
1.4397499006
 20
4.1586577758
 30
0.0
 10
1.4411134723
 20
4.1701067346
 30
0.0
 10
1.4432076523
 20
4.17887168
 30
0.0
 10
1.4444914352
 20
4.1829456561
 30
0.0
  0
SPLINE
  5
369
100
AcDbEntity
  8
0
100
AcDbSpline
 62
7
  6
CONTINUOUS
 70
0
 71
3
 72
9
 73
5
 74
0
 42
0.0000001
 43
0.0000001
 44
0.0000000001
 40
0.0
 40
0.0
 40
0.0
 40
0.0
 40
0.2473458204
 40
1.0
 40
1.0
 40
1.0
 40
1.0
 10
1.4654623905
 20
3.8892033703
 30
0.0
 10
1.466747218
 20
3.8927777528
 30
0.0
 10
1.4715741733
 20
3.9073556599
 30
0.0
 10
1.4748498277
 20
3.9224674902
 30
0.0
 10
1.4762231418
 20
3.9339435078
 30
0.0
  0
SPLINE
  5
36A
100
AcDbEntity
  8
0
100
AcDbSpline
 62
7
  6
CONTINUOUS
 70
0
 71
3
 72
9
 73
5
 74
0
 42
0.0000001
 43
0.0000001
 44
0.0000000001
 40
0.0
 40
0.0
 40
0.0
 40
0.0
 40
0.2525330521
 40
1.0
 40
1.0
 40
1.0
 40
1.0
 10
1.4762510727
 20
3.977693445
 30
0.0
 10
1.4757932344
 20
3.9815646871
 30
0.0
 10
1.4734904312
 20
3.9968347225
 30
0.0
 10
1.4693705644
 20
4.0118124756
 30
0.0
 10
1.465462302
 20
4.0226686675
 30
0.0
  0
SPLINE
  5
36B
100
AcDbEntity
  8
0
100
AcDbSpline
 62
7
  6
CONTINUOUS
 70
0
 71
3
 72
9
 73
5
 74
0
 42
0.0000001
 43
0.0000001
 44
0.0000000001
 40
0.0
 40
0.0
 40
0.0
 40
0.0
 40
0.4808228165
 40
1.0
 40
1.0
 40
1.0
 40
1.0
 10
1.4393010229
 20
3.7672798061
 30
0.0
 10
1.4393069866
 20
3.7728728085
 30
0.0
 10
1.4398427048
 20
3.7845068396
 30
0.0
 10
1.4412136965
 20
3.7960672967
 30
0.0
 10
1.4421101298
 20
3.8020395436
 30
0.0
  0
SPLINE
  5
36C
100
AcDbEntity
  8
0
100
AcDbSpline
 62
7
  6
CONTINUOUS
 70
0
 71
3
 72
9
 73
5
 74
0
 42
0.0000001
 43
0.0000001
 44
0.0000000001
 40
0.0
 40
0.0
 40
0.0
 40
0.0
 40
0.2443120991
 40
1.0
 40
1.0
 40
1.0
 40
1.0
 10
1.4447962922
 20
3.8173247635
 30
0.0
 10
1.4452137539
 20
3.8194134347
 30
0.0
 10
1.4469991985
 20
3.8279472379
 30
0.0
 10
1.4490728273
 20
3.8364197291
 30
0.0
 10
1.4507696825
 20
3.8427857622
 30
0.0
  0
SPLINE
  5
36D
100
AcDbEntity
  8
0
100
AcDbSpline
 62
7
  6
CONTINUOUS
 70
0
 71
3
 72
9
 73
5
 74
0
 42
0.0000001
 43
0.0000001
 44
0.0000000001
 40
0.0
 40
0.0
 40
0.0
 40
0.0
 40
0.4924633212
 40
1.0
 40
1.0
 40
1.0
 40
1.0
 10
1.4507696825
 20
3.8427857622
 30
0.0
 10
1.4528286359
 20
3.8505102663
 30
0.0
 10
1.4573995791
 20
3.8660934259
 30
0.0
 10
1.4626441007
 20
3.8814614846
 30
0.0
 10
1.4654623872
 20
3.889203354
 30
0.0
  0
SPLINE
  5
36E
100
AcDbEntity
  8
0
100
AcDbSpline
 62
7
  6
CONTINUOUS
 70
0
 71
3
 72
9
 73
5
 74
0
 42
0.0000001
 43
0.0000001
 44
0.0000000001
 40
0.0
 40
0.0
 40
0.0
 40
0.0
 40
0.5094380253
 40
1.0
 40
1.0
 40
1.0
 40
1.0
 10
1.9890085292
 20
3.8991903453
 30
0.0
 10
1.991368858
 20
3.8912351282
 30
0.0
 10
1.9957099105
 20
3.8755309819
 30
0.0
 10
1.9993813726
 20
3.8596546166
 30
0.0
 10
2.0009798469
 20
3.8518256066
 30
0.0
  0
SPLINE
  5
36F
100
AcDbEntity
  8
0
100
AcDbSpline
 62
7
  6
CONTINUOUS
 70
0
 71
3
 72
9
 73
5
 74
0
 42
0.0000001
 43
0.0000001
 44
0.0000000001
 40
0.0
 40
0.0
 40
0.0
 40
0.0
 40
0.5178168693
 40
1.0
 40
1.0
 40
1.0
 40
1.0
 10
2.0009798469
 20
3.8518256066
 30
0.0
 10
2.0024041117
 20
3.8448498401
 30
0.0
 10
2.0048447289
 20
3.831312324
 30
0.0
 10
2.0064906703
 20
3.8176495128
 30
0.0
 10
2.0070261308
 20
3.8110414346
 30
0.0
  0
SPLINE
  5
370
100
AcDbEntity
  8
0
100
AcDbSpline
 62
7
  6
CONTINUOUS
 70
0
 71
3
 72
10
 73
6
 74
0
 42
0.0000001
 43
0.0000001
 44
0.0000000001
 40
0.0
 40
0.0
 40
0.0
 40
0.0
 40
0.5257674489
 40
0.7695441333
 40
1.0
 40
1.0
 40
1.0
 40
1.0
 10
2.0070261308
 20
3.8110414346
 30
0.0
 10
2.0075063774
 20
3.8051147463
 30
0.0
 10
2.0079061551
 20
3.7964077353
 30
0.0
 10
2.0076563047
 20
3.7850980285
 30
0.0
 10
2.0072716039
 20
3.7797454321
 30
0.0
 10
2.0070098262
 20
3.7771522945
 30
0.0
  0
SPLINE
  5
371
100
AcDbEntity
  8
0
100
AcDbSpline
 62
7
  6
CONTINUOUS
 70
0
 71
3
 72
9
 73
5
 74
0
 42
0.0000001
 43
0.0000001
 44
0.0000000001
 40
0.0
 40
0.0
 40
0.0
 40
0.0
 40
0.5207338626
 40
1.0
 40
1.0
 40
1.0
 40
1.0
 10
2.0070098262
 20
3.7771522945
 30
0.0
 10
2.0067007962
 20
3.7740910816
 30
0.0
 10
2.0059070466
 20
3.7682301448
 30
0.0
 10
2.0046495795
 20
3.7624484087
 30
0.0
 10
2.0039168569
 20
3.7597130892
 30
0.0
  0
LINE
  5
372
100
AcDbEntity
  8
0
100
AcDbLine
 62
7
  6
CONTINUOUS
 10
1.4393450363
 20
4.1497440847
 11
1.4362944266
 21
4.1455293824
  0
SPLINE
  5
373
100
AcDbEntity
  8
0
100
AcDbSpline
 62
7
  6
CONTINUOUS
 70
0
 71
3
 72
9
 73
5
 74
0
 42
0.0000001
 43
0.0000001
 44
0.0000000001
 40
0.0
 40
0.0
 40
0.0
 40
0.0
 40
0.4653594071
 40
1.0
 40
1.0
 40
1.0
 40
1.0
 10
1.4362944266
 20
4.1455293824
 30
0.0
 10
1.4349563103
 20
4.1433772917
 30
0.0
 10
1.4325169016
 20
4.1384770941
 30
0.0
 10
1.4308241429
 20
4.1332837971
 30
0.0
 10
1.430076679
 20
4.1304699252
 30
0.0
  0
SPLINE
  5
374
100
AcDbEntity
  8
0
100
AcDbSpline
 62
7
  6
CONTINUOUS
 70
0
 71
3
 72
15
 73
11
 74
0
 42
0.0000001
 43
0.0000001
 44
0.0000000001
 40
0.0
 40
0.0
 40
0.0
 40
0.0
 40
0.1233393278
 40
0.2481306967
 40
0.3738375483
 40
0.4999999041
 40
0.6261734476
 40
0.7519067998
 40
0.876706797
 40
1.0
 40
1.0
 40
1.0
 40
1.0
 10
1.4405405177
 20
4.0051386612
 30
0.0
 10
1.4415165094
 20
4.0011710911
 30
0.0
 10
1.4432566376
 20
3.9931323283
 30
0.0
 10
1.4451764459
 20
3.9808909684
 30
0.0
 10
1.44635557
 20
3.9684608541
 30
0.0
 10
1.4467442872
 20
3.9559352334
 30
0.0
 10
1.4463537749
 20
3.9434088914
 30
0.0
 10
1.4451788868
 20
3.9309769184
 30
0.0
 10
1.4432630881
 20
3.9187352237
 30
0.0
 10
1.441520334
 20
3.9106980976
 30
0.0
 10
1.4405404987
 20
3.9067330489
 30
0.0
  0
SPLINE
  5
375
100
AcDbEntity
  8
0
100
AcDbSpline
 62
7
  6
CONTINUOUS
 70
0
 71
3
 72
14
 73
10
 74
0
 42
0.0000001
 43
0.0000001
 44
0.0000000001
 40
0.0
 40
0.0
 40
0.0
 40
0.0
 40
0.2763380659
 40
0.409663311
 40
0.5386598531
 40
0.6627700153
 40
0.7814875751
 40
0.8941573875
 40
1.0
 40
1.0
 40
1.0
 40
1.0
 10
1.4405405106
 20
3.9067330263
 30
0.0
 10
1.4384406743
 20
3.8982978331
 30
0.0
 10
1.435546446
 20
3.8857358564
 30
0.0
 10
1.4322831704
 20
3.8691074964
 30
0.0
 10
1.4302354881
 20
3.8571239307
 30
0.0
 10
1.4285951172
 20
3.8455413679
 30
0.0
 10
1.4274019059
 20
3.8344199771
 30
0.0
 10
1.4266737639
 20
3.8238342974
 30
0.0
 10
1.4264941764
 20
3.8169600934
 30
0.0
 10
1.4264923926
 20
3.8136306556
 30
0.0
  0
SPLINE
  5
376
100
AcDbEntity
  8
0
100
AcDbSpline
 62
7
  6
CONTINUOUS
 70
0
 71
3
 72
10
 73
6
 74
0
 42
0.0000001
 43
0.0000001
 44
0.0000000001
 40
0.0
 40
0.0
 40
0.0
 40
0.0
 40
0.2770084117
 40
0.5361643774
 40
1.0
 40
1.0
 40
1.0
 40
1.0
 10
1.4264923926
 20
3.8136306556
 30
0.0
 10
1.426493829
 20
3.8108705833
 30
0.0
 10
1.4266094735
 20
3.8055266901
 30
0.0
 10
1.4273127658
 20
3.7955868893
 30
0.0
 10
1.4283986772
 20
3.7884390213
 30
0.0
 10
1.4294461488
 20
3.7839376968
 30
0.0
  0
LINE
  5
377
100
AcDbEntity
  8
0
100
AcDbLine
 62
7
  6
CONTINUOUS
 10
2.9880835438
 20
4.5474073866
 11
2.9878352783
 21
4.5472011128
  0
LINE
  5
378
100
AcDbEntity
  8
0
100
AcDbLine
 62
7
  6
CONTINUOUS
 10
2.9881073336
 20
4.6006273907
 11
2.987824174
 21
4.6008859625
  0
LINE
  5
379
100
AcDbEntity
  8
0
100
AcDbLine
 62
7
  6
CONTINUOUS
 10
3.5759167667
 20
4.5766814404
 11
3.5761812837
 21
4.5769308313
  0
LINE
  5
37A
100
AcDbEntity
  8
0
100
AcDbLine
 62
7
  6
CONTINUOUS
 10
3.5757750949
 20
4.6193001133
 11
3.5760590143
 21
4.6190227181
  0
LINE
  5
37B
100
AcDbEntity
  8
0
100
AcDbLine
 62
7
  6
CONTINUOUS
 10
2.7608172262
 20
4.4227418988
 11
2.7611854408
 21
4.4231191532
  0
SPLINE
  5
37C
100
AcDbEntity
  8
0
100
AcDbSpline
 62
7
  6
CONTINUOUS
 70
0
 71
3
 72
13
 73
9
 74
0
 42
0.0000001
 43
0.0000001
 44
0.0000000001
 40
0.0
 40
0.0
 40
0.0
 40
0.0
 40
0.2693385141
 40
0.401651593
 40
0.5309383993
 40
0.6562946417
 40
0.7768319137
 40
1.0
 40
1.0
 40
1.0
 40
1.0
 10
2.7683685711
 20
3.9559358953
 30
0.0
 10
2.7678750228
 20
3.9825053319
 30
0.0
 10
2.7670866007
 20
4.022126074
 30
0.0
 10
2.7660181592
 20
4.0744996888
 30
0.0
 10
2.7652362099
 20
4.1126703276
 30
0.0
 10
2.7644595645
 20
4.1496789823
 30
0.0
 10
2.7634470521
 20
4.1959474074
 30
0.0
 10
2.7626488034
 20
4.2298494238
 30
0.0
 10
2.7620910448
 20
4.2518610186
 30
0.0
  0
LINE
  5
37D
100
AcDbEntity
  8
0
100
AcDbLine
 62
7
  6
CONTINUOUS
 10
2.7620910448
 20
4.2518610186
 11
2.7617153861
 21
4.266436536
  0
LINE
  5
37E
100
AcDbEntity
  8
0
100
AcDbLine
 62
7
  6
CONTINUOUS
 10
2.7617153861
 20
4.266436536
 11
2.7613932411
 21
4.2785255955
  0
SPLINE
  5
37F
100
AcDbEntity
  8
0
100
AcDbSpline
 62
7
  6
CONTINUOUS
 70
0
 71
3
 72
13
 73
9
 74
0
 42
0.0000001
 43
0.0000001
 44
0.0000000001
 40
0.0
 40
0.0
 40
0.0
 40
0.0
 40
0.3262608192
 40
0.6039582027
 40
0.723474176
 40
0.8295255054
 40
0.9217864793
 40
1.0
 40
1.0
 40
1.0
 40
1.0
 10
2.760695916
 20
4.3033186277
 30
0.0
 10
2.760370203
 20
4.3144416723
 30
0.0
 10
2.7597324431
 20
4.335031117
 30
0.0
 10
2.7588408109
 20
4.3596908279
 30
0.0
 10
2.7581117486
 20
4.3768402973
 30
0.0
 10
2.7575936228
 20
4.3876681841
 30
0.0
 10
2.7570769474
 20
4.3970855951
 30
0.0
 10
2.7567032495
 20
4.402888133
 30
0.0
 10
2.7565114637
 20
4.4055488669
 30
0.0
  0
SPLINE
  5
380
100
AcDbEntity
  8
0
100
AcDbSpline
 62
7
  6
CONTINUOUS
 70
0
 71
3
 72
15
 73
11
 74
0
 42
0.0000001
 43
0.0000001
 44
0.0000000001
 40
0.0
 40
0.0
 40
0.0
 40
0.0
 40
0.3796906917
 40
0.5372374311
 40
0.6730793052
 40
0.7872009967
 40
0.879626479
 40
0.9504517976
 40
0.977850429
 40
1.0
 40
1.0
 40
1.0
 40
1.0
 10
2.7565114637
 20
4.4055488669
 30
0.0
 10
2.7563547391
 20
4.4077231806
 30
0.0
 10
2.7561147516
 20
4.4107985632
 30
0.0
 10
2.7557460349
 20
4.4146454606
 30
0.0
 10
2.7554876501
 20
4.4169709146
 30
0.0
 10
2.7552307857
 20
4.4189201274
 30
0.0
 10
2.7549753992
 20
4.4204921419
 30
0.0
 10
2.7547513976
 20
4.4215646317
 30
0.0
 10
2.7545635054
 20
4.4222299427
 30
0.0
 10
2.754468433
 20
4.4224985169
 30
0.0
 10
2.7544191182
 20
4.4226157352
 30
0.0
  0
LINE
  5
381
100
AcDbEntity
  8
0
100
AcDbLine
 62
7
  6
CONTINUOUS
 10
2.7544191182
 20
4.4226157352
 11
2.7539935843
 21
4.4231227348
  0
SPLINE
  5
382
100
AcDbEntity
  8
0
100
AcDbSpline
 62
7
  6
CONTINUOUS
 70
0
 71
3
 72
11
 73
7
 74
0
 42
0.0000001
 43
0.0000001
 44
0.0000000001
 40
0.0
 40
0.0
 40
0.0
 40
0.0
 40
0.2711560528
 40
0.53383242
 40
0.7793220407
 40
1.0
 40
1.0
 40
1.0
 40
1.0
 10
2.775560445
 20
3.9559358953
 30
0.0
 10
2.7760937859
 20
3.9282276699
 30
0.0
 10
2.7771690411
 20
3.8736782075
 30
0.0
 10
2.7787846363
 20
3.7940443966
 30
0.0
 10
2.78038595
 20
3.7195704839
 30
0.0
 10
2.7815246561
 20
3.6719395881
 30
0.0
 10
2.7821101048
 20
3.649392916
 30
0.0
  0
LINE
  5
383
100
AcDbEntity
  8
0
100
AcDbLine
 62
7
  6
CONTINUOUS
 10
2.7821101048
 20
3.649392916
 11
2.7822287218
 21
3.6448506
  0
LINE
  5
384
100
AcDbEntity
  8
0
100
AcDbLine
 62
7
  6
CONTINUOUS
 10
2.7822287218
 20
3.6448506
 11
2.7828379209
 21
3.6223590196
  0
SPLINE
  5
385
100
AcDbEntity
  8
0
100
AcDbSpline
 62
7
  6
CONTINUOUS
 70
0
 71
3
 72
13
 73
9
 74
0
 42
0.0000001
 43
0.0000001
 44
0.0000000001
 40
0.0
 40
0.0
 40
0.0
 40
0.0
 40
0.3235032947
 40
0.6004725197
 40
0.720273634
 40
0.8270594658
 40
0.9204150853
 40
1.0
 40
1.0
 40
1.0
 40
1.0
 10
2.7828379209
 20
3.6223590196
 30
0.0
 10
2.7831788655
 20
3.6101742392
 30
0.0
 10
2.7838465581
 20
3.5875583418
 30
0.0
 10
2.7847757977
 20
3.5604342679
 30
0.0
 10
2.7855354535
 20
3.541475517
 30
0.0
 10
2.7860761166
 20
3.5294321992
 30
0.0
 10
2.7866153064
 20
3.5189058845
 30
0.0
 10
2.7870045432
 20
3.5124009999
 30
0.0
 10
2.7872039044
 20
3.509408888
 30
0.0
  0
SPLINE
  5
386
100
AcDbEntity
  8
0
100
AcDbSpline
 62
7
  6
CONTINUOUS
 70
0
 71
3
 72
14
 73
10
 74
0
 42
0.0000001
 43
0.0000001
 44
0.0000000001
 40
0.0
 40
0.0
 40
0.0
 40
0.0
 40
0.3714339216
 40
0.5270640376
 40
0.6624495017
 40
0.7774643087
 40
0.8720115503
 40
0.9461235138
 40
1.0
 40
1.0
 40
1.0
 40
1.0
 10
2.7872039044
 20
3.509408888
 30
0.0
 10
2.7873682069
 20
3.5069429533
 30
0.0
 10
2.7876199857
 20
3.5034448691
 30
0.0
 10
2.7880037316
 20
3.4990538083
 30
0.0
 10
2.7882735044
 20
3.4963655892
 30
0.0
 10
2.7885422021
 20
3.4940861267
 30
0.0
 10
2.7888088133
 20
3.4922170857
 30
0.0
 10
2.7890732267
 20
3.4907602244
 30
0.0
 10
2.7892753795
 20
3.4899311471
 30
0.0
 10
2.7893869426
 20
3.4895904723
 30
0.0
  0
SPLINE
  5
387
100
AcDbEntity
  8
0
100
AcDbSpline
 62
7
  6
CONTINUOUS
 70
0
 71
3
 72
10
 73
6
 74
0
 42
0.0000001
 43
0.0000001
 44
0.0000000001
 40
0.0
 40
0.0
 40
0.0
 40
0.0
 40
0.3790388815
 40
0.6654130499
 40
1.0
 40
1.0
 40
1.0
 40
1.0
 10
2.7893869426
 20
3.4895904723
 30
0.0
 10
2.7894275323
 20
3.4894665254
 30
0.0
 10
2.7895082045
 20
3.489247503
 30
0.0
 10
2.7896508754
 20
3.4889508349
 30
0.0
 10
2.789820312
 20
3.4887524576
 30
0.0
 10
2.78993544
 20
3.4887521786
 30
0.0
  0
LINE
  5
388
100
AcDbEntity
  8
0
100
AcDbLine
 62
7
  6
CONTINUOUS
 10
2.7831474882
 20
3.4892067714
 11
2.7827436029
 21
3.4887526547
  0
LINE
  5
389
100
AcDbEntity
  8
0
100
AcDbLine
 62
7
  6
CONTINUOUS
 10
3.6487812206
 20
5.1109946693
 11
3.6484626207
 21
5.1111824328
  0
SPLINE
  5
38A
100
AcDbEntity
  8
0
100
AcDbSpline
 62
7
  6
CONTINUOUS
 70
0
 71
3
 72
9
 73
5
 74
0
 42
0.0000001
 43
0.0000001
 44
0.0000000001
 40
0.0
 40
0.0
 40
0.0
 40
0.0
 40
0.2561491114
 40
1.0
 40
1.0
 40
1.0
 40
1.0
 10
3.6484626207
 20
5.1111824328
 30
0.0
 10
3.6466220423
 20
5.1122643283
 30
0.0
 10
3.6393546051
 20
5.1163443644
 30
0.0
 10
3.6317283737
 20
5.1198076455
 30
0.0
 10
3.6258897513
 20
5.121893398
 30
0.0
  0
SPLINE
  5
38B
100
AcDbEntity
  8
0
100
AcDbSpline
 62
7
  6
CONTINUOUS
 70
0
 71
3
 72
9
 73
5
 74
0
 42
0.0000001
 43
0.0000001
 44
0.0000000001
 40
0.0
 40
0.0
 40
0.0
 40
0.0
 40
0.2562795186
 40
1.0
 40
1.0
 40
1.0
 40
1.0
 10
2.9151979525
 20
4.662727247
 30
0.0
 10
2.9170737375
 20
4.6616188894
 30
0.0
 10
2.9244780271
 20
4.6574426068
 30
0.0
 10
2.9322558748
 20
4.6539046223
 30
0.0
 10
2.9382125418
 20
4.6517843866
 30
0.0
  0
SPLINE
  5
38C
100
AcDbEntity
  8
0
100
AcDbSpline
 62
7
  6
CONTINUOUS
 70
0
 71
3
 72
9
 73
5
 74
0
 42
0.0000001
 43
0.0000001
 44
0.0000000001
 40
0.0
 40
0.0
 40
0.0
 40
0.0
 40
0.2443520216
 40
1.0
 40
1.0
 40
1.0
 40
1.0
 10
2.9380860915
 20
5.1218922624
 30
0.0
 10
2.9361681224
 20
5.1212070354
 30
0.0
 10
2.9283960055
 20
5.118187634
 30
0.0
 10
2.9209446521
 20
5.1143732578
 30
0.0
 10
2.9155148517
 20
5.1111815286
 30
0.0
  0
LINE
  5
38D
100
AcDbEntity
  8
0
100
AcDbLine
 62
7
  6
CONTINUOUS
 10
2.9155148517
 20
5.1111815286
 11
2.915194932
 21
5.1109929804
  0
SPLINE
  5
38E
100
AcDbEntity
  8
0
100
AcDbSpline
 62
7
  6
CONTINUOUS
 70
0
 71
3
 72
21
 73
17
 74
0
 42
0.0000001
 43
0.0000001
 44
0.0000000001
 40
0.0
 40
0.0
 40
0.0
 40
0.0
 40
0.0045644459
 40
0.0098488437
 40
0.016346603
 40
0.0243309774
 40
0.0452760902
 40
0.0733103205
 40
0.1086783362
 40
0.1515098294
 40
0.2018858651
 40
0.2598637011
 40
0.398790859
 40
0.5685723768
 40
0.7691617149
 40
1.0
 40
1.0
 40
1.0
 40
1.0
 10
2.8078749395
 20
3.5200620529
 30
0.0
 10
2.8078465794
 20
3.5200620066
 30
0.0
 10
2.8077849604
 20
3.520076117
 30
0.0
 10
2.8076998016
 20
3.5201340991
 30
0.0
 10
2.807616971
 20
3.5202257428
 30
0.0
 10
2.8074965591
 20
3.5204107091
 30
0.0
 10
2.8073539245
 20
3.5207364923
 30
0.0
 10
2.8071929972
 20
3.5212354251
 30
0.0
 10
2.8070313065
 20
3.5218758125
 30
0.0
 10
2.8068688378
 20
3.522658107
 30
0.0
 10
2.8067059519
 20
3.5235833582
 30
0.0
 10
2.8064741688
 20
3.5251022897
 30
0.0
 10
2.8061917853
 20
3.5273634075
 30
0.0
 10
2.8058675451
 20
3.5305112808
 30
0.0
 10
2.8055417728
 20
3.5342326396
 30
0.0
 10
2.805337636
 20
3.5369054747
 30
0.0
 10
2.8052341045
 20
3.5383359936
 30
0.0
  0
SPLINE
  5
38F
100
AcDbEntity
  8
0
100
AcDbSpline
 62
7
  6
CONTINUOUS
 70
0
 71
3
 72
11
 73
7
 74
0
 42
0.0000001
 43
0.0000001
 44
0.0000000001
 40
0.0
 40
0.0
 40
0.0
 40
0.0
 40
0.1986340323
 40
0.4325681359
 40
0.7002024423
 40
1.0
 40
1.0
 40
1.0
 40
1.0
 10
2.8044817242
 20
3.5501303566
 30
0.0
 10
2.80420496
 20
3.5549757231
 30
0.0
 10
2.8036674759
 20
3.5655312655
 30
0.0
 10
2.8029255208
 20
3.5826234369
 30
0.0
 10
2.8021817358
 20
3.6021893127
 30
0.0
 10
2.8017104281
 20
3.6160455035
 30
0.0
 10
2.8014720617
 20
3.6233666367
 30
0.0
  0
LINE
  5
390
100
AcDbEntity
  8
0
100
AcDbLine
 62
7
  6
CONTINUOUS
 10
2.800783563
 20
3.6454209437
 11
2.8007196439
 21
3.6475585024
  0
SPLINE
  5
391
100
AcDbEntity
  8
0
100
AcDbSpline
 62
7
  6
CONTINUOUS
 70
0
 71
3
 72
11
 73
7
 74
0
 42
0.0000001
 43
0.0000001
 44
0.0000000001
 40
0.0
 40
0.0
 40
0.0
 40
0.0
 40
0.2144761336
 40
0.4587735077
 40
0.7235681969
 40
1.0
 40
1.0
 40
1.0
 40
1.0
 10
2.8007196439
 20
3.6475585024
 30
0.0
 10
2.8001047434
 20
3.6681937406
 30
0.0
 10
2.7989155108
 20
3.7123371325
 30
0.0
 10
2.7972620906
 20
3.7819645916
 30
0.0
 10
2.7956003826
 20
3.857556945
 30
0.0
 10
2.7945010523
 20
3.9096410944
 30
0.0
 10
2.7939415596
 20
3.9362431514
 30
0.0
  0
SPLINE
  5
392
100
AcDbEntity
  8
0
100
AcDbSpline
 62
7
  6
CONTINUOUS
 70
0
 71
3
 72
11
 73
7
 74
0
 42
0.0000001
 43
0.0000001
 44
0.0000000001
 40
0.0
 40
0.0
 40
0.0
 40
0.0
 40
0.2757478782
 40
0.5401380234
 40
0.7844686604
 40
1.0
 40
1.0
 40
1.0
 40
1.0
 10
2.7931879934
 20
3.9720939401
 30
0.0
 10
2.7926271889
 20
3.9987605735
 30
0.0
 10
2.7915247551
 20
4.05099539
 30
0.0
 10
2.7898593922
 20
4.1268571903
 30
0.0
 10
2.7882024028
 20
4.1968930548
 30
0.0
 10
2.7870151951
 20
4.2413588822
 30
0.0
 10
2.7863998995
 20
4.2621977072
 30
0.0
  0
SPLINE
  5
393
100
AcDbEntity
  8
0
100
AcDbSpline
 62
7
  6
CONTINUOUS
 70
0
 71
3
 72
20
 73
16
 74
0
 42
0.0000001
 43
0.0000001
 44
0.0000000001
 40
0.0
 40
0.0
 40
0.0
 40
0.0
 40
0.2107420608
 40
0.3986169726
 40
0.562940412
 40
0.7027627893
 40
0.763175534
 40
0.817091694
 40
0.8643901082
 40
0.9049646587
 40
0.9387875736
 40
0.9658678753
 40
0.9862366532
 40
0.9939320617
 40
1.0
 40
1.0
 40
1.0
 40
1.0
 10
2.784566016
 20
4.317672986
 30
0.0
 10
2.7843698167
 20
4.3228652582
 30
0.0
 10
2.7839813853
 20
4.3326857622
 30
0.0
 10
2.783367403
 20
4.3465518955
 30
0.0
 10
2.7827557039
 20
4.3586676261
 30
0.0
 10
2.782226316
 20
4.3676406429
 30
0.0
 10
2.7817943188
 20
4.3738920502
 30
0.0
 10
2.7814867468
 20
4.3778652372
 30
0.0
 10
2.781179949
 20
4.3813477525
 30
0.0
 10
2.7808737452
 20
4.3843326632
 30
0.0
 10
2.7805694229
 20
4.38681645
 30
0.0
 10
2.7802669421
 20
4.3887973756
 30
0.0
 10
2.7800015843
 20
4.3901323133
 30
0.0
 10
2.7797772703
 20
4.3909436964
 30
0.0
 10
2.7796636136
 20
4.3912641544
 30
0.0
 10
2.7796040674
 20
4.3914014025
 30
0.0
  0
SPLINE
  5
394
100
AcDbEntity
  8
0
100
AcDbSpline
 62
7
  6
CONTINUOUS
 70
0
 71
3
 72
19
 73
15
 74
0
 42
0.0000001
 43
0.0000001
 44
0.0000000001
 40
0.0
 40
0.0
 40
0.0
 40
0.0
 40
0.0135709975
 40
0.0307383214
 40
0.0534866139
 40
0.082693494
 40
0.1187761149
 40
0.1619593785
 40
0.212378892
 40
0.2701242388
 40
0.4078225109
 40
0.5753413687
 40
0.7727360829
 40
1.0
 40
1.0
 40
1.0
 40
1.0
 10
2.7503888997
 20
3.5201534624
 30
0.0
 10
2.7503503648
 20
3.5201532329
 30
0.0
 10
2.7502628028
 20
3.5201815507
 30
0.0
 10
2.7501507742
 20
3.520287638
 30
0.0
 10
2.7500412039
 20
3.520451408
 30
0.0
 10
2.7499319896
 20
3.5206768823
 30
0.0
 10
2.7498222871
 20
3.5209649393
 30
0.0
 10
2.7497122393
 20
3.5213165357
 30
0.0
 10
2.7496018618
 20
3.5217319804
 30
0.0
 10
2.7494450612
 20
3.5224123853
 30
0.0
 10
2.7492537411
 20
3.5234254771
 30
0.0
 10
2.7490340575
 20
3.5248357905
 30
0.0
 10
2.7488135509
 20
3.526502908
 30
0.0
 10
2.7486757844
 20
3.5277009001
 30
0.0
 10
2.7486060047
 20
3.5283424441
 30
0.0
  0
SPLINE
  5
395
100
AcDbEntity
  8
0
100
AcDbSpline
 62
7
  6
CONTINUOUS
 70
0
 71
3
 72
13
 73
9
 74
0
 42
0.0000001
 43
0.0000001
 44
0.0000000001
 40
0.0
 40
0.0
 40
0.0
 40
0.0
 40
0.0702555149
 40
0.1566648266
 40
0.259143531
 40
0.3775563162
 40
0.6602191771
 40
1.0
 40
1.0
 40
1.0
 40
1.0
 10
2.7486060047
 20
3.5283424441
 30
0.0
 10
2.7484279196
 20
3.5299797329
 30
0.0
 10
2.748085683
 20
3.5336366964
 30
0.0
 10
2.7476208393
 20
3.5396939127
 30
0.0
 10
2.7471540013
 20
3.5468827239
 30
0.0
 10
2.7464910033
 20
3.558668619
 30
0.0
 10
2.7456867564
 20
3.5760176562
 30
0.0
 10
2.7451185116
 20
3.5905981122
 30
0.0
 10
2.7448270957
 20
3.5985579967
 30
0.0
  0
LINE
  5
396
100
AcDbEntity
  8
0
100
AcDbLine
 62
7
  6
CONTINUOUS
 10
2.7433160387
 20
3.6443901834
 11
2.7432846844
 21
3.6454339172
  0
LINE
  5
397
100
AcDbEntity
  8
0
100
AcDbLine
 62
7
  6
CONTINUOUS
 10
2.7508740689
 20
3.5207585882
 11
2.7507333874
 21
3.5204593415
  0
SPLINE
  5
398
100
AcDbEntity
  8
0
100
AcDbSpline
 62
7
  6
CONTINUOUS
 70
0
 71
3
 72
27
 73
23
 74
0
 42
0.0000001
 43
0.0000001
 44
0.0000000001
 40
0.0
 40
0.0
 40
0.0
 40
0.0
 40
0.0011245697
 40
0.0024542492
 40
0.0041207245
 40
0.0061932882
 40
0.0116838682
 40
0.0190794114
 40
0.0284415785
 40
0.0398051695
 40
0.0531904735
 40
0.0685935129
 40
0.1053951931
 40
0.1500832435
 40
0.2025162914
 40
0.2625470873
 40
0.3300252937
 40
0.4047996553
 40
0.4867383769
 40
0.57572997
 40
0.7744271685
 40
1.0
 40
1.0
 40
1.0
 40
1.0
 10
2.793552495
 20
4.3919158289
 30
0.0
 10
2.7935822372
 20
4.391915803
 30
0.0
 10
2.7936475207
 20
4.3918992864
 30
0.0
 10
2.793736355
 20
4.3918333946
 30
0.0
 10
2.7938228413
 20
4.3917300207
 30
0.0
 10
2.793949356
 20
4.3915205479
 30
0.0
 10
2.7940990342
 20
4.3911524773
 30
0.0
 10
2.7942683739
 20
4.3905887987
 30
0.0
 10
2.7944388201
 20
4.3898644087
 30
0.0
 10
2.7946103501
 20
4.3889785969
 30
0.0
 10
2.7947823581
 20
4.3879305701
 30
0.0
 10
2.7950270374
 20
4.3862131226
 30
0.0
 10
2.7953250026
 20
4.3836675727
 30
0.0
 10
2.7956673813
 20
4.3801421012
 30
0.0
 10
2.7960109851
 20
4.3759999147
 30
0.0
 10
2.7963555781
 20
4.3712533016
 30
0.0
 10
2.7967007082
 20
4.3659144774
 30
0.0
 10
2.7970462354
 20
4.3599951867
 30
0.0
 10
2.797392045
 20
4.3535060557
 30
0.0
 10
2.7978711633
 20
4.343741995
 30
0.0
 10
2.7984630253
 20
4.3301802377
 30
0.0
 10
2.798895539
 20
4.3189675877
 30
0.0
 10
2.7991145403
 20
4.3130057334
 30
0.0
  0
SPLINE
  5
399
100
AcDbEntity
  8
0
100
AcDbSpline
 62
7
  6
CONTINUOUS
 70
0
 71
3
 72
11
 73
7
 74
0
 42
0.0000001
 43
0.0000001
 44
0.0000000001
 40
0.0
 40
0.0
 40
0.0
 40
0.0
 40
0.2142485647
 40
0.4583207265
 40
0.7230719949
 40
1.0
 40
1.0
 40
1.0
 40
1.0
 10
2.8006473564
 20
4.2664983623
 30
0.0
 10
2.8012660686
 20
4.2458677421
 30
0.0
 10
2.8024555596
 20
4.2017307029
 30
0.0
 10
2.8041154964
 20
4.1320924365
 30
0.0
 10
2.8057874524
 20
4.0564145514
 30
0.0
 10
2.8068800972
 20
4.0042426598
 30
0.0
 10
2.8074421128
 20
3.9775703845
 30
0.0
  0
LINE
  5
39A
100
AcDbEntity
  8
0
100
AcDbLine
 62
7
  6
CONTINUOUS
 10
2.8074421128
 20
3.9775703845
 11
2.8082080485
 21
3.9414046401
  0
LINE
  5
39B
100
AcDbEntity
  8
0
100
AcDbLine
 62
7
  6
CONTINUOUS
 10
2.8082080485
 20
3.9414046401
 11
2.810489508
 21
3.8343742623
  0
LINE
  5
39C
100
AcDbEntity
  8
0
100
AcDbLine
 62
7
  6
CONTINUOUS
 10
2.7430546249
 20
4.2696295684
 11
2.7431458199
 21
4.2665970136
  0
SPLINE
  5
39D
100
AcDbEntity
  8
0
100
AcDbSpline
 62
7
  6
CONTINUOUS
 70
0
 71
3
 72
12
 73
8
 74
0
 42
0.0000001
 43
0.0000001
 44
0.0000000001
 40
0.0
 40
0.0
 40
0.0
 40
0.0
 40
0.1025816515
 40
0.21401966
 40
0.4583433469
 40
0.7236887682
 40
1.0
 40
1.0
 40
1.0
 40
1.0
 10
2.7431458199
 20
4.2665970136
 30
0.0
 10
2.7434633308
 20
4.2559825166
 30
0.0
 10
2.7440901634
 20
4.2338360549
 30
0.0
 10
2.7453269362
 20
4.1864044843
 30
0.0
 10
2.7468434825
 20
4.1221253291
 30
0.0
 10
2.7486205599
 20
4.0407801034
 30
0.0
 10
2.7497988704
 20
3.9847202265
 30
0.0
 10
2.7503995068
 20
3.9561228158
 30
0.0
  0
LINE
  5
39E
100
AcDbEntity
  8
0
100
AcDbLine
 62
7
  6
CONTINUOUS
 10
2.7512244773
 20
3.9168839389
 11
2.7514273586
 21
3.9072664301
  0
LINE
  5
39F
100
AcDbEntity
  8
0
100
AcDbLine
 62
7
  6
CONTINUOUS
 10
2.7514273586
 20
3.9072664301
 11
2.7519759582
 21
3.8813856277
  0
SPLINE
  5
3A0
100
AcDbEntity
  8
0
100
AcDbSpline
 62
7
  6
CONTINUOUS
 70
0
 71
3
 72
10
 73
6
 74
0
 42
0.0000001
 43
0.0000001
 44
0.0000000001
 40
0.0
 40
0.0
 40
0.0
 40
0.0
 40
0.5363235749
 40
0.7800412393
 40
1.0
 40
1.0
 40
1.0
 40
1.0
 10
2.7519759582
 20
3.8813856277
 30
0.0
 10
2.7528229299
 20
3.8416031148
 30
0.0
 10
2.754078748
 20
3.7837429646
 30
0.0
 10
2.7558756008
 20
3.709571551
 30
0.0
 10
2.7567958106
 20
3.6751821807
 30
0.0
 10
2.7572651671
 20
3.6588695013
 30
0.0
  0
LINE
  5
3A1
100
AcDbEntity
  8
0
100
AcDbLine
 62
7
  6
CONTINUOUS
 10
2.7572651671
 20
3.6588695013
 11
2.7576534262
 21
3.6456447169
  0
LINE
  5
3A2
100
AcDbEntity
  8
0
100
AcDbLine
 62
7
  6
CONTINUOUS
 10
2.7576791984
 20
3.6447861609
 11
2.758023743
 21
3.6335439361
  0
SPLINE
  5
3A3
100
AcDbEntity
  8
0
100
AcDbSpline
 62
7
  6
CONTINUOUS
 70
0
 71
3
 72
18
 73
14
 74
0
 42
0.0000001
 43
0.0000001
 44
0.0000000001
 40
0.0
 40
0.0
 40
0.0
 40
0.0
 40
0.2052040667
 40
0.3889947555
 40
0.5503249294
 40
0.6883831585
 40
0.8027249618
 40
0.850876977
 40
0.8929519772
 40
0.9289054791
 40
0.9587031704
 40
0.9823725197
 40
1.0
 40
1.0
 40
1.0
 40
1.0
 10
2.759541978
 20
3.5895081225
 30
0.0
 10
2.7597227088
 20
3.5848297712
 30
0.0
 10
2.7600804864
 20
3.575961832
 30
0.0
 10
2.7606447633
 20
3.5634185079
 30
0.0
 10
2.7612078201
 20
3.5524087986
 30
0.0
 10
2.7617699086
 20
3.5429859599
 30
0.0
 10
2.7622587142
 20
3.5361458301
 30
0.0
 10
2.7626594035
 20
3.5314956349
 30
0.0
 10
2.7629416718
 20
3.5286305187
 30
0.0
 10
2.7632227876
 20
3.5261864262
 30
0.0
 10
2.7635020751
 20
3.5241650576
 30
0.0
 10
2.763779275
 20
3.5225667605
 30
0.0
 10
2.7639898225
 20
3.5216469708
 30
0.0
 10
2.7641040185
 20
3.5212613436
 30
0.0
  0
LINE
  5
3A4
100
AcDbEntity
  8
0
100
AcDbLine
 62
7
  6
CONTINUOUS
 10
2.7641040185
 20
3.5212613436
 11
2.7644348802
 21
3.5204266906
  0
LINE
  5
3A5
100
AcDbEntity
  8
0
100
AcDbLine
 62
7
  6
CONTINUOUS
 10
2.7824229124
 20
3.4890385934
 11
2.7816695799
 21
3.4919619681
  0
LINE
  5
3A6
100
AcDbEntity
  8
0
100
AcDbLine
 62
7
  6
CONTINUOUS
 10
2.7816695799
 20
3.4919619681
 11
2.780930634
 21
3.4978893332
  0
SPLINE
  5
3A7
100
AcDbEntity
  8
0
100
AcDbSpline
 62
7
  6
CONTINUOUS
 70
0
 71
3
 72
14
 73
10
 74
0
 42
0.0000001
 43
0.0000001
 44
0.0000000001
 40
0.0
 40
0.0
 40
0.0
 40
0.0
 40
0.0637267175
 40
0.1459299265
 40
0.2462928622
 40
0.3643091893
 40
0.4993601478
 40
0.6508226873
 40
1.0
 40
1.0
 40
1.0
 40
1.0
 10
2.780930634
 20
3.4978893332
 30
0.0
 10
2.7806803445
 20
3.5004052809
 30
0.0
 10
2.7802116692
 20
3.5061768237
 30
0.0
 10
2.7795861016
 20
3.5159286055
 30
0.0
 10
2.778956796
 20
3.5278378699
 30
0.0
 10
2.7783240881
 20
3.5418460557
 30
0.0
 10
2.7776893638
 20
3.5578833482
 30
0.0
 10
2.7767988581
 20
3.5830887949
 30
0.0
 10
2.7761979355
 20
3.6029427919
 30
0.0
 10
2.7758034772
 20
3.6167908345
 30
0.0
  0
LINE
  5
3A8
100
AcDbEntity
  8
0
100
AcDbLine
 62
7
  6
CONTINUOUS
 10
2.7758034772
 20
3.6167908345
 11
2.7757582857
 21
3.6183814409
  0
SPLINE
  5
3A9
100
AcDbEntity
  8
0
100
AcDbSpline
 62
7
  6
CONTINUOUS
 70
0
 71
3
 72
13
 73
9
 74
0
 42
0.0000001
 43
0.0000001
 44
0.0000000001
 40
0.0
 40
0.0
 40
0.0
 40
0.0
 40
0.2197245915
 40
0.3396706147
 40
0.465058786
 40
0.5948902747
 40
0.7281472811
 40
1.0
 40
1.0
 40
1.0
 40
1.0
 10
2.7750189466
 20
3.6455315103
 30
0.0
 10
2.7744225557
 20
3.6682634336
 30
0.0
 10
2.7735759999
 20
3.7034065289
 30
0.0
 10
2.772507616
 20
3.7515245485
 30
0.0
 10
2.771685392
 20
3.7903425088
 30
0.0
 10
2.770857395
 20
3.8305382236
 30
0.0
 10
2.7697251816
 20
3.885888796
 30
0.0
 10
2.7688911032
 20
3.9278061567
 30
0.0
 10
2.7683685711
 20
3.9559358953
 30
0.0
  0
LINE
  5
3AA
100
AcDbEntity
  8
0
100
AcDbLine
 62
7
  6
CONTINUOUS
 10
2.7536658722
 20
4.4228238526
 11
2.7530242878
 21
4.4205022998
  0
SPLINE
  5
3AB
100
AcDbEntity
  8
0
100
AcDbSpline
 62
9
  6
CONTINUOUS
 70
0
 71
3
 72
11
 73
7
 74
0
 42
0.0000001
 43
0.0000001
 44
0.0000000001
 40
0.0
 40
0.0
 40
0.0
 40
0.0
 40
0.2567391799
 40
0.5079607765
 40
0.7552031445
 40
1.0
 40
1.0
 40
1.0
 40
1.0
 10
1.9419830261
 20
3.6038461148
 30
0.0
 10
1.9445603414
 20
3.6085878406
 30
0.0
 10
1.9491334719
 20
3.6182690524
 30
0.0
 10
1.9541334267
 20
3.6333779424
 30
0.0
 10
1.9571528305
 20
3.6487485572
 30
0.0
 10
1.9578327495
 20
3.6591036016
 30
0.0
 10
1.9578327495
 20
3.6642494616
 30
0.0
  0
SPLINE
  5
3AC
100
AcDbEntity
  8
0
100
AcDbSpline
 62
7
  6
CONTINUOUS
 70
0
 71
3
 72
11
 73
7
 74
0
 42
0.0000001
 43
0.0000001
 44
0.0000000001
 40
0.0
 40
0.0
 40
0.0
 40
0.0
 40
0.152897081
 40
0.3694705918
 40
0.6515691627
 40
1.0
 40
1.0
 40
1.0
 40
1.0
 10
2.7614974402
 20
4.4228483199
 30
0.0
 10
2.7615799318
 20
4.4227051012
 30
0.0
 10
2.7617283746
 20
4.4223313428
 30
0.0
 10
2.7619199298
 20
4.4216538024
 30
0.0
 10
2.7621134624
 20
4.420758056
 30
0.0
 10
2.7622311661
 20
4.4200866884
 30
0.0
 10
2.762291564
 20
4.4197149198
 30
0.0
  0
SPLINE
  5
3AD
100
AcDbEntity
  8
0
100
AcDbSpline
 62
7
  6
CONTINUOUS
 70
0
 71
3
 72
18
 73
14
 74
0
 42
0.0000001
 43
0.0000001
 44
0.0000000001
 40
0.0
 40
0.0
 40
0.0
 40
0.0
 40
0.0211463477
 40
0.048119846
 40
0.08087972
 40
0.1193778731
 40
0.1635627667
 40
0.2133810327
 40
0.3296343496
 40
0.467345566
 40
0.6256374977
 40
0.8035805686
 40
1.0
 40
1.0
 40
1.0
 40
1.0
 10
2.762291564
 20
4.4197149198
 30
0.0
 10
2.7624325444
 20
4.4188471407
 30
0.0
 10
2.7626987487
 20
4.4168637264
 30
0.0
 10
2.7630553018
 20
4.4135199881
 30
0.0
 10
2.7634140187
 20
4.40945161
 30
0.0
 10
2.763774415
 20
4.4046655598
 30
0.0
 10
2.7641358095
 20
4.399168635
 30
0.0
 10
2.7646450987
 20
4.3904420426
 30
0.0
 10
2.7652679919
 20
4.3778274632
 30
0.0
 10
2.7659868231
 20
4.3607029551
 30
0.0
 10
2.7667078953
 20
4.341011829
 30
0.0
 10
2.7674302861
 20
4.3188785417
 30
0.0
 10
2.767891013
 20
4.3033212722
 30
0.0
 10
2.7681235776
 20
4.2951584742
 30
0.0
  0
LINE
  5
3AE
100
AcDbEntity
  8
0
100
AcDbLine
 62
7
  6
CONTINUOUS
 10
2.7681235776
 20
4.2951584742
 11
2.7681888165
 21
4.2928600868
  0
SPLINE
  5
3AF
100
AcDbEntity
  8
0
100
AcDbSpline
 62
7
  6
CONTINUOUS
 70
0
 71
3
 72
12
 73
8
 74
0
 42
0.0000001
 43
0.0000001
 44
0.0000000001
 40
0.0
 40
0.0
 40
0.0
 40
0.0
 40
0.21970377
 40
0.4650348308
 40
0.5948689955
 40
0.7281306494
 40
1.0
 40
1.0
 40
1.0
 40
1.0
 10
2.7689078671
 20
4.2664240668
 30
0.0
 10
2.7695040966
 20
4.2436881554
 30
0.0
 10
2.7706618366
 20
4.1955615778
 30
0.0
 10
2.771990745
 20
4.1339950756
 30
0.0
 10
2.7730744341
 20
4.0813738957
 30
0.0
 10
2.7741931402
 20
4.0260056171
 30
0.0
 10
2.7750188183
 20
3.9840745903
 30
0.0
 10
2.775560445
 20
3.9559358953
 30
0.0
  0
SPLINE
  5
3B0
100
AcDbEntity
  8
0
100
AcDbSpline
 62
7
  6
CONTINUOUS
 70
0
 71
3
 72
15
 73
11
 74
0
 42
0.0000001
 43
0.0000001
 44
0.0000000001
 40
0.0
 40
0.0
 40
0.0
 40
0.0
 40
0.0381934908
 40
0.0645912178
 40
0.0968591307
 40
0.180308791
 40
0.2901041981
 40
0.4267994474
 40
0.5906310586
 40
1.0
 40
1.0
 40
1.0
 40
1.0
 10
2.9878075748
 20
4.5051816453
 30
0.0
 10
2.9878218079
 20
4.5052486924
 30
0.0
 10
2.9879007574
 20
4.5053464204
 30
0.0
 10
2.9880398026
 20
4.5054481555
 30
0.0
 10
2.988263538
 20
4.5055731932
 30
0.0
 10
2.9886411207
 20
4.5057211127
 30
0.0
 10
2.9892091239
 20
4.5058897373
 30
0.0
 10
2.989925991
 20
4.5060592072
 30
0.0
 10
2.9911761474
 20
4.5063052849
 30
0.0
 10
2.9921934755
 20
4.5064606019
 30
0.0
 10
2.992921047
 20
4.5065622949
 30
0.0
  0
SPLINE
  5
3B1
100
AcDbEntity
  8
0
100
AcDbSpline
 62
7
  6
CONTINUOUS
 70
0
 71
3
 72
40
 73
36
 74
0
 42
0.0000001
 43
0.0000001
 44
0.0000000001
 40
0.0
 40
0.0
 40
0.0
 40
0.0
 40
0.0047706799
 40
0.0105389575
 40
0.017298147
 40
0.0250322241
 40
0.0433502449
 40
0.0653418044
 40
0.0908408661
 40
0.1196279461
 40
0.151469647
 40
0.1861215398
 40
0.2626867632
 40
0.346857903
 40
0.43587257
 40
0.5268293325
 40
0.6167756904
 40
0.7028292967
 40
0.7435134023
 40
0.7821742452
 40
0.8184802586
 40
0.8521587981
 40
0.8829529083
 40
0.9106124812
 40
0.934915615
 40
0.9556482646
 40
0.9646114842
 40
0.9726172928
 40
0.9796546587
 40
0.985712892
 40
0.990781922
 40
0.9948529208
 40
0.997921598
 40
0.9990830467
 40
1.0
 40
1.0
 40
1.0
 40
1.0
 10
2.992921047
 20
4.5065622949
 30
0.0
 10
2.9938395427
 20
4.5066906734
 30
0.0
 10
2.9958734959
 20
4.5069391106
 30
0.0
 10
2.999219188
 20
4.5072787819
 30
0.0
 10
3.0031434176
 20
4.5076193096
 30
0.0
 10
3.0095037495
 20
4.5081020478
 30
0.0
 10
3.0188252597
 20
4.5086902398
 30
0.0
 10
3.0316006789
 20
4.5093675204
 30
0.0
 10
3.0464136444
 20
4.5100471525
 30
0.0
 10
3.0631431169
 20
4.5107292223
 30
0.0
 10
3.0816531833
 20
4.5114126024
 30
0.0
 10
3.1094479666
 20
4.512355759
 30
0.0
 10
3.1474140722
 20
4.5135127637
 30
0.0
 10
3.195947076
 20
4.514864515
 30
0.0
 10
3.2472787587
 20
4.516218651
 30
0.0
 10
3.2997335057
 20
4.517573335
 30
0.0
 10
3.3516124173
 20
4.5189284286
 30
0.0
 10
3.3937203673
 20
4.5200759798
 30
0.0
 10
3.425860513
 20
4.5210068382
 30
0.0
 10
3.448332742
 20
4.5216913642
 30
0.0
 10
3.4694424211
 20
4.5223757527
 30
0.0
 10
3.4890219698
 20
4.52305941
 30
0.0
 10
3.506919575
 20
4.523741992
 30
0.0
 10
3.5229932052
 20
4.5244233076
 30
0.0
 10
3.5371089894
 20
4.5251025577
 30
0.0
 10
3.547590199
 20
4.5256899598
 30
0.0
 10
3.5549037798
 20
4.5261696599
 30
0.0
 10
3.5595581761
 20
4.5265112669
 30
0.0
 10
3.5636462368
 20
4.5268519777
 30
0.0
 10
3.5671611687
 20
4.5271916361
 30
0.0
 10
3.570096764
 20
4.5275289923
 30
0.0
 10
3.5724464388
 20
4.5278641689
 30
0.0
 10
3.5740346267
 20
4.5281583301
 30
0.0
 10
3.5750041273
 20
4.5284069488
 30
0.0
 10
3.5753887456
 20
4.5285329127
 30
0.0
 10
3.5755543239
 20
4.5285989369
 30
0.0
  0
LINE
  5
3B2
100
AcDbEntity
  8
0
100
AcDbLine
 62
7
  6
CONTINUOUS
 10
3.5755543239
 20
4.5285989369
 11
3.5758900828
 21
4.5287582423
  0
SPLINE
  5
3B3
100
AcDbEntity
  8
0
100
AcDbSpline
 62
7
  6
CONTINUOUS
 70
0
 71
3
 72
31
 73
27
 74
0
 42
0.0000001
 43
0.0000001
 44
0.0000000001
 40
0.0
 40
0.0
 40
0.0
 40
0.0
 40
0.0541863868
 40
0.1176117087
 40
0.1886907976
 40
0.2657789705
 40
0.3471158872
 40
0.430810235
 40
0.514915693
 40
0.597469273
 40
0.676591485
 40
0.7504530271
 40
0.8172873532
 40
0.847564058
 40
0.8755337373
 40
0.9010432768
 40
0.9239444793
 40
0.9441035359
 40
0.9613897483
 40
0.9756760756
 40
0.9816680766
 40
0.9868874581
 40
0.991331269
 40
0.9949974167
 40
0.9978856043
 40
1.0
 40
1.0
 40
1.0
 40
1.0
 10
3.520817602
 20
4.6141901453
 30
0.0
 10
3.511208266
 20
4.6137632155
 30
0.0
 10
3.4903466391
 20
4.6129391664
 30
0.0
 10
3.4568708518
 20
4.6117980093
 30
0.0
 10
3.4193276599
 20
4.6106544545
 30
0.0
 10
3.3786037015
 20
4.6095074623
 30
0.0
 10
3.3356395879
 20
4.6083583304
 30
0.0
 10
3.2914293925
 20
4.6072089792
 30
0.0
 10
3.2470031409
 20
4.6060600137
 30
0.0
 10
3.2033887934
 20
4.6049104706
 30
0.0
 10
3.1615934874
 20
4.6037622969
 30
0.0
 10
3.1225895926
 20
4.602617053
 30
0.0
 10
3.0922554091
 20
4.6016364925
 30
0.0
 10
3.0700662077
 20
4.6008386555
 30
0.0
 10
3.0552096095
 20
4.6002607663
 30
0.0
 10
3.0416632961
 20
4.5996837555
 30
0.0
 10
3.0295048133
 20
4.5991077559
 30
0.0
 10
3.0188077852
 20
4.5985336528
 30
0.0
 10
3.0096424206
 20
4.5979621057
 30
0.0
 10
3.0029924305
 20
4.5974646689
 30
0.0
 10
2.9984846495
 20
4.5970559332
 30
0.0
 10
2.9957204216
 20
4.5967684181
 30
0.0
 10
2.9933715982
 20
4.5964819806
 30
0.0
 10
2.9914395779
 20
4.5961977303
 30
0.0
 10
2.9899267874
 20
4.5959158721
 30
0.0
 10
2.9890633361
 20
4.5957007337
 30
0.0
 10
2.9887071204
 20
4.5955824718
 30
0.0
  0
LINE
  5
3B4
100
AcDbEntity
  8
0
100
AcDbLine
 62
7
  6
CONTINUOUS
 10
2.9887071204
 20
4.5955824718
 11
2.9880922948
 21
4.595321564
  0
SPLINE
  5
3B5
100
AcDbEntity
  8
0
100
AcDbSpline
 62
7
  6
CONTINUOUS
 70
0
 71
3
 72
18
 73
14
 74
0
 42
0.0000001
 43
0.0000001
 44
0.0000000001
 40
0.0
 40
0.0
 40
0.0
 40
0.0
 40
0.2037448368
 40
0.3869751257
 40
0.548430282
 40
0.6868544661
 40
0.8012180293
 40
0.8493254728
 40
0.8914046597
 40
0.9274761405
 40
0.957567155
 40
0.9817181902
 40
1.0
 40
1.0
 40
1.0
 40
1.0
 10
3.5207775874
 20
4.6201816453
 30
0.0
 10
3.5244773023
 20
4.6203456194
 30
0.0
 10
3.5315036272
 20
4.6206707359
 30
0.0
 10
3.5414589765
 20
4.6211833403
 30
0.0
 10
3.5502253621
 20
4.6216948428
 30
0.0
 10
3.557737674
 20
4.6222041755
 30
0.0
 10
3.5631891458
 20
4.622648177
 30
0.0
 10
3.5668893744
 20
4.623011965
 30
0.0
 10
3.5691700542
 20
4.6232681722
 30
0.0
 10
3.5711209669
 20
4.6235234782
 30
0.0
 10
3.5727431621
 20
4.6237772633
 30
0.0
 10
3.5740372273
 20
4.624029209
 30
0.0
 10
3.5747858261
 20
4.6242197605
 30
0.0
 10
3.5751019771
 20
4.6243220842
 30
0.0
  0
LINE
  5
3B6
100
AcDbEntity
  8
0
100
AcDbLine
 62
7
  6
CONTINUOUS
 10
3.5751019771
 20
4.6243220842
 11
3.5757628078
 21
4.6245954224
  0
SPLINE
  5
3B7
100
AcDbEntity
  8
0
100
AcDbSpline
 62
7
  6
CONTINUOUS
 70
0
 71
3
 72
21
 73
17
 74
0
 42
0.0000001
 43
0.0000001
 44
0.0000000001
 40
0.0
 40
0.0
 40
0.0
 40
0.0
 40
0.0480357932
 40
0.1032899778
 40
0.1647493237
 40
0.23137676
 40
0.302086814
 40
0.3756738101
 40
0.5264882644
 40
0.673696557
 40
0.7428311702
 40
0.8074147759
 40
0.8663576709
 40
0.9186686157
 40
0.9634668232
 40
1.0
 40
1.0
 40
1.0
 40
1.0
 10
3.5445702011
 20
4.6370460467
 30
0.0
 10
3.5356810776
 20
4.636682399
 30
0.0
 10
3.5165636765
 20
4.6359833451
 30
0.0
 10
3.4860663666
 20
4.6350128742
 30
0.0
 10
3.4521244341
 20
4.6340339191
 30
0.0
 10
3.4153189787
 20
4.6330517811
 30
0.0
 10
3.3762666366
 20
4.6320703303
 30
0.0
 10
3.3216259015
 20
4.6307501419
 30
0.0
 10
3.2528200776
 20
4.6291395916
 30
0.0
 10
3.1848394468
 20
4.627512832
 30
0.0
 10
3.1328270745
 20
4.6261765205
 30
0.0
 10
3.0971583439
 20
4.6251965555
 30
0.0
 10
3.0646066884
 20
4.6242186136
 30
0.0
 10
3.0357210652
 20
4.623244941
 30
0.0
 10
3.0109884372
 20
4.6222766826
 30
0.0
 10
2.9959418425
 20
4.6215620837
 30
0.0
 10
2.9891860958
 20
4.621186209
 30
0.0
  0
LINE
  5
3B8
100
AcDbEntity
  8
0
100
AcDbLine
 62
7
  6
CONTINUOUS
 10
2.9891860958
 20
4.621186209
 11
2.9766062448
 21
4.620399373
  0
SPLINE
  5
3B9
100
AcDbEntity
  8
0
100
AcDbSpline
 62
7
  6
CONTINUOUS
 70
0
 71
3
 72
13
 73
9
 74
0
 42
0.0000001
 43
0.0000001
 44
0.0000000001
 40
0.0
 40
0.0
 40
0.0
 40
0.0
 40
0.3590161389
 40
0.6457701554
 40
0.7617607296
 40
0.8594470003
 40
0.9388342046
 40
1.0
 40
1.0
 40
1.0
 40
1.0
 10
2.9766062448
 20
4.620399373
 30
0.0
 10
2.9745730409
 20
4.6202539424
 30
0.0
 10
2.9709173118
 20
4.6199719869
 30
0.0
 10
2.966611016
 20
4.619563658
 30
0.0
 10
2.9637897372
 20
4.6192257848
 30
0.0
 10
2.9621420993
 20
4.6189916012
 30
0.0
 10
2.9608095407
 20
4.6187584883
 30
0.0
 10
2.9600302584
 20
4.6185826436
 30
0.0
 10
2.9596959358
 20
4.6184886541
 30
0.0
  0
SPLINE
  5
3BA
100
AcDbEntity
  8
0
100
AcDbSpline
 62
7
  6
CONTINUOUS
 70
0
 71
3
 72
13
 73
9
 74
0
 42
0.0000001
 43
0.0000001
 44
0.0000000001
 40
0.0
 40
0.0
 40
0.0
 40
0.0
 40
0.3836748034
 40
0.6703075823
 40
0.7793032739
 40
0.8676235158
 40
0.9389147626
 40
1.0
 40
1.0
 40
1.0
 40
1.0
 10
2.9596959358
 20
4.6184886541
 30
0.0
 10
2.9595274248
 20
4.6184412799
 30
0.0
 10
2.9592353645
 20
4.6183503458
 30
0.0
 10
2.9589062866
 20
4.6182114882
 30
0.0
 10
2.9587187491
 20
4.618093881
 30
0.0
 10
2.9586257669
 20
4.6180129996
 30
0.0
 10
2.958566621
 20
4.6179296978
 30
0.0
 10
2.958552008
 20
4.6178689156
 30
0.0
 10
2.958552008
 20
4.6178410467
 30
0.0
  0
SPLINE
  5
3BB
100
AcDbEntity
  8
0
100
AcDbSpline
 62
7
  6
CONTINUOUS
 70
0
 71
3
 72
10
 73
6
 74
0
 42
0.0000001
 43
0.0000001
 44
0.0000000001
 40
0.0
 40
0.0
 40
0.0
 40
0.0
 40
0.5654394389
 40
0.799795528
 40
1.0
 40
1.0
 40
1.0
 40
1.0
 10
3.5445702011
 20
4.597325744
 30
0.0
 10
3.5524240616
 20
4.5976525736
 30
0.0
 10
3.5635324168
 20
4.5981354768
 30
0.0
 10
3.577414994
 20
4.5988693216
 30
0.0
 10
3.5834446513
 20
4.5992451992
 30
0.0
 10
3.5862211585
 20
4.5994382976
 30
0.0
  0
SPLINE
  5
3BC
100
AcDbEntity
  8
0
100
AcDbSpline
 62
7
  6
CONTINUOUS
 70
0
 71
3
 72
14
 73
10
 74
0
 42
0.0000001
 43
0.0000001
 44
0.0000000001
 40
0.0
 40
0.0
 40
0.0
 40
0.0
 40
0.3709489676
 40
0.526508328
 40
0.661880164
 40
0.7769159339
 40
0.8715735452
 40
0.9458825271
 40
1.0
 40
1.0
 40
1.0
 40
1.0
 10
3.5862211585
 20
4.5994382976
 30
0.0
 10
3.5885117915
 20
4.5995976047
 30
0.0
 10
3.5917618973
 20
4.5998421693
 30
0.0
 10
3.595842077
 20
4.6002140488
 30
0.0
 10
3.5983415531
 20
4.6004748699
 30
0.0
 10
3.6004618338
 20
4.600733629
 30
0.0
 10
3.6022015142
 20
4.6009898647
 30
0.0
 10
3.6035587544
 20
4.6012441397
 30
0.0
 10
3.6043312913
 20
4.6014391285
 30
0.0
 10
3.6046484085
 20
4.6015470742
 30
0.0
  0
SPLINE
  5
3BD
100
AcDbEntity
  8
0
100
AcDbSpline
 62
7
  6
CONTINUOUS
 70
0
 71
3
 72
10
 73
6
 74
0
 42
0.0000001
 43
0.0000001
 44
0.0000000001
 40
0.0
 40
0.0
 40
0.0
 40
0.0
 40
0.3749371276
 40
0.6596599703
 40
1.0
 40
1.0
 40
1.0
 40
1.0
 10
3.6046484085
 20
4.6015470742
 30
0.0
 10
3.6047636678
 20
4.6015863081
 30
0.0
 10
3.6049671777
 20
4.6016644336
 30
0.0
 10
3.6052463534
 20
4.6018041565
 30
0.0
 10
3.605427008
 20
4.6019704749
 30
0.0
 10
3.605427008
 20
4.602080994
 30
0.0
  0
SPLINE
  5
3BE
100
AcDbEntity
  8
0
100
AcDbSpline
 62
7
  6
CONTINUOUS
 70
0
 71
3
 72
9
 73
5
 74
0
 42
0.0000001
 43
0.0000001
 44
0.0000000001
 40
0.0
 40
0.0
 40
0.0
 40
0.0
 40
0.5077420086
 40
1.0
 40
1.0
 40
1.0
 40
1.0
 10
1.4405403382
 20
3.9067322715
 30
0.0
 10
1.4390896351
 20
3.9008512705
 30
0.0
 10
1.4363535059
 20
3.8892382644
 30
0.0
 10
1.433928156
 20
3.8775553331
 30
0.0
 10
1.4328338707
 20
3.8717856237
 30
0.0
  0
SPLINE
  5
3BF
100
AcDbEntity
  8
0
100
AcDbSpline
 62
7
  6
CONTINUOUS
 70
0
 71
3
 72
9
 73
5
 74
0
 42
0.0000001
 43
0.0000001
 44
0.0000000001
 40
0.0
 40
0.0
 40
0.0
 40
0.0
 40
0.5174201353
 40
1.0
 40
1.0
 40
1.0
 40
1.0
 10
1.4266690269
 20
3.8056246731
 30
0.0
 10
1.4267831771
 20
3.8031082203
 30
0.0
 10
1.4271161015
 20
3.7982489381
 30
0.0
 10
1.4277093776
 20
3.7934135845
 30
0.0
 10
1.428069977
 20
3.7910920006
 30
0.0
  0
LINE
  5
3C0
100
AcDbEntity
  8
0
100
AcDbLine
 62
7
  6
CONTINUOUS
 10
1.428069977
 20
3.7910920006
 11
1.4294451591
 21
3.7839394621
  0
SPLINE
  5
3C1
100
AcDbEntity
  8
0
100
AcDbSpline
 62
9
  6
CONTINUOUS
 70
0
 71
3
 72
13
 73
9
 74
0
 42
0.0000001
 43
0.0000001
 44
0.0000000001
 40
0.0
 40
0.0
 40
0.0
 40
0.0
 40
0.288293802
 40
0.5557429553
 40
0.6789910719
 40
0.7943600464
 40
0.9014799258
 40
1.0
 40
1.0
 40
1.0
 40
1.0
 10
1.6385097213
 20
4.0893408652
 30
0.0
 10
1.6209725182
 20
4.0857676793
 30
0.0
 10
1.5875240036
 20
4.0770286522
 30
0.0
 10
1.5478100348
 20
4.0627759251
 30
0.0
 10
1.5188556918
 20
4.0505684224
 30
0.0
 10
1.4994040866
 20
4.0414809283
 30
0.0
 10
1.481711523
 20
4.0322966354
 30
0.0
 10
1.4706633823
 20
4.0258868866
 30
0.0
 10
1.4654622856
 20
4.0226687209
 30
0.0
  0
SPLINE
  5
3C2
100
AcDbEntity
  8
0
100
AcDbSpline
 62
9
  6
CONTINUOUS
 70
0
 71
3
 72
20
 73
16
 74
0
 42
0.0000001
 43
0.0000001
 44
0.0000000001
 40
0.0
 40
0.0
 40
0.0
 40
0.0
 40
0.0537017577
 40
0.1078021414
 40
0.162538744
 40
0.2181400069
 40
0.3327394302
 40
0.4532781227
 40
0.5804679959
 40
0.646637314
 40
0.7144526185
 40
0.7838528391
 40
0.8547241906
 40
0.9268536399
 40
1.0
 40
1.0
 40
1.0
 40
1.0
 10
1.4815962665
 20
4.2476223291
 30
0.0
 10
1.4815962665
 20
4.2433365789
 30
0.0
 10
1.4820667064
 20
4.234726182
 30
0.0
 10
1.4841615068
 20
4.2219015134
 30
0.0
 10
1.4876330565
 20
4.2092198884
 30
0.0
 10
1.4941439486
 20
4.1924618453
 30
0.0
 10
1.5057726347
 20
4.1722032905
 30
0.0
 10
1.5245435411
 20
4.150031828
 30
0.0
 10
1.5436743135
 20
4.1336946701
 30
0.0
 10
1.5609052834
 20
4.1219439422
 30
0.0
 10
1.5749274322
 20
4.1137419108
 30
0.0
 10
1.5897965837
 20
4.1063209837
 30
0.0
 10
1.6054248311
 20
4.09972777
 30
0.0
 10
1.6217046782
 20
4.0939952191
 30
0.0
 10
1.6328552001
 20
4.0907913077
 30
0.0
 10
1.6385096802
 20
4.089340819
 30
0.0
  0
SPLINE
  5
3C3
100
AcDbEntity
  8
0
100
AcDbSpline
 62
9
  6
CONTINUOUS
 70
0
 71
3
 72
15
 73
11
 74
0
 42
0.0000001
 43
0.0000001
 44
0.0000000001
 40
0.0
 40
0.0
 40
0.0
 40
0.0
 40
0.1191688087
 40
0.2433395901
 40
0.3708404166
 40
0.5000000489
 40
0.6291596741
 40
0.7566604804
 40
0.880831231
 40
1.0
 40
1.0
 40
1.0
 40
1.0
 10
1.6385097436
 20
4.0893408675
 30
0.0
 10
1.640045144
 20
4.0788194577
 30
0.0
 10
1.6427384246
 20
4.0572687563
 30
0.0
 10
1.6456405483
 20
4.0243014714
 30
0.0
 10
1.6474365031
 20
3.9903623374
 30
0.0
 10
1.6480577306
 20
3.9559358134
 30
0.0
 10
1.6474364524
 20
3.921509292
 30
0.0
 10
1.645640448
 20
3.8875701659
 30
0.0
 10
1.6427382767
 20
3.8546028933
 30
0.0
 10
1.6400449656
 20
3.833052202
 30
0.0
 10
1.6385095505
 20
3.8225307979
 30
0.0
  0
SPLINE
  5
3C4
100
AcDbEntity
  8
0
100
AcDbSpline
 62
9
  6
CONTINUOUS
 70
0
 71
3
 72
20
 73
16
 74
0
 42
0.0000001
 43
0.0000001
 44
0.0000000001
 40
0.0
 40
0.0
 40
0.0
 40
0.0
 40
0.0731463601
 40
0.1452758094
 40
0.2161471609
 40
0.2855473815
 40
0.353362686
 40
0.4195320041
 40
0.5467218773
 40
0.6672605698
 40
0.7818599931
 40
0.837461256
 40
0.8921978586
 40
0.9462982423
 40
1.0
 40
1.0
 40
1.0
 40
1.0
 10
1.6385096802
 20
3.8225309716
 30
0.0
 10
1.6328552001
 20
3.8210804829
 30
0.0
 10
1.6217046782
 20
3.8178765716
 30
0.0
 10
1.6054248311
 20
3.8121440206
 30
0.0
 10
1.5897965837
 20
3.8055508069
 30
0.0
 10
1.5749274322
 20
3.7981298798
 30
0.0
 10
1.5609052834
 20
3.7899278485
 30
0.0
 10
1.5436743135
 20
3.7781771206
 30
0.0
 10
1.5245435411
 20
3.7618399627
 30
0.0
 10
1.5057726347
 20
3.7396685002
 30
0.0
 10
1.4941439486
 20
3.7194099454
 30
0.0
 10
1.4876330565
 20
3.7026519022
 30
0.0
 10
1.4841615068
 20
3.6899702772
 30
0.0
 10
1.4820667064
 20
3.6771456086
 30
0.0
 10
1.4815962665
 20
3.6685352118
 30
0.0
 10
1.4815962665
 20
3.6642494616
 30
0.0
  0
SPLINE
  5
3C5
100
AcDbEntity
  8
0
100
AcDbSpline
 62
9
  6
CONTINUOUS
 70
0
 71
3
 72
19
 73
15
 74
0
 42
0.0000001
 43
0.0000001
 44
0.0000000001
 40
0.0
 40
0.0
 40
0.0
 40
0.0
 40
0.0918737965
 40
0.1924232232
 40
0.246090916
 40
0.3020782595
 40
0.3604258975
 40
0.4211767043
 40
0.4843759957
 40
0.5500754799
 40
0.6892551944
 40
0.7629192349
 40
0.8393408829
 40
1.0
 40
1.0
 40
1.0
 40
1.0
 10
1.4654623872
 20
3.889203354
 30
0.0
 10
1.470285588
 20
3.8861574227
 30
0.0
 10
1.48060558
 20
3.8801212393
 30
0.0
 10
1.4941692013
 20
3.8730759189
 30
0.0
 10
1.5059158849
 20
3.8673860822
 30
0.0
 10
1.5153825223
 20
3.8630034482
 30
0.0
 10
1.5253282703
 20
3.8586130093
 30
0.0
 10
1.5357637206
 20
3.8542275159
 30
0.0
 10
1.5466997491
 20
3.8498595348
 30
0.0
 10
1.5622673139
 20
3.8439662591
 30
0.0
 10
1.5786335936
 20
3.838354068
 30
0.0
 10
1.5958224468
 20
3.8331402038
 30
0.0
 10
1.6144215047
 20
3.8280021182
 30
0.0
 10
1.6287527127
 20
3.8246069174
 30
0.0
 10
1.6385096802
 20
3.8225309716
 30
0.0
  0
SPLINE
  5
3C6
100
AcDbEntity
  8
0
100
AcDbSpline
 62
9
  6
CONTINUOUS
 70
0
 71
3
 72
11
 73
7
 74
0
 42
0.0000001
 43
0.0000001
 44
0.0000000001
 40
0.0
 40
0.0
 40
0.0
 40
0.0
 40
0.2447894749
 40
0.4920277326
 40
0.7432509041
 40
1.0
 40
1.0
 40
1.0
 40
1.0
 10
1.4815962665
 20
3.6642494616
 30
0.0
 10
1.4815962665
 20
3.6590993109
 30
0.0
 10
1.4822773295
 20
3.6487355429
 30
0.0
 10
1.4853017675
 20
3.6333522706
 30
0.0
 10
1.4903100513
 20
3.6182314256
 30
0.0
 10
1.4948906119
 20
3.6085431823
 30
0.0
 10
1.4974720661
 20
3.6037981621
 30
0.0
  0
SPLINE
  5
3C7
100
AcDbEntity
  8
0
100
AcDbSpline
 62
9
  6
CONTINUOUS
 70
0
 71
3
 72
20
 73
16
 74
0
 42
0.0000001
 43
0.0000001
 44
0.0000000001
 40
0.0
 40
0.0
 40
0.0
 40
0.0
 40
0.1670648688
 40
0.2459288488
 40
0.3214954094
 40
0.3938025321
 40
0.4629786063
 40
0.5291363922
 40
0.5923683013
 40
0.6527371963
 40
0.7102976454
 40
0.7651023069
 40
0.8172029222
 40
0.9135464301
 40
1.0
 40
1.0
 40
1.0
 40
1.0
 10
1.8009193359
 20
3.8225309716
 30
0.0
 10
1.8120424702
 20
3.824928858
 30
0.0
 10
1.8283348795
 20
3.8288606464
 30
0.0
 10
1.8493964691
 20
3.8348579878
 30
0.0
 10
1.8641270297
 20
3.8395013794
 30
0.0
 10
1.8781016258
 20
3.8443283484
 30
0.0
 10
1.8913501403
 20
3.8492800855
 30
0.0
 10
1.9039076612
 20
3.8543039276
 30
0.0
 10
1.9158098322
 20
3.8593435614
 30
0.0
 10
1.9270731335
 20
3.8643838477
 30
0.0
 10
1.9377106302
 20
3.8694111499
 30
0.0
 10
1.9477349949
 20
3.8744120751
 30
0.0
 10
1.9599873039
 20
3.8808568909
 30
0.0
 10
1.9738807011
 20
3.8888049479
 30
0.0
 10
1.9842644617
 20
3.8957024004
 30
0.0
 10
1.9890085292
 20
3.8991903453
 30
0.0
  0
SPLINE
  5
3C8
100
AcDbEntity
  8
0
100
AcDbSpline
 62
9
  6
CONTINUOUS
 70
0
 71
3
 72
20
 73
16
 74
0
 42
0.0000001
 43
0.0000001
 44
0.0000000001
 40
0.0
 40
0.0
 40
0.0
 40
0.0
 40
0.0537017577
 40
0.1078021414
 40
0.162538744
 40
0.2181400069
 40
0.3327394302
 40
0.4532781227
 40
0.5804679959
 40
0.646637314
 40
0.7144526185
 40
0.7838528391
 40
0.8547241906
 40
0.9268536399
 40
1.0
 40
1.0
 40
1.0
 40
1.0
 10
1.9578327495
 20
3.6642494616
 30
0.0
 10
1.9578327495
 20
3.6685352118
 30
0.0
 10
1.9573623096
 20
3.6771456086
 30
0.0
 10
1.9552675093
 20
3.6899702772
 30
0.0
 10
1.9517959596
 20
3.7026519022
 30
0.0
 10
1.9452850675
 20
3.7194099454
 30
0.0
 10
1.9336563814
 20
3.7396685002
 30
0.0
 10
1.914885475
 20
3.7618399627
 30
0.0
 10
1.8957547026
 20
3.7781771206
 30
0.0
 10
1.8785237326
 20
3.7899278485
 30
0.0
 10
1.8645015839
 20
3.7981298798
 30
0.0
 10
1.8496324324
 20
3.8055508069
 30
0.0
 10
1.834004185
 20
3.8121440206
 30
0.0
 10
1.8177243379
 20
3.8178765716
 30
0.0
 10
1.806573816
 20
3.8210804829
 30
0.0
 10
1.8009193359
 20
3.8225309716
 30
0.0
  0
SPLINE
  5
3C9
100
AcDbEntity
  8
0
100
AcDbSpline
 62
9
  6
CONTINUOUS
 70
0
 71
3
 72
15
 73
11
 74
0
 42
0.0000001
 43
0.0000001
 44
0.0000000001
 40
0.0
 40
0.0
 40
0.0
 40
0.0
 40
0.1191687741
 40
0.2433395279
 40
0.3708403358
 40
0.499999961
 40
0.6291595919
 40
0.756660416
 40
0.8808311945
 40
1.0
 40
1.0
 40
1.0
 40
1.0
 10
1.8009193834
 20
3.8225308981
 30
0.0
 10
1.799383971
 20
3.8330522991
 30
0.0
 10
1.7966906656
 20
3.8546029837
 30
0.0
 10
1.7937885034
 20
3.8875702457
 30
0.0
 10
1.7919925088
 20
3.9215093602
 30
0.0
 10
1.791371241
 20
3.9559358691
 30
0.0
 10
1.7919924793
 20
3.9903623799
 30
0.0
 10
1.7937884451
 20
4.0243015001
 30
0.0
 10
1.79669058
 20
4.057268771
 30
0.0
 10
1.7993838681
 20
4.0788194628
 30
0.0
 10
1.8009192722
 20
4.0893408679
 30
0.0
  0
SPLINE
  5
3CA
100
AcDbEntity
  8
0
100
AcDbSpline
 62
9
  6
CONTINUOUS
 70
0
 71
3
 72
20
 73
16
 74
0
 42
0.0000001
 43
0.0000001
 44
0.0000000001
 40
0.0
 40
0.0
 40
0.0
 40
0.0
 40
0.0731463601
 40
0.1452758094
 40
0.2161471609
 40
0.2855473815
 40
0.353362686
 40
0.4195320041
 40
0.5467218773
 40
0.6672605698
 40
0.7818599931
 40
0.837461256
 40
0.8921978586
 40
0.9462982423
 40
1.0
 40
1.0
 40
1.0
 40
1.0
 10
1.8009193359
 20
4.089340819
 30
0.0
 10
1.806573816
 20
4.0907913077
 30
0.0
 10
1.8177243379
 20
4.0939952191
 30
0.0
 10
1.834004185
 20
4.09972777
 30
0.0
 10
1.8496324324
 20
4.1063209837
 30
0.0
 10
1.8645015839
 20
4.1137419108
 30
0.0
 10
1.8785237326
 20
4.1219439422
 30
0.0
 10
1.8957547026
 20
4.1336946701
 30
0.0
 10
1.914885475
 20
4.150031828
 30
0.0
 10
1.9336563814
 20
4.1722032905
 30
0.0
 10
1.9452850675
 20
4.1924618453
 30
0.0
 10
1.9517959596
 20
4.2092198884
 30
0.0
 10
1.9552675093
 20
4.2219015134
 30
0.0
 10
1.9573623096
 20
4.234726182
 30
0.0
 10
1.9578327495
 20
4.2433365789
 30
0.0
 10
1.9578327495
 20
4.2476223291
 30
0.0
  0
SPLINE
  5
3CB
100
AcDbEntity
  8
0
100
AcDbSpline
 62
9
  6
CONTINUOUS
 70
0
 71
3
 72
14
 73
10
 74
0
 42
0.0000001
 43
0.0000001
 44
0.0000000001
 40
0.0
 40
0.0
 40
0.0
 40
0.0
 40
0.0928231447
 40
0.1959206893
 40
0.3089641221
 40
0.4315643065
 40
0.5631603813
 40
0.7026674893
 40
1.0
 40
1.0
 40
1.0
 40
1.0
 10
1.9890083292
 20
4.0126814329
 30
0.0
 10
1.9838707018
 20
4.0163639455
 30
0.0
 10
1.9727100383
 20
4.0236982156
 30
0.0
 10
1.9544350269
 20
4.0341443783
 30
0.0
 10
1.9338269807
 20
4.0445303288
 30
0.0
 10
1.9109977972
 20
4.0547575111
 30
0.0
 10
1.8860941033
 20
4.0647128154
 30
0.0
 10
1.8495521039
 20
4.0774977307
 30
0.0
 10
1.8207593734
 20
4.0852982112
 30
0.0
 10
1.8009192084
 20
4.0893406197
 30
0.0
  0
SPLINE
  5
3CC
100
AcDbEntity
  8
0
100
AcDbSpline
 62
9
  6
CONTINUOUS
 70
0
 71
3
 72
11
 73
7
 74
0
 42
0.0000001
 43
0.0000001
 44
0.0000000001
 40
0.0
 40
0.0
 40
0.0
 40
0.0
 40
0.2447894749
 40
0.4920277326
 40
0.7432509041
 40
1.0
 40
1.0
 40
1.0
 40
1.0
 10
1.9578327495
 20
4.2476223291
 30
0.0
 10
1.9578327495
 20
4.2527724798
 30
0.0
 10
1.9571516865
 20
4.2631362477
 30
0.0
 10
1.9541272486
 20
4.2785195201
 30
0.0
 10
1.9491189648
 20
4.293640365
 30
0.0
 10
1.9445384042
 20
4.3033286083
 30
0.0
 10
1.94195695
 20
4.3080736286
 30
0.0
  0
SPLINE
  5
3CD
100
AcDbEntity
  8
0
100
AcDbSpline
 62
9
  6
CONTINUOUS
 70
0
 71
3
 72
17
 73
13
 74
0
 42
0.0000001
 43
0.0000001
 44
0.0000000001
 40
0.0
 40
0.0
 40
0.0
 40
0.0
 40
0.1320283939
 40
0.258699048
 40
0.3807762142
 40
0.4406072628
 40
0.5000002491
 40
0.559393281
 40
0.6192244144
 40
0.7413015487
 40
0.8679716859
 40
1.0
 40
1.0
 40
1.0
 40
1.0
 10
1.6385104753
 20
4.0893397639
 30
0.0
 10
1.6449404016
 20
4.0935926509
 30
0.0
 10
1.6578357875
 20
4.1015009962
 30
0.0
 10
1.677979833
 20
4.1110468264
 30
0.0
 10
1.6953352438
 20
4.1162355598
 30
0.0
 10
1.7092806494
 20
4.1183758124
 30
0.0
 10
1.7197145537
 20
4.1189303433
 30
0.0
 10
1.730148462
 20
4.118375794
 30
0.0
 10
1.7440938703
 20
4.1162355245
 30
0.0
 10
1.7614492552
 20
4.1110468021
 30
0.0
 10
1.7815932664
 20
4.1015009831
 30
0.0
 10
1.794488615
 20
4.0935926446
 30
0.0
 10
1.8009185393
 20
4.0893397629
 30
0.0
  0
SPLINE
  5
3CE
100
AcDbEntity
  8
0
100
AcDbSpline
 62
9
  6
CONTINUOUS
 70
0
 71
3
 72
19
 73
15
 74
0
 42
0.0000001
 43
0.0000001
 44
0.0000000001
 40
0.0
 40
0.0
 40
0.0
 40
0.0
 40
0.0586407786
 40
0.1180725329
 40
0.2400391529
 40
0.3030783721
 40
0.3675922693
 40
0.5000003423
 40
0.6324082848
 40
0.696921862
 40
0.7599609853
 40
0.8819274964
 40
0.9413592229
 40
1.0
 40
1.0
 40
1.0
 40
1.0
 10
1.8009193359
 20
3.8225309716
 30
0.0
 10
1.7980642477
 20
3.820641088
 30
0.0
 10
1.7922562821
 20
3.8169230007
 30
0.0
 10
1.7801619885
 20
3.8098384692
 30
0.0
 10
1.7673254882
 20
3.8035096164
 30
0.0
 10
1.7536358102
 20
3.7984816291
 30
0.0
 10
1.7389834596
 20
3.794460291
 30
0.0
 10
1.7197144575
 20
3.7922278809
 30
0.0
 10
1.7004454799
 20
3.7944603138
 30
0.0
 10
1.6857931587
 20
3.7984816435
 30
0.0
 10
1.6721035322
 20
3.8035096796
 30
0.0
 10
1.6592670198
 20
3.8098384722
 30
0.0
 10
1.6471727456
 20
3.816923023
 30
0.0
 10
1.641364776
 20
3.8206410995
 30
0.0
 10
1.6385096802
 20
3.8225309716
 30
0.0
  0
SPLINE
  5
3CF
100
AcDbEntity
  8
0
100
AcDbSpline
 62
9
  6
CONTINUOUS
 70
0
 71
3
 72
15
 73
11
 74
0
 42
0.0000001
 43
0.0000001
 44
0.0000000001
 40
0.0
 40
0.0
 40
0.0
 40
0.0
 40
0.1583787937
 40
0.3049454722
 40
0.4404883191
 40
0.5660335154
 40
0.682903522
 40
0.7927695699
 40
0.8976752218
 40
1.0
 40
1.0
 40
1.0
 40
1.0
 10
1.4405404087
 20
4.0051391343
 30
0.0
 10
1.4380912742
 20
4.003138129
 30
0.0
 10
1.4334796776
 20
3.9991545475
 30
0.0
 10
1.4272191481
 20
3.9929651579
 30
0.0
 10
1.4218958671
 20
3.9867932088
 30
0.0
 10
1.4175157757
 20
3.9806309651
 30
0.0
 10
1.4140865452
 20
3.9744700677
 30
0.0
 10
1.4116190248
 20
3.968302233
 30
0.0
 10
1.4101269903
 20
3.96212519
 30
0.0
 10
1.4097905884
 20
3.9579801019
 30
0.0
 10
1.4097895084
 20
3.9559367966
 30
0.0
  0
SPLINE
  5
3D0
100
AcDbEntity
  8
0
100
AcDbSpline
 62
7
  6
CONTINUOUS
 70
0
 71
3
 72
11
 73
7
 74
0
 42
0.0000001
 43
0.0000001
 44
0.0000000001
 40
0.0
 40
0.0
 40
0.0
 40
0.0
 40
0.2230274666
 40
0.4641631382
 40
0.7232477526
 40
1.0
 40
1.0
 40
1.0
 40
1.0
 10
1.429445691
 20
4.1279314954
 30
0.0
 10
1.4289435618
 20
4.1257674012
 30
0.0
 10
1.4280705315
 20
4.1212226248
 30
0.0
 10
1.4271601128
 20
4.1140722085
 30
0.0
 10
1.4266089059
 20
4.1063489184
 30
0.0
 10
1.4264925408
 20
4.1010104197
 30
0.0
 10
1.4264923583
 20
4.0982536809
 30
0.0
  0
SPLINE
  5
3D1
100
AcDbEntity
  8
0
100
AcDbSpline
 62
7
  6
CONTINUOUS
 70
0
 71
3
 72
10
 73
6
 74
0
 42
0.0000001
 43
0.0000001
 44
0.0000000001
 40
0.0
 40
0.0
 40
0.0
 40
0.0
 40
0.2393401294
 40
0.4868201814
 40
1.0
 40
1.0
 40
1.0
 40
1.0
 10
1.4300760387
 20
4.0561369599
 30
0.0
 10
1.4307027841
 20
4.0520299712
 30
0.0
 10
1.4321093125
 20
4.0436960444
 30
0.0
 10
1.4354424515
 20
4.0266594821
 30
0.0
 10
1.4384068728
 20
4.0137883728
 30
0.0
 10
1.4405403016
 20
4.0051396965
 30
0.0
  0
LINE
  5
3D2
100
AcDbEntity
  8
0
100
AcDbLine
 62
7
  6
CONTINUOUS
 10
2.9588128971
 20
4.5784206221
 11
2.959697153
 21
4.5787535814
  0
LINE
  5
3D3
100
AcDbEntity
  8
0
100
AcDbLine
 62
7
  6
CONTINUOUS
 10
2.959697153
 20
4.5787535814
 11
2.9631079991
 21
4.5793963235
  0
SPLINE
  5
3D4
100
AcDbEntity
  8
0
100
AcDbSpline
 62
7
  6
CONTINUOUS
 70
0
 71
3
 72
26
 73
22
 74
0
 42
0.0000001
 43
0.0000001
 44
0.0000000001
 40
0.0
 40
0.0
 40
0.0
 40
0.0
 40
0.0038107479
 40
0.0083507141
 40
0.0196034742
 40
0.0336968579
 40
0.0505526601
 40
0.0700905783
 40
0.092208513
 40
0.1436712213
 40
0.2038516628
 40
0.2714415534
 40
0.3449979637
 40
0.4229321448
 40
0.5035690907
 40
0.5851719149
 40
0.7442747314
 40
0.8183386299
 40
0.8866022226
 40
0.9476242595
 40
1.0
 40
1.0
 40
1.0
 40
1.0
 10
2.9631079991
 20
4.5793963235
 30
0.0
 10
2.9638396391
 20
4.5795004595
 30
0.0
 10
2.9654465249
 20
4.5797033435
 30
0.0
 10
2.9692271038
 20
4.5801046705
 30
0.0
 10
2.9750035185
 20
4.5805854369
 30
0.0
 10
2.9831694275
 20
4.581133694
 30
0.0
 10
2.9929450347
 20
4.5816837088
 30
0.0
 10
3.0042787234
 20
4.5822364286
 30
0.0
 10
3.0223203269
 20
4.5830161419
 30
0.0
 10
3.0482431951
 20
4.5839684654
 30
0.0
 10
3.0829843456
 20
4.5850672296
 30
0.0
 10
3.1220118788
 20
4.5861700028
 30
0.0
 10
3.1644835285
 20
4.5872755743
 30
0.0
 10
3.2094861355
 20
4.5883828066
 30
0.0
 10
3.2560496085
 20
4.5894906992
 30
0.0
 10
3.3183499594
 20
4.5909559614
 30
0.0
 10
3.3793755514
 20
4.5924102414
 30
0.0
 10
3.4378121052
 20
4.5939196011
 30
0.0
 10
3.4772321153
 20
4.595020786
 30
0.0
 10
3.5124441927
 20
4.5961270024
 30
0.0
 10
3.5344210969
 20
4.5969211621
 30
0.0
 10
3.5445702011
 20
4.597325744
 30
0.0
  0
LINE
  5
3D5
100
AcDbEntity
  8
0
100
AcDbLine
 62
7
  6
CONTINUOUS
 10
3.6051466635
 20
4.5544821747
 11
3.6041887811
 21
4.5548339887
  0
SPLINE
  5
3D6
100
AcDbEntity
  8
0
100
AcDbSpline
 62
7
  6
CONTINUOUS
 70
0
 71
3
 72
39
 73
35
 74
0
 42
0.0000001
 43
0.0000001
 44
0.0000000001
 40
0.0
 40
0.0
 40
0.0
 40
0.0
 40
0.000617012
 40
0.0014455561
 40
0.0024912596
 40
0.0037565254
 40
0.0069491156
 40
0.0110258922
 40
0.0159851261
 40
0.0218231013
 40
0.0285298767
 40
0.036091749
 40
0.0444947286
 40
0.0537246799
 40
0.0746083875
 40
0.0986090783
 40
0.1255490838
 40
0.1552445326
 40
0.1875005803
 40
0.2220851578
 40
0.2587581467
 40
0.2972745096
 40
0.3373631663
 40
0.4211368017
 40
0.5077737008
 40
0.5948782464
 40
0.6800486036
 40
0.7609326688
 40
0.8352950078
 40
0.9010932828
 40
0.9301947863
 40
0.9565001475
 40
0.9798256222
 40
1.0
 40
1.0
 40
1.0
 40
1.0
 10
2.9588239802
 20
4.5305095645
 30
0.0
 10
2.9589340961
 20
4.5305724195
 30
0.0
 10
2.9592086196
 20
4.5306896534
 30
0.0
 10
2.9596970004
 20
4.5308435169
 30
0.0
 10
2.9603235611
 20
4.5309989575
 30
0.0
 10
2.9614317102
 20
4.5312256423
 30
0.0
 10
2.963164942
 20
4.5314984258
 30
0.0
 10
2.9656585416
 20
4.5318103657
 30
0.0
 10
2.968699144
 20
4.5321239166
 30
0.0
 10
2.9722824174
 20
4.5324383556
 30
0.0
 10
2.9764022723
 20
4.5327530875
 30
0.0
 10
2.9810505316
 20
4.5330681197
 30
0.0
 10
2.9862183358
 20
4.5333833579
 30
0.0
 10
2.9941211248
 20
4.5338222021
 30
0.0
 10
3.005228276
 20
4.5343625858
 30
0.0
 10
3.0199744757
 20
4.5349897753
 30
0.0
 10
3.0365328129
 20
4.5356188009
 30
0.0
 10
3.0547886271
 20
4.5362489758
 30
0.0
 10
3.0746161994
 20
4.5368794123
 30
0.0
 10
3.0958782656
 20
4.53751041
 30
0.0
 10
3.1184273064
 20
4.5381418418
 30
0.0
 10
3.142107816
 20
4.5387734619
 30
0.0
 10
3.1754646833
 20
4.5396285657
 30
0.0
 10
3.2187080819
 20
4.5406853451
 30
0.0
 10
3.2716110595
 20
4.5419366928
 30
0.0
 10
3.3248011299
 20
4.5431882729
 30
0.0
 10
3.3768087155
 20
4.54443908
 30
0.0
 10
3.4261971359
 20
4.5456877068
 30
0.0
 10
3.4716034097
 20
4.5469337838
 30
0.0
 10
3.5063693726
 20
4.5480052504
 30
0.0
 10
3.5312609411
 20
4.5488806147
 30
0.0
 10
3.5474277989
 20
4.5495090263
 30
0.0
 10
3.5617586874
 20
4.5501362221
 30
0.0
 10
3.5706863855
 20
4.5505870952
 30
0.0
 10
3.5748256911
 20
4.5508174677
 30
0.0
  0
SPLINE
  5
3D7
100
AcDbEntity
  8
0
100
AcDbSpline
 62
7
  6
CONTINUOUS
 70
0
 71
3
 72
13
 73
9
 74
0
 42
0.0000001
 43
0.0000001
 44
0.0000000001
 40
0.0
 40
0.0
 40
0.0
 40
0.0
 40
0.3589637461
 40
0.6457649205
 40
0.7617838693
 40
0.8594892973
 40
0.9388744827
 40
1.0
 40
1.0
 40
1.0
 40
1.0
 10
3.5859258604
 20
4.5515005685
 30
0.0
 10
3.5881207655
 20
4.5516518026
 30
0.0
 10
3.5920678952
 20
4.5519449935
 30
0.0
 10
3.5967181093
 20
4.5523695348
 30
0.0
 10
3.5997657989
 20
4.5527208714
 30
0.0
 10
3.6015459656
 20
4.5529643727
 30
0.0
 10
3.6029858857
 20
4.5532067323
 30
0.0
 10
3.6038283323
 20
4.5533895506
 30
0.0
 10
3.6041899903
 20
4.5534873256
 30
0.0
  0
SPLINE
  5
3D8
100
AcDbEntity
  8
0
100
AcDbSpline
 62
7
  6
CONTINUOUS
 70
0
 71
3
 72
13
 73
9
 74
0
 42
0.0000001
 43
0.0000001
 44
0.0000000001
 40
0.0
 40
0.0
 40
0.0
 40
0.0
 40
0.3862092498
 40
0.6739250306
 40
0.7828066744
 40
0.8704941176
 40
0.9405813372
 40
1.0
 40
1.0
 40
1.0
 40
1.0
 10
3.6041899903
 20
4.5534873256
 30
0.0
 10
3.6043720543
 20
4.5535365469
 30
0.0
 10
3.6046873957
 20
4.5536309554
 30
0.0
 10
3.6050432201
 20
4.5537751611
 30
0.0
 10
3.6052463128
 20
4.5538974889
 30
0.0
 10
3.6053468113
 20
4.5539814024
 30
0.0
 10
3.6054109719
 20
4.5540678462
 30
0.0
 10
3.605427008
 20
4.5541314776
 30
0.0
 10
3.605427008
 20
4.554160494
 30
0.0
  0
SPLINE
  5
3D9
100
AcDbEntity
  8
0
100
AcDbSpline
 62
9
  6
CONTINUOUS
 70
0
 71
3
 72
15
 73
11
 74
0
 42
0.0000001
 43
0.0000001
 44
0.0000000001
 40
0.0
 40
0.0
 40
0.0
 40
0.0
 40
0.1024075718
 40
0.206315304
 40
0.3152259022
 40
0.4317272224
 40
0.5572064245
 40
0.6927800006
 40
0.8398877246
 40
1.0
 40
1.0
 40
1.0
 40
1.0
 10
1.409789508
 20
3.9559372705
 30
0.0
 10
1.4097895354
 20
3.953892158
 30
0.0
 10
1.4101123946
 20
3.9497642559
 30
0.0
 10
1.4115900193
 20
3.9436210795
 30
0.0
 10
1.414038608
 20
3.9374957609
 30
0.0
 10
1.4174364125
 20
3.9313492602
 30
0.0
 10
1.4217974609
 20
3.9251816778
 30
0.0
 10
1.4271406311
 20
3.9190115463
 30
0.0
 10
1.4334525633
 20
3.9128085218
 30
0.0
 10
1.4380834521
 20
3.9087792013
 30
0.0
 10
1.4405405106
 20
3.9067330263
 30
0.0
  0
LINE
  5
3DA
100
AcDbEntity
  8
0
100
AcDbLine
 62
7
  6
CONTINUOUS
 10
2.9588340943
 20
4.4826000199
 11
2.9592283567
 21
4.4827753545
  0
SPLINE
  5
3DB
100
AcDbEntity
  8
0
100
AcDbSpline
 62
7
  6
CONTINUOUS
 70
0
 71
3
 72
13
 73
9
 74
0
 42
0.0000001
 43
0.0000001
 44
0.0000000001
 40
0.0
 40
0.0
 40
0.0
 40
0.0
 40
0.0605765657
 40
0.1393982644
 40
0.2366453547
 40
0.3523796946
 40
0.6393075058
 40
1.0
 40
1.0
 40
1.0
 40
1.0
 10
2.9592283567
 20
4.4827753545
 30
0.0
 10
2.9594358948
 20
4.4828512556
 30
0.0
 10
2.9599250152
 20
4.4829936532
 30
0.0
 10
2.9607675547
 20
4.4831823921
 30
0.0
 10
2.9618152778
 20
4.4833721302
 30
0.0
 10
2.9636183806
 20
4.4836460591
 30
0.0
 10
2.9663840273
 20
4.4839762094
 30
0.0
 10
2.9687357537
 20
4.4842024738
 30
0.0
 10
2.9700463709
 20
4.484319125
 30
0.0
  0
SPLINE
  5
3DC
100
AcDbEntity
  8
0
100
AcDbSpline
 62
7
  6
CONTINUOUS
 70
0
 71
3
 72
46
 73
42
 74
0
 42
0.0000001
 43
0.0000001
 44
0.0000000001
 40
0.0
 40
0.0
 40
0.0
 40
0.0
 40
0.0140743171
 40
0.0319755996
 40
0.0535638901
 40
0.0786798
 40
0.1071084702
 40
0.1386241582
 40
0.2098959856
 40
0.290196389
 40
0.3769437656
 40
0.4673533815
 40
0.5585121899
 40
0.6034569848
 40
0.647491253
 40
0.6902623393
 40
0.7314289362
 40
0.7706522332
 40
0.807620429
 40
0.842040654
 40
0.8736248851
 40
0.9021262824
 40
0.9273207301
 40
0.9386084497
 40
0.9489923853
 40
0.9584550589
 40
0.966979165
 40
0.9745475354
 40
0.9811432246
 40
0.9867507263
 40
0.9913625794
 40
0.9932942154
 40
0.9949760903
 40
0.9964084474
 40
0.9975921671
 40
0.9985294428
 40
0.9992256298
 40
0.9994876528
 40
0.9996970868
 40
0.9998622768
 40
1.0
 40
1.0
 40
1.0
 40
1.0
 10
2.9700463709
 20
4.484319125
 30
0.0
 10
2.9730186724
 20
4.4845836738
 30
0.0
 10
2.9797804643
 20
4.4850820081
 30
0.0
 10
2.9911175035
 20
4.4857514667
 30
0.0
 10
3.0047988341
 20
4.4864253397
 30
0.0
 10
3.0207142986
 20
4.4871013855
 30
0.0
 10
3.0387361724
 20
4.4877794037
 30
0.0
 10
3.0665407624
 20
4.4887241329
 30
0.0
 10
3.1053422207
 20
4.4898788051
 30
0.0
 10
3.1558531844
 20
4.4912214109
 30
0.0
 10
3.2104229972
 20
4.4925672706
 30
0.0
 10
3.2672956243
 20
4.4939150798
 30
0.0
 10
3.315307928
 20
4.4950437893
 30
0.0
 10
3.3534900144
 20
4.4959575984
 30
0.0
 10
3.3814154908
 20
4.4966396906
 30
0.0
 10
3.4085396691
 20
4.4973216308
 30
0.0
 10
3.4346434974
 20
4.4980031965
 30
0.0
 10
3.4595165608
 20
4.4986845162
 30
0.0
 10
3.4829586995
 20
4.4993654102
 30
0.0
 10
3.5047804936
 20
4.5000454944
 30
0.0
 10
3.5248062334
 20
4.5007249867
 30
0.0
 10
3.5428747171
 20
4.5014033578
 30
0.0
 10
3.5566403671
 20
4.5019859195
 30
0.0
 10
3.5665657679
 20
4.5024580178
 30
0.0
 10
3.5731581232
 20
4.502798756
 30
0.0
 10
3.5791637025
 20
4.5031391499
 30
0.0
 10
3.5845712983
 20
4.5034791521
 30
0.0
 10
3.5893697276
 20
4.5038186715
 30
0.0
 10
3.593548126
 20
4.5041573161
 30
0.0
 10
3.5970973354
 20
4.5044952296
 30
0.0
 10
3.5996570623
 20
4.504789585
 30
0.0
 10
3.6013843063
 20
4.5050309885
 30
0.0
 10
3.6024407084
 20
4.5052006816
 30
0.0
 10
3.6033362561
 20
4.5053696804
 30
0.0
 10
3.6040711385
 20
4.5055374255
 30
0.0
 10
3.6046449116
 20
4.5057038895
 30
0.0
 10
3.6050207462
 20
4.5058506921
 30
0.0
 10
3.6052356304
 20
4.505974814
 30
0.0
 10
3.6053416778
 20
4.5060594274
 30
0.0
 10
3.6054096706
 20
4.5061462327
 30
0.0
 10
3.605427008
 20
4.5062107938
 30
0.0
 10
3.605427008
 20
4.506239994
 30
0.0
  0
LINE
  5
3DD
100
AcDbEntity
  8
0
100
AcDbLine
 62
7
  6
CONTINUOUS
 10
2.9588364925
 20
4.6175169016
 11
2.9597903394
 21
4.617167372
  0
LINE
  5
3DE
100
AcDbEntity
  8
0
100
AcDbLine
 62
7
  6
CONTINUOUS
 10
3.6051682729
 20
4.5935821865
 11
3.6041886758
 21
4.5932226023
  0
LINE
  5
3DF
100
AcDbEntity
  8
0
100
AcDbLine
 62
7
  6
CONTINUOUS
 10
3.6041886758
 20
4.5932226023
 11
3.6005024234
 21
4.59255442
  0
SPLINE
  5
3E0
100
AcDbEntity
  8
0
100
AcDbSpline
 62
7
  6
CONTINUOUS
 70
0
 71
3
 72
28
 73
24
 74
0
 42
0.0000001
 43
0.0000001
 44
0.0000000001
 40
0.0
 40
0.0
 40
0.0
 40
0.0
 40
0.0040630748
 40
0.008927822
 40
0.0210421931
 40
0.0362646551
 40
0.0544983286
 40
0.0756429226
 40
0.0995661436
 40
0.1551158154
 40
0.2197839952
 40
0.2919493621
 40
0.369821187
 40
0.4514607612
 40
0.5348326463
 40
0.6178632852
 40
0.6984820917
 40
0.7746869785
 40
0.8445711795
 40
0.9064080361
 40
0.9586478997
 40
0.9807595524
 40
1.0
 40
1.0
 40
1.0
 40
1.0
 10
3.6005024234
 20
4.59255442
 30
0.0
 10
3.5996816563
 20
4.5924420324
 30
0.0
 10
3.5978742989
 20
4.5922234631
 30
0.0
 10
3.593605637
 20
4.5917913897
 30
0.0
 10
3.587059719
 20
4.5912747502
 30
0.0
 10
3.5777868711
 20
4.5906854972
 30
0.0
 10
3.5666697982
 20
4.5900941321
 30
0.0
 10
3.553776807
 20
4.5894996067
 30
0.0
 10
3.533278821
 20
4.5886614581
 30
0.0
 10
3.503907273
 20
4.5876387102
 30
0.0
 10
3.4646996991
 20
4.586457926
 30
0.0
 10
3.4209391167
 20
4.5852727382
 30
0.0
 10
3.3737171468
 20
4.5840845375
 30
0.0
 10
3.3242096157
 20
4.5828949949
 30
0.0
 10
3.2736499706
 20
4.5817047944
 30
0.0
 10
3.2232985046
 20
4.580514755
 30
0.0
 10
3.1744087202
 20
4.5793255164
 30
0.0
 10
3.1282001598
 20
4.5781382556
 30
0.0
 10
3.085822321
 20
4.5769540509
 30
0.0
 10
3.0483327364
 20
4.5757750045
 30
0.0
 10
3.0205836177
 20
4.5747525582
 30
0.0
 10
3.0015195349
 20
4.5739103752
 30
0.0
 10
2.9930988989
 20
4.5734836181
 30
0.0
 10
2.9891819779
 20
4.5732659935
 30
0.0
  0
SPLINE
  5
3E1
100
AcDbEntity
  8
0
100
AcDbSpline
 62
7
  6
CONTINUOUS
 70
0
 71
3
 72
13
 73
9
 74
0
 42
0.0000001
 43
0.0000001
 44
0.0000000001
 40
0.0
 40
0.0
 40
0.0
 40
0.0
 40
0.3589536911
 40
0.6457547227
 40
0.7617772661
 40
0.8594872595
 40
0.9388759457
 40
1.0
 40
1.0
 40
1.0
 40
1.0
 10
2.9780527064
 20
4.5725816948
 30
0.0
 10
2.9758578324
 20
4.5724304105
 30
0.0
 10
2.9719107186
 20
4.5721369652
 30
0.0
 10
2.9672606216
 20
4.5717106514
 30
0.0
 10
2.9642130465
 20
4.5713574612
 30
0.0
 10
2.9624329384
 20
4.5711128136
 30
0.0
 10
2.9609930851
 20
4.5708696736
 30
0.0
 10
2.9601506647
 20
4.5706866869
 30
0.0
 10
2.9597889799
 20
4.5705890232
 30
0.0
  0
SPLINE
  5
3E2
100
AcDbEntity
  8
0
100
AcDbSpline
 62
7
  6
CONTINUOUS
 70
0
 71
3
 72
13
 73
9
 74
0
 42
0.0000001
 43
0.0000001
 44
0.0000000001
 40
0.0
 40
0.0
 40
0.0
 40
0.0
 40
0.3869472702
 40
0.6750386849
 40
0.7839256552
 40
0.8714547437
 40
0.9411736915
 40
1.0
 40
1.0
 40
1.0
 40
1.0
 10
2.9597889799
 20
4.5705890232
 30
0.0
 10
2.9596069464
 20
4.5705398697
 30
0.0
 10
2.959291713
 20
4.5704456896
 30
0.0
 10
2.9589359431
 20
4.570302196
 30
0.0
 10
2.9587328012
 20
4.5701807508
 30
0.0
 10
2.9586323472
 20
4.570097647
 30
0.0
 10
2.9585681502
 20
4.5700122172
 30
0.0
 10
2.958552008
 20
4.5699492118
 30
0.0
 10
2.958552008
 20
4.5699205467
 30
0.0
  0
LINE
  5
3E3
100
AcDbEntity
  8
0
100
AcDbLine
 62
7
  6
CONTINUOUS
 10
2.95883359
 20
4.5696014517
 11
2.9597903402
 21
4.569251705
  0
LINE
  5
3E4
100
AcDbEntity
  8
0
100
AcDbLine
 62
7
  6
CONTINUOUS
 10
3.6051626335
 20
4.5456523631
 11
3.6041934524
 21
4.5452945799
  0
LINE
  5
3E5
100
AcDbEntity
  8
0
100
AcDbLine
 62
7
  6
CONTINUOUS
 10
3.6041934524
 20
4.5452945799
 11
3.6005213089
 21
4.5446305251
  0
SPLINE
  5
3E6
100
AcDbEntity
  8
0
100
AcDbSpline
 62
7
  6
CONTINUOUS
 70
0
 71
3
 72
28
 73
24
 74
0
 42
0.0000001
 43
0.0000001
 44
0.0000000001
 40
0.0
 40
0.0
 40
0.0
 40
0.0
 40
0.0040538163
 40
0.008908405
 40
0.0210000249
 40
0.0361964614
 40
0.0544009748
 40
0.0755135022
 40
0.0994020791
 40
0.1548773068
 40
0.2194678446
 40
0.2915576003
 40
0.3693609095
 40
0.4509447414
 40
0.5342787617
 40
0.6172944996
 40
0.6979255572
 40
0.7741735475
 40
0.8441341979
 40
0.9060821251
 40
0.9584684707
 40
0.9806656995
 40
1.0
 40
1.0
 40
1.0
 40
1.0
 10
3.6005213089
 20
4.5446305251
 30
0.0
 10
3.5997027978
 20
4.5445192075
 30
0.0
 10
3.5979002378
 20
4.5443029715
 30
0.0
 10
3.5936423557
 20
4.5438752027
 30
0.0
 10
3.5871122699
 20
4.5433607305
 30
0.0
 10
3.5778608855
 20
4.5427713927
 30
0.0
 10
3.5667683207
 20
4.5421788624
 30
0.0
 10
3.5539025976
 20
4.5415839059
 30
0.0
 10
3.5334455935
 20
4.5407465644
 30
0.0
 10
3.5041295651
 20
4.5397257672
 30
0.0
 10
3.4649917592
 20
4.5385458441
 30
0.0
 10
3.421302439
 20
4.5373616208
 30
0.0
 10
3.3741493219
 20
4.5361746443
 30
0.0
 10
3.3247043125
 20
4.534986235
 30
0.0
 10
3.2741968884
 20
4.5337971325
 30
0.0
 10
3.2238836596
 20
4.5326082332
 30
0.0
 10
3.1750147399
 20
4.5314200565
 30
0.0
 10
3.1288068271
 20
4.5302338146
 30
0.0
 10
3.0864072006
 20
4.52905093
 30
0.0
 10
3.0488718446
 20
4.5278727441
 30
0.0
 10
3.0210693107
 20
4.5268504459
 30
0.0
 10
3.0019500586
 20
4.5260099673
 30
0.0
 10
2.9934977644
 20
4.5255848063
 30
0.0
 10
2.9895639869
 20
4.5253679576
 30
0.0
  0
SPLINE
  5
3E7
100
AcDbEntity
  8
0
100
AcDbSpline
 62
7
  6
CONTINUOUS
 70
0
 71
3
 72
13
 73
9
 74
0
 42
0.0000001
 43
0.0000001
 44
0.0000000001
 40
0.0
 40
0.0
 40
0.0
 40
0.0
 40
0.3559707429
 40
0.6418027623
 40
0.7580927591
 40
0.856561796
 40
0.9371876218
 40
1.0
 40
1.0
 40
1.0
 40
1.0
 10
2.9786500412
 20
4.524704053
 30
0.0
 10
2.9764231448
 20
4.5245527072
 30
0.0
 10
2.9724095432
 20
4.5242585946
 30
0.0
 10
2.9676749073
 20
4.5238302456
 30
0.0
 10
2.9645560698
 20
4.5234753311
 30
0.0
 10
2.9627201468
 20
4.5232290765
 30
0.0
 10
2.9612229826
 20
4.5229847792
 30
0.0
 10
2.9603415828
 20
4.5228023498
 30
0.0
 10
2.9599597284
 20
4.5227058841
 30
0.0
  0
SPLINE
  5
3E8
100
AcDbEntity
  8
0
100
AcDbSpline
 62
7
  6
CONTINUOUS
 70
0
 71
3
 72
12
 73
8
 74
0
 42
0.0000001
 43
0.0000001
 44
0.0000000001
 40
0.0
 40
0.0
 40
0.0
 40
0.0
 40
0.3809372286
 40
0.6700346002
 40
0.7814000013
 40
0.8719532207
 40
1.0
 40
1.0
 40
1.0
 40
1.0
 10
2.9599597284
 20
4.5227058841
 30
0.0
 10
2.9597645242
 20
4.5226565707
 30
0.0
 10
2.959423039
 20
4.5225616688
 30
0.0
 10
2.9590345054
 20
4.5224200004
 30
0.0
 10
2.9588026931
 20
4.522300384
 30
0.0
 10
2.958659528
 20
4.5222040424
 30
0.0
 10
2.9585748672
 20
4.5221115595
 30
0.0
 10
2.9585578909
 20
4.5220460467
 30
0.0
  0
SPLINE
  5
3E9
100
AcDbEntity
  8
0
100
AcDbSpline
 62
7
  6
CONTINUOUS
 70
0
 71
3
 72
15
 73
11
 74
0
 42
0.0000001
 43
0.0000001
 44
0.0000000001
 40
0.0
 40
0.0
 40
0.0
 40
0.0
 40
0.0924267013
 40
0.1298325992
 40
0.1738223256
 40
0.2823069184
 40
0.418874605
 40
0.5839135192
 40
0.7775978733
 40
1.0
 40
1.0
 40
1.0
 40
1.0
 10
2.9878044955
 20
4.6009698094
 30
0.0
 10
2.9878012056
 20
4.6011067629
 30
0.0
 10
2.9879916441
 20
4.6012606409
 30
0.0
 10
2.988210619
 20
4.6013791274
 30
0.0
 10
2.988469983
 20
4.6014953552
 30
0.0
 10
2.9888746144
 20
4.6016333437
 30
0.0
 10
2.9894622064
 20
4.6017921698
 30
0.0
 10
2.990178866
 20
4.6019511654
 30
0.0
 10
2.9910254205
 20
4.6021109532
 30
0.0
 10
2.991634039
 20
4.6022107752
 30
0.0
 10
2.9919597818
 20
4.602261315
 30
0.0
  0
SPLINE
  5
3EA
100
AcDbEntity
  8
0
100
AcDbSpline
 62
7
  6
CONTINUOUS
 70
0
 71
3
 72
27
 73
23
 74
0
 42
0.0000001
 43
0.0000001
 44
0.0000000001
 40
0.0
 40
0.0
 40
0.0
 40
0.0
 40
0.0038136058
 40
0.0083525104
 40
0.0195966787
 40
0.03370717
 40
0.0506100129
 40
0.0701899378
 40
0.0923294678
 40
0.1437948084
 40
0.2039376701
 40
0.2715549216
 40
0.3451271465
 40
0.4230482478
 40
0.5036606582
 40
0.5852534033
 40
0.6660547555
 40
0.7443267266
 40
0.8183777586
 40
0.8866476941
 40
0.9476621825
 40
1.0
 40
1.0
 40
1.0
 40
1.0
 10
2.9919597818
 20
4.602261315
 30
0.0
 10
2.992624565
 20
4.6023644576
 30
0.0
 10
2.9940844545
 20
4.6025652607
 30
0.0
 10
2.9975186063
 20
4.6029628172
 30
0.0
 10
3.0027707416
 20
4.6034424869
 30
0.0
 10
3.0102051038
 20
4.6039907669
 30
0.0
 10
3.0191131436
 20
4.6045415603
 30
0.0
 10
3.0294396164
 20
4.6050952091
 30
0.0
 10
3.0458594069
 20
4.6058749128
 30
0.0
 10
3.0694341656
 20
4.6068261368
 30
0.0
 10
3.1010312743
 20
4.607925969
 30
0.0
 10
3.1365301696
 20
4.6090275117
 30
0.0
 10
3.1751664622
 20
4.6101328201
 30
0.0
 10
3.2160959786
 20
4.6112401925
 30
0.0
 10
3.2584408273
 20
4.6123481384
 30
0.0
 10
3.3012939481
 20
4.6134555709
 30
0.0
 10
3.3437340532
 20
4.6145635485
 30
0.0
 10
3.3848433222
 20
4.6156709514
 30
0.0
 10
3.4237412121
 20
4.6167763305
 30
0.0
 10
3.4595936068
 20
4.6178787031
 30
0.0
 10
3.4916137429
 20
4.618979038
 30
0.0
 10
3.5115940771
 20
4.6197718566
 30
0.0
 10
3.520817602
 20
4.6201816453
 30
0.0
  0
LINE
  5
3EB
100
AcDbEntity
  8
0
100
AcDbLine
 62
7
  6
CONTINUOUS
 10
3.5752886774
 20
4.5716212125
 11
3.5758889359
 21
4.5713715633
  0
SPLINE
  5
3EC
100
AcDbEntity
  8
0
100
AcDbSpline
 62
7
  6
CONTINUOUS
 70
0
 71
3
 72
18
 73
14
 74
0
 42
0.0000001
 43
0.0000001
 44
0.0000000001
 40
0.0
 40
0.0
 40
0.0
 40
0.0
 40
0.0164893293
 40
0.0358073787
 40
0.0600427832
 40
0.0902703009
 40
0.1270339137
 40
0.1706259953
 40
0.2788760624
 40
0.4157528833
 40
0.5815185868
 40
0.7762646187
 40
1.0
 40
1.0
 40
1.0
 40
1.0
 10
3.5761987313
 20
4.5710320062
 30
0.0
 10
3.5762002276
 20
4.5710012615
 30
0.0
 10
3.5761863463
 20
4.5709331385
 30
0.0
 10
3.5761208035
 20
4.5708398866
 30
0.0
 10
3.5760157702
 20
4.5707495825
 30
0.0
 10
3.5758704438
 20
4.5706599347
 30
0.0
 10
3.5756842598
 20
4.5705702233
 30
0.0
 10
3.5753565497
 20
4.5704409153
 30
0.0
 10
3.5748399317
 20
4.5702848355
 30
0.0
 10
3.574093689
 20
4.5701067228
 30
0.0
 10
3.5731823872
 20
4.5699277847
 30
0.0
 10
3.572106568
 20
4.5697481009
 30
0.0
 10
3.5713334318
 20
4.5696358072
 30
0.0
 10
3.5709196662
 20
4.5695789474
 30
0.0
  0
SPLINE
  5
3ED
100
AcDbEntity
  8
0
100
AcDbSpline
 62
7
  6
CONTINUOUS
 70
0
 71
3
 72
37
 73
33
 74
0
 42
0.0000001
 43
0.0000001
 44
0.0000000001
 40
0.0
 40
0.0
 40
0.0
 40
0.0
 40
0.004762765
 40
0.0104916597
 40
0.0171793486
 40
0.0248108914
 40
0.0428368411
 40
0.0644306392
 40
0.0894393483
 40
0.1176587685
 40
0.1488712482
 40
0.1828463387
 40
0.2579382983
 40
0.3405338787
 40
0.4280519243
 40
0.5177608664
 40
0.606817132
 40
0.6923759463
 40
0.7717739891
 40
0.8083909499
 40
0.8425598078
 40
0.8739925474
 40
0.9024192253
 40
0.9276415352
 40
0.949479363
 40
0.9677617576
 40
0.9755266268
 40
0.9823529201
 40
0.9882253004
 40
0.9931290791
 40
0.9970533502
 40
1.0
 40
1.0
 40
1.0
 40
1.0
 10
3.5709196662
 20
4.5695789474
 30
0.0
 10
3.5700043277
 20
4.5694531615
 30
0.0
 10
3.5679834192
 20
4.5692093285
 30
0.0
 10
3.5646674496
 20
4.5688750676
 30
0.0
 10
3.5607926414
 20
4.5685397061
 30
0.0
 10
3.5545358541
 20
4.5680645555
 30
0.0
 10
3.5453875012
 20
4.5674847897
 30
0.0
 10
3.5328677474
 20
4.5668171275
 30
0.0
 10
3.518368191
 20
4.5661478633
 30
0.0
 10
3.5020010591
 20
4.5654765159
 30
0.0
 10
3.4838932566
 20
4.5648038101
 30
0.0
 10
3.4566959098
 20
4.5638747747
 30
0.0
 10
3.4195321835
 20
4.562734586
 30
0.0
 10
3.3719827466
 20
4.5614031968
 30
0.0
 10
3.3215967542
 20
4.5600692503
 30
0.0
 10
3.2699570501
 20
4.5587341978
 30
0.0
 10
3.2186975212
 20
4.5574000418
 30
0.0
 10
3.1694389001
 20
4.5560668757
 30
0.0
 10
3.130351553
 20
4.5549301819
 30
0.0
 10
3.101231642
 20
4.5540062356
 30
0.0
 10
3.0814134241
 20
4.55333279
 30
0.0
 10
3.0631850014
 20
4.5526604653
 30
0.0
 10
3.0466934092
 20
4.551988723
 30
0.0
 10
3.0320647658
 20
4.5513188627
 30
0.0
 10
3.0194062819
 20
4.5506514709
 30
0.0
 10
3.0101347404
 20
4.5500718054
 30
0.0
 10
3.0037751415
 20
4.5495970056
 30
0.0
 10
2.9998194729
 20
4.549261425
 30
0.0
 10
2.9964210485
 20
4.5489270575
 30
0.0
 10
2.9935883088
 20
4.5485949938
 30
0.0
 10
2.9913279307
 20
4.5482651941
 30
0.0
 10
2.9900173583
 20
4.5480153633
 30
0.0
 10
2.9894619598
 20
4.5478801187
 30
0.0
  0
LINE
  5
3EE
100
AcDbEntity
  8
0
100
AcDbLine
 62
7
  6
CONTINUOUS
 10
2.9894619598
 20
4.5478801187
 11
2.9880835438
 21
4.5474073866
  0
LINE
  5
3EF
100
AcDbEntity
  8
0
100
AcDbLine
 62
7
  6
CONTINUOUS
 10
2.9893176392
 20
4.6001985869
 11
2.9881073336
 21
4.6006273907
  0
SPLINE
  5
3F0
100
AcDbEntity
  8
0
100
AcDbSpline
 62
7
  6
CONTINUOUS
 70
0
 71
3
 72
18
 73
14
 74
0
 42
0.0000001
 43
0.0000001
 44
0.0000000001
 40
0.0
 40
0.0
 40
0.0
 40
0.0
 40
0.0161253611
 40
0.0352558669
 40
0.0593949117
 40
0.089561665
 40
0.1262747268
 40
0.1698177558
 40
0.2779791904
 40
0.4148178246
 40
0.580665735
 40
0.7756949487
 40
1.0
 40
1.0
 40
1.0
 40
1.0
 10
2.9877891371
 20
4.5530532642
 30
0.0
 10
2.9877884659
 20
4.5530851407
 30
0.0
 10
2.9878053715
 20
4.5531556708
 30
0.0
 10
2.9878767575
 20
4.5532512652
 30
0.0
 10
2.9879894111
 20
4.5533441019
 30
0.0
 10
2.9881444715
 20
4.5534363402
 30
0.0
 10
2.9883425725
 20
4.5535286932
 30
0.0
 10
2.9886907497
 20
4.5536618419
 30
0.0
 10
2.9892389063
 20
4.5538225756
 30
0.0
 10
2.9900304549
 20
4.5540060007
 30
0.0
 10
2.9909973663
 20
4.5541902784
 30
0.0
 10
2.9921396065
 20
4.5543753299
 30
0.0
 10
2.9929606913
 20
4.5544909082
 30
0.0
 10
2.9934003169
 20
4.5545494338
 30
0.0
  0
SPLINE
  5
3F1
100
AcDbEntity
  8
0
100
AcDbSpline
 62
7
  6
CONTINUOUS
 70
0
 71
3
 72
35
 73
31
 74
0
 42
0.0000001
 43
0.0000001
 44
0.0000000001
 40
0.0
 40
0.0
 40
0.0
 40
0.0
 40
0.0049049673
 40
0.0107789156
 40
0.0253741704
 40
0.0436624039
 40
0.0655075887
 40
0.0907386738
 40
0.1191754654
 40
0.1848005175
 40
0.2602179281
 40
0.3430387114
 40
0.4307294558
 40
0.520498273
 40
0.6094931625
 40
0.6949042312
 40
0.7740801459
 40
0.8105429369
 40
0.8445245802
 40
0.875741971
 40
0.9039646614
 40
0.9289748923
 40
0.9505684833
 40
0.9685924806
 40
0.9762223464
 40
0.9829078675
 40
0.9886341287
 40
0.9933938313
 40
0.9971827405
 40
1.0
 40
1.0
 40
1.0
 40
1.0
 10
2.9934003169
 20
4.5545494338
 30
0.0
 10
2.9943432925
 20
4.5546749685
 30
0.0
 10
2.9964198233
 20
4.5549184973
 30
0.0
 10
3.0013175745
 20
4.5553998627
 30
0.0
 10
3.0088126811
 20
4.5559794385
 30
0.0
 10
3.0194063862
 20
4.5566434141
 30
0.0
 10
3.0320661472
 20
4.5573102755
 30
0.0
 10
3.0466962686
 20
4.5579804641
 30
0.0
 10
3.0698134959
 20
4.558921451
 30
0.0
 10
3.102663476
 20
4.5600659829
 30
0.0
 10
3.1460604319
 20
4.5613934287
 30
0.0
 10
3.1937386089
 20
4.562725389
 30
0.0
 10
3.2442011195
 20
4.5640590206
 30
0.0
 10
3.2958614355
 20
4.5653940329
 30
0.0
 10
3.3470794821
 20
4.566728766
 30
0.0
 10
3.3962424117
 20
4.5680618598
 30
0.0
 10
3.4352185382
 20
4.5691986155
 30
0.0
 10
3.4642219751
 20
4.5701231519
 30
0.0
 10
3.4839273175
 20
4.5707965563
 30
0.0
 10
3.5020335561
 20
4.5714692706
 30
0.0
 10
3.5183985698
 20
4.5721406817
 30
0.0
 10
3.5328954701
 20
4.5728099964
 30
0.0
 10
3.5454120343
 20
4.5734777099
 30
0.0
 10
3.5545574004
 20
4.5740575242
 30
0.0
 10
3.5608115183
 20
4.5745327305
 30
0.0
 10
3.5646841183
 20
4.5748681106
 30
0.0
 10
3.5679977155
 20
4.5752024066
 30
0.0
 10
3.5707467001
 20
4.5755343521
 30
0.0
 10
3.5729263933
 20
4.5758636238
 30
0.0
 10
3.5741844837
 20
4.5761136663
 30
0.0
 10
3.5747135801
 20
4.5762500604
 30
0.0
  0
LINE
  5
3F2
100
AcDbEntity
  8
0
100
AcDbLine
 62
7
  6
CONTINUOUS
 10
3.5747135801
 20
4.5762500604
 11
3.5759167667
 21
4.5766814404
  0
LINE
  5
3F3
100
AcDbEntity
  8
0
100
AcDbLine
 62
7
  6
CONTINUOUS
 10
3.5746358865
 20
4.5238888608
 11
3.5758975916
 21
4.5234409752
  0
SPLINE
  5
3F4
100
AcDbEntity
  8
0
100
AcDbSpline
 62
7
  6
CONTINUOUS
 70
0
 71
3
 72
18
 73
14
 74
0
 42
0.0000001
 43
0.0000001
 44
0.0000000001
 40
0.0
 40
0.0
 40
0.0
 40
0.0
 40
0.0133975914
 40
0.0305873993
 40
0.0534921744
 40
0.0829325545
 40
0.1627144395
 40
0.2713629935
 40
0.3366745456
 40
0.4093505336
 40
0.5768394992
 40
0.7737741324
 40
1.0
 40
1.0
 40
1.0
 40
1.0
 10
3.5761798842
 20
4.5231034017
 30
0.0
 10
3.5761793184
 20
4.523062658
 30
0.0
 10
3.576146265
 20
4.5229701841
 30
0.0
 10
3.5760296661
 20
4.5228533313
 30
0.0
 10
3.5758511621
 20
4.5227384637
 30
0.0
 10
3.575486221
 20
4.5225683098
 30
0.0
 10
3.5748524685
 20
4.5223684601
 30
0.0
 10
3.5741011028
 20
4.5221919557
 30
0.0
 10
3.5733652755
 20
4.5220457558
 30
0.0
 10
3.5724505231
 20
4.5218829984
 30
0.0
 10
3.5711360594
 20
4.5216829794
 30
0.0
 10
3.5693544837
 20
4.5214519704
 30
0.0
 10
3.5680755481
 20
4.5213075733
 30
0.0
 10
3.5673914004
 20
4.5212344383
 30
0.0
  0
SPLINE
  5
3F5
100
AcDbEntity
  8
0
100
AcDbSpline
 62
7
  6
CONTINUOUS
 70
0
 71
3
 72
41
 73
37
 74
0
 42
0.0000001
 43
0.0000001
 44
0.0000000001
 40
0.0
 40
0.0
 40
0.0
 40
0.0
 40
0.0059929405
 40
0.0129447308
 40
0.029683152
 40
0.0501114375
 40
0.0740449333
 40
0.1012769611
 40
0.131594659
 40
0.2005188015
 40
0.2787413941
 40
0.363722245
 40
0.4527471841
 40
0.5430378912
 40
0.6317462991
 40
0.6746233083
 40
0.7160579008
 40
0.7557116116
 40
0.7932769948
 40
0.8284630682
 40
0.8609827127
 40
0.8905870516
 40
0.9170502346
 40
0.940150541
 40
0.9503821953
 40
0.9597100373
 40
0.9681157292
 40
0.9755810979
 40
0.9820882552
 40
0.987623306
 40
0.9921810015
 40
0.9957588456
 40
0.9971807827
 40
0.9983592583
 40
0.9992969243
 40
1.0
 40
1.0
 40
1.0
 40
1.0
 10
3.5673914004
 20
4.5212344383
 30
0.0
 10
3.5662396041
 20
4.5211113118
 30
0.0
 10
3.563749097
 20
4.5208699229
 30
0.0
 10
3.5580316128
 20
4.5203914211
 30
0.0
 10
3.5495234746
 20
4.5198102429
 30
0.0
 10
3.5377322987
 20
4.5191436103
 30
0.0
 10
3.5239102339
 20
4.5184737255
 30
0.0
 10
3.508174877
 20
4.5178012713
 30
0.0
 10
3.4837470664
 20
4.5168626659
 30
0.0
 10
3.4494644735
 20
4.5157156327
 30
0.0
 10
3.404616863
 20
4.5143854492
 30
0.0
 10
3.355882596
 20
4.5130506798
 30
0.0
 10
3.3048149745
 20
4.5117133157
 30
0.0
 10
3.2530266218
 20
4.5103760483
 30
0.0
 10
3.2101555925
 20
4.5092498183
 30
0.0
 10
3.1767254876
 20
4.508337356
 30
0.0
 10
3.1527741202
 20
4.5076611276
 30
0.0
 10
3.1298498368
 20
4.5069852255
 30
0.0
 10
3.1081338473
 20
4.506309797
 30
0.0
 10
3.0877974635
 20
4.505635053
 30
0.0
 10
3.0690007453
 20
4.5049605723
 30
0.0
 10
3.0518911877
 20
4.504286968
 30
0.0
 10
3.0366037566
 20
4.5036151513
 30
0.0
 10
3.0250604879
 20
4.5030364985
 30
0.0
 10
3.0168282583
 20
4.5025666707
 30
0.0
 10
3.0114334662
 20
4.5022290481
 30
0.0
 10
3.0065744835
 20
4.5018918439
 30
0.0
 10
3.002262105
 20
4.5015552099
 30
0.0
 10
2.9985064504
 20
4.5012192558
 30
0.0
 10
2.9953151864
 20
4.5008844888
 30
0.0
 10
2.9926937703
 20
4.5005513833
 30
0.0
 10
2.9908687635
 20
4.500259894
 30
0.0
 10
2.9896992795
 20
4.5000174802
 30
0.0
 10
2.9890355979
 20
4.4998508342
 30
0.0
 10
2.9885161921
 20
4.4996855921
 30
0.0
 10
2.9882234577
 20
4.4995597769
 30
0.0
 10
2.9881053839
 20
4.4994925002
 30
0.0
  0
LINE
  5
3F6
100
AcDbEntity
  8
0
100
AcDbLine
 62
7
  6
CONTINUOUS
 10
2.9885401643
 20
4.5525123841
 11
2.9880973305
 21
4.5527082219
  0
SPLINE
  5
3F7
100
AcDbEntity
  8
0
100
AcDbSpline
 62
7
  6
CONTINUOUS
 70
0
 71
3
 72
13
 73
9
 74
0
 42
0.0000001
 43
0.0000001
 44
0.0000000001
 40
0.0
 40
0.0
 40
0.0
 40
0.0
 40
0.3545158323
 40
0.6397079214
 40
0.7559740397
 40
0.8547285174
 40
0.9360342761
 40
1.0
 40
1.0
 40
1.0
 40
1.0
 10
3.0107221839
 20
4.6459358705
 30
0.0
 10
3.0082218526
 20
4.6457683868
 30
0.0
 10
3.0037116204
 20
4.6454432882
 30
0.0
 10
2.9983881949
 20
4.6449722334
 30
0.0
 10
2.9948737821
 20
4.6445826348
 30
0.0
 10
2.9927965165
 20
4.6443118705
 30
0.0
 10
2.9910925615
 20
4.6440426973
 30
0.0
 10
2.9900848375
 20
4.6438418978
 30
0.0
 10
2.9896452473
 20
4.6437360723
 30
0.0
  0
LINE
  5
3F8
100
AcDbEntity
  8
0
100
AcDbLine
 62
7
  6
CONTINUOUS
 10
2.9894251967
 20
4.6436813119
 11
2.9881973885
 21
4.6432423583
  0
LINE
  5
3F9
100
AcDbEntity
  8
0
100
AcDbLine
 62
7
  6
CONTINUOUS
 10
3.574645047
 20
4.619711377
 11
3.5757750949
 21
4.6193001133
  0
SPLINE
  5
3FA
100
AcDbEntity
  8
0
100
AcDbSpline
 62
7
  6
CONTINUOUS
 70
0
 71
3
 72
16
 73
12
 74
0
 42
0.0000001
 43
0.0000001
 44
0.0000000001
 40
0.0
 40
0.0
 40
0.0
 40
0.0
 40
0.039077074
 40
0.0649161584
 40
0.0963822991
 40
0.1781183076
 40
0.2865824867
 40
0.4226217487
 40
0.5867007867
 40
0.7790991766
 40
1.0
 40
1.0
 40
1.0
 40
1.0
 10
3.5760700554
 20
4.6189523943
 30
0.0
 10
3.5760689999
 20
4.6188932696
 30
0.0
 10
3.576019056
 20
4.6187978667
 30
0.0
 10
3.5759121749
 20
4.6186997407
 30
0.0
 10
3.5757373812
 20
4.6185806765
 30
0.0
 10
3.5754312287
 20
4.6184403322
 30
0.0
 10
3.5749637005
 20
4.6182808188
 30
0.0
 10
3.5743661336
 20
4.618120609
 30
0.0
 10
3.5736383354
 20
4.6179593837
 30
0.0
 10
3.5727795822
 20
4.6177976774
 30
0.0
 10
3.5721623225
 20
4.617696596
 30
0.0
 10
3.5718319781
 20
4.6176454375
 30
0.0
  0
SPLINE
  5
3FB
100
AcDbEntity
  8
0
100
AcDbSpline
 62
7
  6
CONTINUOUS
 70
0
 71
3
 72
14
 73
10
 74
0
 42
0.0000001
 43
0.0000001
 44
0.0000000001
 40
0.0
 40
0.0
 40
0.0
 40
0.0
 40
0.0639621465
 40
0.1457672224
 40
0.245504813
 40
0.3631719234
 40
0.4982309483
 40
0.6499079366
 40
1.0
 40
1.0
 40
1.0
 40
1.0
 10
3.5718319781
 20
4.6176454375
 30
0.0
 10
3.570753522
 20
4.6174784231
 30
0.0
 10
3.5682858673
 20
4.6171627334
 30
0.0
 10
3.5641183222
 20
4.6167401029
 30
0.0
 10
3.5590307665
 20
4.6163148037
 30
0.0
 10
3.553032155
 20
4.6158881236
 30
0.0
 10
3.5461455096
 20
4.6154600962
 30
0.0
 10
3.5352966298
 20
4.6148591594
 30
0.0
 10
3.526744943
 20
4.614454623
 30
0.0
 10
3.5207775874
 20
4.6141901453
 30
0.0
  0
SPLINE
  5
3FC
100
AcDbEntity
  8
0
100
AcDbSpline
 62
9
  6
CONTINUOUS
 70
0
 71
3
 72
27
 73
23
 74
0
 42
0.0000001
 43
0.0000001
 44
0.0000000001
 40
0.0
 40
0.0
 40
0.0
 40
0.0
 40
0.0532842136
 40
0.1093956354
 40
0.1386131513
 40
0.1685889899
 40
0.2307030959
 40
0.2627950724
 40
0.2954906377
 40
0.3623947574
 40
0.4308031336
 40
0.4999874148
 40
0.5691722724
 40
0.6375823186
 40
0.704489134
 40
0.7371863666
 40
0.7692801906
 40
0.8313984407
 40
0.861376471
 40
0.8905962097
 40
0.9467120055
 40
1.0
 40
1.0
 40
1.0
 40
1.0
 10
1.9419573983
 20
4.6034815356
 30
0.0
 10
1.9375723122
 20
4.595422666
 30
0.0
 10
1.9269549353
 20
4.5797189228
 30
0.0
 10
1.9103378028
 20
4.5624423794
 30
0.0
 10
1.8950356821
 20
4.5497694073
 30
0.0
 10
1.8780133545
 20
4.5376381305
 30
0.0
 10
1.8593251485
 20
4.5270953614
 30
0.0
 10
1.8393667615
 20
4.5181785487
 30
0.0
 10
1.8181296929
 20
4.5101950792
 30
0.0
 10
1.7901876849
 20
4.502446153
 30
0.0
 10
1.7553620068
 20
4.4968137732
 30
0.0
 10
1.7197405553
 20
4.4949322265
 30
0.0
 10
1.6841185274
 20
4.4968082785
 30
0.0
 10
1.6492911254
 20
4.5024352975
 30
0.0
 10
1.6213468439
 20
4.5101798753
 30
0.0
 10
1.6001073855
 20
4.5181600201
 30
0.0
 10
1.5801461947
 20
4.5270737857
 30
0.0
 10
1.5614547414
 20
4.537613633
 30
0.0
 10
1.5444287063
 20
4.5497422414
 30
0.0
 10
1.5291226787
 20
4.5624128615
 30
0.0
 10
1.5125002354
 20
4.5796867394
 30
0.0
 10
1.501877981
 20
4.5953888494
 30
0.0
 10
1.4974903693
 20
4.6034470854
 30
0.0
  0
SPLINE
  5
3FD
100
AcDbEntity
  8
0
100
AcDbSpline
 62
9
  6
CONTINUOUS
 70
0
 71
3
 72
27
 73
23
 74
0
 42
0.0000001
 43
0.0000001
 44
0.0000000001
 40
0.0
 40
0.0
 40
0.0
 40
0.0
 40
0.0532842136
 40
0.1093956354
 40
0.1386131513
 40
0.1685889899
 40
0.2307030959
 40
0.2627950724
 40
0.2954906377
 40
0.3623947574
 40
0.4308031336
 40
0.4999874148
 40
0.5691722724
 40
0.6375823186
 40
0.704489134
 40
0.7371863666
 40
0.7692801906
 40
0.8313984407
 40
0.861376471
 40
0.8905962097
 40
0.9467120055
 40
1.0
 40
1.0
 40
1.0
 40
1.0
 10
1.4974716178
 20
3.3083902551
 30
0.0
 10
1.5018567038
 20
3.3164491246
 30
0.0
 10
1.5124740807
 20
3.3321528678
 30
0.0
 10
1.5290912133
 20
3.3494294113
 30
0.0
 10
1.544393334
 20
3.3621023833
 30
0.0
 10
1.5614156615
 20
3.3742336601
 30
0.0
 10
1.5801038676
 20
3.3847764292
 30
0.0
 10
1.6000622546
 20
3.3936932419
 30
0.0
 10
1.6212993231
 20
3.4016767115
 30
0.0
 10
1.6492413312
 20
3.4094256377
 30
0.0
 10
1.6840670093
 20
3.4150580174
 30
0.0
 10
1.7196884608
 20
3.4169395642
 30
0.0
 10
1.7553104887
 20
3.4150635121
 30
0.0
 10
1.7901378906
 20
3.4094364932
 30
0.0
 10
1.8180821722
 20
3.4016919154
 30
0.0
 10
1.8393216306
 20
3.3937117706
 30
0.0
 10
1.8592828214
 20
3.3847980049
 30
0.0
 10
1.8779742747
 20
3.3742581576
 30
0.0
 10
1.8950003098
 20
3.3621295493
 30
0.0
 10
1.9103063374
 20
3.3494589292
 30
0.0
 10
1.9269287807
 20
3.3321850513
 30
0.0
 10
1.937551035
 20
3.3164829412
 30
0.0
 10
1.9419386467
 20
3.3084247052
 30
0.0
  0
LINE
  5
3FE
100
AcDbEntity
  8
0
100
AcDbLine
 62
7
  6
CONTINUOUS
 10
2.9588125048
 20
4.6263379709
 11
2.9597902353
 21
4.6266951674
  0
LINE
  5
3FF
100
AcDbEntity
  8
0
100
AcDbLine
 62
7
  6
CONTINUOUS
 10
2.9597902353
 20
4.6266951674
 11
2.9634762248
 21
4.6273647012
  0
SPLINE
  5
400
100
AcDbEntity
  8
0
100
AcDbSpline
 62
7
  6
CONTINUOUS
 70
0
 71
3
 72
21
 73
17
 74
0
 42
0.0000001
 43
0.0000001
 44
0.0000000001
 40
0.0
 40
0.0
 40
0.0
 40
0.0
 40
0.008700663
 40
0.0192771645
 40
0.0317181492
 40
0.0459970996
 40
0.0799450202
 40
0.1208699225
 40
0.1684913683
 40
0.2224251974
 40
0.2822610077
 40
0.3475671854
 40
0.4925097781
 40
0.6528684413
 40
0.8237580192
 40
1.0
 40
1.0
 40
1.0
 40
1.0
 10
2.9634762248
 20
4.6273647012
 30
0.0
 10
2.9643920451
 20
4.6274906334
 30
0.0
 10
2.9664259808
 20
4.6277342509
 30
0.0
 10
2.9697797516
 20
4.6280661016
 30
0.0
 10
2.9737287349
 20
4.6283971653
 30
0.0
 10
2.9801577043
 20
4.6288653408
 30
0.0
 10
2.9896133246
 20
4.6294326634
 30
0.0
 10
3.0026119881
 20
4.630084685
 30
0.0
 10
3.0177362598
 20
4.6307406991
 30
0.0
 10
3.0348712887
 20
4.6314000673
 30
0.0
 10
3.0538864921
 20
4.632061063
 30
0.0
 10
3.0825682405
 20
4.6329743868
 30
0.0
 10
3.1219291333
 20
4.6340942213
 30
0.0
 10
3.1725071429
 20
4.6354012039
 30
0.0
 10
3.2264116505
 20
4.636710936
 30
0.0
 10
3.2632838355
 20
4.6375802862
 30
0.0
 10
3.2820041921
 20
4.6380217152
 30
0.0
  0
SPLINE
  5
401
100
AcDbEntity
  8
0
100
AcDbSpline
 62
7
  6
CONTINUOUS
 70
0
 71
3
 72
13
 73
9
 74
0
 42
0.0000001
 43
0.0000001
 44
0.0000000001
 40
0.0
 40
0.0
 40
0.0
 40
0.0
 40
0.297820995
 40
0.575718998
 40
0.7012934548
 40
0.8151109732
 40
0.9152247228
 40
1.0
 40
1.0
 40
1.0
 40
1.0
 10
3.2820041921
 20
4.6380217152
 30
0.0
 10
3.3096605056
 20
4.6386738556
 30
0.0
 10
3.3631230299
 20
4.6399344763
 30
0.0
 10
3.428244329
 20
4.6415709806
 30
0.0
 10
3.4762754735
 20
4.6429197334
 30
0.0
 10
3.5077964919
 20
4.6438944562
 30
0.0
 10
3.5355257394
 20
4.6448681074
 30
0.0
 10
3.5526854708
 20
4.6455726199
 30
0.0
 10
3.5605516784
 20
4.6459362366
 30
0.0
  0
LINE
  5
402
100
AcDbEntity
  8
0
100
AcDbLine
 62
7
  6
CONTINUOUS
 10
3.6051330747
 20
4.6024101016
 11
3.6041887811
 21
4.6027541425
  0
LINE
  5
403
100
AcDbEntity
  8
0
100
AcDbLine
 62
7
  6
CONTINUOUS
 10
3.6051587546
 20
4.6414962495
 11
3.6046477742
 21
4.641278616
  0
SPLINE
  5
404
100
AcDbEntity
  8
0
100
AcDbSpline
 62
7
  6
CONTINUOUS
 70
0
 71
3
 72
11
 73
7
 74
0
 42
0.0000001
 43
0.0000001
 44
0.0000000001
 40
0.0
 40
0.0
 40
0.0
 40
0.0
 40
0.1600649042
 40
0.3798770294
 40
0.6598363163
 40
1.0
 40
1.0
 40
1.0
 40
1.0
 10
3.6046477742
 20
4.641278616
 30
0.0
 10
3.6043303796
 20
4.6411709012
 30
0.0
 10
3.6035577618
 20
4.6409745869
 30
0.0
 10
3.602200349
 20
4.6407167104
 30
0.0
 10
3.6004604354
 20
4.6404562949
 30
0.0
 10
3.5991716393
 20
4.6402971236
 30
0.0
 10
3.5984639879
 20
4.640215884
 30
0.0
  0
LINE
  5
405
100
AcDbEntity
  8
0
100
AcDbLine
 62
7
  6
CONTINUOUS
 10
3.5984639879
 20
4.640215884
 11
3.5930853641
 21
4.6396873174
  0
LINE
  5
406
100
AcDbEntity
  8
0
100
AcDbLine
 62
7
  6
CONTINUOUS
 10
3.5778813041
 20
4.6386308551
 11
3.5445702011
 21
4.6370460467
  0
SPLINE
  5
407
100
AcDbEntity
  8
0
100
AcDbSpline
 62
9
  6
CONTINUOUS
 70
0
 71
3
 72
11
 73
7
 74
0
 42
0.0000001
 43
0.0000001
 44
0.0000000001
 40
0.0
 40
0.0
 40
0.0
 40
0.0
 40
0.2567391799
 40
0.5079607765
 40
0.7552031445
 40
1.0
 40
1.0
 40
1.0
 40
1.0
 10
1.49744599
 20
4.3080256758
 30
0.0
 10
1.4948686747
 20
4.3032839501
 30
0.0
 10
1.4902955441
 20
4.2936027382
 30
0.0
 10
1.4852955894
 20
4.2784938483
 30
0.0
 10
1.4822761856
 20
4.2631232335
 30
0.0
 10
1.4815962665
 20
4.2527681891
 30
0.0
 10
1.4815962665
 20
4.2476223291
 30
0.0
  0
ELLIPSE
  5
408
100
AcDbEntity
  8
0
100
AcDbEllipse
 62
7
  6
CONTINUOUS
 10
3.281989508
 20
4.6877914139
 30
0.0
 11
0.0
 21
0.3234375
 31
0.0
 40
1.0
 41
-3.9879149009
 42
-2.2952704063
  0
ENDSEC
  0
SECTION
  2
OBJECTS
  0
DICTIONARY
  5
C
100
AcDbDictionary
280
0
281
1
  3
ACAD_GROUP
350
D
  3
ACAD_MLINESTYLE
350
17
  3
ACAD_LAYOUT
350
1A
  3
ACAD_PLOTSETTINGS
350
19
  3
ACAD_PLOTSTYLENAME
350
E
  0
DICTIONARY
  5
D
102
{ACAD_REACTORS
330
C
102
}
100
AcDbDictionary
280
0
281
1
  0
ACDBDICTIONARYWDFLT
  5
E
102
{ACAD_REACTORS
330
C
102
}
100
AcDbDictionary
281
1
  3
Normal
350
F
100
AcDbDictionaryWithDefault
340
F
  0
DICTIONARY
  5
17
102
{ACAD_REACTORS
330
C
102
}
100
AcDbDictionary
280
0
281
1
  3
Standard
350
18
  0
DICTIONARY
  5
19
102
{ACAD_REACTORS
330
C
102
}
100
AcDbDictionary
281
1
  0
DICTIONARY
  5
1A
102
{ACAD_REACTORS
330
C
102
}
100
AcDbDictionary
281
1
  3
Model
350
409
  3
Layout1
350
40A
  0
ACDBPLACEHOLDER
  5
F
102
{ACAD_REACTORS
330
E
102
}
  0
MLINESTYLE
  5
18
102
{ACAD_REACTORS
330
17
102
}
100
AcDbMlineStyle
  2
STANDARD
 70
0
  3

 62
256
 51
90.0
 52
90.0
 71
2
 49
0.5
 62
256
  6
BYLAYER
 49
-0.5
 62
256
  6
BYLAYER
  0
LAYOUT
  5
409
102
{ACAD_REACTORS
330
1A
102
}
100
AcDbPlotSettings
  1

  2
none_device
  4
ANSI_A_(11.00_x_8.50_Inches)
  6

 40
0.0
 41
0.0
 42
0.0
 43
0.0
 44
279.4
 45
215.9
 46
0.0
 47
0.0
 48
0.0
 49
0.0
140
0.0
141
0.0
142
1.0
143
1.0
 70
1024
 72
0
 73
0
 74
0
  7

 75
0
147
1.0
148
0.0
149
0.0
100
AcDbLayout
  1
Model
 70
0
 71
0
 10
0.0
 20
0.0
 11
11.0
 21
8.5
 12
0.0
 22
0.0
 32
0.0
 14
0.0
 24
0.0
 34
0.0
 15
0.0
 25
0.0
 35
0.0
146
0.0
 13
0.0
 23
0.0
 33
0.0
 16
1.0
 26
0.0
 36
0.0
 17
0.0
 27
1.0
 37
0.0
 76
0
330
227
345
0
346
0
  0
LAYOUT
  5
40A
102
{ACAD_REACTORS
330
1A
102
}
100
AcDbPlotSettings
  1

  2
none_device
  4
ANSI_A_(11.00_x_8.50_Inches)
  6

 40
0.0
 41
0.0
 42
0.0
 43
0.0
 44
279.4
 45
215.9
 46
0.0
 47
0.0
 48
0.0
 49
0.0
140
0.0
141
0.0
142
1.0
143
1.0
 70
0
 72
0
 73
0
 74
0
  7

 75
0
147
1.0
148
0.0
149
0.0
100
AcDbLayout
  1
Layout1
 70
0
 71
1
 10
0.0
 20
0.0
 11
11.0
 21
8.5
 12
0.0
 22
0.0
 32
0.0
 14
0.0
 24
0.0
 34
0.0
 15
0.0
 25
0.0
 35
0.0
146
0.0
 13
0.0
 23
0.0
 33
0.0
 16
1.0
 26
0.0
 36
0.0
 17
0.0
 27
1.0
 37
0.0
 76
0
330
228
345
0
346
0
  0
ENDSEC
  0
EOF
