999
DXF file: C:\Prowork\plots\416x_top.dxf
999
Pro/ENGINEER 2018500 by Parametric Technology Corporation
  0
SECTION
  2
HEADER
  9
$ACADVER
  1
AC1032
  9
$DWGCODEPAGE
  3
ANSI_1252
  9
$EXTMAX
 10
11.0
 20
8.5
 30
0.0
  9
$EXTMIN
 10
0.0
 20
0.0
 30
0.0
  9
$LIMMIN
 10
0.0
 20
0.0
  9
$LIMMAX
 10
11.0
 20
8.5
  9
$VIEWCTR
 10
5.5
 20
4.25
  9
$VIEWSIZE
 40
8.5
  9
$CLAYER
  8
0
  9
$LTSCALE
 40
0.605
  9
$CELTYPE
  6
BYLAYER
  9
$DIMSCALE
 40
1.0
  9
$DIMASZ
 40
0.1
  9
$DIMEXO
 40
0.0625
  9
$DIMDLI
 40
0.418
  9
$DIMEXE
 40
0.125
  9
$DIMCEN
 40
0.099
  9
$DIMLFAC
 40
1.0
  9
$DIMBLK
  1
_FILLED
  9
$DIMALT
 70
1
  9
$DIMALTD
 70
2
  9
$DIMALTTD
 70
2
  9
$DIMALTF
 40
25.4
  9
$DIMTXT
 40
0.08
  9
$DIMTOL
 70
1
  9
$DIMLIM
 70
0
  9
$DIMTFAC
 40
1.0
  9
$DIMTP
 40
0.001
  9
$DIMTM
 40
0.001
  9
$DIMGAP
 40
0.09
  9
$DIMDSEP
 70
46
  9
$AUNITS
 70
0
  9
$PDMODE
 70
3
  9
$PDSIZE
 40
0.06
  9
$HANDSEED
  5
355
  9
$TILEMODE
 70
1
  9
$MEASUREMENT
 70
0
  9
$INSUNITS
 70
1
  0
ENDSEC
  0
SECTION
  2
CLASSES
  0
CLASS
  1
ACDBDICTIONARYWDFLT
  2
AcDbDictionaryWithDefault
  3
AutoCAD 2000
 90
0
 91
1
280
0
281
0
  0
CLASS
  1
ACDBPLACEHOLDER
  2
AcDbPlaceHolder
  3
AutoCAD 2000
 90
0
 91
1
280
0
281
0
  0
CLASS
  1
LAYOUT
  2
AcDbLayout
  3
AutoCAD 2000
 90
0
 91
0
280
0
281
0
  0
ENDSEC
  0
SECTION
  2
TABLES
  0
TABLE
  2
VPORT
  5
8
100
AcDbSymbolTable
 70
2
  0
VPORT
  5
1F4
100
AcDbSymbolTableRecord
100
AcDbViewportTableRecord
  2
*ACTIVE
 70
0
 10
0.0
 20
0.0
 11
1.0
 21
1.0
 12
5.5
 22
4.25
 13
0.0
 23
0.0
 14
1.0
 24
1.0
 15
0.0
 25
0.0
 16
0.0
 26
0.0
 36
1.0
 17
0.0
 27
0.0
 37
0.0
 40
8.5
 41
1.2941176471
 42
50.0
 43
0.0
 44
0.0
 50
0.0
 51
0.0
 71
0
 72
100
 73
1
 74
1
 75
0
 76
0
 77
0
 78
0
  0
ENDTAB
  0
TABLE
  2
LTYPE
  5
5
100
AcDbSymbolTable
 70
6
  0
LTYPE
  5
14
100
AcDbSymbolTableRecord
100
AcDbLinetypeTableRecord
  2
BYBLOCK
 70
0
  3

 72
65
 73
0
 40
0.0
  0
LTYPE
  5
15
100
AcDbSymbolTableRecord
100
AcDbLinetypeTableRecord
  2
BYLAYER
 70
0
  3

 72
65
 73
0
 40
0.0
  0
LTYPE
  5
16
100
AcDbSymbolTableRecord
100
AcDbLinetypeTableRecord
  2
CONTINUOUS
 70
64
  3
Solid line
 72
65
 73
0
 40
0.0
  0
LTYPE
  5
1F5
100
AcDbSymbolTableRecord
100
AcDbLinetypeTableRecord
  2
CENTER
 70
64
  3
____ _ ____ _ ____ _ ____ _ ____ _ ____ _ ____
 72
65
 73
4
 40
0.6
 49
0.375
 74
0
 49
-0.075
 74
0
 49
0.075
 74
0
 49
-0.075
 74
0
  0
LTYPE
  5
1F6
100
AcDbSymbolTableRecord
100
AcDbLinetypeTableRecord
  2
HIDDEN
 70
64
  3
- - - - - - - - - - - - - - - - - - - -
 72
65
 73
2
 40
0.2
 49
0.1
 74
0
 49
-0.1
 74
0
  0
LTYPE
  5
1F7
100
AcDbSymbolTableRecord
100
AcDbLinetypeTableRecord
  2
PHANTOM
 70
64
  3
_____ _ _ _____ _ _ _____ _ _ _____
 72
65
 73
6
 40
0.8
 49
0.45
 74
0
 49
-0.05
 74
0
 49
0.1
 74
0
 49
-0.05
 74
0
 49
0.1
 74
0
 49
-0.05
 74
0
  0
LTYPE
  5
1F8
100
AcDbSymbolTableRecord
100
AcDbLinetypeTableRecord
  2
DOT
 70
64
  3
. . . . . . . . . . . . . . . . . . . .
 72
65
 73
2
 40
0.2
 49
0.1
 74
0
 49
-0.1
 74
0
  0
LTYPE
  5
1F9
100
AcDbSymbolTableRecord
100
AcDbLinetypeTableRecord
  2
DASHED
 70
64
  3
- - - - - - - - - - - - - - - - - - - -
 72
65
 73
2
 40
0.2
 49
0.1
 74
0
 49
-0.1
 74
0
  0
ENDTAB
  0
TABLE
  2
LAYER
  5
2
100
AcDbSymbolTable
 70
36
  0
LAYER
  5
10
100
AcDbSymbolTableRecord
100
AcDbLayerTableRecord
  2
0
 70
0
 62
7
  6
CONTINUOUS
370
-3
390
F
  0
LAYER
  5
1FA
100
AcDbSymbolTableRecord
100
AcDbLayerTableRecord
  2
DEFAULT_1
 70
0
 62
7
  6
CENTER
370
-3
390
F
  0
LAYER
  5
1FB
100
AcDbSymbolTableRecord
100
AcDbLayerTableRecord
  2
DEFAULT_2
 70
0
 62
8
  6
HIDDEN
370
-3
390
F
  0
LAYER
  5
1FC
100
AcDbSymbolTableRecord
100
AcDbLayerTableRecord
  2
DEFAULT_3
 70
0
 62
7
  6
PHANTOM
370
-3
390
F
  0
LAYER
  5
1FD
100
AcDbSymbolTableRecord
100
AcDbLayerTableRecord
  2
50350
 70
0
 62
7
  6
CONTINUOUS
370
-3
390
F
  0
LAYER
  5
1FE
100
AcDbSymbolTableRecord
100
AcDbLayerTableRecord
  2
50356
 70
0
 62
7
  6
CONTINUOUS
370
-3
390
F
  0
LAYER
  5
1FF
100
AcDbSymbolTableRecord
100
AcDbLayerTableRecord
  2
50359
 70
0
 62
7
  6
CONTINUOUS
370
-3
390
F
  0
LAYER
  5
200
100
AcDbSymbolTableRecord
100
AcDbLayerTableRecord
  2
50378
 70
0
 62
7
  6
CONTINUOUS
370
-3
390
F
  0
LAYER
  5
201
100
AcDbSymbolTableRecord
100
AcDbLayerTableRecord
  2
50673
 70
0
 62
7
  6
CONTINUOUS
370
-3
390
F
  0
LAYER
  5
202
100
AcDbSymbolTableRecord
100
AcDbLayerTableRecord
  2
50674
 70
0
 62
7
  6
CONTINUOUS
370
-3
390
F
  0
LAYER
  5
203
100
AcDbSymbolTableRecord
100
AcDbLayerTableRecord
  2
50674_1
 70
0
 62
7
  6
CONTINUOUS
370
-3
390
F
  0
LAYER
  5
204
100
AcDbSymbolTableRecord
100
AcDbLayerTableRecord
  2
50675
 70
0
 62
7
  6
CONTINUOUS
370
-3
390
F
  0
LAYER
  5
205
100
AcDbSymbolTableRecord
100
AcDbLayerTableRecord
  2
50677
 70
0
 62
7
  6
CONTINUOUS
370
-3
390
F
  0
LAYER
  5
206
100
AcDbSymbolTableRecord
100
AcDbLayerTableRecord
  2
50685
 70
0
 62
7
  6
CONTINUOUS
370
-3
390
F
  0
LAYER
  5
207
100
AcDbSymbolTableRecord
100
AcDbLayerTableRecord
  2
50854
 70
0
 62
7
  6
CONTINUOUS
370
-3
390
F
  0
LAYER
  5
208
100
AcDbSymbolTableRecord
100
AcDbLayerTableRecord
  2
525
 70
0
 62
7
  6
CONTINUOUS
370
-3
390
F
  0
LAYER
  5
209
100
AcDbSymbolTableRecord
100
AcDbLayerTableRecord
  2
6-416
 70
0
 62
7
  6
CONTINUOUS
370
-3
390
F
  0
LAYER
  5
20A
100
AcDbSymbolTableRecord
100
AcDbLayerTableRecord
  2
92000
 70
0
 62
7
  6
CONTINUOUS
370
-3
390
F
  0
LAYER
  5
20B
100
AcDbSymbolTableRecord
100
AcDbLayerTableRecord
  2
ALL_FEATURES_1
 70
0
 62
7
  6
CONTINUOUS
370
-3
390
F
  0
LAYER
  5
20C
100
AcDbSymbolTableRecord
100
AcDbLayerTableRecord
  2
COLOR103
 70
0
 62
7
  6
CONTINUOUS
370
-3
390
F
  0
LAYER
  5
20D
100
AcDbSymbolTableRecord
100
AcDbLayerTableRecord
  2
COLOR122
 70
0
 62
7
  6
CONTINUOUS
370
-3
390
F
  0
LAYER
  5
20E
100
AcDbSymbolTableRecord
100
AcDbLayerTableRecord
  2
COLOR135
 70
0
 62
7
  6
CONTINUOUS
370
-3
390
F
  0
LAYER
  5
20F
100
AcDbSymbolTableRecord
100
AcDbLayerTableRecord
  2
COLOR32
 70
0
 62
7
  6
CONTINUOUS
370
-3
390
F
  0
LAYER
  5
210
100
AcDbSymbolTableRecord
100
AcDbLayerTableRecord
  2
COLOR36
 70
0
 62
7
  6
CONTINUOUS
370
-3
390
F
  0
LAYER
  5
211
100
AcDbSymbolTableRecord
100
AcDbLayerTableRecord
  2
COLOR67
 70
0
 62
7
  6
CONTINUOUS
370
-3
390
F
  0
LAYER
  5
212
100
AcDbSymbolTableRecord
100
AcDbLayerTableRecord
  2
DEFAULT_COORDINATE_SYSTEM
 70
0
 62
7
  6
CONTINUOUS
370
-3
390
F
  0
LAYER
  5
213
100
AcDbSymbolTableRecord
100
AcDbLayerTableRecord
  2
DEFAULT_DATUM_AXES
 70
0
 62
7
  6
CONTINUOUS
370
-3
390
F
  0
LAYER
  5
214
100
AcDbSymbolTableRecord
100
AcDbLayerTableRecord
  2
DEFAULT_DATUM_PLANES
 70
0
 62
7
  6
CONTINUOUS
370
-3
390
F
  0
LAYER
  5
215
100
AcDbSymbolTableRecord
100
AcDbLayerTableRecord
  2
DEFAULT_SURFACES
 70
0
 62
7
  6
CONTINUOUS
370
-3
390
F
  0
LAYER
  5
216
100
AcDbSymbolTableRecord
100
AcDbLayerTableRecord
  2
INTF_50350
 70
0
 62
7
  6
CONTINUOUS
370
-3
390
F
  0
LAYER
  5
217
100
AcDbSymbolTableRecord
100
AcDbLayerTableRecord
  2
INTF_50356
 70
0
 62
7
  6
CONTINUOUS
370
-3
390
F
  0
LAYER
  5
218
100
AcDbSymbolTableRecord
100
AcDbLayerTableRecord
  2
INTF_50359
 70
0
 62
7
  6
CONTINUOUS
370
-3
390
F
  0
LAYER
  5
219
100
AcDbSymbolTableRecord
100
AcDbLayerTableRecord
  2
INTF_50378
 70
0
 62
7
  6
CONTINUOUS
370
-3
390
F
  0
LAYER
  5
21A
100
AcDbSymbolTableRecord
100
AcDbLayerTableRecord
  2
INTF_50673
 70
0
 62
7
  6
CONTINUOUS
370
-3
390
F
  0
LAYER
  5
21B
100
AcDbSymbolTableRecord
100
AcDbLayerTableRecord
  2
INTF_50675
 70
0
 62
7
  6
CONTINUOUS
370
-3
390
F
  0
LAYER
  5
21C
100
AcDbSymbolTableRecord
100
AcDbLayerTableRecord
  2
INTF_50677
 70
0
 62
7
  6
CONTINUOUS
370
-3
390
F
  0
LAYER
  5
21D
100
AcDbSymbolTableRecord
100
AcDbLayerTableRecord
  2
INTF_50685
 70
0
 62
7
  6
CONTINUOUS
370
-3
390
F
  0
LAYER
  5
21E
100
AcDbSymbolTableRecord
100
AcDbLayerTableRecord
  2
INTF_50854
 70
0
 62
7
  6
CONTINUOUS
370
-3
390
F
  0
LAYER
  5
21F
100
AcDbSymbolTableRecord
100
AcDbLayerTableRecord
  2
INTF_92000
 70
0
 62
7
  6
CONTINUOUS
370
-3
390
F
  0
LAYER
  5
220
100
AcDbSymbolTableRecord
100
AcDbLayerTableRecord
  2
INTF_BLANK
 70
0
 62
7
  6
CONTINUOUS
370
-3
390
F
  0
LAYER
  5
221
100
AcDbSymbolTableRecord
100
AcDbLayerTableRecord
  2
INTF_CYAN
 70
0
 62
7
  6
CONTINUOUS
370
-3
390
F
  0
LAYER
  5
222
100
AcDbSymbolTableRecord
100
AcDbLayerTableRecord
  2
PLATED_SURFACE
 70
0
 62
7
  6
CONTINUOUS
370
-3
390
F
  0
LAYER
  5
223
100
AcDbSymbolTableRecord
100
AcDbLayerTableRecord
  2
PLATED_SURFACE_1
 70
0
 62
7
  6
CONTINUOUS
370
-3
390
F
  0
LAYER
  5
224
100
AcDbSymbolTableRecord
100
AcDbLayerTableRecord
  2
_BLACK_HOLE
 70
0
 62
7
  6
CONTINUOUS
370
-3
390
F
  0
ENDTAB
  0
TABLE
  2
STYLE
  5
3
100
AcDbSymbolTable
 70
1
  0
STYLE
  5
11
100
AcDbSymbolTableRecord
100
AcDbTextStyleTableRecord
  2
STANDARD
 70
0
 40
0.0
 41
0.8
 50
0.0
 71
0
 42
0.2
  3
txt
  4

  0
STYLE
  5
225
100
AcDbSymbolTableRecord
100
AcDbTextStyleTableRecord
  2
TEXTSTYLE_1
 70
0
 40
0.0
 41
0.8
 50
0.0
 71
0
 42
0.2
  3
gdt
  4

  0
ENDTAB
  0
TABLE
  2
VIEW
  5
6
100
AcDbSymbolTable
 70
0
  0
ENDTAB
  0
TABLE
  2
UCS
  5
7
100
AcDbSymbolTable
 70
0
  0
ENDTAB
  0
TABLE
  2
APPID
  5
9
100
AcDbSymbolTable
 70
1
  0
APPID
  5
226
100
AcDbSymbolTableRecord
100
AcDbRegAppTableRecord
  2
ACAD
 70
0
  0
ENDTAB
  0
TABLE
  2
BLOCK_RECORD
  5
1
100
AcDbSymbolTable
 70
0
  0
BLOCK_RECORD
  5
227
100
AcDbSymbolTableRecord
100
AcDbBlockTableRecord
  2
*Model_Space
  0
BLOCK_RECORD
  5
228
100
AcDbSymbolTableRecord
100
AcDbBlockTableRecord
  2
*Paper_Space
  0
BLOCK_RECORD
  5
229
100
AcDbSymbolTableRecord
100
AcDbBlockTableRecord
  2
_FILLED
  0
ENDTAB
  0
TABLE
  2
DIMSTYLE
  5
A
100
AcDbSymbolTable
 70
1
100
AcDbDimStyleTable
 71
0
  0
DIMSTYLE
105
22A
100
AcDbSymbolTableRecord
100
AcDbDimStyleTableRecord
  2
STANDARD
 70
0
  3

  4

 40
1.0
 41
0.1
 42
0.0625
 43
0.38
 44
0.125
 45
0.0
 46
0.0
 47
0.001
 48
0.001
140
0.08
141
0.09
142
0.0
143
25.4
144
1.0
145
0.0
146
1.0
147
0.09
 71
1.0
 72
0.0
 73
1
 74
1
 75
0
 76
0
 77
0
 78
4
 79
1
170
1
171
2
172
0
173
0
174
0
175
0
176
0
177
0
178
0
270
2
179
3
271
3
272
3
273
2
274
2
275
0
280
0
281
0
282
0
283
1
284
4
285
0
286
0
287
3
288
0
340
11
278
46
341
229
342
229
343
229
344
229
  0
ENDTAB
  0
ENDSEC
  0
SECTION
  2
BLOCKS
  0
BLOCK
  5
20
100
AcDbEntity
  8
0
100
AcDbBlockBegin
  2
*Model_Space
 70
0
 10
0.0
 20
0.0
 30
0.0
  3
*Model_Space
  1

  0
ENDBLK
  5
21
100
AcDbEntity
  8
0
100
AcDbBlockEnd
  0
BLOCK
  5
1C
100
AcDbEntity
  8
0
100
AcDbBlockBegin
  2
*Paper_Space
 70
0
 10
0.0
 20
0.0
 30
0.0
  3
*Paper_Space
  1

  0
ENDBLK
  5
1D
100
AcDbEntity
  8
0
100
AcDbBlockEnd
  0
BLOCK
  5
22B
100
AcDbEntity
  8
0
100
AcDbBlockBegin
  2
_FILLED
 70
64
 10
0.0
 20
0.0
  3
_FILLED
  1

  0
SOLID
  5
22C
100
AcDbEntity
  8
0
  6
BYBLOCK
 62
0
100
AcDbTrace
 10
0.0
 20
0.0
 11
-1.0
 21
0.2
 12
-1.0
 22
-0.2
 13
-1.0
 23
-0.2
  0
ENDBLK
  5
22D
100
AcDbEntity
  8
0
  6
BYBLOCK
 62
0
100
AcDbBlockEnd
  0
ENDSEC
  0
SECTION
  2
ENTITIES
  0
MTEXT
  5
22E
100
AcDbEntity
  8
0
100
AcDbMText
 62
7
  6
CONTINUOUS
  7
STANDARD
 71
1
 72
1
 10
8.9992041925
 20
0.3411451863
 30
0.0
 11
1.0
 21
0.0
 31
0.0
 73
2
 44
0.9
  1
SCALE: 1.15
 40
0.08
 41
0.704
  0
LINE
  5
22F
100
AcDbEntity
  8
0
100
AcDbLine
 62
7
  6
CONTINUOUS
 10
0.0
 20
0.0
 11
0.0
 21
8.5
  0
LINE
  5
230
100
AcDbEntity
  8
0
100
AcDbLine
 62
7
  6
CONTINUOUS
 10
0.0
 20
0.0
 11
11.0
 21
0.0
  0
LINE
  5
231
100
AcDbEntity
  8
0
100
AcDbLine
 62
7
  6
CONTINUOUS
 10
0.0
 20
8.5
 11
11.0
 21
8.5
  0
LINE
  5
232
100
AcDbEntity
  8
0
100
AcDbLine
 62
7
  6
CONTINUOUS
 10
11.0
 20
0.0
 11
11.0
 21
8.5
  0
LINE
  5
233
100
AcDbEntity
  8
0
100
AcDbLine
 62
7
  6
CONTINUOUS
 10
3.9954661192
 20
8.3978580075
 11
3.9758812112
 21
8.3857985142
  0
LINE
  5
234
100
AcDbEntity
  8
0
100
AcDbLine
 62
9
  6
CONTINUOUS
 10
5.3559103034
 20
0.1828485149
 11
5.355878887
 21
0.1828485143
  0
LINE
  5
235
100
AcDbEntity
  8
0
100
AcDbLine
 62
9
  6
CONTINUOUS
 10
5.0037435447
 20
0.2705313179
 11
5.0037914977
 21
0.2705052427
  0
LINE
  5
236
100
AcDbEntity
  8
0
100
AcDbLine
 62
9
  6
CONTINUOUS
 10
4.7082874292
 20
0.7150417858
 11
4.7083353821
 21
0.7150157106
  0
LINE
  5
237
100
AcDbEntity
  8
0
100
AcDbLine
 62
7
  6
CONTINUOUS
 10
5.1585662964
 20
0.7766700334
 11
5.1596724571
 21
0.7769837291
  0
LINE
  5
238
100
AcDbEntity
  8
0
100
AcDbLine
 62
7
  6
CONTINUOUS
 10
5.1585598165
 20
0.7766838231
 11
5.1596716027
 21
0.7769829291
  0
LINE
  5
239
100
AcDbEntity
  8
0
100
AcDbLine
 62
7
  6
CONTINUOUS
 10
4.9942354137
 20
1.1292985142
 11
5.7175270087
 21
1.1292985142
  0
LINE
  5
23A
100
AcDbEntity
  8
0
100
AcDbLine
 62
7
  6
CONTINUOUS
 10
5.5532194234
 20
0.7766792845
 11
5.5520908197
 21
0.7769829291
  0
LINE
  5
23B
100
AcDbEntity
  8
0
100
AcDbLine
 62
7
  6
CONTINUOUS
 10
5.5532128629
 20
0.776665287
 11
5.5520899652
 21
0.7769837291
  0
LINE
  5
23C
100
AcDbEntity
  8
0
100
AcDbLine
 62
9
  6
CONTINUOUS
 10
6.0034749932
 20
0.2705052427
 11
6.0034270402
 21
0.2705313179
  0
LINE
  5
23D
100
AcDbEntity
  8
0
100
AcDbLine
 62
7
  6
CONTINUOUS
 10
5.7175562112
 20
1.1580485142
 11
4.9942062112
 21
1.1580485142
  0
LINE
  5
23E
100
AcDbEntity
  8
0
100
AcDbLine
 62
7
  6
CONTINUOUS
 10
4.8527562112
 20
1.2240077325
 11
4.9942062112
 21
1.1580485142
  0
LINE
  5
23F
100
AcDbEntity
  8
0
100
AcDbLine
 62
9
  6
CONTINUOUS
 10
5.7080188776
 20
0.7150157106
 11
5.7079709247
 21
0.7150417858
  0
LINE
  5
240
100
AcDbEntity
  8
0
100
AcDbLine
 62
7
  6
CONTINUOUS
 10
4.9940237539
 20
1.5432441894
 11
4.993344211
 21
1.5432185706
  0
LINE
  5
241
100
AcDbEntity
  8
0
100
AcDbLine
 62
7
  6
CONTINUOUS
 10
5.6950269838
 20
1.5416788594
 11
5.6958333631
 21
1.5417018593
  0
LINE
  5
242
100
AcDbEntity
  8
0
100
AcDbLine
 62
7
  6
CONTINUOUS
 10
5.3774436823
 20
1.552663022
 11
5.3414936425
 21
1.5519075809
  0
LINE
  5
243
100
AcDbEntity
  8
0
100
AcDbLine
 62
7
  6
CONTINUOUS
 10
5.3370524593
 20
1.5661892227
 11
5.3723847131
 21
1.566931612
  0
LINE
  5
244
100
AcDbEntity
  8
0
100
AcDbLine
 62
7
  6
CONTINUOUS
 10
5.377598488
 20
1.5274781244
 11
5.3420032132
 21
1.5267806909
  0
LINE
  5
245
100
AcDbEntity
  8
0
100
AcDbLine
 62
7
  6
CONTINUOUS
 10
5.3370880684
 20
1.5338762324
 11
5.3747109742
 21
1.5346133956
  0
LINE
  5
246
100
AcDbEntity
  8
0
100
AcDbLine
 62
7
  6
CONTINUOUS
 10
4.8613812112
 20
1.4857985142
 11
5.8503812112
 21
1.4857985142
  0
LINE
  5
247
100
AcDbEntity
  8
0
100
AcDbLine
 62
7
  6
CONTINUOUS
 10
4.8613812112
 20
1.5145485142
 11
5.8503812112
 21
1.5145485142
  0
LINE
  5
248
100
AcDbEntity
  8
0
100
AcDbLine
 62
7
  6
CONTINUOUS
 10
4.899123823
 20
1.5835485142
 11
5.7966881678
 21
1.5835485142
  0
LINE
  5
249
100
AcDbEntity
  8
0
100
AcDbLine
 62
7
  6
CONTINUOUS
 10
4.8383812112
 20
1.6985485142
 11
5.2546073241
 21
1.6985485142
  0
LINE
  5
24A
100
AcDbEntity
  8
0
100
AcDbLine
 62
7
  6
CONTINUOUS
 10
5.4571550983
 20
1.6985485142
 11
5.8733812112
 21
1.6985485142
  0
LINE
  5
24B
100
AcDbEntity
  8
0
100
AcDbLine
 62
7
  6
CONTINUOUS
 10
4.8889563863
 20
1.5698713357
 11
4.920398904
 21
1.5517069936
  0
LINE
  5
24C
100
AcDbEntity
  8
0
100
AcDbLine
 62
7
  6
CONTINUOUS
 10
5.8503812112
 20
1.4857985142
 11
5.8590062112
 21
1.4817766107
  0
LINE
  5
24D
100
AcDbEntity
  8
0
100
AcDbLine
 62
7
  6
CONTINUOUS
 10
5.3558812112
 20
1.6400780083
 11
4.9965062112
 21
1.8475632613
  0
LINE
  5
24E
100
AcDbEntity
  8
0
100
AcDbLine
 62
7
  6
CONTINUOUS
 10
5.822807919
 20
1.548908439
 11
5.7916128213
 21
1.5669308688
  0
LINE
  5
24F
100
AcDbEntity
  8
0
100
AcDbLine
 62
7
  6
CONTINUOUS
 10
4.9203990403
 20
1.5518816409
 11
4.9200907396
 21
1.5522289598
  0
LINE
  5
250
100
AcDbEntity
  8
0
100
AcDbLine
 62
7
  6
CONTINUOUS
 10
4.8886937112
 20
1.570177578
 11
4.8889563859
 21
1.5698706844
  0
LINE
  5
251
100
AcDbEntity
  8
0
100
AcDbLine
 62
7
  6
CONTINUOUS
 10
4.8383812112
 20
2.4115485142
 11
5.2546073241
 21
2.4115485142
  0
LINE
  5
252
100
AcDbEntity
  8
0
100
AcDbLine
 62
7
  6
CONTINUOUS
 10
5.4571550983
 20
2.4115485142
 11
5.8733812112
 21
2.4115485142
  0
LINE
  5
253
100
AcDbEntity
  8
0
100
AcDbLine
 62
7
  6
CONTINUOUS
 10
4.8959179596
 20
2.6702985142
 11
5.8158444627
 21
2.6702985142
  0
LINE
  5
254
100
AcDbEntity
  8
0
100
AcDbLine
 62
7
  6
CONTINUOUS
 10
5.3558812112
 20
2.4700190202
 11
5.7152562112
 21
2.2625337672
  0
LINE
  5
255
100
AcDbEntity
  8
0
100
AcDbLine
 62
7
  6
CONTINUOUS
 10
5.7916128086
 20
1.5669151
 11
5.7919290039
 21
1.5665704108
  0
LINE
  5
256
100
AcDbEntity
  8
0
100
AcDbLine
 62
7
  6
CONTINUOUS
 10
5.9596312112
 20
7.1251497812
 11
6.7358812112
 21
8.3857985143
  0
LINE
  5
257
100
AcDbEntity
  8
0
100
AcDbLine
 62
7
  6
CONTINUOUS
 10
4.8383812112
 20
2.4115485142
 11
4.8383812112
 21
1.6985485142
  0
LINE
  5
258
100
AcDbEntity
  8
0
100
AcDbLine
 62
7
  6
CONTINUOUS
 10
4.8527562112
 20
1.224022082
 11
4.8527562112
 21
1.4817622612
  0
LINE
  5
259
100
AcDbEntity
  8
0
100
AcDbLine
 62
7
  6
CONTINUOUS
 10
4.8613812112
 20
1.4857985142
 11
4.8613812112
 21
1.5145485142
  0
LINE
  5
25A
100
AcDbEntity
  8
0
100
AcDbLine
 62
9
  6
CONTINUOUS
 10
4.8815062112
 20
1.4528810572
 11
4.8815062112
 21
1.252903286
  0
LINE
  5
25B
100
AcDbEntity
  8
0
100
AcDbLine
 62
7
  6
CONTINUOUS
 10
4.8886937112
 20
1.5773581929
 11
4.8886937112
 21
1.5701793971
  0
LINE
  5
25C
100
AcDbEntity
  8
0
100
AcDbLine
 62
7
  6
CONTINUOUS
 10
4.8886937112
 20
1.5198694512
 11
4.8886937112
 21
1.5145485142
  0
LINE
  5
25D
100
AcDbEntity
  8
0
100
AcDbLine
 62
7
  6
CONTINUOUS
 10
4.8958812112
 20
2.4115485142
 11
4.8958812112
 21
2.6702985142
  0
LINE
  5
25E
100
AcDbEntity
  8
0
100
AcDbLine
 62
7
  6
CONTINUOUS
 10
4.9200907396
 20
1.5520721012
 11
4.9200907398
 21
1.5380011307
  0
LINE
  5
25F
100
AcDbEntity
  8
0
100
AcDbLine
 62
7
  6
CONTINUOUS
 10
4.9332562112
 20
1.5835485142
 11
4.9332562112
 21
1.6985485142
  0
LINE
  5
260
100
AcDbEntity
  8
0
100
AcDbLine
 62
7
  6
CONTINUOUS
 10
4.9648812112
 20
2.6702985142
 11
4.9648812112
 21
7.0977985142
  0
LINE
  5
261
100
AcDbEntity
  8
0
100
AcDbLine
 62
7
  6
CONTINUOUS
 10
4.9942062112
 20
1.1580485142
 11
4.9942062112
 21
1.1292985142
  0
LINE
  5
262
100
AcDbEntity
  8
0
100
AcDbLine
 62
7
  6
CONTINUOUS
 10
4.9965062112
 20
1.8475632613
 11
4.9965062112
 21
2.2625337672
  0
LINE
  5
263
100
AcDbEntity
  8
0
100
AcDbLine
 62
7
  6
CONTINUOUS
 10
5.1396812112
 20
1.1292985142
 11
5.1396812112
 21
0.7713144257
  0
LINE
  5
264
100
AcDbEntity
  8
0
100
AcDbLine
 62
7
  6
CONTINUOUS
 10
5.1415256927
 20
1.6985485142
 11
5.1415256927
 21
1.7638362246
  0
LINE
  5
265
100
AcDbEntity
  8
0
100
AcDbLine
 62
7
  6
CONTINUOUS
 10
5.1415256927
 20
2.3462608039
 11
5.1415256927
 21
2.4115485142
  0
LINE
  5
266
100
AcDbEntity
  8
0
100
AcDbLine
 62
9
  6
CONTINUOUS
 10
5.3271312112
 20
1.252903286
 11
5.3271312112
 21
1.4528810572
  0
LINE
  5
267
100
AcDbEntity
  8
0
100
AcDbLine
 62
9
  6
CONTINUOUS
 10
5.3846312112
 20
1.4528810572
 11
5.3846312112
 21
1.252903286
  0
LINE
  5
268
100
AcDbEntity
  8
0
100
AcDbLine
 62
7
  6
CONTINUOUS
 10
5.5702367297
 20
1.6985485142
 11
5.5702367297
 21
1.7638362246
  0
LINE
  5
269
100
AcDbEntity
  8
0
100
AcDbLine
 62
7
  6
CONTINUOUS
 10
5.5702367297
 20
2.3462608039
 11
5.5702367297
 21
2.4115485142
  0
LINE
  5
26A
100
AcDbEntity
  8
0
100
AcDbLine
 62
7
  6
CONTINUOUS
 10
5.5720812112
 20
0.7713144256
 11
5.5720812112
 21
1.1292985142
  0
LINE
  5
26B
100
AcDbEntity
  8
0
100
AcDbLine
 62
7
  6
CONTINUOUS
 10
5.7152562112
 20
2.2625337672
 11
5.7152562112
 21
1.8475632613
  0
LINE
  5
26C
100
AcDbEntity
  8
0
100
AcDbLine
 62
7
  6
CONTINUOUS
 10
5.7175562112
 20
1.1580485142
 11
5.7175562112
 21
1.1292985142
  0
LINE
  5
26D
100
AcDbEntity
  8
0
100
AcDbLine
 62
7
  6
CONTINUOUS
 10
5.7468812112
 20
2.6702985142
 11
5.7468812112
 21
7.0977985142
  0
LINE
  5
26E
100
AcDbEntity
  8
0
100
AcDbLine
 62
7
  6
CONTINUOUS
 10
5.7785062112
 20
1.5835485142
 11
5.7785062112
 21
1.6985485142
  0
LINE
  5
26F
100
AcDbEntity
  8
0
100
AcDbLine
 62
7
  6
CONTINUOUS
 10
5.7918346436
 20
1.5145485142
 11
5.7918346436
 21
1.5233948833
  0
LINE
  5
270
100
AcDbEntity
  8
0
100
AcDbLine
 62
7
  6
CONTINUOUS
 10
5.7919290039
 20
1.5665706378
 11
5.7919290039
 21
1.5809757372
  0
LINE
  5
271
100
AcDbEntity
  8
0
100
AcDbLine
 62
7
  6
CONTINUOUS
 10
5.8158812112
 20
2.4115485142
 11
5.8158812112
 21
2.6702985142
  0
LINE
  5
272
100
AcDbEntity
  8
0
100
AcDbLine
 62
7
  6
CONTINUOUS
 10
5.8230687112
 20
1.5414275773
 11
5.8230687112
 21
1.5486194512
  0
LINE
  5
273
100
AcDbEntity
  8
0
100
AcDbLine
 62
9
  6
CONTINUOUS
 10
5.8302562112
 20
1.252903286
 11
5.8302562112
 21
1.4528810572
  0
LINE
  5
274
100
AcDbEntity
  8
0
100
AcDbLine
 62
7
  6
CONTINUOUS
 10
5.8503812112
 20
1.5145485142
 11
5.8503812112
 21
1.4857985142
  0
LINE
  5
275
100
AcDbEntity
  8
0
100
AcDbLine
 62
7
  6
CONTINUOUS
 10
5.8590062112
 20
1.4817622612
 11
5.8590062112
 21
1.224022082
  0
LINE
  5
276
100
AcDbEntity
  8
0
100
AcDbLine
 62
7
  6
CONTINUOUS
 10
5.8733812112
 20
1.6985485142
 11
5.8733812112
 21
2.4115485142
  0
LINE
  5
277
100
AcDbEntity
  8
0
100
AcDbLine
 62
7
  6
CONTINUOUS
 10
3.9758812112
 20
8.3857985143
 11
4.7521312112
 21
7.1251497812
  0
LINE
  5
278
100
AcDbEntity
  8
0
100
AcDbLine
 62
7
  6
CONTINUOUS
 10
4.920351347
 20
1.5381730509
 11
4.9200907397
 21
1.5378537984
  0
LINE
  5
279
100
AcDbEntity
  8
0
100
AcDbLine
 62
7
  6
CONTINUOUS
 10
4.8886937112
 20
1.5773694469
 11
4.8889713042
 21
1.5776849395
  0
LINE
  5
27A
100
AcDbEntity
  8
0
100
AcDbLine
 62
7
  6
CONTINUOUS
 10
4.8886937112
 20
1.5198694512
 11
4.8889720708
 21
1.5201853748
  0
LINE
  5
27B
100
AcDbEntity
  8
0
100
AcDbLine
 62
7
  6
CONTINUOUS
 10
4.9965062112
 20
2.2625337672
 11
5.3558812112
 21
2.4700190202
  0
LINE
  5
27C
100
AcDbEntity
  8
0
100
AcDbLine
 62
7
  6
CONTINUOUS
 10
5.7916200673
 20
1.5231473814
 11
5.7918346436
 21
1.5234335133
  0
LINE
  5
27D
100
AcDbEntity
  8
0
100
AcDbLine
 62
7
  6
CONTINUOUS
 10
5.8230687112
 20
1.5414275773
 11
5.8228299882
 21
1.5411350119
  0
LINE
  5
27E
100
AcDbEntity
  8
0
100
AcDbLine
 62
7
  6
CONTINUOUS
 10
5.7916322326
 20
1.5806126941
 11
5.7919290039
 21
1.580945424
  0
LINE
  5
27F
100
AcDbEntity
  8
0
100
AcDbLine
 62
7
  6
CONTINUOUS
 10
4.8991308563
 20
1.5835485142
 11
4.8889713081
 21
1.5776792113
  0
LINE
  5
280
100
AcDbEntity
  8
0
100
AcDbLine
 62
7
  6
CONTINUOUS
 10
4.9203512521
 20
1.5383049689
 11
4.8889720772
 21
1.5201760207
  0
LINE
  5
281
100
AcDbEntity
  8
0
100
AcDbLine
 62
7
  6
CONTINUOUS
 10
5.7152562112
 20
1.8475632613
 11
5.3558812112
 21
1.6400780083
  0
LINE
  5
282
100
AcDbEntity
  8
0
100
AcDbLine
 62
7
  6
CONTINUOUS
 10
4.8613812112
 20
1.4857985142
 11
4.8527562112
 21
1.4817766107
  0
LINE
  5
283
100
AcDbEntity
  8
0
100
AcDbLine
 62
7
  6
CONTINUOUS
 10
5.791632213
 20
1.5806375375
 11
5.7966700539
 21
1.5835485142
  0
LINE
  5
284
100
AcDbEntity
  8
0
100
AcDbLine
 62
7
  6
CONTINUOUS
 10
5.7916200671
 20
1.5231476728
 11
5.8228299603
 21
1.5411796968
  0
LINE
  5
285
100
AcDbEntity
  8
0
100
AcDbLine
 62
7
  6
CONTINUOUS
 10
4.8010934813
 20
7.0977985142
 11
5.9106689411
 21
7.0977985142
  0
LINE
  5
286
100
AcDbEntity
  8
0
100
AcDbLine
 62
9
  6
CONTINUOUS
 10
4.7521312112
 20
7.1251497812
 11
5.9596312112
 21
7.1251497812
  0
LINE
  5
287
100
AcDbEntity
  8
0
100
AcDbLine
 62
9
  6
CONTINUOUS
 10
5.0037435447
 20
0.7150157106
 11
5.0037090937
 21
0.7149969627
  0
LINE
  5
288
100
AcDbEntity
  8
0
100
AcDbLine
 62
7
  6
CONTINUOUS
 10
5.8590062112
 20
1.2240077325
 11
5.7175562112
 21
1.1580485142
  0
LINE
  5
289
100
AcDbEntity
  8
0
100
AcDbLine
 62
9
  6
CONTINUOUS
 10
4.7083698332
 20
0.2705500658
 11
4.7083353821
 21
0.2705313179
  0
LINE
  5
28A
100
AcDbEntity
  8
0
100
AcDbLine
 62
9
  6
CONTINUOUS
 10
6.0033925892
 20
0.7149969627
 11
6.0034270402
 21
0.7150157106
  0
LINE
  5
28B
100
AcDbEntity
  8
0
100
AcDbLine
 62
9
  6
CONTINUOUS
 10
5.7080188776
 20
0.2705313179
 11
5.7080533287
 21
0.2705500658
  0
LINE
  5
28C
100
AcDbEntity
  8
0
100
AcDbLine
 62
7
  6
CONTINUOUS
 10
6.7358812112
 20
8.3857985142
 11
3.9758812112
 21
8.3857985142
  0
LINE
  5
28D
100
AcDbEntity
  8
0
100
AcDbLine
 62
7
  6
CONTINUOUS
 10
3.9954661192
 20
8.3978580075
 11
6.7162963031
 21
8.3978580075
  0
LINE
  5
28E
100
AcDbEntity
  8
0
100
AcDbLine
 62
7
  6
CONTINUOUS
 10
6.7358812112
 20
8.3857985142
 11
6.7162963031
 21
8.3978580075
  0
ARC
  5
28F
100
AcDbEntity
  8
0
100
AcDbCircle
 62
7
  6
CONTINUOUS
 10
4.5874329167
 20
0.4927735142
 40
0.253
100
AcDbArc
 50
61.4532700444
 51
298.5467299556
  0
ARC
  5
290
100
AcDbEntity
  8
0
100
AcDbCircle
 62
7
  6
CONTINUOUS
 10
4.8010934813
 20
7.1552985142
 40
0.0575
100
AcDbArc
 50
211.6228670355
 51
270.0
  0
ARC
  5
291
100
AcDbEntity
  8
0
100
AcDbCircle
 62
7
  6
CONTINUOUS
 10
5.1384413589
 20
-3.2329892828
 40
4.8187877278
100
AcDbArc
 50
91.7509357341
 51
92.2462350195
  0
ARC
  5
292
100
AcDbEntity
  8
0
100
AcDbCircle
 62
7
  6
CONTINUOUS
 10
5.166878935
 20
-3.0291695854
 40
4.5900449464
100
AcDbArc
 50
91.9888560011
 51
92.23648199
  0
ARC
  5
293
100
AcDbEntity
  8
0
100
AcDbCircle
 62
7
  6
CONTINUOUS
 10
5.1272497227
 20
-2.9215481322
 40
4.4999566013
100
AcDbArc
 50
91.8119234698
 51
92.3323857449
  0
ARC
  5
294
100
AcDbEntity
  8
0
100
AcDbCircle
 62
7
  6
CONTINUOUS
 10
5.0492213963
 20
-0.9431969059
 40
2.5272579646
100
AcDbArc
 50
92.2597259284
 51
92.629273473
  0
ARC
  5
295
100
AcDbEntity
  8
0
100
AcDbCircle
 62
7
  6
CONTINUOUS
 10
5.0473246266
 20
-0.917619554
 40
2.4944360729
100
AcDbArc
 50
92.3712990581
 51
92.6186665622
  0
ARC
  5
296
100
AcDbEntity
  8
0
100
AcDbCircle
 62
7
  6
CONTINUOUS
 10
5.1052675184
 20
0.6502076542
 40
0.8315910695
100
AcDbArc
 50
93.0920578504
 51
95.1200712443
  0
ARC
  5
297
100
AcDbEntity
  8
0
100
AcDbCircle
 62
7
  6
CONTINUOUS
 10
5.1524228129
 20
0.5422331458
 40
0.3307982811
100
AcDbArc
 50
278.6786910335
 51
281.3312780464
  0
ARC
  5
298
100
AcDbEntity
  8
0
100
AcDbCircle
 62
7
  6
CONTINUOUS
 10
5.1528009739
 20
0.539827107
 40
0.3283628443
100
AcDbArc
 50
278.6768014116
 51
281.3490103341
  0
ARC
  5
299
100
AcDbEntity
  8
0
100
AcDbCircle
 62
7
  6
CONTINUOUS
 10
5.3506474753
 20
-10.1507351685
 40
11.7326054187
100
AcDbArc
 50
91.5393517469
 51
91.6682454325
  0
ARC
  5
29A
100
AcDbEntity
  8
0
100
AcDbCircle
 62
7
  6
CONTINUOUS
 10
5.3269266495
 20
-7.8219218072
 40
9.3854746751
100
AcDbArc
 50
91.6686881721
 51
91.8155161292
  0
ARC
  5
29B
100
AcDbEntity
  8
0
100
AcDbCircle
 62
7
  6
CONTINUOUS
 10
5.3268709957
 20
-7.8362277369
 40
9.3854038314
100
AcDbArc
 50
91.6874614842
 51
91.8375320247
  0
ARC
  5
29C
100
AcDbEntity
  8
0
100
AcDbCircle
 62
7
  6
CONTINUOUS
 10
5.2689914566
 20
-7.3637854871
 40
8.894173312
100
AcDbArc
 50
91.6266121234
 51
91.7725872609
  0
ARC
  5
29D
100
AcDbEntity
  8
0
100
AcDbCircle
 62
7
  6
CONTINUOUS
 10
5.2519135072
 20
-6.7435455079
 40
8.3239855471
100
AcDbArc
 50
91.6716793144
 51
91.837767443
  0
ARC
  5
29E
100
AcDbEntity
  8
0
100
AcDbCircle
 62
7
  6
CONTINUOUS
 10
5.2413939715
 20
-5.1453401269
 40
6.7075268301
100
AcDbArc
 50
91.8096067474
 51
91.997638952
  0
ARC
  5
29F
100
AcDbEntity
  8
0
100
AcDbCircle
 62
7
  6
CONTINUOUS
 10
5.2247521188
 20
-4.652895458
 40
6.2004340258
100
AcDbArc
 50
91.8376127303
 51
92.1325627029
  0
ARC
  5
2A0
100
AcDbEntity
  8
0
100
AcDbCircle
 62
7
  6
CONTINUOUS
 10
5.3558979054
 20
0.9482437465
 40
0.7653953403
100
AcDbArc
 50
268.504147513
 51
268.9991182374
  0
ARC
  5
2A1
100
AcDbEntity
  8
0
100
AcDbCircle
 62
7
  6
CONTINUOUS
 10
5.3558836584
 20
0.9473205475
 40
0.7644720333
100
AcDbArc
 50
268.9989772299
 51
271.0606268748
  0
ARC
  5
2A2
100
AcDbEntity
  8
0
100
AcDbCircle
 62
7
  6
CONTINUOUS
 10
5.3562421277
 20
0.9422755117
 40
0.7594211863
100
AcDbArc
 50
271.0403037375
 51
283.0621528689
  0
ARC
  5
2A3
100
AcDbEntity
  8
0
100
AcDbCircle
 62
7
  6
CONTINUOUS
 10
5.3554732993
 20
0.9419804201
 40
0.759123109
100
AcDbArc
 50
256.9362686448
 51
268.5238437956
  0
ARC
  5
2A4
100
AcDbEntity
  8
0
100
AcDbCircle
 62
7
  6
CONTINUOUS
 10
5.3511559781
 20
0.0629422599
 40
0.7392701134
100
AcDbArc
 50
105.0135210735
 51
106.6544804167
  0
ARC
  5
2A5
100
AcDbEntity
  8
0
100
AcDbCircle
 62
7
  6
CONTINUOUS
 10
5.3606069487
 20
0.062943981
 40
0.7392683199
100
AcDbArc
 50
73.3455200138
 51
74.9865623995
  0
ARC
  5
2A6
100
AcDbEntity
  8
0
100
AcDbCircle
 62
7
  6
CONTINUOUS
 10
5.3626501204
 20
0.0696875009
 40
0.7322221159
100
AcDbArc
 50
71.6440520418
 51
73.347458438
  0
ARC
  5
2A7
100
AcDbEntity
  8
0
100
AcDbCircle
 62
7
  6
CONTINUOUS
 10
5.3491123007
 20
0.069687505
 40
0.7322221116
100
AcDbArc
 50
106.6525427714
 51
108.3559489942
  0
ARC
  5
2A8
100
AcDbEntity
  8
0
100
AcDbCircle
 62
7
  6
CONTINUOUS
 10
5.349111508
 20
0.9157974325
 40
0.7321625619
100
AcDbArc
 50
251.6498073507
 51
252.4951422446
  0
ARC
  5
2A9
100
AcDbEntity
  8
0
100
AcDbCircle
 62
7
  6
CONTINUOUS
 10
5.3626523956
 20
0.9157928712
 40
0.7321577662
100
AcDbArc
 50
287.5070155703
 51
288.3501875835
  0
ARC
  5
2AA
100
AcDbEntity
  8
0
100
AcDbCircle
 62
7
  6
CONTINUOUS
 10
5.3652268189
 20
0.9081107012
 40
0.7240557442
100
AcDbArc
 50
288.3482106527
 51
291.2566212884
  0
ARC
  5
2AB
100
AcDbEntity
  8
0
100
AcDbCircle
 62
7
  6
CONTINUOUS
 10
5.3465355939
 20
0.9081106744
 40
0.7240557158
100
AcDbArc
 50
248.743373374
 51
251.6517818907
  0
ARC
  5
2AC
100
AcDbEntity
  8
0
100
AcDbCircle
 62
7
  6
CONTINUOUS
 10
5.3681488276
 20
0.0854750724
 40
0.7155062341
100
AcDbArc
 50
66.550755995
 51
71.6638400753
  0
ARC
  5
2AD
100
AcDbEntity
  8
0
100
AcDbCircle
 62
7
  6
CONTINUOUS
 10
5.3436135935
 20
0.0854750755
 40
0.7155062307
100
AcDbArc
 50
108.3361609637
 51
113.4492445228
  0
ARC
  5
2AE
100
AcDbEntity
  8
0
100
AcDbCircle
 62
7
  6
CONTINUOUS
 10
5.3702440457
 20
0.8950598278
 40
0.7100738022
100
AcDbArc
 50
291.2611119945
 51
294.1732527107
  0
ARC
  5
2AF
100
AcDbEntity
  8
0
100
AcDbCircle
 62
7
  6
CONTINUOUS
 10
5.3415183682
 20
0.8950598074
 40
0.7100737801
100
AcDbArc
 50
245.8267440853
 51
248.7388826729
  0
ARC
  5
2B0
100
AcDbEntity
  8
0
100
AcDbCircle
 62
7
  6
CONTINUOUS
 10
5.3778818632
 20
0.8779831417
 40
0.6913668827
100
AcDbArc
 50
294.1753068943
 51
298.5231297968
  0
ARC
  5
2B1
100
AcDbEntity
  8
0
100
AcDbCircle
 62
7
  6
CONTINUOUS
 10
5.3338805538
 20
0.8779831309
 40
0.6913668707
100
AcDbArc
 50
241.4768701689
 51
245.8246899043
  0
ARC
  5
2B2
100
AcDbEntity
  8
0
100
AcDbCircle
 62
7
  6
CONTINUOUS
 10
5.3790480398
 20
0.1099997903
 40
0.6886697874
100
AcDbArc
 50
61.4653435237
 51
66.5707065982
  0
ARC
  5
2B3
100
AcDbEntity
  8
0
100
AcDbCircle
 62
7
  6
CONTINUOUS
 10
5.3327143819
 20
0.1099997916
 40
0.6886697859
100
AcDbArc
 50
113.4292939235
 51
118.5346564789
  0
ARC
  5
2B4
100
AcDbEntity
  8
0
100
AcDbCircle
 62
9
  6
CONTINUOUS
 10
5.3559594686
 20
0.8245660899
 40
0.6417175804
100
AcDbArc
 50
268.6052958044
 51
269.9928767752
  0
ARC
  5
2B5
100
AcDbEntity
  8
0
100
AcDbCircle
 62
9
  6
CONTINUOUS
 10
5.3553640107
 20
0.8168432993
 40
0.6339827153
100
AcDbArc
 50
255.9938310166
 51
268.6421062313
  0
CIRCLE
  5
2B6
100
AcDbEntity
  8
0
100
AcDbCircle
 62
7
  6
CONTINUOUS
 10
5.3558812112
 20
2.0550485142
 40
0.359375
  0
CIRCLE
  5
2B7
100
AcDbEntity
  8
0
100
AcDbCircle
 62
7
  6
CONTINUOUS
 10
5.3558812112
 20
2.0550485142
 40
0.2447104167
  0
CIRCLE
  5
2B8
100
AcDbEntity
  8
0
100
AcDbCircle
 62
7
  6
CONTINUOUS
 10
5.3558812112
 20
2.0550485142
 40
0.22425
  0
CIRCLE
  5
2B9
100
AcDbEntity
  8
0
100
AcDbCircle
 62
7
  6
CONTINUOUS
 10
5.3558812112
 20
2.0550485142
 40
0.2185
  0
ARC
  5
2BA
100
AcDbEntity
  8
0
100
AcDbCircle
 62
7
  6
CONTINUOUS
 10
5.3558786834
 20
0.9480889361
 40
0.1943405772
100
AcDbArc
 50
265.1232797203
 51
275.5294682238
  0
ARC
  5
2BB
100
AcDbEntity
  8
0
100
AcDbCircle
 62
7
  6
CONTINUOUS
 10
5.3558538901
 20
0.9474920497
 40
0.1937434544
100
AcDbArc
 50
263.2982245829
 51
264.5175092215
  0
ARC
  5
2BC
100
AcDbEntity
  8
0
100
AcDbCircle
 62
7
  6
CONTINUOUS
 10
5.3558461115
 20
0.946963776
 40
0.1932169049
100
AcDbArc
 50
263.2820526235
 51
264.5048391614
  0
ARC
  5
2BD
100
AcDbEntity
  8
0
100
AcDbCircle
 62
7
  6
CONTINUOUS
 10
5.3557123975
 20
0.9460914078
 40
0.1923357014
100
AcDbArc
 50
264.5196021531
 51
265.1219485388
  0
ARC
  5
2BE
100
AcDbEntity
  8
0
100
AcDbCircle
 62
7
  6
CONTINUOUS
 10
5.3556771797
 20
0.9452870936
 40
0.191531751
100
AcDbArc
 50
264.5071107065
 51
265.1120868391
  0
ARC
  5
2BF
100
AcDbEntity
  8
0
100
AcDbCircle
 62
7
  6
CONTINUOUS
 10
5.3558809197
 20
0.0649051506
 40
0.1856840345
100
AcDbArc
 50
83.1999443253
 51
96.726434522
  0
CIRCLE
  5
2C0
100
AcDbEntity
  8
0
100
AcDbCircle
 62
7
  6
CONTINUOUS
 10
5.3558812112
 20
2.0550485142
 40
0.1725
  0
ARC
  5
2C1
100
AcDbEntity
  8
0
100
AcDbCircle
 62
7
  6
CONTINUOUS
 10
5.2900805138
 20
15.861604124
 40
14.3256497663
100
AcDbArc
 50
271.4451076046
 51
271.6198088732
  0
ARC
  5
2C2
100
AcDbEntity
  8
0
100
AcDbCircle
 62
7
  6
CONTINUOUS
 10
5.3457232375
 20
13.8165348697
 40
12.2870142905
100
AcDbArc
 50
271.5042497053
 51
271.6234013179
  0
ARC
  5
2C3
100
AcDbEntity
  8
0
100
AcDbCircle
 62
7
  6
CONTINUOUS
 10
5.3837672337
 20
10.9324665745
 40
9.4203677684
100
AcDbArc
 50
271.6728324265
 51
271.8196162125
  0
ARC
  5
2C4
100
AcDbEntity
  8
0
100
AcDbCircle
 62
7
  6
CONTINUOUS
 10
5.3920898872
 20
10.743092148
 40
9.1733558278
100
AcDbArc
 50
271.6806760358
 51
271.8345649839
  0
ARC
  5
2C5
100
AcDbEntity
  8
0
100
AcDbCircle
 62
7
  6
CONTINUOUS
 10
5.4230503183
 20
9.7194465218
 40
8.1636103315
100
AcDbArc
 50
271.7074527025
 51
271.8763784049
  0
ARC
  5
2C6
100
AcDbEntity
  8
0
100
AcDbCircle
 62
7
  6
CONTINUOUS
 10
6.3150336809
 20
-50.927157629
 40
52.470149402
100
AcDbArc
 50
91.0679482087
 51
91.3701206924
  0
ARC
  5
2C7
100
AcDbEntity
  8
0
100
AcDbCircle
 62
7
  6
CONTINUOUS
 10
5.7146380911
 20
2.9696695283
 40
1.4265074386
100
AcDbArc
 50
272.854972017
 51
273.0574424297
  0
ARC
  5
2C8
100
AcDbEntity
  8
0
100
AcDbCircle
 62
7
  6
CONTINUOUS
 10
5.606002691
 20
0.6433514705
 40
0.8384638315
100
AcDbArc
 50
84.8874834369
 51
86.8989783867
  0
ARC
  5
2C9
100
AcDbEntity
  8
0
100
AcDbCircle
 62
7
  6
CONTINUOUS
 10
6.1243295056
 20
0.4927735142
 40
0.253
100
AcDbArc
 50
241.4532700444
 51
118.5467299556
  0
ARC
  5
2CA
100
AcDbEntity
  8
0
100
AcDbCircle
 62
7
  6
CONTINUOUS
 10
5.5561660442
 20
0.3023624951
 40
0.0889230387
100
AcDbArc
 50
287.4897908056
 51
287.9380542432
  0
ARC
  5
2CB
100
AcDbEntity
  8
0
100
AcDbCircle
 62
7
  6
CONTINUOUS
 10
5.5564673218
 20
0.3013423348
 40
0.0878620566
100
AcDbArc
 50
287.4895376225
 51
288.3845125018
  0
ARC
  5
2CC
100
AcDbEntity
  8
0
100
AcDbCircle
 62
7
  6
CONTINUOUS
 10
5.9106689411
 20
7.1552985142
 40
0.0575
100
AcDbArc
 50
270.0
 51
328.3771329645
  0
SPLINE
  5
2CD
100
AcDbEntity
  8
0
100
AcDbSpline
 62
7
  6
CONTINUOUS
 70
0
 71
3
 72
20
 73
16
 74
0
 42
0.0000001
 43
0.0000001
 44
0.0000000001
 40
0.0
 40
0.0
 40
0.0
 40
0.0
 40
0.2077594513
 40
0.3964800933
 40
0.5616527522
 40
0.6342831831
 40
0.6999797858
 40
0.7586061708
 40
0.810093086
 40
0.8544888717
 40
0.8921374028
 40
0.92383544
 40
0.950903669
 40
0.975397022
 40
1.0
 40
1.0
 40
1.0
 40
1.0
 10
5.8302562112
 20
1.252903286
 30
0.0
 10
5.8323065995
 20
1.2534059387
 30
0.0
 10
5.8362367519
 20
1.2542973466
 30
0.0
 10
5.8418516879
 20
1.2553279216
 30
0.0
 10
5.8461525604
 20
1.255889058
 30
0.0
 10
5.8492291259
 20
1.2561135485
 30
0.0
 10
5.8512303911
 20
1.2561709213
 30
0.0
 10
5.8530173459
 20
1.2561252572
 30
0.0
 10
5.8545819405
 20
1.2559769771
 30
0.0
 10
5.8559178965
 20
1.2557257775
 30
0.0
 10
5.8570220607
 20
1.2553707907
 30
0.0
 10
5.8578952742
 20
1.2549124205
 30
0.0
 10
5.8585369528
 20
1.2543435313
 30
0.0
 10
5.8589288109
 20
1.2536580147
 30
0.0
 10
5.8590062112
 20
1.2531532838
 30
0.0
 10
5.8590062112
 20
1.252903286
 30
0.0
  0
SPLINE
  5
2CE
100
AcDbEntity
  8
0
100
AcDbSpline
 62
7
  6
CONTINUOUS
 70
0
 71
3
 72
11
 73
7
 74
0
 42
0.0000001
 43
0.0000001
 44
0.0000000001
 40
0.0
 40
0.0
 40
0.0
 40
0.0
 40
0.2607379565
 40
0.5170743054
 40
0.764734989
 40
1.0
 40
1.0
 40
1.0
 40
1.0
 10
5.3558812112
 20
1.4496300941
 30
0.0
 10
5.3533610364
 20
1.4496300941
 30
0.0
 10
5.3483621344
 20
1.4497676845
 30
0.0
 10
5.340992236
 20
1.4503821856
 30
0.0
 10
5.333914399
 20
1.4513915648
 30
0.0
 10
5.3293397785
 20
1.4523396269
 30
0.0
 10
5.3271312112
 20
1.4528810572
 30
0.0
  0
SPLINE
  5
2CF
100
AcDbEntity
  8
0
100
AcDbSpline
 62
7
  6
CONTINUOUS
 70
0
 71
3
 72
14
 73
10
 74
0
 42
0.0000001
 43
0.0000001
 44
0.0000000001
 40
0.0
 40
0.0
 40
0.0
 40
0.0
 40
0.2507892452
 40
0.3759286957
 40
0.5009101959
 40
0.6257574643
 40
0.7505205495
 40
0.8752536882
 40
1.0
 40
1.0
 40
1.0
 40
1.0
 10
5.3271312112
 20
1.4528810572
 30
0.0
 10
5.3052793045
 20
1.4582380521
 30
0.0
 10
5.272292805
 20
1.4653888522
 30
0.0
 10
5.2279493046
 20
1.472718407
 30
0.0
 10
5.1945762923
 20
1.4770069392
 30
0.0
 10
5.1610974198
 20
1.4800198658
 30
0.0
 10
5.1275450594
 20
1.4816719643
 30
0.0
 10
5.0939627609
 20
1.4819359885
 30
0.0
 10
5.071586234
 20
1.4811909134
 30
0.0
 10
5.0604111646
 20
1.4805880576
 30
0.0
  0
SPLINE
  5
2D0
100
AcDbEntity
  8
0
100
AcDbSpline
 62
7
  6
CONTINUOUS
 70
0
 71
3
 72
11
 73
7
 74
0
 42
0.0000001
 43
0.0000001
 44
0.0000000001
 40
0.0
 40
0.0
 40
0.0
 40
0.0
 40
0.2494475945
 40
0.4992343522
 40
0.7494131111
 40
1.0
 40
1.0
 40
1.0
 40
1.0
 10
5.0310536587
 20
1.478480562
 30
0.0
 10
5.0184767993
 20
1.4773564216
 30
0.0
 10
4.9933526708
 20
1.4745499031
 30
0.0
 10
4.9558497053
 20
1.4687764861
 30
0.0
 10
4.9185396155
 20
1.4615628783
 30
0.0
 10
4.8938260785
 20
1.4559012726
 30
0.0
 10
4.8815062112
 20
1.4528810572
 30
0.0
  0
SPLINE
  5
2D1
100
AcDbEntity
  8
0
100
AcDbSpline
 62
7
  6
CONTINUOUS
 70
0
 71
3
 72
20
 73
16
 74
0
 42
0.0000001
 43
0.0000001
 44
0.0000000001
 40
0.0
 40
0.0
 40
0.0
 40
0.0
 40
0.2077592335
 40
0.3964795075
 40
0.5616518063
 40
0.6342822199
 40
0.699978883
 40
0.7586053357
 40
0.8100922744
 40
0.8544880333
 40
0.892136627
 40
0.9238348447
 40
0.9509033315
 40
0.9753969256
 40
1.0
 40
1.0
 40
1.0
 40
1.0
 10
4.8815062112
 20
1.4528810572
 30
0.0
 10
4.8794558242
 20
1.4523784048
 30
0.0
 10
4.8755256743
 20
1.4514870056
 30
0.0
 10
4.8699107424
 20
1.4504564504
 30
0.0
 10
4.865609876
 20
1.4498953182
 30
0.0
 10
4.8625333139
 20
1.4496708114
 30
0.0
 10
4.8605320474
 20
1.4496134229
 30
0.0
 10
4.85874509
 20
1.4496590709
 30
0.0
 10
4.8571804928
 20
1.4498073383
 30
0.0
 10
4.8558445347
 20
1.4500585342
 30
0.0
 10
4.8547403688
 20
1.4504135251
 30
0.0
 10
4.8538671532
 20
1.4508719033
 30
0.0
 10
4.8532254729
 20
1.4514408015
 30
0.0
 10
4.8528336132
 20
1.452126324
 30
0.0
 10
4.8527562112
 20
1.4526310583
 30
0.0
 10
4.8527562112
 20
1.4528810572
 30
0.0
  0
SPLINE
  5
2D2
100
AcDbEntity
  8
0
100
AcDbSpline
 62
7
  6
CONTINUOUS
 70
0
 71
3
 72
20
 73
16
 74
0
 42
0.0000001
 43
0.0000001
 44
0.0000000001
 40
0.0
 40
0.0
 40
0.0
 40
0.0
 40
0.0246030187
 40
0.0490966116
 40
0.0761652915
 40
0.107863834
 40
0.1455127201
 40
0.1899087051
 40
0.2413961544
 40
0.3000232006
 40
0.3657202782
 40
0.4383506634
 40
0.6035215736
 40
0.792240937
 40
1.0
 40
1.0
 40
1.0
 40
1.0
 10
5.8590062112
 20
1.4528810572
 30
0.0
 10
5.8590062112
 20
1.4526310591
 30
0.0
 10
5.8589288056
 20
1.4521263253
 30
0.0
 10
5.8585369309
 20
1.4514408098
 30
0.0
 10
5.857895236
 20
1.4508719221
 30
0.0
 10
5.8570220093
 20
1.4504135505
 30
0.0
 10
5.8559178365
 20
1.4500585583
 30
0.0
 10
5.854581871
 20
1.4498073513
 30
0.0
 10
5.853017262
 20
1.4496590779
 30
0.0
 10
5.851230291
 20
1.4496134224
 30
0.0
 10
5.849229016
 20
1.4496708037
 30
0.0
 10
5.8461524659
 20
1.4498952981
 30
0.0
 10
5.8418516257
 20
1.4504564237
 30
0.0
 10
5.8362367279
 20
1.4514869997
 30
0.0
 10
5.8323065947
 20
1.4523784057
 30
0.0
 10
5.8302562112
 20
1.4528810572
 30
0.0
  0
SPLINE
  5
2D3
100
AcDbEntity
  8
0
100
AcDbSpline
 62
7
  6
CONTINUOUS
 70
0
 71
3
 72
11
 73
7
 74
0
 42
0.0000001
 43
0.0000001
 44
0.0000000001
 40
0.0
 40
0.0
 40
0.0
 40
0.0
 40
0.2505868459
 40
0.5007655866
 40
0.7505523669
 40
1.0
 40
1.0
 40
1.0
 40
1.0
 10
5.8302562112
 20
1.4528810572
 30
0.0
 10
5.8179372434
 20
1.4559010521
 30
0.0
 10
5.7932255167
 20
1.461562272
 30
0.0
 10
5.7559181757
 20
1.4687754972
 30
0.0
 10
5.718417983
 20
1.4745487625
 30
0.0
 10
5.6932957143
 20
1.477355354
 30
0.0
 10
5.6807197837
 20
1.4784795761
 30
0.0
  0
SPLINE
  5
2D4
100
AcDbEntity
  8
0
100
AcDbSpline
 62
7
  6
CONTINUOUS
 70
0
 71
3
 72
14
 73
10
 74
0
 42
0.0000001
 43
0.0000001
 44
0.0000000001
 40
0.0
 40
0.0
 40
0.0
 40
0.0
 40
0.1247463318
 40
0.249479474
 40
0.3742425503
 40
0.4990898055
 40
0.624071293
 40
0.7492107385
 40
1.0
 40
1.0
 40
1.0
 40
1.0
 10
5.6513607481
 20
1.4805875444
 30
0.0
 10
5.6401852894
 20
1.4811905505
 30
0.0
 10
5.6178079781
 20
1.4819358976
 30
0.0
 10
5.5842244894
 20
1.4816721868
 30
0.0
 10
5.5506709322
 20
1.4800202962
 30
0.0
 10
5.5171908611
 20
1.4770074751
 30
0.0
 10
5.4838166526
 20
1.472718947
 30
0.0
 10
5.4394715647
 20
1.465389263
 30
0.0
 10
5.4064838907
 20
1.4582382415
 30
0.0
 10
5.3846312112
 20
1.4528810572
 30
0.0
  0
SPLINE
  5
2D5
100
AcDbEntity
  8
0
100
AcDbSpline
 62
7
  6
CONTINUOUS
 70
0
 71
3
 72
11
 73
7
 74
0
 42
0.0000001
 43
0.0000001
 44
0.0000000001
 40
0.0
 40
0.0
 40
0.0
 40
0.0
 40
0.235265373
 40
0.482926526
 40
0.7392624412
 40
1.0
 40
1.0
 40
1.0
 40
1.0
 10
5.3846312112
 20
1.4528810572
 30
0.0
 10
5.3824226405
 20
1.4523396261
 30
0.0
 10
5.3778480117
 20
1.4513915644
 30
0.0
 10
5.3707701706
 20
1.4503821875
 30
0.0
 10
5.363400276
 20
1.4497676858
 30
0.0
 10
5.3584013821
 20
1.4496300941
 30
0.0
 10
5.3558812112
 20
1.4496300941
 30
0.0
  0
SPLINE
  5
2D6
100
AcDbEntity
  8
0
100
AcDbSpline
 62
7
  6
CONTINUOUS
 70
0
 71
3
 72
20
 73
16
 74
0
 42
0.0000001
 43
0.0000001
 44
0.0000000001
 40
0.0
 40
0.0
 40
0.0
 40
0.0
 40
0.024603115
 40
0.0490969486
 40
0.0761658857
 40
0.1078646085
 40
0.1455135576
 40
0.1899095165
 40
0.2413969901
 40
0.3000241048
 40
0.3657212438
 40
0.4383516125
 40
0.6035221619
 40
0.7922411559
 40
1.0
 40
1.0
 40
1.0
 40
1.0
 10
4.8527562112
 20
1.252903286
 30
0.0
 10
4.8527562112
 20
1.2531532852
 30
0.0
 10
4.8528336184
 20
1.2536580224
 30
0.0
 10
4.8532254948
 20
1.2543435438
 30
0.0
 10
4.8538671913
 20
1.2549124405
 30
0.0
 10
4.8547404202
 20
1.2553708201
 30
0.0
 10
4.8558445947
 20
1.2557258164
 30
0.0
 10
4.8571805623
 20
1.2559770198
 30
0.0
 10
4.8587451739
 20
1.2561252804
 30
0.0
 10
4.8605321475
 20
1.2561709199
 30
0.0
 10
4.8625334238
 20
1.2561135228
 30
0.0
 10
4.8656099705
 20
1.2558890122
 30
0.0
 10
4.8699108046
 20
1.2553278907
 30
0.0
 10
4.8755256984
 20
1.2542973344
 30
0.0
 10
4.8794558291
 20
1.2534059372
 30
0.0
 10
4.8815062112
 20
1.252903286
 30
0.0
  0
SPLINE
  5
2D7
100
AcDbEntity
  8
0
100
AcDbSpline
 62
7
  6
CONTINUOUS
 70
0
 71
3
 72
21
 73
17
 74
0
 42
0.0000001
 43
0.0000001
 44
0.0000000001
 40
0.0
 40
0.0
 40
0.0
 40
0.0
 40
0.1253760655
 40
0.187954867
 40
0.2504635353
 40
0.3129088151
 40
0.3753006934
 40
0.437657917
 40
0.4999999969
 40
0.5623420755
 40
0.6246992967
 40
0.687091174
 40
0.7495364535
 40
0.8120451216
 40
0.8746239267
 40
1.0
 40
1.0
 40
1.0
 40
1.0
 10
4.8815062112
 20
1.252903286
 30
0.0
 10
4.8997895533
 20
1.2484211247
 30
0.0
 10
4.9273581548
 20
1.2423183432
 30
0.0
 10
4.9643763797
 20
1.2356730514
 30
0.0
 10
4.9922277702
 20
1.2315037064
 30
0.0
 10
5.0201663417
 20
1.2281949997
 30
0.0
 10
5.0481748358
 20
1.2257888758
 30
0.0
 10
5.0762337594
 20
1.2243348499
 30
0.0
 10
5.1043187095
 20
1.2238519059
 30
0.0
 10
5.1324036594
 20
1.2243348477
 30
0.0
 10
5.160462582
 20
1.2257888779
 30
0.0
 10
5.1884710757
 20
1.2281950007
 30
0.0
 10
5.2164096472
 20
1.2315037049
 30
0.0
 10
5.2442610379
 20
1.2356730516
 30
0.0
 10
5.2812792644
 20
1.2423183443
 30
0.0
 10
5.3088478679
 20
1.2484211244
 30
0.0
 10
5.3271312112
 20
1.252903286
 30
0.0
  0
SPLINE
  5
2D8
100
AcDbEntity
  8
0
100
AcDbSpline
 62
7
  6
CONTINUOUS
 70
0
 71
3
 72
11
 73
7
 74
0
 42
0.0000001
 43
0.0000001
 44
0.0000000001
 40
0.0
 40
0.0
 40
0.0
 40
0.0
 40
0.2352653854
 40
0.4829265478
 40
0.7392624425
 40
1.0
 40
1.0
 40
1.0
 40
1.0
 10
5.3271312112
 20
1.252903286
 30
0.0
 10
5.329339782
 20
1.2534447172
 30
0.0
 10
5.3339144113
 20
1.2543927772
 30
0.0
 10
5.3409922517
 20
1.2554021593
 30
0.0
 10
5.3483621464
 20
1.256016663
 30
0.0
 10
5.3533610402
 20
1.2561542491
 30
0.0
 10
5.3558812112
 20
1.2561542491
 30
0.0
  0
SPLINE
  5
2D9
100
AcDbEntity
  8
0
100
AcDbSpline
 62
7
  6
CONTINUOUS
 70
0
 71
3
 72
11
 73
7
 74
0
 42
0.0000001
 43
0.0000001
 44
0.0000000001
 40
0.0
 40
0.0
 40
0.0
 40
0.0
 40
0.2352681434
 40
0.4829265093
 40
0.7392599635
 40
1.0
 40
1.0
 40
1.0
 40
1.0
 10
5.3846312112
 20
1.252903286
 30
0.0
 10
5.3824226146
 20
1.2534447235
 30
0.0
 10
5.3778479815
 20
1.2543927609
 30
0.0
 10
5.3707701687
 20
1.2554021626
 30
0.0
 10
5.3634002987
 20
1.2560166349
 30
0.0
 10
5.3584014059
 20
1.2561542491
 30
0.0
 10
5.3558812112
 20
1.2561542491
 30
0.0
  0
SPLINE
  5
2DA
100
AcDbEntity
  8
0
100
AcDbSpline
 62
7
  6
CONTINUOUS
 70
0
 71
3
 72
21
 73
17
 74
0
 42
0.0000001
 43
0.0000001
 44
0.0000000001
 40
0.0
 40
0.0
 40
0.0
 40
0.0
 40
0.1253760655
 40
0.187954867
 40
0.2504635353
 40
0.3129088151
 40
0.3753006934
 40
0.437657917
 40
0.4999999969
 40
0.5623420755
 40
0.6246992967
 40
0.687091174
 40
0.7495364535
 40
0.8120451216
 40
0.8746239267
 40
1.0
 40
1.0
 40
1.0
 40
1.0
 10
5.3846312112
 20
1.252903286
 30
0.0
 10
5.4029145533
 20
1.2484211247
 30
0.0
 10
5.4304831548
 20
1.2423183432
 30
0.0
 10
5.4675013797
 20
1.2356730514
 30
0.0
 10
5.4953527702
 20
1.2315037064
 30
0.0
 10
5.5232913417
 20
1.2281949997
 30
0.0
 10
5.5512998358
 20
1.2257888758
 30
0.0
 10
5.5793587594
 20
1.2243348499
 30
0.0
 10
5.6074437095
 20
1.2238519059
 30
0.0
 10
5.6355286594
 20
1.2243348477
 30
0.0
 10
5.663587582
 20
1.2257888779
 30
0.0
 10
5.6915960757
 20
1.2281950007
 30
0.0
 10
5.7195346472
 20
1.2315037049
 30
0.0
 10
5.7473860379
 20
1.2356730516
 30
0.0
 10
5.7844042644
 20
1.2423183443
 30
0.0
 10
5.8119728679
 20
1.2484211244
 30
0.0
 10
5.8302562112
 20
1.252903286
 30
0.0
  0
SPLINE
  5
2DB
100
AcDbEntity
  8
0
100
AcDbSpline
 62
7
  6
CONTINUOUS
 70
0
 71
3
 72
9
 73
5
 74
0
 42
0.0000001
 43
0.0000001
 44
0.0000000001
 40
0.0
 40
0.0
 40
0.0
 40
0.0
 40
0.4791294535
 40
1.0
 40
1.0
 40
1.0
 40
1.0
 10
5.1596579232
 20
0.776975711
 30
0.0
 10
5.1624131732
 20
0.7777137681
 30
0.0
 10
5.1682392357
 20
0.7789787929
 30
0.0
 10
5.1741452706
 20
0.7797737685
 30
0.0
 10
5.1772307823
 20
0.7800821762
 30
0.0
  0
SPLINE
  5
2DC
100
AcDbEntity
  8
0
100
AcDbSpline
 62
7
  6
CONTINUOUS
 70
0
 71
3
 72
10
 73
6
 74
0
 42
0.0000001
 43
0.0000001
 44
0.0000000001
 40
0.0
 40
0.0
 40
0.0
 40
0.0
 40
0.230545308
 40
0.4743495485
 40
1.0
 40
1.0
 40
1.0
 40
1.0
 10
5.1772307823
 20
0.7800821762
 30
0.0
 10
5.1798173086
 20
0.7803407085
 30
0.0
 10
5.1851552532
 20
0.780719969
 30
0.0
 10
5.1964307397
 20
0.7809626914
 30
0.0
 10
5.2051101013
 20
0.7805620118
 30
0.0
 10
5.2110174256
 20
0.7800825946
 30
0.0
  0
SPLINE
  5
2DD
100
AcDbEntity
  8
0
100
AcDbSpline
 62
7
  6
CONTINUOUS
 70
0
 71
3
 72
9
 73
5
 74
0
 42
0.0000001
 43
0.0000001
 44
0.0000000001
 40
0.0
 40
0.0
 40
0.0
 40
0.0
 40
0.4822014661
 40
1.0
 40
1.0
 40
1.0
 40
1.0
 10
5.2110174256
 20
0.7800825946
 30
0.0
 10
5.21762
 20
0.7795467534
 30
0.0
 10
5.2312709037
 20
0.777901268
 30
0.0
 10
5.2447967403
 20
0.7754626736
 30
0.0
 10
5.2517662774
 20
0.7740397936
 30
0.0
  0
SPLINE
  5
2DE
100
AcDbEntity
  8
0
100
AcDbSpline
 62
7
  6
CONTINUOUS
 70
0
 71
3
 72
9
 73
5
 74
0
 42
0.0000001
 43
0.0000001
 44
0.0000000001
 40
0.0
 40
0.0
 40
0.0
 40
0.0
 40
0.4905621108
 40
1.0
 40
1.0
 40
1.0
 40
1.0
 10
5.2517662774
 20
0.7740397936
 30
0.0
 10
5.2595960917
 20
0.772441282
 30
0.0
 10
5.2754740879
 20
0.7687696839
 30
0.0
 10
5.2911797971
 20
0.7644281923
 30
0.0
 10
5.2991357672
 20
0.7620675129
 30
0.0
  0
SPLINE
  5
2DF
100
AcDbEntity
  8
0
100
AcDbSpline
 62
7
  6
CONTINUOUS
 70
0
 71
3
 72
12
 73
8
 74
0
 42
0.0000001
 43
0.0000001
 44
0.0000000001
 40
0.0
 40
0.0
 40
0.0
 40
0.0
 40
0.216422709
 40
0.455162133
 40
0.583101151
 40
0.7166430773
 40
1.0
 40
1.0
 40
1.0
 40
1.0
 10
5.5828906059
 20
0.2175503226
 30
0.0
 10
5.5788174694
 20
0.2162668207
 30
0.0
 10
5.5700544563
 20
0.214173007
 30
0.0
 10
5.5586080682
 20
0.2128093905
 30
0.0
 10
5.5487451312
 20
0.2123525885
 30
0.0
 10
5.5379912196
 20
0.2123380194
 30
0.0
 10
5.5297695331
 20
0.2128458096
 30
0.0
 10
5.5242039006
 20
0.2133815695
 30
0.0
  0
SPLINE
  5
2E0
100
AcDbEntity
  8
0
100
AcDbSpline
 62
7
  6
CONTINUOUS
 70
0
 71
3
 72
10
 73
6
 74
0
 42
0.0000001
 43
0.0000001
 44
0.0000000001
 40
0.0
 40
0.0
 40
0.0
 40
0.0
 40
0.2362483859
 40
0.4821589382
 40
1.0
 40
1.0
 40
1.0
 40
1.0
 10
5.5242039006
 20
0.2133815695
 30
0.0
 10
5.5204849288
 20
0.2137395657
 30
0.0
 10
5.5129108899
 20
0.2146451948
 30
0.0
 10
5.4972926605
 20
0.2171467589
 30
0.0
 10
5.4854751179
 20
0.2196974252
 30
0.0
 10
5.477521091
 20
0.2216468205
 30
0.0
  0
SPLINE
  5
2E1
100
AcDbEntity
  8
0
100
AcDbSpline
 62
7
  6
CONTINUOUS
 70
0
 71
3
 72
9
 73
5
 74
0
 42
0.0000001
 43
0.0000001
 44
0.0000000001
 40
0.0
 40
0.0
 40
0.0
 40
0.0
 40
0.4905424811
 40
1.0
 40
1.0
 40
1.0
 40
1.0
 10
5.477521091
 20
0.2216468205
 30
0.0
 10
5.4683951069
 20
0.2238834424
 30
0.0
 10
5.4499344157
 20
0.2290382492
 30
0.0
 10
5.4317795586
 20
0.2351731096
 30
0.0
 10
5.4226136158
 20
0.2385214436
 30
0.0
  0
SPLINE
  5
2E2
100
AcDbEntity
  8
0
100
AcDbSpline
 62
7
  6
CONTINUOUS
 70
0
 71
3
 72
11
 73
7
 74
0
 42
0.0000001
 43
0.0000001
 44
0.0000000001
 40
0.0
 40
0.0
 40
0.0
 40
0.0
 40
0.2915855747
 40
0.5541293295
 40
0.789461756
 40
1.0
 40
1.0
 40
1.0
 40
1.0
 10
5.5278768416
 20
0.2025046846
 30
0.0
 10
5.5301733023
 20
0.2030375286
 30
0.0
 10
5.5344996403
 20
0.2042295119
 30
0.0
 10
5.5404641972
 20
0.2065364544
 30
0.0
 10
5.5455417752
 20
0.209216542
 30
0.0
 10
5.5484799113
 20
0.2113342324
 30
0.0
 10
5.5497683154
 20
0.212446663
 30
0.0
  0
SPLINE
  5
2E3
100
AcDbEntity
  8
0
100
AcDbSpline
 62
7
  6
CONTINUOUS
 70
0
 71
3
 72
16
 73
12
 74
0
 42
0.0000001
 43
0.0000001
 44
0.0000000001
 40
0.0
 40
0.0
 40
0.0
 40
0.0
 40
0.1038101068
 40
0.2167275936
 40
0.3369841078
 40
0.4630488894
 40
0.5278080571
 40
0.5934828112
 40
0.7270577041
 40
0.8628627792
 40
1.0
 40
1.0
 40
1.0
 40
1.0
 10
5.0037379071
 20
0.2705344617
 30
0.0
 10
4.9990750407
 20
0.2730694116
 30
0.0
 10
4.9891617792
 20
0.2780386822
 30
0.0
 10
4.9732960893
 20
0.2847831247
 30
0.0
 10
4.955959692
 20
0.290883083
 30
0.0
 10
4.9406534905
 20
0.295242364
 30
0.0
 10
4.9278880005
 20
0.2982524491
 30
0.0
 10
4.9146574044
 20
0.3009341274
 30
0.0
 10
4.8977158049
 20
0.3035469588
 30
0.0
 10
4.8770089387
 20
0.3054624562
 30
0.0
 10
4.8630507219
 20
0.3058985143
 30
0.0
 10
4.8560394634
 20
0.3058985143
 30
0.0
  0
SPLINE
  5
2E4
100
AcDbEntity
  8
0
100
AcDbSpline
 62
7
  6
CONTINUOUS
 70
0
 71
3
 72
16
 73
12
 74
0
 42
0.0000001
 43
0.0000001
 44
0.0000000001
 40
0.0
 40
0.0
 40
0.0
 40
0.0
 40
0.1372506812
 40
0.2730947402
 40
0.4066253698
 40
0.5369136995
 40
0.6629132337
 40
0.7831731403
 40
0.8406601326
 40
0.8961081603
 40
1.0
 40
1.0
 40
1.0
 40
1.0
 10
4.8560394634
 20
0.6796485142
 30
0.0
 10
4.8630573207
 20
0.6796485142
 30
0.0
 10
4.8770248454
 20
0.6800882907
 30
0.0
 10
4.8977392239
 20
0.6820119407
 30
0.0
 10
4.9179482067
 20
0.6851300025
 30
0.0
 10
4.9374361754
 20
0.6893768336
 30
0.0
 10
4.9559616728
 20
0.6946661378
 30
0.0
 10
4.9706180169
 20
0.6998364135
 30
0.0
 10
4.9816656097
 20
0.7043272185
 30
0.0
 10
4.9918008471
 20
0.7088240645
 30
0.0
 10
4.9990857246
 20
0.7124890123
 30
0.0
 10
5.0037490822
 20
0.7150330604
 30
0.0
  0
SPLINE
  5
2E5
100
AcDbEntity
  8
0
100
AcDbSpline
 62
7
  6
CONTINUOUS
 70
0
 71
3
 72
16
 73
12
 74
0
 42
0.0000001
 43
0.0000001
 44
0.0000000001
 40
0.0
 40
0.0
 40
0.0
 40
0.0
 40
0.1038101068
 40
0.2167275936
 40
0.3369841078
 40
0.4630488894
 40
0.5278080571
 40
0.5934828112
 40
0.7270577041
 40
0.8628627792
 40
1.0
 40
1.0
 40
1.0
 40
1.0
 10
4.7083410197
 20
0.7150125668
 30
0.0
 10
4.7130038861
 20
0.7124776169
 30
0.0
 10
4.7229171476
 20
0.7075083463
 30
0.0
 10
4.7387828375
 20
0.7007639038
 30
0.0
 10
4.7561192348
 20
0.6946639455
 30
0.0
 10
4.7714254363
 20
0.6903046645
 30
0.0
 10
4.7841909264
 20
0.6872945794
 30
0.0
 10
4.7974215224
 20
0.6846129011
 30
0.0
 10
4.8143631219
 20
0.6820000697
 30
0.0
 10
4.8350699882
 20
0.6800845723
 30
0.0
 10
4.8490282049
 20
0.6796485142
 30
0.0
 10
4.8560394634
 20
0.6796485142
 30
0.0
  0
SPLINE
  5
2E6
100
AcDbEntity
  8
0
100
AcDbSpline
 62
7
  6
CONTINUOUS
 70
0
 71
3
 72
16
 73
12
 74
0
 42
0.0000001
 43
0.0000001
 44
0.0000000001
 40
0.0
 40
0.0
 40
0.0
 40
0.0
 40
0.1372506812
 40
0.2730947402
 40
0.4066253698
 40
0.5369136995
 40
0.6629132337
 40
0.7831731403
 40
0.8406601326
 40
0.8961081603
 40
1.0
 40
1.0
 40
1.0
 40
1.0
 10
4.8560394634
 20
0.3058985143
 30
0.0
 10
4.8490216061
 20
0.3058985143
 30
0.0
 10
4.8350540815
 20
0.3054587378
 30
0.0
 10
4.8143397029
 20
0.3035350878
 30
0.0
 10
4.7941307201
 20
0.300417026
 30
0.0
 10
4.7746427515
 20
0.2961701949
 30
0.0
 10
4.756117254
 20
0.2908808907
 30
0.0
 10
4.74146091
 20
0.285710615
 30
0.0
 10
4.7304133172
 20
0.28121981
 30
0.0
 10
4.7202780798
 20
0.276722964
 30
0.0
 10
4.7129932022
 20
0.2730580162
 30
0.0
 10
4.7083298446
 20
0.2705139681
 30
0.0
  0
SPLINE
  5
2E7
100
AcDbEntity
  8
0
100
AcDbSpline
 62
7
  6
CONTINUOUS
 70
0
 71
3
 72
16
 73
12
 74
0
 42
0.0000001
 43
0.0000001
 44
0.0000000001
 40
0.0
 40
0.0
 40
0.0
 40
0.0
 40
0.1038101068
 40
0.2167275936
 40
0.3369841078
 40
0.4630488894
 40
0.5278080571
 40
0.5934828112
 40
0.7270577041
 40
0.8628627792
 40
1.0
 40
1.0
 40
1.0
 40
1.0
 10
6.0034214026
 20
0.2705344617
 30
0.0
 10
5.9987585362
 20
0.2730694116
 30
0.0
 10
5.9888452747
 20
0.2780386822
 30
0.0
 10
5.9729795848
 20
0.2847831247
 30
0.0
 10
5.9556431876
 20
0.290883083
 30
0.0
 10
5.9403369861
 20
0.295242364
 30
0.0
 10
5.927571496
 20
0.2982524491
 30
0.0
 10
5.9143408999
 20
0.3009341274
 30
0.0
 10
5.8973993005
 20
0.3035469588
 30
0.0
 10
5.8766924342
 20
0.3054624562
 30
0.0
 10
5.8627342174
 20
0.3058985143
 30
0.0
 10
5.8557229589
 20
0.3058985143
 30
0.0
  0
SPLINE
  5
2E8
100
AcDbEntity
  8
0
100
AcDbSpline
 62
7
  6
CONTINUOUS
 70
0
 71
3
 72
16
 73
12
 74
0
 42
0.0000001
 43
0.0000001
 44
0.0000000001
 40
0.0
 40
0.0
 40
0.0
 40
0.0
 40
0.1372506812
 40
0.2730947402
 40
0.4066253698
 40
0.5369136995
 40
0.6629132337
 40
0.7831731403
 40
0.8406601326
 40
0.8961081603
 40
1.0
 40
1.0
 40
1.0
 40
1.0
 10
5.8557229589
 20
0.6796485142
 30
0.0
 10
5.8627408163
 20
0.6796485142
 30
0.0
 10
5.8767083409
 20
0.6800882907
 30
0.0
 10
5.8974227194
 20
0.6820119407
 30
0.0
 10
5.9176317023
 20
0.6851300025
 30
0.0
 10
5.9371196709
 20
0.6893768336
 30
0.0
 10
5.9556451683
 20
0.6946661378
 30
0.0
 10
5.9703015124
 20
0.6998364135
 30
0.0
 10
5.9813491052
 20
0.7043272185
 30
0.0
 10
5.9914843426
 20
0.7088240645
 30
0.0
 10
5.9987692202
 20
0.7124890123
 30
0.0
 10
6.0034325778
 20
0.7150330604
 30
0.0
  0
SPLINE
  5
2E9
100
AcDbEntity
  8
0
100
AcDbSpline
 62
7
  6
CONTINUOUS
 70
0
 71
3
 72
10
 73
6
 74
0
 42
0.0000001
 43
0.0000001
 44
0.0000000001
 40
0.0
 40
0.0
 40
0.0
 40
0.0
 40
0.2303978163
 40
0.474178385
 40
1.0
 40
1.0
 40
1.0
 40
1.0
 10
5.1772307928
 20
0.780082186
 30
0.0
 10
5.1798157208
 20
0.78033974
 30
0.0
 10
5.1851517736
 20
0.7807174326
 30
0.0
 10
5.196427152
 20
0.7809590508
 30
0.0
 10
5.205108057
 20
0.7805599916
 30
0.0
 10
5.2110174247
 20
0.780082594
 30
0.0
  0
SPLINE
  5
2EA
100
AcDbEntity
  8
0
100
AcDbSpline
 62
7
  6
CONTINUOUS
 70
0
 71
3
 72
9
 73
5
 74
0
 42
0.0000001
 43
0.0000001
 44
0.0000000001
 40
0.0
 40
0.0
 40
0.0
 40
0.0
 40
0.4823490606
 40
1.0
 40
1.0
 40
1.0
 40
1.0
 10
5.2110174247
 20
0.780082594
 30
0.0
 10
5.21762229
 20
0.7795490096
 30
0.0
 10
5.2312742517
 20
0.7779108218
 30
0.0
 10
5.2448001338
 20
0.7754694335
 30
0.0
 10
5.2517662872
 20
0.7740397398
 30
0.0
  0
SPLINE
  5
2EB
100
AcDbEntity
  8
0
100
AcDbSpline
 62
7
  6
CONTINUOUS
 70
0
 71
3
 72
9
 73
5
 74
0
 42
0.0000001
 43
0.0000001
 44
0.0000000001
 40
0.0
 40
0.0
 40
0.0
 40
0.0
 40
0.4902003237
 40
1.0
 40
1.0
 40
1.0
 40
1.0
 10
5.2517662872
 20
0.7740397398
 30
0.0
 10
5.259588471
 20
0.7724343593
 30
0.0
 10
5.2754590914
 20
0.768732575
 30
0.0
 10
5.2911654978
 20
0.7643997284
 30
0.0
 10
5.29913575
 20
0.7620674186
 30
0.0
  0
SPLINE
  5
2EC
100
AcDbEntity
  8
0
100
AcDbSpline
 62
7
  6
CONTINUOUS
 70
0
 71
3
 72
12
 73
8
 74
0
 42
0.0000001
 43
0.0000001
 44
0.0000000001
 40
0.0
 40
0.0
 40
0.0
 40
0.0
 40
0.2162998122
 40
0.4548876577
 40
0.5828374772
 40
0.7164371509
 40
1.0
 40
1.0
 40
1.0
 40
1.0
 10
5.5828726501
 20
0.217541979
 30
0.0
 10
5.578803237
 20
0.2162594578
 30
0.0
 10
5.570047902
 20
0.2141689775
 30
0.0
 10
5.5586099241
 20
0.212811604
 30
0.0
 10
5.5487518696
 20
0.2123566874
 30
0.0
 10
5.5379961379
 20
0.2123422291
 30
0.0
 10
5.5297719564
 20
0.2128479901
 30
0.0
 10
5.5242039041
 20
0.2133815745
 30
0.0
  0
SPLINE
  5
2ED
100
AcDbEntity
  8
0
100
AcDbSpline
 62
7
  6
CONTINUOUS
 70
0
 71
3
 72
10
 73
6
 74
0
 42
0.0000001
 43
0.0000001
 44
0.0000000001
 40
0.0
 40
0.0
 40
0.0
 40
0.0
 40
0.2363445755
 40
0.4823144998
 40
1.0
 40
1.0
 40
1.0
 40
1.0
 10
5.5242039041
 20
0.2133815745
 30
0.0
 10
5.5204832066
 20
0.2137381276
 30
0.0
 10
5.5129061242
 20
0.2146400265
 30
0.0
 10
5.4972865985
 20
0.2171351061
 30
0.0
 10
5.4854704667
 20
0.2196882728
 30
0.0
 10
5.4775210895
 20
0.2216468194
 30
0.0
  0
SPLINE
  5
2EE
100
AcDbEntity
  8
0
100
AcDbSpline
 62
7
  6
CONTINUOUS
 70
0
 71
3
 72
9
 73
5
 74
0
 42
0.0000001
 43
0.0000001
 44
0.0000000001
 40
0.0
 40
0.0
 40
0.0
 40
0.0
 40
0.4901732366
 40
1.0
 40
1.0
 40
1.0
 40
1.0
 10
5.4775210895
 20
0.2216468194
 30
0.0
 10
5.4684050319
 20
0.2238928096
 30
0.0
 10
5.4499567034
 20
0.2290896769
 30
0.0
 10
5.4318007997
 20
0.2352124377
 30
0.0
 10
5.4226134537
 20
0.2385214973
 30
0.0
  0
SPLINE
  5
2EF
100
AcDbEntity
  8
0
100
AcDbSpline
 62
7
  6
CONTINUOUS
 70
0
 71
3
 72
16
 73
12
 74
0
 42
0.0000001
 43
0.0000001
 44
0.0000000001
 40
0.0
 40
0.0
 40
0.0
 40
0.0
 40
0.1038101068
 40
0.2167275936
 40
0.3369841078
 40
0.4630488894
 40
0.5278080571
 40
0.5934828112
 40
0.7270577041
 40
0.8628627792
 40
1.0
 40
1.0
 40
1.0
 40
1.0
 10
5.7080245152
 20
0.7150125668
 30
0.0
 10
5.7126873817
 20
0.7124776169
 30
0.0
 10
5.7226006432
 20
0.7075083463
 30
0.0
 10
5.738466333
 20
0.7007639038
 30
0.0
 10
5.7558027303
 20
0.6946639455
 30
0.0
 10
5.7711089318
 20
0.6903046645
 30
0.0
 10
5.7838744219
 20
0.6872945794
 30
0.0
 10
5.7971050179
 20
0.6846129011
 30
0.0
 10
5.8140466174
 20
0.6820000697
 30
0.0
 10
5.8347534837
 20
0.6800845723
 30
0.0
 10
5.8487117004
 20
0.6796485142
 30
0.0
 10
5.8557229589
 20
0.6796485142
 30
0.0
  0
SPLINE
  5
2F0
100
AcDbEntity
  8
0
100
AcDbSpline
 62
7
  6
CONTINUOUS
 70
0
 71
3
 72
16
 73
12
 74
0
 42
0.0000001
 43
0.0000001
 44
0.0000000001
 40
0.0
 40
0.0
 40
0.0
 40
0.0
 40
0.1372506812
 40
0.2730947402
 40
0.4066253698
 40
0.5369136995
 40
0.6629132337
 40
0.7831731403
 40
0.8406601326
 40
0.8961081603
 40
1.0
 40
1.0
 40
1.0
 40
1.0
 10
5.8557229589
 20
0.3058985143
 30
0.0
 10
5.8487051016
 20
0.3058985143
 30
0.0
 10
5.834737577
 20
0.3054587378
 30
0.0
 10
5.8140231984
 20
0.3035350878
 30
0.0
 10
5.7938142156
 20
0.300417026
 30
0.0
 10
5.774326247
 20
0.2961701949
 30
0.0
 10
5.7558007496
 20
0.2908808907
 30
0.0
 10
5.7411444055
 20
0.285710615
 30
0.0
 10
5.7300968127
 20
0.28121981
 30
0.0
 10
5.7199615753
 20
0.276722964
 30
0.0
 10
5.7126766977
 20
0.2730580162
 30
0.0
 10
5.7080133401
 20
0.2705139681
 30
0.0
  0
SPLINE
  5
2F1
100
AcDbEntity
  8
0
100
AcDbSpline
 62
7
  6
CONTINUOUS
 70
0
 71
3
 72
9
 73
5
 74
0
 42
0.0000001
 43
0.0000001
 44
0.0000000001
 40
0.0
 40
0.0
 40
0.0
 40
0.0
 40
0.5077841576
 40
1.0
 40
1.0
 40
1.0
 40
1.0
 10
5.2891484696
 20
0.2385213214
 30
0.0
 10
5.2813936349
 20
0.2357282183
 30
0.0
 10
5.2660253804
 20
0.2304903461
 30
0.0
 10
5.2504507334
 20
0.2258928205
 30
0.0
 10
5.2427321051
 20
0.2238289394
 30
0.0
  0
SPLINE
  5
2F2
100
AcDbEntity
  8
0
100
AcDbSpline
 62
7
  6
CONTINUOUS
 70
0
 71
3
 72
9
 73
5
 74
0
 42
0.0000001
 43
0.0000001
 44
0.0000000001
 40
0.0
 40
0.0
 40
0.0
 40
0.0
 40
0.2554349184
 40
1.0
 40
1.0
 40
1.0
 40
1.0
 10
5.2427321051
 20
0.2238289394
 30
0.0
 10
5.2405930628
 20
0.2232569817
 30
0.0
 10
5.2322030243
 20
0.2210782617
 30
0.0
 10
5.2237472967
 20
0.2191488277
 30
0.0
 10
5.2174185346
 20
0.2178829355
 30
0.0
  0
SPLINE
  5
2F3
100
AcDbEntity
  8
0
100
AcDbSpline
 62
7
  6
CONTINUOUS
 70
0
 71
3
 72
9
 73
5
 74
0
 42
0.0000001
 43
0.0000001
 44
0.0000000001
 40
0.0
 40
0.0
 40
0.0
 40
0.0
 40
0.5188639763
 40
1.0
 40
1.0
 40
1.0
 40
1.0
 10
5.2023380166
 20
0.2152224805
 30
0.0
 10
5.1963094829
 20
0.2143092231
 30
0.0
 10
5.1846329243
 20
0.2129048854
 30
0.0
 10
5.1728790858
 20
0.2123600291
 30
0.0
 10
5.167225122
 20
0.2123600291
 30
0.0
  0
SPLINE
  5
2F4
100
AcDbEntity
  8
0
100
AcDbSpline
 62
7
  6
CONTINUOUS
 70
0
 71
3
 72
9
 73
5
 74
0
 42
0.0000001
 43
0.0000001
 44
0.0000000001
 40
0.0
 40
0.0
 40
0.0
 40
0.0
 40
0.2472991021
 40
1.0
 40
1.0
 40
1.0
 40
1.0
 10
5.4226134537
 20
0.2385214973
 30
0.0
 10
5.419040024
 20
0.2398085627
 30
0.0
 10
5.4044613834
 20
0.2446413073
 30
0.0
 10
5.3893455287
 20
0.2479115632
 30
0.0
 10
5.377866789
 20
0.2492829857
 30
0.0
  0
SPLINE
  5
2F5
100
AcDbEntity
  8
0
100
AcDbSpline
 62
7
  6
CONTINUOUS
 70
0
 71
3
 72
9
 73
5
 74
0
 42
0.0000001
 43
0.0000001
 44
0.0000000001
 40
0.0
 40
0.0
 40
0.0
 40
0.0
 40
0.247373945
 40
1.0
 40
1.0
 40
1.0
 40
1.0
 10
5.29913575
 20
0.7620674186
 30
0.0
 10
5.3018929752
 20
0.7612605804
 30
0.0
 10
5.313102104
 20
0.7582207664
 30
0.0
 10
5.3245628805
 20
0.7560921868
 30
0.0
 10
5.3332437359
 20
0.7550724378
 30
0.0
  0
SPLINE
  5
2F6
100
AcDbEntity
  8
0
100
AcDbSpline
 62
7
  6
CONTINUOUS
 70
0
 71
3
 72
9
 73
5
 74
0
 42
0.0000001
 43
0.0000001
 44
0.0000000001
 40
0.0
 40
0.0
 40
0.0
 40
0.0
 40
0.2524933725
 40
1.0
 40
1.0
 40
1.0
 40
1.0
 10
5.3746048923
 20
0.7546526657
 30
0.0
 10
5.3778528155
 20
0.7549674795
 30
0.0
 10
5.3906831561
 20
0.7565420007
 30
0.0
 10
5.4033551359
 20
0.7593542591
 30
0.0
 10
5.4126268577
 20
0.7620674121
 30
0.0
  0
SPLINE
  5
2F7
100
AcDbEntity
  8
0
100
AcDbSpline
 62
7
  6
CONTINUOUS
 70
0
 71
3
 72
9
 73
5
 74
0
 42
0.0000001
 43
0.0000001
 44
0.0000000001
 40
0.0
 40
0.0
 40
0.0
 40
0.0
 40
0.5097967761
 40
1.0
 40
1.0
 40
1.0
 40
1.0
 10
5.4126268577
 20
0.7620674121
 30
0.0
 10
5.4205955301
 20
0.7643992582
 30
0.0
 10
5.4362988928
 20
0.7687313341
 30
0.0
 10
5.4521663995
 20
0.7724326358
 30
0.0
 10
5.4599870874
 20
0.7740378912
 30
0.0
  0
SPLINE
  5
2F8
100
AcDbEntity
  8
0
100
AcDbSpline
 62
7
  6
CONTINUOUS
 70
0
 71
3
 72
9
 73
5
 74
0
 42
0.0000001
 43
0.0000001
 44
0.0000000001
 40
0.0
 40
0.0
 40
0.0
 40
0.0
 40
0.5176710308
 40
1.0
 40
1.0
 40
1.0
 40
1.0
 10
5.4599870874
 20
0.7740378912
 30
0.0
 10
5.4669601352
 20
0.775469162
 30
0.0
 10
5.4804989502
 20
0.7779128963
 30
0.0
 10
5.4941640908
 20
0.7795517796
 30
0.0
 10
5.5007750545
 20
0.7800850666
 30
0.0
  0
SPLINE
  5
2F9
100
AcDbEntity
  8
0
100
AcDbSpline
 62
7
  6
CONTINUOUS
 70
0
 71
3
 72
10
 73
6
 74
0
 42
0.0000001
 43
0.0000001
 44
0.0000000001
 40
0.0
 40
0.0
 40
0.0
 40
0.0
 40
0.5259376103
 40
0.769690451
 40
1.0
 40
1.0
 40
1.0
 40
1.0
 10
5.5007750545
 20
0.7800850666
 30
0.0
 10
5.5067037902
 20
0.7805633204
 30
0.0
 10
5.5154123499
 20
0.7809615385
 30
0.0
 10
5.5267219738
 20
0.7807128601
 30
0.0
 10
5.5320726976
 20
0.7803297479
 30
0.0
 10
5.5346642518
 20
0.7800689538
 30
0.0
  0
LINE
  5
2FA
100
AcDbEntity
  8
0
100
AcDbLine
 62
7
  6
CONTINUOUS
 10
5.1371548214
 20
0.2153391752
 11
5.1288874228
 21
0.2175395913
  0
SPLINE
  5
2FB
100
AcDbEntity
  8
0
100
AcDbSpline
 62
7
  6
CONTINUOUS
 70
0
 71
3
 72
9
 73
5
 74
0
 42
0.0000001
 43
0.0000001
 44
0.0000000001
 40
0.0
 40
0.0
 40
0.0
 40
0.0
 40
0.4675066467
 40
1.0
 40
1.0
 40
1.0
 40
1.0
 10
5.1619399207
 20
0.2124930596
 30
0.0
 10
5.163467856
 20
0.2111660577
 30
0.0
 10
5.1670346761
 20
0.2086661451
 30
0.0
 10
5.1709427784
 20
0.2067688553
 30
0.0
 10
5.1730740439
 20
0.2058908024
 30
0.0
  0
LINE
  5
2FC
100
AcDbEntity
  8
0
100
AcDbLine
 62
7
  6
CONTINUOUS
 10
5.1730740439
 20
0.2058908024
 11
5.178465452
 21
0.203962966
  0
LINE
  5
2FD
100
AcDbEntity
  8
0
100
AcDbLine
 62
7
  6
CONTINUOUS
 10
5.178465452
 20
0.203962966
 11
5.1838847788
 21
0.2025041659
  0
SPLINE
  5
2FE
100
AcDbEntity
  8
0
100
AcDbSpline
 62
7
  6
CONTINUOUS
 70
0
 71
3
 72
9
 73
5
 74
0
 42
0.0000001
 43
0.0000001
 44
0.0000000001
 40
0.0
 40
0.0
 40
0.0
 40
0.0
 40
0.5246562928
 40
1.0
 40
1.0
 40
1.0
 40
1.0
 10
5.167225122
 20
0.2123600291
 30
0.0
 10
5.1619329845
 20
0.2123658785
 30
0.0
 10
5.1518393079
 20
0.2128023183
 30
0.0
 10
5.14183726
 20
0.2143059488
 30
0.0
 10
5.1371551965
 20
0.215339257
 30
0.0
  0
LINE
  5
2FF
100
AcDbEntity
  8
0
100
AcDbLine
 62
7
  6
CONTINUOUS
 10
5.1371551965
 20
0.215339257
 11
5.128887123
 21
0.2175408609
  0
SPLINE
  5
300
100
AcDbEntity
  8
0
100
AcDbSpline
 62
7
  6
CONTINUOUS
 70
0
 71
3
 72
9
 73
5
 74
0
 42
0.0000001
 43
0.0000001
 44
0.0000000001
 40
0.0
 40
0.0
 40
0.0
 40
0.0
 40
0.5075360824
 40
1.0
 40
1.0
 40
1.0
 40
1.0
 10
5.2891485047
 20
0.2385213331
 30
0.0
 10
5.2814068538
 20
0.2357030827
 30
0.0
 10
5.2660391847
 20
0.2304586831
 30
0.0
 10
5.2504564142
 20
0.2258878726
 30
0.0
 10
5.2427320989
 20
0.2238289569
 30
0.0
  0
SPLINE
  5
301
100
AcDbEntity
  8
0
100
AcDbSpline
 62
7
  6
CONTINUOUS
 70
0
 71
3
 72
9
 73
5
 74
0
 42
0.0000001
 43
0.0000001
 44
0.0000000001
 40
0.0
 40
0.0
 40
0.0
 40
0.0
 40
0.2554991954
 40
1.0
 40
1.0
 40
1.0
 40
1.0
 10
5.2427320989
 20
0.2238289569
 30
0.0
 10
5.2405920569
 20
0.2232585289
 30
0.0
 10
5.2322008594
 20
0.2210841461
 30
0.0
 10
5.223745724
 20
0.2191523814
 30
0.0
 10
5.2174178175
 20
0.2178848435
 30
0.0
  0
SPLINE
  5
302
100
AcDbEntity
  8
0
100
AcDbSpline
 62
7
  6
CONTINUOUS
 70
0
 71
3
 72
9
 73
5
 74
0
 42
0.0000001
 43
0.0000001
 44
0.0000000001
 40
0.0
 40
0.0
 40
0.0
 40
0.0
 40
0.5193214367
 40
1.0
 40
1.0
 40
1.0
 40
1.0
 10
5.2023379814
 20
0.215222359
 30
0.0
 10
5.1963040943
 20
0.2143091057
 30
0.0
 10
5.1846266542
 20
0.2129124499
 30
0.0
 10
5.1728736297
 20
0.212366107
 30
0.0
 10
5.167225122
 20
0.2123600291
 30
0.0
  0
SPLINE
  5
303
100
AcDbEntity
  8
0
100
AcDbSpline
 62
7
  6
CONTINUOUS
 70
0
 71
3
 72
9
 73
5
 74
0
 42
0.0000001
 43
0.0000001
 44
0.0000000001
 40
0.0
 40
0.0
 40
0.0
 40
0.0
 40
0.2473456317
 40
1.0
 40
1.0
 40
1.0
 40
1.0
 10
5.4226135805
 20
0.2385214527
 30
0.0
 10
5.419038687
 20
0.2398064682
 30
0.0
 10
5.4044586636
 20
0.2446340721
 30
0.0
 10
5.3893445512
 20
0.2479098894
 30
0.0
 10
5.3778668254
 20
0.2492829709
 30
0.0
  0
SPLINE
  5
304
100
AcDbEntity
  8
0
100
AcDbSpline
 62
7
  6
CONTINUOUS
 70
0
 71
3
 72
9
 73
5
 74
0
 42
0.0000001
 43
0.0000001
 44
0.0000000001
 40
0.0
 40
0.0
 40
0.0
 40
0.0
 40
0.2525331258
 40
1.0
 40
1.0
 40
1.0
 40
1.0
 10
5.3341319449
 20
0.249311069
 30
0.0
 10
5.3302599916
 20
0.248853323
 30
0.0
 10
5.3149871458
 20
0.2465506837
 30
0.0
 10
5.3000066374
 20
0.2424302687
 30
0.0
 10
5.2891485049
 20
0.2385213321
 30
0.0
  0
SPLINE
  5
305
100
AcDbEntity
  8
0
100
AcDbSpline
 62
7
  6
CONTINUOUS
 70
0
 71
3
 72
9
 73
5
 74
0
 42
0.0000001
 43
0.0000001
 44
0.0000000001
 40
0.0
 40
0.0
 40
0.0
 40
0.0
 40
0.5094367924
 40
1.0
 40
1.0
 40
1.0
 40
1.0
 10
5.4126268315
 20
0.7620675561
 30
0.0
 10
5.4205812904
 20
0.7644276454
 30
0.0
 10
5.436283962
 20
0.7687683161
 30
0.0
 10
5.4521588169
 20
0.7724395483
 30
0.0
 10
5.4599870991
 20
0.7740379575
 30
0.0
  0
SPLINE
  5
306
100
AcDbEntity
  8
0
100
AcDbSpline
 62
7
  6
CONTINUOUS
 70
0
 71
3
 72
9
 73
5
 74
0
 42
0.0000001
 43
0.0000001
 44
0.0000000001
 40
0.0
 40
0.0
 40
0.0
 40
0.0
 40
0.5178178222
 40
1.0
 40
1.0
 40
1.0
 40
1.0
 10
5.4599870991
 20
0.7740379575
 30
0.0
 10
5.4669635131
 20
0.7754624289
 30
0.0
 10
5.4805022684
 20
0.7779033927
 30
0.0
 10
5.4941663442
 20
0.7795495598
 30
0.0
 10
5.5007750231
 20
0.7800850849
 30
0.0
  0
SPLINE
  5
307
100
AcDbEntity
  8
0
100
AcDbSpline
 62
7
  6
CONTINUOUS
 70
0
 71
3
 72
10
 73
6
 74
0
 42
0.0000001
 43
0.0000001
 44
0.0000000001
 40
0.0
 40
0.0
 40
0.0
 40
0.0
 40
0.5257672559
 40
0.7695439605
 40
1.0
 40
1.0
 40
1.0
 40
1.0
 10
5.5007750231
 20
0.7800850849
 30
0.0
 10
5.5067017377
 20
0.780565348
 30
0.0
 10
5.515408789
 20
0.7809651521
 30
0.0
 10
5.5267185531
 20
0.7807153361
 30
0.0
 10
5.5320711797
 20
0.7803306508
 30
0.0
 10
5.5346643331
 20
0.7800688804
 30
0.0
  0
SPLINE
  5
308
100
AcDbEntity
  8
0
100
AcDbSpline
 62
7
  6
CONTINUOUS
 70
0
 71
3
 72
9
 73
5
 74
0
 42
0.0000001
 43
0.0000001
 44
0.0000000001
 40
0.0
 40
0.0
 40
0.0
 40
0.0
 40
0.5207343894
 40
1.0
 40
1.0
 40
1.0
 40
1.0
 10
5.5346643331
 20
0.7800688804
 30
0.0
 10
5.537725637
 20
0.7797598516
 30
0.0
 10
5.5435867426
 20
0.7789660952
 30
0.0
 10
5.5493686446
 20
0.7777085993
 30
0.0
 10
5.5521040388
 20
0.7769758567
 30
0.0
  0
SPLINE
  5
309
100
AcDbEntity
  8
0
100
AcDbSpline
 62
7
  6
CONTINUOUS
 70
0
 71
3
 72
9
 73
5
 74
0
 42
0.0000001
 43
0.0000001
 44
0.0000000001
 40
0.0
 40
0.0
 40
0.0
 40
0.0
 40
0.2474470398
 40
1.0
 40
1.0
 40
1.0
 40
1.0
 10
5.2991357329
 20
0.7620673242
 30
0.0
 10
5.3018944039
 20
0.7612627232
 30
0.0
 10
5.313104671
 20
0.758228932
 30
0.0
 10
5.3245637836
 20
0.7560955319
 30
0.0
 10
5.3332432438
 20
0.7550734878
 30
0.0
  0
SPLINE
  5
30A
100
AcDbEntity
  8
0
100
AcDbSpline
 62
7
  6
CONTINUOUS
 70
0
 71
3
 72
9
 73
5
 74
0
 42
0.0000001
 43
0.0000001
 44
0.0000000001
 40
0.0
 40
0.0
 40
0.0
 40
0.0
 40
0.2524885253
 40
1.0
 40
1.0
 40
1.0
 40
1.0
 10
5.3746048925
 20
0.75465267
 30
0.0
 10
5.3778527322
 20
0.7549676348
 30
0.0
 10
5.3906829829
 20
0.756543046
 30
0.0
 10
5.4033544534
 20
0.7593563652
 30
0.0
 10
5.4126268808
 20
0.7620672674
 30
0.0
  0
SPLINE
  5
30B
100
AcDbEntity
  8
0
100
AcDbSpline
 62
9
  6
CONTINUOUS
 70
0
 71
3
 72
15
 73
11
 74
0
 42
0.0000001
 43
0.0000001
 44
0.0000000001
 40
0.0
 40
0.0
 40
0.0
 40
0.0
 40
0.1024151739
 40
0.206327664
 40
0.3152395309
 40
0.4317391
 40
0.5572152086
 40
0.6927857623
 40
0.8398907199
 40
1.0
 40
1.0
 40
1.0
 40
1.0
 10
5.355878887
 20
0.1828485143
 30
0.0
 10
5.3579241822
 20
0.1828485605
 30
0.0
 10
5.3620523903
 20
0.1831714293
 30
0.0
 10
5.368195949
 20
0.1846490371
 30
0.0
 10
5.3743214746
 20
0.1870976169
 30
0.0
 10
5.3804680047
 20
0.1904954475
 30
0.0
 10
5.3866355151
 20
0.1948565238
 30
0.0
 10
5.3928055753
 20
0.200199692
 30
0.0
 10
5.3990085648
 20
0.2065115998
 30
0.0
 10
5.4030378671
 20
0.2111424755
 30
0.0
 10
5.4050840296
 20
0.2135995296
 30
0.0
  0
SPLINE
  5
30C
100
AcDbEntity
  8
0
100
AcDbSpline
 62
7
  6
CONTINUOUS
 70
0
 71
3
 72
11
 73
7
 74
0
 42
0.0000001
 43
0.0000001
 44
0.0000000001
 40
0.0
 40
0.0
 40
0.0
 40
0.0
 40
0.2228262914
 40
0.4640375824
 40
0.7233058824
 40
1.0
 40
1.0
 40
1.0
 40
1.0
 10
5.1838847788
 20
0.2025041659
 30
0.0
 10
5.1860476282
 20
0.2020009845
 30
0.0
 10
5.1905925401
 20
0.2011236985
 30
0.0
 10
5.1977471909
 20
0.2002143456
 30
0.0
 10
5.2054763083
 20
0.1996664507
 30
0.0
 10
5.2108185332
 20
0.1995513988
 30
0.0
 10
5.2135759715
 20
0.1995513988
 30
0.0
  0
SPLINE
  5
30D
100
AcDbEntity
  8
0
100
AcDbSpline
 62
9
  6
CONTINUOUS
 70
0
 71
3
 72
27
 73
23
 74
0
 42
0.0000001
 43
0.0000001
 44
0.0000000001
 40
0.0
 40
0.0
 40
0.0
 40
0.0
 40
0.0532842136
 40
0.1093956354
 40
0.1386131513
 40
0.1685889899
 40
0.2307030959
 40
0.2627950724
 40
0.2954906377
 40
0.3623947574
 40
0.4308031336
 40
0.4999874148
 40
0.5691722724
 40
0.6375823186
 40
0.704489134
 40
0.7371863666
 40
0.7692801906
 40
0.8313984407
 40
0.861376471
 40
0.8905962097
 40
0.9467120055
 40
1.0
 40
1.0
 40
1.0
 40
1.0
 10
4.7083355709
 20
0.7150164045
 30
0.0
 10
4.7163944405
 20
0.7106313184
 30
0.0
 10
4.7320981837
 20
0.7000139415
 30
0.0
 10
4.7493747271
 20
0.683396809
 30
0.0
 10
4.7620476992
 20
0.6680946883
 30
0.0
 10
4.774178976
 20
0.6510723608
 30
0.0
 10
4.7847217451
 20
0.6323841547
 30
0.0
 10
4.7936385578
 20
0.6124257677
 30
0.0
 10
4.8016220273
 20
0.5911886992
 30
0.0
 10
4.8093709535
 20
0.5632466911
 30
0.0
 10
4.8150033333
 20
0.528421013
 30
0.0
 10
4.81688488
 20
0.4927995615
 30
0.0
 10
4.815008828
 20
0.4571775336
 30
0.0
 10
4.809381809
 20
0.4223501317
 30
0.0
 10
4.8016372312
 20
0.3944058501
 30
0.0
 10
4.7936570865
 20
0.3731663917
 30
0.0
 10
4.7847433208
 20
0.3532052009
 30
0.0
 10
4.7742034735
 20
0.3345137476
 30
0.0
 10
4.7620748651
 20
0.3174877125
 30
0.0
 10
4.749404245
 20
0.3021816849
 30
0.0
 10
4.7321303672
 20
0.2855592416
 30
0.0
 10
4.7164282571
 20
0.2749369872
 30
0.0
 10
4.7083700211
 20
0.2705493755
 30
0.0
  0
SPLINE
  5
30E
100
AcDbEntity
  8
0
100
AcDbSpline
 62
9
  6
CONTINUOUS
 70
0
 71
3
 72
11
 73
7
 74
0
 42
0.0000001
 43
0.0000001
 44
0.0000000001
 40
0.0
 40
0.0
 40
0.0
 40
0.0
 40
0.2567391799
 40
0.5079607765
 40
0.7552031445
 40
1.0
 40
1.0
 40
1.0
 40
1.0
 10
5.7079709917
 20
0.7150420323
 30
0.0
 10
5.7032292659
 20
0.7176193476
 30
0.0
 10
5.6935480541
 20
0.7221924781
 30
0.0
 10
5.6784391641
 20
0.7271924329
 30
0.0
 10
5.6630685493
 20
0.7302118367
 30
0.0
 10
5.6527135049
 20
0.7308917557
 30
0.0
 10
5.6475676449
 20
0.7308917557
 30
0.0
  0
SPLINE
  5
30F
100
AcDbEntity
  8
0
100
AcDbSpline
 62
9
  6
CONTINUOUS
 70
0
 71
3
 72
15
 73
11
 74
0
 42
0.0000001
 43
0.0000001
 44
0.0000000001
 40
0.0
 40
0.0
 40
0.0
 40
0.0
 40
0.1191688206
 40
0.2433396104
 40
0.3708404415
 40
0.5000000747
 40
0.629159697
 40
0.7566604975
 40
0.8808312401
 40
1.0
 40
1.0
 40
1.0
 40
1.0
 10
5.2224762422
 20
0.4115687456
 30
0.0
 10
5.2329976529
 20
0.4131041465
 30
0.0
 10
5.2545483557
 20
0.4157974279
 30
0.0
 10
5.2875156422
 20
0.4186995526
 30
0.0
 10
5.3214547768
 20
0.4204955082
 30
0.0
 10
5.3558813005
 20
0.4211167363
 30
0.0
 10
5.3903078206
 20
0.4204954587
 30
0.0
 10
5.4242469447
 20
0.4186994548
 30
0.0
 10
5.4572142148
 20
0.4157972841
 30
0.0
 10
5.4787649042
 20
0.4131039734
 30
0.0
 10
5.4892863074
 20
0.4115685586
 30
0.0
  0
SPLINE
  5
310
100
AcDbEntity
  8
0
100
AcDbSpline
 62
7
  6
CONTINUOUS
 70
0
 71
3
 72
12
 73
8
 74
0
 42
0.0000001
 43
0.0000001
 44
0.0000000001
 40
0.0
 40
0.0
 40
0.0
 40
0.0
 40
0.1059450242
 40
0.2185623041
 40
0.4613318496
 40
0.7236014288
 40
1.0
 40
1.0
 40
1.0
 40
1.0
 10
5.2135759715
 20
0.1995513988
 30
0.0
 10
5.2169084338
 20
0.1995513988
 30
0.0
 10
5.223783944
 20
0.1997298016
 30
0.0
 10
5.2382638675
 20
0.2007302525
 30
0.0
 10
5.2575518899
 20
0.2031954807
 30
0.0
 10
5.2817239385
 20
0.2077019991
 30
0.0
 10
5.2982369542
 20
0.2115172395
 30
0.0
 10
5.3066779502
 20
0.2135994298
 30
0.0
  0
SPLINE
  5
311
100
AcDbEntity
  8
0
100
AcDbSpline
 62
9
  6
CONTINUOUS
 70
0
 71
3
 72
15
 73
11
 74
0
 42
0.0000001
 43
0.0000001
 44
0.0000000001
 40
0.0
 40
0.0
 40
0.0
 40
0.0
 40
0.1583801954
 40
0.3049483135
 40
0.4404924535
 40
0.5660385786
 40
0.682908899
 40
0.7927743742
 40
0.8976783034
 40
1.0
 40
1.0
 40
1.0
 40
1.0
 10
5.3066779684
 20
0.2135994191
 30
0.0
 10
5.3086789944
 20
0.2111502644
 30
0.0
 10
5.3126626245
 20
0.2065386325
 30
0.0
 10
5.3188520968
 20
0.2002780655
 30
0.0
 10
5.3250241238
 20
0.19495476
 30
0.0
 10
5.3311864244
 20
0.1905746585
 30
0.0
 10
5.3373473413
 20
0.1871454329
 30
0.0
 10
5.3435151431
 20
0.184677933
 30
0.0
 10
5.3496920863
 20
0.1831859356
 30
0.0
 10
5.3538370835
 20
0.1828495695
 30
0.0
 10
5.3558803278
 20
0.1828485146
 30
0.0
  0
SPLINE
  5
312
100
AcDbEntity
  8
0
100
AcDbSpline
 62
7
  6
CONTINUOUS
 70
0
 71
3
 72
15
 73
11
 74
0
 42
0.0000001
 43
0.0000001
 44
0.0000000001
 40
0.0
 40
0.0
 40
0.0
 40
0.0
 40
0.1233138326
 40
0.248115796
 40
0.3738433848
 40
0.500014613
 40
0.6261827885
 40
0.7519006528
 40
0.8766913878
 40
1.0
 40
1.0
 40
1.0
 40
1.0
 10
5.3066779502
 20
0.2135994298
 30
0.0
 10
5.310644111
 20
0.2145777862
 30
0.0
 10
5.3186822416
 20
0.2163194879
 30
0.0
 10
5.3309243742
 20
0.2182366896
 30
0.0
 10
5.3433561473
 20
0.2194133114
 30
0.0
 10
5.3558826393
 20
0.2198023857
 30
0.0
 10
5.3684087624
 20
0.219412717
 30
0.0
 10
5.3808398119
 20
0.2182369217
 30
0.0
 10
5.3930810527
 20
0.2163195056
 30
0.0
 10
5.4011185987
 20
0.2145777206
 30
0.0
 10
5.4050845911
 20
0.213599404
 30
0.0
  0
SPLINE
  5
313
100
AcDbEntity
  8
0
100
AcDbSpline
 62
7
  6
CONTINUOUS
 70
0
 71
3
 72
15
 73
11
 74
0
 42
0.0000001
 43
0.0000001
 44
0.0000000001
 40
0.0
 40
0.0
 40
0.0
 40
0.0
 40
0.1519524018
 40
0.2992185553
 40
0.4399967844
 40
0.5726708389
 40
0.6959387174
 40
0.8086633196
 40
0.9101166938
 40
1.0
 40
1.0
 40
1.0
 40
1.0
 10
5.4050845911
 20
0.213599404
 30
0.0
 10
5.4111950227
 20
0.2120921077
 30
0.0
 10
5.4232610192
 20
0.2092571137
 30
0.0
 10
5.4411139375
 20
0.2055848036
 30
0.0
 10
5.4582995424
 20
0.2026759453
 30
0.0
 10
5.4746126629
 20
0.2006557117
 30
0.0
 10
5.4898513813
 20
0.1995661699
 30
0.0
 10
5.5038397912
 20
0.1994644901
 30
0.0
 10
5.5164149493
 20
0.2003608998
 30
0.0
 10
5.5242503775
 20
0.201663242
 30
0.0
 10
5.5278768416
 20
0.2025046846
 30
0.0
  0
SPLINE
  5
314
100
AcDbEntity
  8
0
100
AcDbSpline
 62
9
  6
CONTINUOUS
 70
0
 71
3
 72
13
 73
9
 74
0
 42
0.0000001
 43
0.0000001
 44
0.0000000001
 40
0.0
 40
0.0
 40
0.0
 40
0.0
 40
0.2882925758
 40
0.5557435191
 40
0.6789919118
 40
0.7943606794
 40
0.9014801757
 40
1.0
 40
1.0
 40
1.0
 40
1.0
 10
5.222476262
 20
0.4115687309
 30
0.0
 10
5.226049424
 20
0.394031601
 30
0.0
 10
5.2347885069
 20
0.3605830657
 30
0.0
 10
5.2490412085
 20
0.3208690358
 30
0.0
 10
5.2612487204
 20
0.2919145719
 30
0.0
 10
5.270336197
 20
0.2724629803
 30
0.0
 10
5.2795204774
 20
0.254770469
 30
0.0
 10
5.2859302288
 20
0.2437223752
 30
0.0
 10
5.2891483996
 20
0.2385213
 30
0.0
  0
SPLINE
  5
315
100
AcDbEntity
  8
0
100
AcDbSpline
 62
9
  6
CONTINUOUS
 70
0
 71
3
 72
20
 73
16
 74
0
 42
0.0000001
 43
0.0000001
 44
0.0000000001
 40
0.0
 40
0.0
 40
0.0
 40
0.0
 40
0.1670648159
 40
0.2459288087
 40
0.3214953951
 40
0.3938025464
 40
0.4629786461
 40
0.5291364514
 40
0.5923683735
 40
0.652737278
 40
0.710297736
 40
0.765102407
 40
0.8172030325
 40
0.9135465378
 40
1.0
 40
1.0
 40
1.0
 40
1.0
 10
5.4892861349
 20
0.5739783421
 30
0.0
 10
5.4868881672
 20
0.5851014529
 30
0.0
 10
5.4829563241
 20
0.6013938402
 30
0.0
 10
5.4769589875
 20
0.6224554255
 30
0.0
 10
5.4723156163
 20
0.6371859939
 30
0.0
 10
5.4674886749
 20
0.6511606021
 30
0.0
 10
5.4625369668
 20
0.6644091298
 30
0.0
 10
5.4575131486
 20
0.6769666617
 30
0.0
 10
5.4524735265
 20
0.6888688381
 30
0.0
 10
5.4474332426
 20
0.7001321402
 30
0.0
 10
5.4424059381
 20
0.7107696353
 30
0.0
 10
5.4374050095
 20
0.7207939979
 30
0.0
 10
5.4309601938
 20
0.7330463052
 30
0.0
 10
5.423012152
 20
0.746939699
 30
0.0
 10
5.4161147426
 20
0.7573234745
 30
0.0
 10
5.4126268315
 20
0.7620675561
 30
0.0
  0
SPLINE
  5
316
100
AcDbEntity
  8
0
100
AcDbSpline
 62
9
  6
CONTINUOUS
 70
0
 71
3
 72
15
 73
11
 74
0
 42
0.0000001
 43
0.0000001
 44
0.0000000001
 40
0.0
 40
0.0
 40
0.0
 40
0.0
 40
0.11916878
 40
0.2433395377
 40
0.3708403475
 40
0.4999999726
 40
0.6291596018
 40
0.7566604229
 40
0.8808311979
 40
1.0
 40
1.0
 40
1.0
 40
1.0
 10
5.4892862087
 20
0.5739783874
 30
0.0
 10
5.4787648072
 20
0.5724429751
 30
0.0
 10
5.4572141218
 20
0.5697496699
 30
0.0
 10
5.424246859
 20
0.5668475082
 30
0.0
 10
5.3903077443
 20
0.5650515143
 30
0.0
 10
5.3558812357
 20
0.5644302473
 30
0.0
 10
5.3214547256
 20
0.5650514865
 30
0.0
 10
5.2875156064
 20
0.5668474532
 30
0.0
 10
5.2545483368
 20
0.5697495889
 30
0.0
 10
5.2329976458
 20
0.5724428776
 30
0.0
 10
5.2224762412
 20
0.573978282
 30
0.0
  0
SPLINE
  5
317
100
AcDbEntity
  8
0
100
AcDbSpline
 62
9
  6
CONTINUOUS
 70
0
 71
3
 72
14
 73
10
 74
0
 42
0.0000001
 43
0.0000001
 44
0.0000000001
 40
0.0
 40
0.0
 40
0.0
 40
0.0
 40
0.0928224836
 40
0.1959196314
 40
0.3089628372
 40
0.4315628878
 40
0.5631589626
 40
0.7026666573
 40
1.0
 40
1.0
 40
1.0
 40
1.0
 10
5.299135716
 20
0.7620673286
 30
0.0
 10
5.2954532344
 20
0.7569297341
 30
0.0
 10
5.2881190025
 20
0.745769132
 30
0.0
 10
5.2776728582
 20
0.7274942103
 30
0.0
 10
5.267286898
 20
0.7068862258
 30
0.0
 10
5.2570597045
 20
0.6840570728
 30
0.0
 10
5.2471044008
 20
0.6591533436
 30
0.0
 10
5.2343194953
 20
0.6226112384
 30
0.0
 10
5.2265189311
 20
0.5938184289
 30
0.0
 10
5.2224765205
 20
0.5739782058
 30
0.0
  0
SPLINE
  5
318
100
AcDbEntity
  8
0
100
AcDbSpline
 62
9
  6
CONTINUOUS
 70
0
 71
3
 72
11
 73
7
 74
0
 42
0.0000001
 43
0.0000001
 44
0.0000000001
 40
0.0
 40
0.0
 40
0.0
 40
0.0
 40
0.2447894749
 40
0.4920277326
 40
0.7432509041
 40
1.0
 40
1.0
 40
1.0
 40
1.0
 10
5.0641947774
 20
0.7308917557
 30
0.0
 10
5.0590446267
 20
0.7308917557
 30
0.0
 10
5.0486808588
 20
0.7302106927
 30
0.0
 10
5.0332975864
 20
0.7271862548
 30
0.0
 10
5.0181767415
 20
0.722177971
 30
0.0
 10
5.0084884982
 20
0.7175974104
 30
0.0
 10
5.0037434779
 20
0.7150159562
 30
0.0
  0
SPLINE
  5
319
100
AcDbEntity
  8
0
100
AcDbSpline
 62
9
  6
CONTINUOUS
 70
0
 71
3
 72
17
 73
13
 74
0
 42
0.0000001
 43
0.0000001
 44
0.0000000001
 40
0.0
 40
0.0
 40
0.0
 40
0.0
 40
0.1320283939
 40
0.258699048
 40
0.3807762142
 40
0.4406072628
 40
0.5000002491
 40
0.559393281
 40
0.6192244144
 40
0.7413015487
 40
0.8679716859
 40
1.0
 40
1.0
 40
1.0
 40
1.0
 10
5.2224773426
 20
0.4115694815
 30
0.0
 10
5.2182244556
 20
0.4179994079
 30
0.0
 10
5.2103161103
 20
0.4308947937
 30
0.0
 10
5.2007702801
 20
0.4510388392
 30
0.0
 10
5.1955815467
 20
0.46839425
 30
0.0
 10
5.1934412941
 20
0.4823396556
 30
0.0
 10
5.1928867632
 20
0.4927735599
 30
0.0
 10
5.1934413125
 20
0.5032074682
 30
0.0
 10
5.195581582
 20
0.5171528765
 30
0.0
 10
5.2007703044
 20
0.5345082614
 30
0.0
 10
5.2103161234
 20
0.5546522726
 30
0.0
 10
5.2182244619
 20
0.5675476212
 30
0.0
 10
5.2224773437
 20
0.5739775455
 30
0.0
  0
SPLINE
  5
31A
100
AcDbEntity
  8
0
100
AcDbSpline
 62
9
  6
CONTINUOUS
 70
0
 71
3
 72
20
 73
16
 74
0
 42
0.0000001
 43
0.0000001
 44
0.0000000001
 40
0.0
 40
0.0
 40
0.0
 40
0.0
 40
0.0731463601
 40
0.1452758094
 40
0.2161471609
 40
0.2855473815
 40
0.353362686
 40
0.4195320041
 40
0.5467218773
 40
0.6672605698
 40
0.7818599931
 40
0.837461256
 40
0.8921978586
 40
0.9462982423
 40
1.0
 40
1.0
 40
1.0
 40
1.0
 10
5.2224762875
 20
0.5739783421
 30
0.0
 10
5.2210257988
 20
0.5796328222
 30
0.0
 10
5.2178218874
 20
0.5907833441
 30
0.0
 10
5.2120893365
 20
0.6070631912
 30
0.0
 10
5.2054961228
 20
0.6226914386
 30
0.0
 10
5.1980751957
 20
0.6375605901
 30
0.0
 10
5.1898731643
 20
0.6515827389
 30
0.0
 10
5.1781224364
 20
0.6688137088
 30
0.0
 10
5.1617852786
 20
0.6879444812
 30
0.0
 10
5.1396138161
 20
0.7067153876
 30
0.0
 10
5.1193552612
 20
0.7183440737
 30
0.0
 10
5.1025972181
 20
0.7248549658
 30
0.0
 10
5.0899155931
 20
0.7283265155
 30
0.0
 10
5.0770909245
 20
0.7304213159
 30
0.0
 10
5.0684805277
 20
0.7308917557
 30
0.0
 10
5.0641947774
 20
0.7308917557
 30
0.0
  0
SPLINE
  5
31B
100
AcDbEntity
  8
0
100
AcDbSpline
 62
9
  6
CONTINUOUS
 70
0
 71
3
 72
20
 73
16
 74
0
 42
0.0000001
 43
0.0000001
 44
0.0000000001
 40
0.0
 40
0.0
 40
0.0
 40
0.0
 40
0.0537017577
 40
0.1078021414
 40
0.162538744
 40
0.2181400069
 40
0.3327394302
 40
0.4532781227
 40
0.5804679959
 40
0.646637314
 40
0.7144526185
 40
0.7838528391
 40
0.8547241906
 40
0.9268536399
 40
1.0
 40
1.0
 40
1.0
 40
1.0
 10
5.0641947774
 20
0.2546552728
 30
0.0
 10
5.0684805277
 20
0.2546552728
 30
0.0
 10
5.0770909245
 20
0.2551257126
 30
0.0
 10
5.0899155931
 20
0.257220513
 30
0.0
 10
5.1025972181
 20
0.2606920627
 30
0.0
 10
5.1193552612
 20
0.2672029548
 30
0.0
 10
5.1396138161
 20
0.2788316409
 30
0.0
 10
5.1617852786
 20
0.2976025473
 30
0.0
 10
5.1781224364
 20
0.3167333197
 30
0.0
 10
5.1898731643
 20
0.3339642896
 30
0.0
 10
5.1980751957
 20
0.3479864384
 30
0.0
 10
5.2054961228
 20
0.3628555899
 30
0.0
 10
5.2120893365
 20
0.3784838373
 30
0.0
 10
5.2178218874
 20
0.3947636844
 30
0.0
 10
5.2210257988
 20
0.4059142063
 30
0.0
 10
5.2224762875
 20
0.4115686864
 30
0.0
  0
SPLINE
  5
31C
100
AcDbEntity
  8
0
100
AcDbSpline
 62
9
  6
CONTINUOUS
 70
0
 71
3
 72
15
 73
11
 74
0
 42
0.0000001
 43
0.0000001
 44
0.0000000001
 40
0.0
 40
0.0
 40
0.0
 40
0.0
 40
0.1211964563
 40
0.2469269084
 40
0.3754295292
 40
0.5049380425
 40
0.6337293428
 40
0.7602165482
 40
0.8828313761
 40
1.0
 40
1.0
 40
1.0
 40
1.0
 10
5.489286113
 20
0.4115686498
 30
0.0
 10
5.4785856934
 20
0.4131301853
 30
0.0
 10
5.4567160298
 20
0.4158547883
 30
0.0
 10
5.4233380937
 20
0.4187632687
 30
0.0
 10
5.3891375371
 20
0.420534231
 30
0.0
 10
5.3546226668
 20
0.4211158791
 30
0.0
 10
5.3202891203
 20
0.420455689
 30
0.0
 10
5.2866139156
 20
0.4186357985
 30
0.0
 10
5.2540555749
 20
0.4157405908
 30
0.0
 10
5.232821101
 20
0.4130783263
 30
0.0
 10
5.2224762978
 20
0.4115686897
 30
0.0
  0
SPLINE
  5
31D
100
AcDbEntity
  8
0
100
AcDbSpline
 62
9
  6
CONTINUOUS
 70
0
 71
3
 72
19
 73
15
 74
0
 42
0.0000001
 43
0.0000001
 44
0.0000000001
 40
0.0
 40
0.0
 40
0.0
 40
0.0
 40
0.0586407786
 40
0.1180725329
 40
0.2400391529
 40
0.3030783721
 40
0.3675922693
 40
0.5000003423
 40
0.6324082848
 40
0.696921862
 40
0.7599609853
 40
0.8819274964
 40
0.9413592229
 40
1.0
 40
1.0
 40
1.0
 40
1.0
 10
5.4892861349
 20
0.5739783421
 30
0.0
 10
5.4911760185
 20
0.5711232539
 30
0.0
 10
5.4948941058
 20
0.5653152883
 30
0.0
 10
5.5019786373
 20
0.5532209947
 30
0.0
 10
5.5083074902
 20
0.5403844944
 30
0.0
 10
5.5133354774
 20
0.5266948164
 30
0.0
 10
5.5173568156
 20
0.5120424659
 30
0.0
 10
5.5195892257
 20
0.4927734638
 30
0.0
 10
5.5173567927
 20
0.4735044861
 30
0.0
 10
5.513335463
 20
0.4588521649
 30
0.0
 10
5.508307427
 20
0.4451625384
 30
0.0
 10
5.5019786343
 20
0.432326026
 30
0.0
 10
5.4948940835
 20
0.4202317518
 30
0.0
 10
5.491176007
 20
0.4144237822
 30
0.0
 10
5.4892861349
 20
0.4115686864
 30
0.0
  0
SPLINE
  5
31E
100
AcDbEntity
  8
0
100
AcDbSpline
 62
9
  6
CONTINUOUS
 70
0
 71
3
 72
20
 73
16
 74
0
 42
0.0000001
 43
0.0000001
 44
0.0000000001
 40
0.0
 40
0.0
 40
0.0
 40
0.0
 40
0.0731463601
 40
0.1452758094
 40
0.2161471609
 40
0.2855473815
 40
0.353362686
 40
0.4195320041
 40
0.5467218773
 40
0.6672605698
 40
0.7818599931
 40
0.837461256
 40
0.8921978586
 40
0.9462982423
 40
1.0
 40
1.0
 40
1.0
 40
1.0
 10
5.4892861349
 20
0.4115686864
 30
0.0
 10
5.4907366236
 20
0.4059142063
 30
0.0
 10
5.4939405349
 20
0.3947636844
 30
0.0
 10
5.4996730859
 20
0.3784838373
 30
0.0
 10
5.5062662996
 20
0.3628555899
 30
0.0
 10
5.5136872267
 20
0.3479864384
 30
0.0
 10
5.521889258
 20
0.3339642896
 30
0.0
 10
5.5336399859
 20
0.3167333197
 30
0.0
 10
5.5499771438
 20
0.2976025473
 30
0.0
 10
5.5721486063
 20
0.2788316409
 30
0.0
 10
5.5924071611
 20
0.2672029548
 30
0.0
 10
5.6091652043
 20
0.2606920627
 30
0.0
 10
5.6218468293
 20
0.257220513
 30
0.0
 10
5.6346714979
 20
0.2551257126
 30
0.0
 10
5.6432818947
 20
0.2546552728
 30
0.0
 10
5.6475676449
 20
0.2546552728
 30
0.0
  0
SPLINE
  5
31F
100
AcDbEntity
  8
0
100
AcDbSpline
 62
9
  6
CONTINUOUS
 70
0
 71
3
 72
20
 73
16
 74
0
 42
0.0000001
 43
0.0000001
 44
0.0000000001
 40
0.0
 40
0.0
 40
0.0
 40
0.0
 40
0.0537017577
 40
0.1078021414
 40
0.162538744
 40
0.2181400069
 40
0.3327394302
 40
0.4532781227
 40
0.5804679959
 40
0.646637314
 40
0.7144526185
 40
0.7838528391
 40
0.8547241906
 40
0.9268536399
 40
1.0
 40
1.0
 40
1.0
 40
1.0
 10
5.6475676449
 20
0.7308917557
 30
0.0
 10
5.6432818947
 20
0.7308917557
 30
0.0
 10
5.6346714979
 20
0.7304213159
 30
0.0
 10
5.6218468293
 20
0.7283265155
 30
0.0
 10
5.6091652043
 20
0.7248549658
 30
0.0
 10
5.5924071611
 20
0.7183440737
 30
0.0
 10
5.5721486063
 20
0.7067153876
 30
0.0
 10
5.5499771438
 20
0.6879444812
 30
0.0
 10
5.5336399859
 20
0.6688137088
 30
0.0
 10
5.521889258
 20
0.6515827389
 30
0.0
 10
5.5136872267
 20
0.6375605901
 30
0.0
 10
5.5062662996
 20
0.6226914386
 30
0.0
 10
5.4996730859
 20
0.6070631912
 30
0.0
 10
5.4939405349
 20
0.5907833441
 30
0.0
 10
5.4907366236
 20
0.5796328222
 30
0.0
 10
5.4892861349
 20
0.5739783421
 30
0.0
  0
SPLINE
  5
320
100
AcDbEntity
  8
0
100
AcDbSpline
 62
9
  6
CONTINUOUS
 70
0
 71
3
 72
27
 73
23
 74
0
 42
0.0000001
 43
0.0000001
 44
0.0000000001
 40
0.0
 40
0.0
 40
0.0
 40
0.0
 40
0.0532842136
 40
0.1093956354
 40
0.1386131513
 40
0.1685889899
 40
0.2307030959
 40
0.2627950724
 40
0.2954906377
 40
0.3623947574
 40
0.4308031336
 40
0.4999874148
 40
0.5691722724
 40
0.6375823186
 40
0.704489134
 40
0.7371863666
 40
0.7692801906
 40
0.8313984407
 40
0.861376471
 40
0.8905962097
 40
0.9467120055
 40
1.0
 40
1.0
 40
1.0
 40
1.0
 10
6.0034268515
 20
0.270530624
 30
0.0
 10
5.9953679819
 20
0.2749157101
 30
0.0
 10
5.9796642387
 20
0.285533087
 30
0.0
 10
5.9623876953
 20
0.3021502195
 30
0.0
 10
5.9497147232
 20
0.3174523402
 30
0.0
 10
5.9375834464
 20
0.3344746677
 30
0.0
 10
5.9270406773
 20
0.3531628738
 30
0.0
 10
5.9181238646
 20
0.3731212608
 30
0.0
 10
5.910140395
 20
0.3943583293
 30
0.0
 10
5.9023914689
 20
0.4223003374
 30
0.0
 10
5.8967590891
 20
0.4571260155
 30
0.0
 10
5.8948775423
 20
0.492747467
 30
0.0
 10
5.8967535944
 20
0.5283694949
 30
0.0
 10
5.9023806134
 20
0.5631968968
 30
0.0
 10
5.9101251911
 20
0.5911411784
 30
0.0
 10
5.9181053359
 20
0.6123806368
 30
0.0
 10
5.9270191016
 20
0.6323418276
 30
0.0
 10
5.9375589489
 20
0.6510332809
 30
0.0
 10
5.9496875572
 20
0.668059316
 30
0.0
 10
5.9623581773
 20
0.6833653436
 30
0.0
 10
5.9796320552
 20
0.6999877869
 30
0.0
 10
5.9953341653
 20
0.7106100413
 30
0.0
 10
6.0033924013
 20
0.714997653
 30
0.0
  0
SPLINE
  5
321
100
AcDbEntity
  8
0
100
AcDbSpline
 62
7
  6
CONTINUOUS
 70
0
 71
3
 72
28
 73
24
 74
0
 42
0.0000001
 43
0.0000001
 44
0.0000000001
 40
0.0
 40
0.0
 40
0.0
 40
0.0
 40
0.0010100848
 40
0.0022553372
 40
0.0038693284
 40
0.0059152173
 40
0.0084242378
 40
0.0114135506
 40
0.0188699438
 40
0.0283354848
 40
0.0398355535
 40
0.0533715284
 40
0.0689282123
 40
0.1060298046
 40
0.1509835179
 40
0.2036214663
 40
0.2637712287
 40
0.3312608833
 40
0.4059607484
 40
0.4877741098
 40
0.5766046116
 40
0.7749297436
 40
1.0
 40
1.0
 40
1.0
 40
1.0
 10
5.7918891545
 20
1.5665703879
 30
0.0
 10
5.7918888538
 20
1.5665360522
 30
0.0
 10
5.7918653585
 20
1.5664593285
 30
0.0
 10
5.7917776154
 20
1.5663586662
 30
0.0
 10
5.7916419422
 20
1.5662604513
 30
0.0
 10
5.7914558977
 20
1.5661626696
 30
0.0
 10
5.7912186929
 20
1.5660645862
 30
0.0
 10
5.7908014991
 20
1.5659228758
 30
0.0
 10
5.7901458407
 20
1.5657519993
 30
0.0
 10
5.7891993571
 20
1.5655570424
 30
0.0
 10
5.788042742
 20
1.5653613328
 30
0.0
 10
5.7866768056
 20
1.5651648131
 30
0.0
 10
5.7844438927
 20
1.5648854966
 30
0.0
 10
5.7811428168
 20
1.5645452914
 30
0.0
 10
5.7765806491
 20
1.5641542797
 30
0.0
 10
5.7712326355
 20
1.5637618849
 30
0.0
 10
5.7651168564
 20
1.5633683573
 30
0.0
 10
5.7582497784
 20
1.562974044
 30
0.0
 10
5.7506452123
 20
1.5625791828
 30
0.0
 10
5.7423143159
 20
1.5621839365
 30
0.0
 10
5.7297834843
 20
1.5616361512
 30
0.0
 10
5.7123838853
 20
1.5609592046
 30
0.0
 10
5.697999405
 20
1.5604643727
 30
0.0
 10
5.6903524534
 20
1.5602135178
 30
0.0
  0
SPLINE
  5
322
100
AcDbEntity
  8
0
100
AcDbSpline
 62
7
  6
CONTINUOUS
 70
0
 71
3
 72
11
 73
7
 74
0
 42
0.0000001
 43
0.0000001
 44
0.0000000001
 40
0.0
 40
0.0
 40
0.0
 40
0.0
 40
0.2144397983
 40
0.4583811878
 40
0.7230358779
 40
1.0
 40
1.0
 40
1.0
 40
1.0
 10
5.6662953807
 20
1.5594608916
 30
0.0
 10
5.6456516058
 20
1.5588430359
 30
0.0
 10
5.6015200578
 20
1.5576542527
 30
0.0
 10
5.5319031182
 20
1.5559953412
 30
0.0
 10
5.4562630168
 20
1.5543264423
 30
0.0
 10
5.4041105433
 20
1.5532241617
 30
0.0
 10
5.3774416148
 20
1.5526630736
 30
0.0
  0
SPLINE
  5
323
100
AcDbEntity
  8
0
100
AcDbSpline
 62
7
  6
CONTINUOUS
 70
0
 71
3
 72
11
 73
7
 74
0
 42
0.0000001
 43
0.0000001
 44
0.0000000001
 40
0.0
 40
0.0
 40
0.0
 40
0.0
 40
0.2756021613
 40
0.5403123446
 40
0.7847407271
 40
1.0
 40
1.0
 40
1.0
 40
1.0
 10
5.3414936425
 20
1.5519075809
 30
0.0
 10
5.3147588298
 20
1.5513457054
 30
0.0
 10
5.2623458388
 20
1.5502414727
 30
0.0
 10
5.1862233835
 20
1.5485756257
 30
0.0
 10
5.1159572066
 20
1.5469134185
 30
0.0
 10
5.0713710817
 20
1.5457216658
 30
0.0
 10
5.0504943041
 20
1.5451059105
 30
0.0
  0
SPLINE
  5
324
100
AcDbEntity
  8
0
100
AcDbSpline
 62
7
  6
CONTINUOUS
 70
0
 71
3
 72
20
 73
16
 74
0
 42
0.0000001
 43
0.0000001
 44
0.0000000001
 40
0.0
 40
0.0
 40
0.0
 40
0.0
 40
0.2118056209
 40
0.4008287115
 40
0.5658608844
 40
0.7056839027
 40
0.7657653802
 40
0.81915896
 40
0.8658693076
 40
0.9059101063
 40
0.9392997811
 40
0.9660661838
 40
0.9862588758
 40
0.9939232043
 40
1.0
 40
1.0
 40
1.0
 40
1.0
 10
4.993344211
 20
1.5432185706
 30
0.0
 10
4.988195339
 20
1.5430240613
 30
0.0
 10
4.9784520464
 20
1.5426391276
 30
0.0
 10
4.9646998335
 20
1.5420314032
 30
0.0
 10
4.9527005847
 20
1.5414253936
 30
0.0
 10
4.9438381774
 20
1.5409004569
 30
0.0
 10
4.9376911601
 20
1.5404712543
 30
0.0
 10
4.9338062867
 20
1.5401659968
 30
0.0
 10
4.9304105406
 20
1.5398614867
 30
0.0
 10
4.9275036245
 20
1.5395578809
 30
0.0
 10
4.925084533
 20
1.5392562863
 30
0.0
 10
4.9231529268
 20
1.5389565909
 30
0.0
 10
4.9218489704
 20
1.5386936941
 30
0.0
 10
4.9210535419
 20
1.5384719068
 30
0.0
 10
4.9207380295
 20
1.5383595985
 30
0.0
 10
4.9206023464
 20
1.5383009178
 30
0.0
  0
LINE
  5
325
100
AcDbEntity
  8
0
100
AcDbLine
 62
7
  6
CONTINUOUS
 10
4.9214965132
 20
1.5514851739
 11
4.9203966495
 21
1.5518816701
  0
SPLINE
  5
326
100
AcDbEntity
  8
0
100
AcDbSpline
 62
7
  6
CONTINUOUS
 70
0
 71
3
 72
25
 73
21
 74
0
 42
0.0000001
 43
0.0000001
 44
0.0000000001
 40
0.0
 40
0.0
 40
0.0
 40
0.0
 40
0.002555728
 40
0.0042506086
 40
0.0063217697
 40
0.0117278814
 40
0.0189394267
 40
0.0280219766
 40
0.039010522
 40
0.0519270203
 40
0.0667870188
 40
0.1023826711
 40
0.1458747936
 40
0.1973238952
 40
0.2567346866
 40
0.3239710581
 40
0.3988706605
 40
0.5710028576
 40
0.771811947
 40
1.0
 40
1.0
 40
1.0
 40
1.0
 10
4.9200907478
 20
1.5522289596
 30
0.0
 10
4.9200909632
 20
1.5522869711
 30
0.0
 10
4.9201394092
 20
1.5523813239
 30
0.0
 10
4.9202446189
 20
1.5524778097
 30
0.0
 10
4.920417833
 20
1.5525952769
 30
0.0
 10
4.9207227531
 20
1.5527335083
 30
0.0
 10
4.9211899195
 20
1.5528905653
 30
0.0
 10
4.9217891765
 20
1.5530482807
 30
0.0
 10
4.9225210587
 20
1.5532070517
 30
0.0
 10
4.923386563
 20
1.5533663367
 30
0.0
 10
4.9248071391
 20
1.5535931217
 30
0.0
 10
4.9269220188
 20
1.5538695397
 30
0.0
 10
4.9298681414
 20
1.5541868174
 30
0.0
 10
4.9333573858
 20
1.554505096
 30
0.0
 10
4.9373874216
 20
1.5548240037
 30
0.0
 10
4.9419511581
 20
1.5551436407
 30
0.0
 10
4.949070637
 20
1.5555914827
 30
0.0
 10
4.9592213881
 20
1.5561410585
 30
0.0
 10
4.9728515534
 20
1.556776646
 30
0.0
 10
4.9825811022
 20
1.5571764726
 30
0.0
 10
4.9877567328
 20
1.5573789913
 30
0.0
  0
SPLINE
  5
327
100
AcDbEntity
  8
0
100
AcDbSpline
 62
7
  6
CONTINUOUS
 70
0
 71
3
 72
11
 73
7
 74
0
 42
0.0000001
 43
0.0000001
 44
0.0000000001
 40
0.0
 40
0.0
 40
0.0
 40
0.0
 40
0.2162128161
 40
0.4608214292
 40
0.7249269597
 40
1.0
 40
1.0
 40
1.0
 40
1.0
 10
5.053621761
 20
1.5595727068
 30
0.0
 10
5.0740457683
 20
1.560169658
 30
0.0
 10
5.1175794473
 20
1.5613279483
 30
0.0
 10
5.1860680622
 20
1.5629452181
 30
0.0
 10
5.2601204189
 20
1.5645687418
 30
0.0
 10
5.3110630119
 20
1.5656429094
 30
0.0
 10
5.3370524593
 20
1.5661892227
 30
0.0
  0
SPLINE
  5
328
100
AcDbEntity
  8
0
100
AcDbSpline
 62
7
  6
CONTINUOUS
 70
0
 71
3
 72
11
 73
7
 74
0
 42
0.0000001
 43
0.0000001
 44
0.0000000001
 40
0.0
 40
0.0
 40
0.0
 40
0.0
 40
0.2755324504
 40
0.53971707
 40
0.7839362986
 40
1.0
 40
1.0
 40
1.0
 40
1.0
 10
5.3723847131
 20
1.566931612
 30
0.0
 10
5.3989063124
 20
1.567489243
 30
0.0
 10
5.450857124
 20
1.5685859265
 30
0.0
 10
5.526314052
 20
1.5702432318
 30
0.0
 10
5.5960441908
 20
1.5718930851
 30
0.0
 10
5.6403433679
 20
1.5730716989
 30
0.0
 10
5.6611363783
 20
1.5736826179
 30
0.0
  0
SPLINE
  5
329
100
AcDbEntity
  8
0
100
AcDbSpline
 62
7
  6
CONTINUOUS
 70
0
 71
3
 72
11
 73
7
 74
0
 42
0.0000001
 43
0.0000001
 44
0.0000000001
 40
0.0
 40
0.0
 40
0.0
 40
0.0
 40
0.3001600877
 40
0.5675979066
 40
0.8012532963
 40
1.0
 40
1.0
 40
1.0
 40
1.0
 10
5.6857632094
 20
1.5744383142
 30
0.0
 10
5.6932223716
 20
1.5746782018
 30
0.0
 10
5.7073268672
 20
1.5751528531
 30
0.0
 10
5.7272347414
 20
1.5759031034
 30
0.0
 10
5.7446191797
 20
1.576651174
 30
0.0
 10
5.7553567803
 20
1.5771916992
 30
0.0
 10
5.7602905047
 20
1.5774693516
 30
0.0
  0
LINE
  5
32A
100
AcDbEntity
  8
0
100
AcDbLine
 62
7
  6
CONTINUOUS
 10
5.7602905047
 20
1.5774693516
 11
5.7816966599
 21
1.5789868513
  0
SPLINE
  5
32B
100
AcDbEntity
  8
0
100
AcDbSpline
 62
7
  6
CONTINUOUS
 70
0
 71
3
 72
13
 73
9
 74
0
 42
0.0000001
 43
0.0000001
 44
0.0000000001
 40
0.0
 40
0.0
 40
0.0
 40
0.0
 40
0.3629695881
 40
0.6506775611
 40
0.7662142521
 40
0.8628681181
 40
0.9407174949
 40
1.0
 40
1.0
 40
1.0
 40
1.0
 10
5.7816966599
 20
1.5789868513
 30
0.0
 10
5.7828784205
 20
1.5791011167
 30
0.0
 10
5.784995316
 20
1.5793225648
 30
0.0
 10
5.7874812661
 20
1.5796462791
 30
0.0
 10
5.7890943051
 20
1.5799152558
 30
0.0
 10
5.7900249497
 20
1.5801012184
 30
0.0
 10
5.7907671141
 20
1.5802861404
 30
0.0
 10
5.7911944053
 20
1.5804262021
 30
0.0
 10
5.7913732618
 20
1.580501119
 30
0.0
  0
SPLINE
  5
32C
100
AcDbEntity
  8
0
100
AcDbSpline
 62
9
  6
CONTINUOUS
 70
0
 71
3
 72
11
 73
7
 74
0
 42
0.0000001
 43
0.0000001
 44
0.0000000001
 40
0.0
 40
0.0
 40
0.0
 40
0.0
 40
0.2567391799
 40
0.5079607765
 40
0.7552031445
 40
1.0
 40
1.0
 40
1.0
 40
1.0
 10
5.0037914307
 20
0.2705049962
 30
0.0
 10
5.0085331564
 20
0.2679276809
 30
0.0
 10
5.0182143683
 20
0.2633545504
 30
0.0
 10
5.0333232582
 20
0.2583545956
 30
0.0
 10
5.048693873
 20
0.2553351918
 30
0.0
 10
5.0590489175
 20
0.2546552728
 30
0.0
 10
5.0641947774
 20
0.2546552728
 30
0.0
  0
SPLINE
  5
32D
100
AcDbEntity
  8
0
100
AcDbSpline
 62
7
  6
CONTINUOUS
 70
0
 71
3
 72
12
 73
8
 74
0
 42
0.0000001
 43
0.0000001
 44
0.0000000001
 40
0.0
 40
0.0
 40
0.0
 40
0.0
 40
0.0593998699
 40
0.1369390453
 40
0.3482436642
 40
0.6357804611
 40
1.0
 40
1.0
 40
1.0
 40
1.0
 10
4.8889577444
 20
1.5698706775
 30
0.0
 10
4.8890500763
 20
1.5698169141
 30
0.0
 10
4.8892755282
 20
1.5697151437
 30
0.0
 10
4.8898693007
 20
1.5695147259
 30
0.0
 10
4.8908810992
 20
1.5692800008
 30
0.0
 10
4.8924102085
 20
1.5690124266
 30
0.0
 10
4.8935718411
 20
1.5688518823
 30
0.0
 10
4.8942216856
 20
1.5687688167
 30
0.0
  0
SPLINE
  5
32E
100
AcDbEntity
  8
0
100
AcDbSpline
 62
7
  6
CONTINUOUS
 70
0
 71
3
 72
12
 73
8
 74
0
 42
0.0000001
 43
0.0000001
 44
0.0000000001
 40
0.0
 40
0.0
 40
0.0
 40
0.0
 40
0.0582016056
 40
0.1349018928
 40
0.3455715172
 40
0.6338029969
 40
1.0
 40
1.0
 40
1.0
 40
1.0
 10
5.8228284097
 20
1.5411466737
 30
0.0
 10
5.8227395973
 20
1.5410941103
 30
0.0
 10
5.8225209734
 20
1.5409944613
 30
0.0
 10
5.8219407889
 20
1.5407965496
 30
0.0
 10
5.8209454667
 20
1.5405621957
 30
0.0
 10
5.8194355422
 20
1.5402921437
 30
0.0
 10
5.8182862867
 20
1.5401291019
 30
0.0
 10
5.8176424821
 20
1.5400445688
 30
0.0
  0
SPLINE
  5
32F
100
AcDbEntity
  8
0
100
AcDbSpline
 62
7
  6
CONTINUOUS
 70
0
 71
3
 72
17
 73
13
 74
0
 42
0.0000001
 43
0.0000001
 44
0.0000000001
 40
0.0
 40
0.0
 40
0.0
 40
0.0
 40
0.0247390358
 40
0.0548100225
 40
0.090190007
 40
0.1308233036
 40
0.2275860103
 40
0.3445617991
 40
0.4811512038
 40
0.6365236261
 40
0.8097856176
 40
1.0
 40
1.0
 40
1.0
 40
1.0
 10
5.8176424821
 20
1.5400445688
 30
0.0
 10
5.8166385219
 20
1.5399127465
 30
0.0
 10
5.8144094037
 20
1.5396575121
 30
0.0
 10
5.8107341584
 20
1.5393100245
 30
0.0
 10
5.806405766
 20
1.5389641228
 30
0.0
 10
5.7993507887
 20
1.5384755984
 30
0.0
 10
5.7889556975
 20
1.5378848937
 30
0.0
 10
5.7746326029
 20
1.5372067371
 30
0.0
 10
5.7579084957
 20
1.5365234787
 30
0.0
 10
5.7388790754
 20
1.5358362757
 30
0.0
 10
5.7176535525
 20
1.5351472704
 30
0.0
 10
5.7027828144
 20
1.534707634
 30
0.0
 10
5.6950004277
 20
1.534485993
 30
0.0
  0
LINE
  5
330
100
AcDbEntity
  8
0
100
AcDbLine
 62
7
  6
CONTINUOUS
 10
5.6950004277
 20
1.534485993
 11
5.693813212
 21
1.5344522473
  0
LINE
  5
331
100
AcDbEntity
  8
0
100
AcDbLine
 62
7
  6
CONTINUOUS
 10
5.6682708067
 20
1.5337549222
 11
5.6663193789
 21
1.5337036576
  0
SPLINE
  5
332
100
AcDbEntity
  8
0
100
AcDbSpline
 62
7
  6
CONTINUOUS
 70
0
 71
3
 72
11
 73
7
 74
0
 42
0.0000001
 43
0.0000001
 44
0.0000000001
 40
0.0
 40
0.0
 40
0.0
 40
0.0
 40
0.220197994
 40
0.4650525172
 40
0.7275112066
 40
1.0
 40
1.0
 40
1.0
 40
1.0
 10
5.6663193789
 20
1.5337036576
 30
0.0
 10
5.6451297742
 20
1.5331483914
 30
0.0
 10
5.6003754867
 20
1.5320668797
 30
0.0
 10
5.5303598812
 20
1.5305377569
 30
0.0
 10
5.4553095611
 20
1.5290058669
 30
0.0
 10
5.4038239844
 20
1.5279923947
 30
0.0
 10
5.377598488
 20
1.5274781244
 30
0.0
  0
SPLINE
  5
333
100
AcDbEntity
  8
0
100
AcDbSpline
 62
7
  6
CONTINUOUS
 70
0
 71
3
 72
11
 73
7
 74
0
 42
0.0000001
 43
0.0000001
 44
0.0000000001
 40
0.0
 40
0.0
 40
0.0
 40
0.0
 40
0.2715938233
 40
0.533829267
 40
0.7790300893
 40
1.0
 40
1.0
 40
1.0
 40
1.0
 10
5.3420032132
 20
1.5267806909
 30
0.0
 10
5.3155094712
 20
1.5262615161
 30
0.0
 10
5.2634349327
 20
1.5252388263
 30
0.0
 10
5.1874423285
 20
1.5236934558
 30
0.0
 10
5.1163899727
 20
1.5221530278
 30
0.0
 10
5.0709196163
 20
1.5210649061
 30
0.0
 10
5.0493673609
 20
1.5205036736
 30
0.0
  0
LINE
  5
334
100
AcDbEntity
  8
0
100
AcDbLine
 62
7
  6
CONTINUOUS
 10
5.0493673609
 20
1.5205036736
 11
5.0454984485
 21
1.5204024103
  0
LINE
  5
335
100
AcDbEntity
  8
0
100
AcDbLine
 62
7
  6
CONTINUOUS
 10
5.0454984485
 20
1.5204024103
 11
5.0234119005
 21
1.5198032578
  0
SPLINE
  5
336
100
AcDbEntity
  8
0
100
AcDbSpline
 62
7
  6
CONTINUOUS
 70
0
 71
3
 72
11
 73
7
 74
0
 42
0.0000001
 43
0.0000001
 44
0.0000000001
 40
0.0
 40
0.0
 40
0.0
 40
0.0
 40
0.302430302
 40
0.5715534948
 40
0.8048435661
 40
1.0
 40
1.0
 40
1.0
 40
1.0
 10
5.0234119005
 20
1.5198032578
 30
0.0
 10
5.013508443
 20
1.519525983
 30
0.0
 10
4.9947928589
 20
1.5189785374
 30
0.0
 10
4.9684406109
 20
1.5181268359
 30
0.0
 10
4.9456042894
 20
1.5172859181
 30
0.0
 10
4.9315824871
 20
1.516656998
 30
0.0
 10
4.92519827
 20
1.5163192439
 30
0.0
  0
SPLINE
  5
337
100
AcDbEntity
  8
0
100
AcDbSpline
 62
7
  6
CONTINUOUS
 70
0
 71
3
 72
11
 73
7
 74
0
 42
0.0000001
 43
0.0000001
 44
0.0000000001
 40
0.0
 40
0.0
 40
0.0
 40
0.0
 40
0.1551899769
 40
0.3726469897
 40
0.6540270466
 40
1.0
 40
1.0
 40
1.0
 40
1.0
 10
4.8889754678
 20
1.5776851146
 30
0.0
 10
4.8891155735
 20
1.577764475
 30
0.0
 10
4.8894771422
 20
1.5779082436
 30
0.0
 10
4.8901296061
 20
1.5780942797
 30
0.0
 10
4.890986446
 20
1.5782821491
 30
0.0
 10
4.8916272711
 20
1.578396576
 30
0.0
 10
4.8919814169
 20
1.5784552404
 30
0.0
  0
LINE
  5
338
100
AcDbEntity
  8
0
100
AcDbLine
 62
7
  6
CONTINUOUS
 10
4.8919814169
 20
1.5784552404
 11
4.8978340469
 21
1.5791826652
  0
SPLINE
  5
339
100
AcDbEntity
  8
0
100
AcDbSpline
 62
7
  6
CONTINUOUS
 70
0
 71
3
 72
11
 73
7
 74
0
 42
0.0000001
 43
0.0000001
 44
0.0000000001
 40
0.0
 40
0.0
 40
0.0
 40
0.0
 40
0.1810145284
 40
0.4085411901
 40
0.6818027173
 40
1.0
 40
1.0
 40
1.0
 40
1.0
 10
4.8978340469
 20
1.5791826652
 30
0.0
 10
4.899967086
 20
1.5793948653
 30
0.0
 10
4.9047887357
 20
1.5797975865
 30
0.0
 10
4.9128444964
 20
1.5803401188
 30
0.0
 10
4.922527666
 20
1.5808863366
 30
0.0
 10
4.9295234519
 20
1.5812271747
 30
0.0
 10
4.9332875446
 20
1.5814005197
 30
0.0
  0
SPLINE
  5
33A
100
AcDbEntity
  8
0
100
AcDbSpline
 62
7
  6
CONTINUOUS
 70
0
 71
3
 72
13
 73
9
 74
0
 42
0.0000001
 43
0.0000001
 44
0.0000000001
 40
0.0
 40
0.0
 40
0.0
 40
0.0
 40
0.0580905923
 40
0.1347187165
 40
0.2304052089
 40
0.3453928487
 40
0.6336778511
 40
1.0
 40
1.0
 40
1.0
 40
1.0
 10
5.8228060533
 20
1.5489211474
 30
0.0
 10
5.8227091382
 20
1.5489770823
 30
0.0
 10
5.8224707815
 20
1.5490825459
 30
0.0
 10
5.822049256
 20
1.5492219279
 30
0.0
 10
5.8215137025
 20
1.5493627282
 30
0.0
 10
5.8205745038
 20
1.5495675842
 30
0.0
 10
5.8191121546
 20
1.5498149527
 30
0.0
 10
5.8178624629
 20
1.549983743
 30
0.0
 10
5.8171622312
 20
1.5500709127
 30
0.0
  0
LINE
  5
33B
100
AcDbEntity
  8
0
100
AcDbLine
 62
7
  6
CONTINUOUS
 10
4.8890751641
 20
1.5769996168
 11
4.8886956212
 21
1.57736954
  0
SPLINE
  5
33C
100
AcDbEntity
  8
0
100
AcDbSpline
 62
7
  6
CONTINUOUS
 70
0
 71
3
 72
13
 73
9
 74
0
 42
0.0000001
 43
0.0000001
 44
0.0000000001
 40
0.0
 40
0.0
 40
0.0
 40
0.0
 40
0.0586766778
 40
0.1357199976
 40
0.2316515365
 40
0.3467168692
 40
0.634664205
 40
1.0
 40
1.0
 40
1.0
 40
1.0
 10
4.8889741144
 20
1.5201892711
 30
0.0
 10
4.8890746716
 20
1.5202464889
 30
0.0
 10
4.8893208918
 20
1.5203542071
 30
0.0
 10
4.8897552416
 20
1.5204960516
 30
0.0
 10
4.8903053479
 20
1.5206386131
 30
0.0
 10
4.8912674174
 20
1.5208449711
 30
0.0
 10
4.892762701
 20
1.5210927848
 30
0.0
 10
4.8940398348
 20
1.5212612858
 30
0.0
 10
4.8947549261
 20
1.5213482016
 30
0.0
  0
SPLINE
  5
33D
100
AcDbEntity
  8
0
100
AcDbSpline
 62
7
  6
CONTINUOUS
 70
0
 71
3
 72
11
 73
7
 74
0
 42
0.0000001
 43
0.0000001
 44
0.0000000001
 40
0.0
 40
0.0
 40
0.0
 40
0.0
 40
0.1716548244
 40
0.3961228985
 40
0.6726110194
 40
1.0
 40
1.0
 40
1.0
 40
1.0
 10
4.8947549261
 20
1.5213482016
 30
0.0
 10
4.8965393039
 20
1.521565084
 30
0.0
 10
4.9006685994
 20
1.5219683926
 30
0.0
 10
4.9076915652
 20
1.5225052113
 30
0.0
 10
4.916349012
 20
1.523047259
 30
0.0
 10
4.9226637166
 20
1.523383401
 30
0.0
 10
4.9260877363
 20
1.5235547436
 30
0.0
  0
SPLINE
  5
33E
100
AcDbEntity
  8
0
100
AcDbSpline
 62
7
  6
CONTINUOUS
 70
0
 71
3
 72
10
 73
6
 74
0
 42
0.0000001
 43
0.0000001
 44
0.0000000001
 40
0.0
 40
0.0
 40
0.0
 40
0.0
 40
0.20568404
 40
0.4417550129
 40
1.0
 40
1.0
 40
1.0
 40
1.0
 10
4.9260877363
 20
1.5235547436
 30
0.0
 10
4.9307327179
 20
1.5237871849
 30
0.0
 10
4.940711064
 20
1.5242435463
 30
0.0
 10
4.9633045077
 20
1.5251450192
 30
0.0
 10
4.9812553855
 20
1.5257408469
 30
0.0
 10
4.9938720046
 20
1.5261317336
 30
0.0
  0
LINE
  5
33F
100
AcDbEntity
  8
0
100
AcDbLine
 62
7
  6
CONTINUOUS
 10
5.0165221309
 20
1.5268038153
 11
5.0322662714
 21
1.5272415591
  0
LINE
  5
340
100
AcDbEntity
  8
0
100
AcDbLine
 62
7
  6
CONTINUOUS
 10
5.0322662714
 20
1.5272415591
 11
5.0451677179
 21
1.527585805
  0
LINE
  5
341
100
AcDbEntity
  8
0
100
AcDbLine
 62
7
  6
CONTINUOUS
 10
5.0451677179
 20
1.527585805
 11
5.0489624307
 21
1.5276848718
  0
LINE
  5
342
100
AcDbEntity
  8
0
100
AcDbLine
 62
7
  6
CONTINUOUS
 10
5.0489624307
 20
1.5276848718
 11
5.0604287027
 21
1.5279787581
  0
SPLINE
  5
343
100
AcDbEntity
  8
0
100
AcDbSpline
 62
7
  6
CONTINUOUS
 70
0
 71
3
 72
10
 73
6
 74
0
 42
0.0000001
 43
0.0000001
 44
0.0000000001
 40
0.0
 40
0.0
 40
0.0
 40
0.0
 40
0.5308103139
 40
0.7763336694
 40
1.0
 40
1.0
 40
1.0
 40
1.0
 10
5.3747109742
 20
1.5346133956
 30
0.0
 10
5.4236625024
 20
1.535573045
 30
0.0
 10
5.4952562271
 20
1.5369817326
 30
0.0
 10
5.5874729427
 20
1.5389690211
 30
0.0
 10
5.6307381441
 20
1.5399891743
 30
0.0
 10
5.6513621081
 20
1.5405107008
 30
0.0
  0
SPLINE
  5
344
100
AcDbEntity
  8
0
100
AcDbSpline
 62
7
  6
CONTINUOUS
 70
0
 71
3
 72
11
 73
7
 74
0
 42
0.0000001
 43
0.0000001
 44
0.0000000001
 40
0.0
 40
0.0
 40
0.0
 40
0.0
 40
0.2996637592
 40
0.5675578854
 40
0.8016467835
 40
1.0
 40
1.0
 40
1.0
 40
1.0
 10
5.6958333631
 20
1.5417018593
 30
0.0
 10
5.7048111957
 20
1.5419582724
 30
0.0
 10
5.721814453
 20
1.5424654007
 30
0.0
 10
5.7458280992
 20
1.5432648787
 30
0.0
 10
5.7668034885
 20
1.54406083
 30
0.0
 10
5.7797520018
 20
1.5446363573
 30
0.0
 10
5.785689637
 20
1.5449326578
 30
0.0
  0
LINE
  5
345
100
AcDbEntity
  8
0
100
AcDbLine
 62
7
  6
CONTINUOUS
 10
5.7907238829
 20
1.5451926332
 11
5.8094963124
 21
1.5464081764
  0
SPLINE
  5
346
100
AcDbEntity
  8
0
100
AcDbSpline
 62
7
  6
CONTINUOUS
 70
0
 71
3
 72
12
 73
8
 74
0
 42
0.0000001
 43
0.0000001
 44
0.0000000001
 40
0.0
 40
0.0
 40
0.0
 40
0.0
 40
0.3412594678
 40
0.6217396172
 40
0.8412966785
 40
0.9282377678
 40
1.0
 40
1.0
 40
1.0
 40
1.0
 10
5.8094963124
 20
1.5464081764
 30
0.0
 10
5.8108737051
 20
1.5465215292
 30
0.0
 10
5.8133820471
 20
1.5467430793
 30
0.0
 10
5.8167698828
 20
1.5471063257
 30
0.0
 10
5.8191265028
 20
1.5474238014
 30
0.0
 10
5.8206357118
 20
1.5476874216
 30
0.0
 10
5.8212648163
 20
1.5478203321
 30
0.0
 10
5.8215472572
 20
1.5478888206
 30
0.0
  0
SPLINE
  5
347
100
AcDbEntity
  8
0
100
AcDbSpline
 62
7
  6
CONTINUOUS
 70
0
 71
3
 72
14
 73
10
 74
0
 42
0.0000001
 43
0.0000001
 44
0.0000000001
 40
0.0
 40
0.0
 40
0.0
 40
0.0
 40
0.3944973836
 40
0.5529344165
 40
0.6860461962
 40
0.7946651013
 40
0.8803718329
 40
0.9464541555
 40
1.0
 40
1.0
 40
1.0
 40
1.0
 10
5.8215472572
 20
1.5478888206
 30
0.0
 10
5.8217707438
 20
1.5479430134
 30
0.0
 10
5.822082651
 20
1.5480258985
 30
0.0
 10
5.8224608426
 20
1.5481564822
 30
0.0
 10
5.8226761753
 20
1.5482467099
 30
0.0
 10
5.8228451171
 20
1.5483364523
 30
0.0
 10
5.8229682567
 20
1.5484263646
 30
0.0
 10
5.8230477561
 20
1.548518277
 30
0.0
 10
5.8230687112
 20
1.5485882379
 30
0.0
 10
5.8230687112
 20
1.5486194512
 30
0.0
  0
LINE
  5
348
100
AcDbEntity
  8
0
100
AcDbLine
 62
7
  6
CONTINUOUS
 10
4.92519827
 20
1.5163192439
 11
4.9108912449
 21
1.5155071094
  0
SPLINE
  5
349
100
AcDbEntity
  8
0
100
AcDbSpline
 62
7
  6
CONTINUOUS
 70
0
 71
3
 72
10
 73
6
 74
0
 42
0.0000001
 43
0.0000001
 44
0.0000000001
 40
0.0
 40
0.0
 40
0.0
 40
0.0
 40
0.5294707066
 40
0.774587376
 40
1.0
 40
1.0
 40
1.0
 40
1.0
 10
5.3047256868
 20
1.5835485142
 30
0.0
 10
5.2622274329
 20
1.5826986589
 30
0.0
 10
5.2000543479
 20
1.5814740142
 30
0.0
 10
5.1197918336
 20
1.5797225489
 30
0.0
 10
5.0820275261
 20
1.5788288891
 30
0.0
 10
5.0639367376
 20
1.5783749011
 30
0.0
  0
LINE
  5
34A
100
AcDbEntity
  8
0
100
AcDbLine
 62
7
  6
CONTINUOUS
 10
5.0639367376
 20
1.5783749011
 11
5.0453743172
 21
1.577899078
  0
LINE
  5
34B
100
AcDbEntity
  8
0
100
AcDbLine
 62
7
  6
CONTINUOUS
 10
5.0453743172
 20
1.577899078
 11
5.0354683448
 21
1.577636075
  0
SPLINE
  5
34C
100
AcDbEntity
  8
0
100
AcDbSpline
 62
7
  6
CONTINUOUS
 70
0
 71
3
 72
10
 73
6
 74
0
 42
0.0000001
 43
0.0000001
 44
0.0000000001
 40
0.0
 40
0.0
 40
0.0
 40
0.0
 40
0.5661022997
 40
0.7998746519
 40
1.0
 40
1.0
 40
1.0
 40
1.0
 10
4.9333577255
 20
1.5742116737
 30
0.0
 10
4.9276621411
 20
1.5739501229
 30
0.0
 10
4.9196157201
 20
1.5735504369
 30
0.0
 10
4.9095628535
 20
1.5729340819
 30
0.0
 10
4.9052037488
 20
1.572622818
 30
0.0
 10
4.9031944532
 20
1.572463609
 30
0.0
  0
SPLINE
  5
34D
100
AcDbEntity
  8
0
100
AcDbSpline
 62
7
  6
CONTINUOUS
 70
0
 71
3
 72
12
 73
8
 74
0
 42
0.0000001
 43
0.0000001
 44
0.0000000001
 40
0.0
 40
0.0
 40
0.0
 40
0.0
 40
0.3373052595
 40
0.6164909651
 40
0.8373876763
 40
0.9259689164
 40
1.0
 40
1.0
 40
1.0
 40
1.0
 10
4.9031944532
 20
1.572463609
 30
0.0
 10
4.9017631533
 20
1.5723501982
 30
0.0
 10
4.8991482236
 20
1.5721284854
 30
0.0
 10
4.8956020891
 20
1.5717663101
 30
0.0
 10
4.8931158203
 20
1.5714496152
 30
0.0
 10
4.8915045212
 20
1.5711867372
 30
0.0
 10
4.8908249723
 20
1.5710539639
 30
0.0
 10
4.8905173315
 20
1.5709857001
 30
0.0
  0
SPLINE
  5
34E
100
AcDbEntity
  8
0
100
AcDbSpline
 62
7
  6
CONTINUOUS
 70
0
 71
3
 72
14
 73
10
 74
0
 42
0.0000001
 43
0.0000001
 44
0.0000000001
 40
0.0
 40
0.0
 40
0.0
 40
0.0
 40
0.3985490667
 40
0.5581593643
 40
0.691812722
 40
0.8002640931
 40
0.8849833879
 40
0.9491447358
 40
1.0
 40
1.0
 40
1.0
 40
1.0
 10
4.8905173315
 20
1.5709857001
 30
0.0
 10
4.8902497211
 20
1.5709263188
 30
0.0
 10
4.8898762877
 20
1.5708354545
 30
0.0
 10
4.8894225482
 20
1.570691502
 30
0.0
 10
4.8891645784
 20
1.5705919714
 30
0.0
 10
4.8889622688
 20
1.570492883
 30
0.0
 10
4.8888150016
 20
1.5703934562
 30
0.0
 10
4.8887194246
 20
1.5702918137
 30
0.0
 10
4.8886937142
 20
1.5702125542
 30
0.0
 10
4.888693776
 20
1.5701775764
 30
0.0
  0
SPLINE
  5
34F
100
AcDbEntity
  8
0
100
AcDbSpline
 62
7
  6
CONTINUOUS
 70
0
 71
3
 72
20
 73
16
 74
0
 42
0.0000001
 43
0.0000001
 44
0.0000000001
 40
0.0
 40
0.0
 40
0.0
 40
0.0
 40
0.2053945106
 40
0.38975736
 40
0.5521679668
 40
0.6915957727
 40
0.7523620338
 40
0.806988455
 40
0.8553512324
 40
0.8973505107
 40
0.9328941862
 40
0.9618951568
 40
0.9842774323
 40
0.9929714235
 40
1.0
 40
1.0
 40
1.0
 40
1.0
 10
5.682891755
 20
1.5168490476
 30
0.0
 10
5.6902859628
 20
1.5170847088
 30
0.0
 10
5.7043166307
 20
1.517551396
 30
0.0
 10
5.7241912682
 20
1.5182862079
 30
0.0
 10
5.7416881788
 20
1.5190183021
 30
0.0
 10
5.7547334392
 20
1.5196506893
 30
0.0
 10
5.7638972167
 20
1.5201659063
 30
0.0
 10
5.769783959
 20
1.5205340033
 30
0.0
 10
5.7749933292
 20
1.520901548
 30
0.0
 10
5.779513471
 20
1.5212682449
 30
0.0
 10
5.7833338956
 20
1.5216329241
 30
0.0
 10
5.7864439053
 20
1.5219955057
 30
0.0
 10
5.7885853741
 20
1.522312938
 30
0.0
 10
5.7899320045
 20
1.5225790805
 30
0.0
 10
5.7904824657
 20
1.5227138378
 30
0.0
 10
5.7907257128
 20
1.5227839773
 30
0.0
  0
LINE
  5
350
100
AcDbEntity
  8
0
100
AcDbLine
 62
7
  6
CONTINUOUS
 10
5.7907257128
 20
1.5227839773
 11
5.7916316245
 21
1.5231474308
  0
SPLINE
  5
351
100
AcDbEntity
  8
0
100
AcDbSpline
 62
9
  6
CONTINUOUS
 70
0
 71
3
 72
19
 73
15
 74
0
 42
0.0000001
 43
0.0000001
 44
0.0000000001
 40
0.0
 40
0.0
 40
0.0
 40
0.0
 40
0.0918760084
 40
0.1924249437
 40
0.2460920986
 40
0.3020789509
 40
0.3604262108
 40
0.4211767565
 40
0.4843758461
 40
0.5500751585
 40
0.6892549934
 40
0.7629197307
 40
0.839342067
 40
1.0
 40
1.0
 40
1.0
 40
1.0
 10
5.4226136158
 20
0.2385214436
 30
0.0
 10
5.4256605517
 20
0.2433441795
 30
0.0
 10
5.4316980024
 20
0.2536636099
 30
0.0
 10
5.4387435369
 20
0.2672272381
 30
0.0
 10
5.4444329594
 20
0.2789740347
 30
0.0
 10
5.448814984
 20
0.2884408715
 30
0.0
 10
5.4532047432
 20
0.2983868551
 30
0.0
 10
5.4575896682
 20
0.3088224987
 30
0.0
 10
5.461957442
 20
0.3197585784
 30
0.0
 10
5.4678509365
 20
0.3353260583
 30
0.0
 10
5.4734633539
 20
0.3516923412
 30
0.0
 10
5.4786761555
 20
0.3688816406
 30
0.0
 10
5.483812604
 20
0.3874811914
 30
0.0
 10
5.4872080536
 20
0.4018122379
 30
0.0
 10
5.4892861349
 20
0.4115686864
 30
0.0
  0
SPLINE
  5
352
100
AcDbEntity
  8
0
100
AcDbSpline
 62
9
  6
CONTINUOUS
 70
0
 71
3
 72
11
 73
7
 74
0
 42
0.0000001
 43
0.0000001
 44
0.0000000001
 40
0.0
 40
0.0
 40
0.0
 40
0.0
 40
0.2447894749
 40
0.4920277326
 40
0.7432509041
 40
1.0
 40
1.0
 40
1.0
 40
1.0
 10
5.6475676449
 20
0.2546552728
 30
0.0
 10
5.6527177956
 20
0.2546552728
 30
0.0
 10
5.6630815636
 20
0.2553363358
 30
0.0
 10
5.678464836
 20
0.2583607737
 30
0.0
 10
5.6935856809
 20
0.2633690575
 30
0.0
 10
5.7032739242
 20
0.2679496181
 30
0.0
 10
5.7080189444
 20
0.2705310723
 30
0.0
  0
ENDSEC
  0
SECTION
  2
OBJECTS
  0
DICTIONARY
  5
C
100
AcDbDictionary
280
0
281
1
  3
ACAD_GROUP
350
D
  3
ACAD_MLINESTYLE
350
17
  3
ACAD_LAYOUT
350
1A
  3
ACAD_PLOTSETTINGS
350
19
  3
ACAD_PLOTSTYLENAME
350
E
  0
DICTIONARY
  5
D
102
{ACAD_REACTORS
330
C
102
}
100
AcDbDictionary
280
0
281
1
  0
ACDBDICTIONARYWDFLT
  5
E
102
{ACAD_REACTORS
330
C
102
}
100
AcDbDictionary
281
1
  3
Normal
350
F
100
AcDbDictionaryWithDefault
340
F
  0
DICTIONARY
  5
17
102
{ACAD_REACTORS
330
C
102
}
100
AcDbDictionary
280
0
281
1
  3
Standard
350
18
  0
DICTIONARY
  5
19
102
{ACAD_REACTORS
330
C
102
}
100
AcDbDictionary
281
1
  0
DICTIONARY
  5
1A
102
{ACAD_REACTORS
330
C
102
}
100
AcDbDictionary
281
1
  3
Model
350
353
  3
Layout1
350
354
  0
ACDBPLACEHOLDER
  5
F
102
{ACAD_REACTORS
330
E
102
}
  0
MLINESTYLE
  5
18
102
{ACAD_REACTORS
330
17
102
}
100
AcDbMlineStyle
  2
STANDARD
 70
0
  3

 62
256
 51
90.0
 52
90.0
 71
2
 49
0.5
 62
256
  6
BYLAYER
 49
-0.5
 62
256
  6
BYLAYER
  0
LAYOUT
  5
353
102
{ACAD_REACTORS
330
1A
102
}
100
AcDbPlotSettings
  1

  2
none_device
  4
ANSI_A_(11.00_x_8.50_Inches)
  6

 40
0.0
 41
0.0
 42
0.0
 43
0.0
 44
279.4
 45
215.9
 46
0.0
 47
0.0
 48
0.0
 49
0.0
140
0.0
141
0.0
142
1.0
143
1.0
 70
1024
 72
0
 73
0
 74
0
  7

 75
0
147
1.0
148
0.0
149
0.0
100
AcDbLayout
  1
Model
 70
0
 71
0
 10
0.0
 20
0.0
 11
11.0
 21
8.5
 12
0.0
 22
0.0
 32
0.0
 14
0.0
 24
0.0
 34
0.0
 15
0.0
 25
0.0
 35
0.0
146
0.0
 13
0.0
 23
0.0
 33
0.0
 16
1.0
 26
0.0
 36
0.0
 17
0.0
 27
1.0
 37
0.0
 76
0
330
227
345
0
346
0
  0
LAYOUT
  5
354
102
{ACAD_REACTORS
330
1A
102
}
100
AcDbPlotSettings
  1

  2
none_device
  4
ANSI_A_(11.00_x_8.50_Inches)
  6

 40
0.0
 41
0.0
 42
0.0
 43
0.0
 44
279.4
 45
215.9
 46
0.0
 47
0.0
 48
0.0
 49
0.0
140
0.0
141
0.0
142
1.0
143
1.0
 70
0
 72
0
 73
0
 74
0
  7

 75
0
147
1.0
148
0.0
149
0.0
100
AcDbLayout
  1
Layout1
 70
0
 71
1
 10
0.0
 20
0.0
 11
11.0
 21
8.5
 12
0.0
 22
0.0
 32
0.0
 14
0.0
 24
0.0
 34
0.0
 15
0.0
 25
0.0
 35
0.0
146
0.0
 13
0.0
 23
0.0
 33
0.0
 16
1.0
 26
0.0
 36
0.0
 17
0.0
 27
1.0
 37
0.0
 76
0
330
228
345
0
346
0
  0
ENDSEC
  0
EOF
