999
DXF file: C:\Prowork\plots\482x-2_top.dxf
999
Pro/ENGINEER 2018500 by Parametric Technology Corporation
  0
SECTION
  2
HEADER
  9
$ACADVER
  1
AC1032
  9
$DWGCODEPAGE
  3
ANSI_1252
  9
$EXTMAX
 10
8.5
 20
11.0
 30
0.0
  9
$EXTMIN
 10
0.0
 20
0.0
 30
0.0
  9
$LIMMIN
 10
0.0
 20
0.0
  9
$LIMMAX
 10
8.5
 20
11.0
  9
$VIEWCTR
 10
4.25
 20
5.5
  9
$VIEWSIZE
 40
11.0
  9
$CLAYER
  8
0
  9
$LTSCALE
 40
0.717037037
  9
$CELTYPE
  6
BYLAYER
  9
$DIMSCALE
 40
1.0
  9
$DIMASZ
 40
0.1
  9
$DIMEXO
 40
0.0625
  9
$DIMDLI
 40
0.4954074074
  9
$DIMEXE
 40
0.125
  9
$DIMCEN
 40
0.1173333333
  9
$DIMLFAC
 40
1.0
  9
$DIMBLK
  1
_FILLED
  9
$DIMALT
 70
1
  9
$DIMALTD
 70
2
  9
$DIMALTTD
 70
2
  9
$DIMALTF
 40
25.4
  9
$DIMTXT
 40
0.08
  9
$DIMTOL
 70
1
  9
$DIMLIM
 70
0
  9
$DIMTFAC
 40
1.0
  9
$DIMTP
 40
0.001
  9
$DIMTM
 40
0.001
  9
$DIMGAP
 40
0.09
  9
$DIMDSEP
 70
46
  9
$AUNITS
 70
0
  9
$PDMODE
 70
3
  9
$PDSIZE
 40
0.06
  9
$HANDSEED
  5
3B1
  9
$TILEMODE
 70
1
  9
$MEASUREMENT
 70
0
  9
$INSUNITS
 70
1
  0
ENDSEC
  0
SECTION
  2
CLASSES
  0
CLASS
  1
ACDBDICTIONARYWDFLT
  2
AcDbDictionaryWithDefault
  3
AutoCAD 2000
 90
0
 91
1
280
0
281
0
  0
CLASS
  1
ACDBPLACEHOLDER
  2
AcDbPlaceHolder
  3
AutoCAD 2000
 90
0
 91
1
280
0
281
0
  0
CLASS
  1
LAYOUT
  2
AcDbLayout
  3
AutoCAD 2000
 90
0
 91
0
280
0
281
0
  0
ENDSEC
  0
SECTION
  2
TABLES
  0
TABLE
  2
VPORT
  5
8
100
AcDbSymbolTable
 70
2
  0
VPORT
  5
1F4
100
AcDbSymbolTableRecord
100
AcDbViewportTableRecord
  2
*ACTIVE
 70
0
 10
0.0
 20
0.0
 11
1.0
 21
1.0
 12
4.25
 22
5.5
 13
0.0
 23
0.0
 14
1.0
 24
1.0
 15
0.0
 25
0.0
 16
0.0
 26
0.0
 36
1.0
 17
0.0
 27
0.0
 37
0.0
 40
11.0
 41
0.7727272727
 42
50.0
 43
0.0
 44
0.0
 50
0.0
 51
0.0
 71
0
 72
100
 73
1
 74
1
 75
0
 76
0
 77
0
 78
0
  0
ENDTAB
  0
TABLE
  2
LTYPE
  5
5
100
AcDbSymbolTable
 70
6
  0
LTYPE
  5
14
100
AcDbSymbolTableRecord
100
AcDbLinetypeTableRecord
  2
BYBLOCK
 70
0
  3

 72
65
 73
0
 40
0.0
  0
LTYPE
  5
15
100
AcDbSymbolTableRecord
100
AcDbLinetypeTableRecord
  2
BYLAYER
 70
0
  3

 72
65
 73
0
 40
0.0
  0
LTYPE
  5
16
100
AcDbSymbolTableRecord
100
AcDbLinetypeTableRecord
  2
CONTINUOUS
 70
64
  3
Solid line
 72
65
 73
0
 40
0.0
  0
LTYPE
  5
1F5
100
AcDbSymbolTableRecord
100
AcDbLinetypeTableRecord
  2
CENTER
 70
64
  3
____ _ ____ _ ____ _ ____ _ ____ _ ____ _ ____
 72
65
 73
4
 40
0.6
 49
0.375
 74
0
 49
-0.075
 74
0
 49
0.075
 74
0
 49
-0.075
 74
0
  0
LTYPE
  5
1F6
100
AcDbSymbolTableRecord
100
AcDbLinetypeTableRecord
  2
HIDDEN
 70
64
  3
- - - - - - - - - - - - - - - - - - - -
 72
65
 73
2
 40
0.2
 49
0.1
 74
0
 49
-0.1
 74
0
  0
LTYPE
  5
1F7
100
AcDbSymbolTableRecord
100
AcDbLinetypeTableRecord
  2
PHANTOM
 70
64
  3
_____ _ _ _____ _ _ _____ _ _ _____
 72
65
 73
6
 40
0.8
 49
0.45
 74
0
 49
-0.05
 74
0
 49
0.1
 74
0
 49
-0.05
 74
0
 49
0.1
 74
0
 49
-0.05
 74
0
  0
LTYPE
  5
1F8
100
AcDbSymbolTableRecord
100
AcDbLinetypeTableRecord
  2
DOT
 70
64
  3
. . . . . . . . . . . . . . . . . . . .
 72
65
 73
2
 40
0.2
 49
0.1
 74
0
 49
-0.1
 74
0
  0
LTYPE
  5
1F9
100
AcDbSymbolTableRecord
100
AcDbLinetypeTableRecord
  2
DASHED
 70
64
  3
- - - - - - - - - - - - - - - - - - - -
 72
65
 73
2
 40
0.2
 49
0.1
 74
0
 49
-0.1
 74
0
  0
ENDTAB
  0
TABLE
  2
LAYER
  5
2
100
AcDbSymbolTable
 70
36
  0
LAYER
  5
10
100
AcDbSymbolTableRecord
100
AcDbLayerTableRecord
  2
0
 70
0
 62
7
  6
CONTINUOUS
370
-3
390
F
  0
LAYER
  5
1FA
100
AcDbSymbolTableRecord
100
AcDbLayerTableRecord
  2
DEFAULT_1
 70
0
 62
7
  6
CENTER
370
-3
390
F
  0
LAYER
  5
1FB
100
AcDbSymbolTableRecord
100
AcDbLayerTableRecord
  2
DEFAULT_2
 70
0
 62
8
  6
HIDDEN
370
-3
390
F
  0
LAYER
  5
1FC
100
AcDbSymbolTableRecord
100
AcDbLayerTableRecord
  2
DEFAULT_3
 70
0
 62
7
  6
PHANTOM
370
-3
390
F
  0
LAYER
  5
1FD
100
AcDbSymbolTableRecord
100
AcDbLayerTableRecord
  2
1-134
 70
0
 62
7
  6
CONTINUOUS
370
-3
390
F
  0
LAYER
  5
1FE
100
AcDbSymbolTableRecord
100
AcDbLayerTableRecord
  2
10851
 70
0
 62
7
  6
CONTINUOUS
370
-3
390
F
  0
LAYER
  5
1FF
100
AcDbSymbolTableRecord
100
AcDbLayerTableRecord
  2
10851_1
 70
0
 62
7
  6
CONTINUOUS
370
-3
390
F
  0
LAYER
  5
200
100
AcDbSymbolTableRecord
100
AcDbLayerTableRecord
  2
10851_2
 70
0
 62
7
  6
CONTINUOUS
370
-3
390
F
  0
LAYER
  5
201
100
AcDbSymbolTableRecord
100
AcDbLayerTableRecord
  2
10851_3
 70
0
 62
7
  6
CONTINUOUS
370
-3
390
F
  0
LAYER
  5
202
100
AcDbSymbolTableRecord
100
AcDbLayerTableRecord
  2
403X-2
 70
0
 62
7
  6
CONTINUOUS
370
-3
390
F
  0
LAYER
  5
203
100
AcDbSymbolTableRecord
100
AcDbLayerTableRecord
  2
436
 70
0
 62
7
  6
CONTINUOUS
370
-3
390
F
  0
LAYER
  5
204
100
AcDbSymbolTableRecord
100
AcDbLayerTableRecord
  2
441
 70
0
 62
7
  6
CONTINUOUS
370
-3
390
F
  0
LAYER
  5
205
100
AcDbSymbolTableRecord
100
AcDbLayerTableRecord
  2
50359
 70
0
 62
7
  6
CONTINUOUS
370
-3
390
F
  0
LAYER
  5
206
100
AcDbSymbolTableRecord
100
AcDbLayerTableRecord
  2
50362
 70
0
 62
7
  6
CONTINUOUS
370
-3
390
F
  0
LAYER
  5
207
100
AcDbSymbolTableRecord
100
AcDbLayerTableRecord
  2
50392
 70
0
 62
7
  6
CONTINUOUS
370
-3
390
F
  0
LAYER
  5
208
100
AcDbSymbolTableRecord
100
AcDbLayerTableRecord
  2
50677
 70
0
 62
7
  6
CONTINUOUS
370
-3
390
F
  0
LAYER
  5
209
100
AcDbSymbolTableRecord
100
AcDbLayerTableRecord
  2
50678
 70
0
 62
7
  6
CONTINUOUS
370
-3
390
F
  0
LAYER
  5
20A
100
AcDbSymbolTableRecord
100
AcDbLayerTableRecord
  2
50728
 70
0
 62
7
  6
CONTINUOUS
370
-3
390
F
  0
LAYER
  5
20B
100
AcDbSymbolTableRecord
100
AcDbLayerTableRecord
  2
50736
 70
0
 62
7
  6
CONTINUOUS
370
-3
390
F
  0
LAYER
  5
20C
100
AcDbSymbolTableRecord
100
AcDbLayerTableRecord
  2
50743
 70
0
 62
7
  6
CONTINUOUS
370
-3
390
F
  0
LAYER
  5
20D
100
AcDbSymbolTableRecord
100
AcDbLayerTableRecord
  2
6-030
 70
0
 62
7
  6
CONTINUOUS
370
-3
390
F
  0
LAYER
  5
20E
100
AcDbSymbolTableRecord
100
AcDbLayerTableRecord
  2
91022
 70
0
 62
7
  6
CONTINUOUS
370
-3
390
F
  0
LAYER
  5
20F
100
AcDbSymbolTableRecord
100
AcDbLayerTableRecord
  2
91203
 70
0
 62
7
  6
CONTINUOUS
370
-3
390
F
  0
LAYER
  5
210
100
AcDbSymbolTableRecord
100
AcDbLayerTableRecord
  2
ALL_ASSEMBLY_MEMBERS
 70
0
 62
7
  6
CONTINUOUS
370
-3
390
F
  0
LAYER
  5
211
100
AcDbSymbolTableRecord
100
AcDbLayerTableRecord
  2
COLOR147
 70
0
 62
7
  6
CONTINUOUS
370
-3
390
F
  0
LAYER
  5
212
100
AcDbSymbolTableRecord
100
AcDbLayerTableRecord
  2
COLOR32
 70
0
 62
7
  6
CONTINUOUS
370
-3
390
F
  0
LAYER
  5
213
100
AcDbSymbolTableRecord
100
AcDbLayerTableRecord
  2
COLOR54
 70
0
 62
7
  6
CONTINUOUS
370
-3
390
F
  0
LAYER
  5
214
100
AcDbSymbolTableRecord
100
AcDbLayerTableRecord
  2
COLOR66
 70
0
 62
7
  6
CONTINUOUS
370
-3
390
F
  0
LAYER
  5
215
100
AcDbSymbolTableRecord
100
AcDbLayerTableRecord
  2
DEFAULT_COORDINATE_SYSTEM
 70
0
 62
7
  6
CONTINUOUS
370
-3
390
F
  0
LAYER
  5
216
100
AcDbSymbolTableRecord
100
AcDbLayerTableRecord
  2
DEFAULT_DATUM_AXES
 70
0
 62
7
  6
CONTINUOUS
370
-3
390
F
  0
LAYER
  5
217
100
AcDbSymbolTableRecord
100
AcDbLayerTableRecord
  2
DEFAULT_DATUM_PLANES
 70
0
 62
7
  6
CONTINUOUS
370
-3
390
F
  0
LAYER
  5
218
100
AcDbSymbolTableRecord
100
AcDbLayerTableRecord
  2
INTF_10851
 70
0
 62
7
  6
CONTINUOUS
370
-3
390
F
  0
LAYER
  5
219
100
AcDbSymbolTableRecord
100
AcDbLayerTableRecord
  2
INTF_441
 70
0
 62
7
  6
CONTINUOUS
370
-3
390
F
  0
LAYER
  5
21A
100
AcDbSymbolTableRecord
100
AcDbLayerTableRecord
  2
INTF_50359
 70
0
 62
7
  6
CONTINUOUS
370
-3
390
F
  0
LAYER
  5
21B
100
AcDbSymbolTableRecord
100
AcDbLayerTableRecord
  2
INTF_50362
 70
0
 62
7
  6
CONTINUOUS
370
-3
390
F
  0
LAYER
  5
21C
100
AcDbSymbolTableRecord
100
AcDbLayerTableRecord
  2
INTF_50392
 70
0
 62
7
  6
CONTINUOUS
370
-3
390
F
  0
LAYER
  5
21D
100
AcDbSymbolTableRecord
100
AcDbLayerTableRecord
  2
INTF_50677
 70
0
 62
7
  6
CONTINUOUS
370
-3
390
F
  0
LAYER
  5
21E
100
AcDbSymbolTableRecord
100
AcDbLayerTableRecord
  2
INTF_50678
 70
0
 62
7
  6
CONTINUOUS
370
-3
390
F
  0
LAYER
  5
21F
100
AcDbSymbolTableRecord
100
AcDbLayerTableRecord
  2
INTF_50728
 70
0
 62
7
  6
CONTINUOUS
370
-3
390
F
  0
LAYER
  5
220
100
AcDbSymbolTableRecord
100
AcDbLayerTableRecord
  2
INTF_50736
 70
0
 62
7
  6
CONTINUOUS
370
-3
390
F
  0
LAYER
  5
221
100
AcDbSymbolTableRecord
100
AcDbLayerTableRecord
  2
INTF_50743
 70
0
 62
7
  6
CONTINUOUS
370
-3
390
F
  0
LAYER
  5
222
100
AcDbSymbolTableRecord
100
AcDbLayerTableRecord
  2
INTF_91022
 70
0
 62
7
  6
CONTINUOUS
370
-3
390
F
  0
LAYER
  5
223
100
AcDbSymbolTableRecord
100
AcDbLayerTableRecord
  2
INTF_91203
 70
0
 62
7
  6
CONTINUOUS
370
-3
390
F
  0
LAYER
  5
224
100
AcDbSymbolTableRecord
100
AcDbLayerTableRecord
  2
INTF_BLANK
 70
0
 62
7
  6
CONTINUOUS
370
-3
390
F
  0
LAYER
  5
225
100
AcDbSymbolTableRecord
100
AcDbLayerTableRecord
  2
PLATED_SURFACE
 70
0
 62
7
  6
CONTINUOUS
370
-3
390
F
  0
LAYER
  5
226
100
AcDbSymbolTableRecord
100
AcDbLayerTableRecord
  2
PLATED_SURFACE_1
 70
0
 62
7
  6
CONTINUOUS
370
-3
390
F
  0
LAYER
  5
227
100
AcDbSymbolTableRecord
100
AcDbLayerTableRecord
  2
QUILT
 70
0
 62
7
  6
CONTINUOUS
370
-3
390
F
  0
LAYER
  5
228
100
AcDbSymbolTableRecord
100
AcDbLayerTableRecord
  2
QUILT_1
 70
0
 62
7
  6
CONTINUOUS
370
-3
390
F
  0
LAYER
  5
229
100
AcDbSymbolTableRecord
100
AcDbLayerTableRecord
  2
WETTED_SURFACE
 70
0
 62
7
  6
CONTINUOUS
370
-3
390
F
  0
LAYER
  5
22A
100
AcDbSymbolTableRecord
100
AcDbLayerTableRecord
  2
WETTED_SURFACES
 70
0
 62
7
  6
CONTINUOUS
370
-3
390
F
  0
LAYER
  5
22B
100
AcDbSymbolTableRecord
100
AcDbLayerTableRecord
  2
_BLACK_HOLE
 70
0
 62
7
  6
CONTINUOUS
370
-3
390
F
  0
ENDTAB
  0
TABLE
  2
STYLE
  5
3
100
AcDbSymbolTable
 70
1
  0
STYLE
  5
11
100
AcDbSymbolTableRecord
100
AcDbTextStyleTableRecord
  2
STANDARD
 70
0
 40
0.0
 41
0.8
 50
0.0
 71
0
 42
0.2
  3
txt
  4

  0
STYLE
  5
22C
100
AcDbSymbolTableRecord
100
AcDbTextStyleTableRecord
  2
TEXTSTYLE_1
 70
0
 40
0.0
 41
0.8
 50
0.0
 71
0
 42
0.2
  3
gdt
  4

  0
ENDTAB
  0
TABLE
  2
VIEW
  5
6
100
AcDbSymbolTable
 70
0
  0
ENDTAB
  0
TABLE
  2
UCS
  5
7
100
AcDbSymbolTable
 70
0
  0
ENDTAB
  0
TABLE
  2
APPID
  5
9
100
AcDbSymbolTable
 70
1
  0
APPID
  5
22D
100
AcDbSymbolTableRecord
100
AcDbRegAppTableRecord
  2
ACAD
 70
0
  0
ENDTAB
  0
TABLE
  2
BLOCK_RECORD
  5
1
100
AcDbSymbolTable
 70
0
  0
BLOCK_RECORD
  5
22E
100
AcDbSymbolTableRecord
100
AcDbBlockTableRecord
  2
*Model_Space
  0
BLOCK_RECORD
  5
22F
100
AcDbSymbolTableRecord
100
AcDbBlockTableRecord
  2
*Paper_Space
  0
BLOCK_RECORD
  5
230
100
AcDbSymbolTableRecord
100
AcDbBlockTableRecord
  2
_FILLED
  0
ENDTAB
  0
TABLE
  2
DIMSTYLE
  5
A
100
AcDbSymbolTable
 70
1
100
AcDbDimStyleTable
 71
0
  0
DIMSTYLE
105
231
100
AcDbSymbolTableRecord
100
AcDbDimStyleTableRecord
  2
STANDARD
 70
0
  3

  4

 40
1.0
 41
0.1
 42
0.0625
 43
0.38
 44
0.125
 45
0.0
 46
0.0
 47
0.001
 48
0.001
140
0.08
141
0.09
142
0.0
143
25.4
144
1.0
145
0.0
146
1.0
147
0.09
 71
1.0
 72
0.0
 73
1
 74
1
 75
0
 76
0
 77
0
 78
4
 79
1
170
1
171
2
172
0
173
0
174
0
175
0
176
0
177
0
178
0
270
2
179
3
271
3
272
3
273
2
274
2
275
0
280
0
281
0
282
0
283
1
284
4
285
0
286
0
287
3
288
0
340
11
278
46
341
230
342
230
343
230
344
230
  0
ENDTAB
  0
ENDSEC
  0
SECTION
  2
BLOCKS
  0
BLOCK
  5
20
100
AcDbEntity
  8
0
100
AcDbBlockBegin
  2
*Model_Space
 70
0
 10
0.0
 20
0.0
 30
0.0
  3
*Model_Space
  1

  0
ENDBLK
  5
21
100
AcDbEntity
  8
0
100
AcDbBlockEnd
  0
BLOCK
  5
1C
100
AcDbEntity
  8
0
100
AcDbBlockBegin
  2
*Paper_Space
 70
0
 10
0.0
 20
0.0
 30
0.0
  3
*Paper_Space
  1

  0
ENDBLK
  5
1D
100
AcDbEntity
  8
0
100
AcDbBlockEnd
  0
BLOCK
  5
232
100
AcDbEntity
  8
0
100
AcDbBlockBegin
  2
_FILLED
 70
64
 10
0.0
 20
0.0
  3
_FILLED
  1

  0
SOLID
  5
233
100
AcDbEntity
  8
0
  6
BYBLOCK
 62
0
100
AcDbTrace
 10
0.0
 20
0.0
 11
-1.0
 21
0.2
 12
-1.0
 22
-0.2
 13
-1.0
 23
-0.2
  0
ENDBLK
  5
234
100
AcDbEntity
  8
0
  6
BYBLOCK
 62
0
100
AcDbBlockEnd
  0
ENDSEC
  0
SECTION
  2
ENTITIES
  0
MTEXT
  5
235
100
AcDbEntity
  8
0
100
AcDbMText
 62
7
  6
CONTINUOUS
  7
STANDARD
 71
1
 72
1
 10
7.2220496894
 20
0.2859627329
 30
0.0
 11
1.0
 21
0.0
 31
0.0
 73
2
 44
0.9
  1
SCALE: .50
 40
0.08
 41
0.64
  0
LINE
  5
236
100
AcDbEntity
  8
0
100
AcDbLine
 62
7
  6
CONTINUOUS
 10
0.0
 20
0.0
 11
8.5
 21
0.0
  0
LINE
  5
237
100
AcDbEntity
  8
0
100
AcDbLine
 62
7
  6
CONTINUOUS
 10
0.0
 20
0.0
 11
0.0
 21
11.0
  0
LINE
  5
238
100
AcDbEntity
  8
0
100
AcDbLine
 62
7
  6
CONTINUOUS
 10
8.5
 20
0.0
 11
8.5
 21
11.0
  0
LINE
  5
239
100
AcDbEntity
  8
0
100
AcDbLine
 62
7
  6
CONTINUOUS
 10
0.0
 20
11.0
 11
8.5
 21
11.0
  0
LINE
  5
23A
100
AcDbEntity
  8
0
100
AcDbLine
 62
9
  6
CONTINUOUS
 10
4.3439546285
 20
3.2348279986
 11
4.6889646261
 21
3.2348279986
  0
LINE
  5
23B
100
AcDbEntity
  8
0
100
AcDbLine
 62
7
  6
CONTINUOUS
 10
4.3089596273
 20
3.2844118455
 11
4.7239596273
 21
3.2844118455
  0
LINE
  5
23C
100
AcDbEntity
  8
0
100
AcDbLine
 62
7
  6
CONTINUOUS
 10
4.2989596273
 20
3.2901853482
 11
4.7339596273
 21
3.2901853482
  0
LINE
  5
23D
100
AcDbEntity
  8
0
100
AcDbLine
 62
7
  6
CONTINUOUS
 10
4.7339596273
 20
3.3051853482
 11
4.2990212245
 21
3.3051853482
  0
LINE
  5
23E
100
AcDbEntity
  8
0
100
AcDbLine
 62
7
  6
CONTINUOUS
 10
4.7239596273
 20
3.3109588509
 11
4.3089596273
 21
3.3109588509
  0
LINE
  5
23F
100
AcDbEntity
  8
0
100
AcDbLine
 62
7
  6
CONTINUOUS
 10
4.2989596273
 20
3.3359588509
 11
4.7339596273
 21
3.3359588509
  0
LINE
  5
240
100
AcDbEntity
  8
0
100
AcDbLine
 62
7
  6
CONTINUOUS
 10
4.3089596273
 20
3.2844118455
 11
4.2989596273
 21
3.2901853482
  0
LINE
  5
241
100
AcDbEntity
  8
0
100
AcDbLine
 62
7
  6
CONTINUOUS
 10
4.7339596273
 20
3.5909588509
 11
4.2989596273
 21
3.5909588509
  0
LINE
  5
242
100
AcDbEntity
  8
0
100
AcDbLine
 62
7
  6
CONTINUOUS
 10
4.3089596273
 20
3.6159588509
 11
4.7239596273
 21
3.6159588509
  0
LINE
  5
243
100
AcDbEntity
  8
0
100
AcDbLine
 62
9
  6
CONTINUOUS
 10
4.287975923
 20
3.6332395486
 11
4.7449433316
 21
3.6332395486
  0
LINE
  5
244
100
AcDbEntity
  8
0
100
AcDbLine
 62
9
  6
CONTINUOUS
 10
4.2943523496
 20
3.6509588509
 11
4.7385669051
 21
3.6509588509
  0
LINE
  5
245
100
AcDbEntity
  8
0
100
AcDbLine
 62
7
  6
CONTINUOUS
 10
4.7413162761
 20
3.6609588509
 11
4.2916029785
 21
3.6609588509
  0
LINE
  5
246
100
AcDbEntity
  8
0
100
AcDbLine
 62
9
  6
CONTINUOUS
 10
4.2822690818
 20
3.6745474959
 11
4.7506501728
 21
3.6745474959
  0
LINE
  5
247
100
AcDbEntity
  8
0
100
AcDbLine
 62
7
  6
CONTINUOUS
 10
4.7339596273
 20
3.3051853482
 11
4.7239596273
 21
3.3109588509
  0
LINE
  5
248
100
AcDbEntity
  8
0
100
AcDbLine
 62
7
  6
CONTINUOUS
 10
4.3089596273
 20
3.6159588509
 11
4.287975923
 21
3.6332395486
  0
LINE
  5
249
100
AcDbEntity
  8
0
100
AcDbLine
 62
9
  6
CONTINUOUS
 10
4.776230124
 20
3.8648422922
 11
4.6924004467
 21
3.8648422922
  0
LINE
  5
24A
100
AcDbEntity
  8
0
100
AcDbLine
 62
9
  6
CONTINUOUS
 10
4.340518808
 20
3.8648422922
 11
4.2566891306
 21
3.8648422922
  0
LINE
  5
24B
100
AcDbEntity
  8
0
100
AcDbLine
 62
7
  6
CONTINUOUS
 10
4.4993549936
 20
3.9829588509
 11
4.5335744787
 21
3.9829588509
  0
LINE
  5
24C
100
AcDbEntity
  8
0
100
AcDbLine
 62
7
  6
CONTINUOUS
 10
4.306829519
 20
3.5369097081
 11
4.3157525198
 21
3.5246225547
  0
LINE
  5
24D
100
AcDbEntity
  8
0
100
AcDbLine
 62
7
  6
CONTINUOUS
 10
4.4750294065
 20
3.9934588509
 11
4.5578898482
 21
3.9934588509
  0
LINE
  5
24E
100
AcDbEntity
  8
0
100
AcDbLine
 62
7
  6
CONTINUOUS
 10
4.4536548926
 20
4.0749588509
 11
4.5792641057
 21
4.0749588509
  0
LINE
  5
24F
100
AcDbEntity
  8
0
100
AcDbLine
 62
7
  6
CONTINUOUS
 10
4.7260897357
 20
3.3900079937
 11
4.7171667348
 21
3.4022951471
  0
LINE
  5
250
100
AcDbEntity
  8
0
100
AcDbLine
 62
7
  6
CONTINUOUS
 10
4.3089596273
 20
3.3109588509
 11
4.2989596273
 21
3.3359588509
  0
LINE
  5
251
100
AcDbEntity
  8
0
100
AcDbLine
 62
7
  6
CONTINUOUS
 10
3.8914596273
 20
6.6167173832
 11
3.8914596273
 21
6.6722088509
  0
LINE
  5
252
100
AcDbEntity
  8
0
100
AcDbLine
 62
9
  6
CONTINUOUS
 10
4.2564596273
 20
4.24676307
 11
4.3401786181
 21
4.24676307
  0
LINE
  5
253
100
AcDbEntity
  8
0
100
AcDbLine
 62
9
  6
CONTINUOUS
 10
4.6927406917
 20
4.24676307
 11
4.7764596273
 21
4.24676307
  0
LINE
  5
254
100
AcDbEntity
  8
0
100
AcDbLine
 62
9
  6
CONTINUOUS
 10
4.7664778539
 20
4.2879072199
 11
4.6531644131
 21
4.2879072199
  0
LINE
  5
255
100
AcDbEntity
  8
0
100
AcDbLine
 62
9
  6
CONTINUOUS
 10
4.3797548415
 20
4.2879072199
 11
4.2664414008
 21
4.2879072199
  0
LINE
  5
256
100
AcDbEntity
  8
0
100
AcDbLine
 62
9
  6
CONTINUOUS
 10
4.7906662332
 20
4.4406266367
 11
4.2422530214
 21
4.4406266367
  0
LINE
  5
257
100
AcDbEntity
  8
0
100
AcDbLine
 62
9
  6
CONTINUOUS
 10
4.25032826
 20
4.4520273463
 11
4.7825909946
 21
4.4520273463
  0
LINE
  5
258
100
AcDbEntity
  8
0
100
AcDbLine
 62
9
  6
CONTINUOUS
 10
4.7617085997
 20
4.4845688849
 11
4.271210655
 21
4.4845688849
  0
LINE
  5
259
100
AcDbEntity
  8
0
100
AcDbLine
 62
7
  6
CONTINUOUS
 10
4.2638688846
 20
5.3872088509
 11
4.2638688846
 21
5.1059588509
  0
LINE
  5
25A
100
AcDbEntity
  8
0
100
AcDbLine
 62
7
  6
CONTINUOUS
 10
4.2763345465
 20
5.0245010087
 11
4.2435073993
 21
4.9846076154
  0
LINE
  5
25B
100
AcDbEntity
  8
0
100
AcDbLine
 62
7
  6
CONTINUOUS
 10
4.7339596273
 20
3.5909588509
 11
4.7239596273
 21
3.6159588509
  0
LINE
  5
25C
100
AcDbEntity
  8
0
100
AcDbLine
 62
7
  6
CONTINUOUS
 10
4.2422530214
 20
4.4406266367
 11
4.2664414008
 21
4.2879072199
  0
LINE
  5
25D
100
AcDbEntity
  8
0
100
AcDbLine
 62
7
  6
CONTINUOUS
 10
4.2989596273
 20
3.2901853482
 11
4.2989596273
 21
3.3051853482
  0
LINE
  5
25E
100
AcDbEntity
  8
0
100
AcDbLine
 62
7
  6
CONTINUOUS
 10
4.2989596273
 20
3.3359588509
 11
4.2989596273
 21
3.3667230359
  0
LINE
  5
25F
100
AcDbEntity
  8
0
100
AcDbLine
 62
7
  6
CONTINUOUS
 10
4.2989596273
 20
3.5601997706
 11
4.2989596273
 21
3.5909588509
  0
LINE
  5
260
100
AcDbEntity
  8
0
100
AcDbLine
 62
7
  6
CONTINUOUS
 10
4.3329596273
 20
5.0709588509
 11
4.3329596273
 21
5.1059588509
  0
LINE
  5
261
100
AcDbEntity
  8
0
100
AcDbLine
 62
7
  6
CONTINUOUS
 10
4.3697096273
 20
3.6509588509
 11
4.3697096273
 21
3.6609588509
  0
LINE
  5
262
100
AcDbEntity
  8
0
100
AcDbLine
 62
7
  6
CONTINUOUS
 10
4.3852097623
 20
3.6609588509
 11
4.3852097623
 21
3.6509588509
  0
LINE
  5
263
100
AcDbEntity
  8
0
100
AcDbLine
 62
7
  6
CONTINUOUS
 10
4.3901642559
 20
5.1059588509
 11
4.3901642559
 21
5.3872088509
  0
LINE
  5
264
100
AcDbEntity
  8
0
100
AcDbLine
 62
7
  6
CONTINUOUS
 10
4.2763345465
 20
5.0245010087
 11
4.2690271229
 21
5.058879734
  0
LINE
  5
265
100
AcDbEntity
  8
0
100
AcDbLine
 62
7
  6
CONTINUOUS
 10
4.4518400676
 20
4.0722181251
 11
4.4518400676
 21
4.0179535441
  0
LINE
  5
266
100
AcDbEntity
  8
0
100
AcDbLine
 62
7
  6
CONTINUOUS
 10
4.5009594923
 20
3.6509588509
 11
4.5009594923
 21
3.6609588509
  0
LINE
  5
267
100
AcDbEntity
  8
0
100
AcDbLine
 62
7
  6
CONTINUOUS
 10
4.5319597623
 20
3.6609588509
 11
4.5319597623
 21
3.6509588509
  0
LINE
  5
268
100
AcDbEntity
  8
0
100
AcDbLine
 62
9
  6
CONTINUOUS
 10
4.271210655
 20
4.9273488169
 11
4.7617085997
 21
4.9273488169
  0
LINE
  5
269
100
AcDbEntity
  8
0
100
AcDbLine
 62
7
  6
CONTINUOUS
 10
4.5810791871
 20
4.0179535441
 11
4.5810791871
 21
4.0722160611
  0
LINE
  5
26A
100
AcDbEntity
  8
0
100
AcDbLine
 62
7
  6
CONTINUOUS
 10
4.6427549987
 20
5.3872088509
 11
4.6427549987
 21
5.1059588509
  0
LINE
  5
26B
100
AcDbEntity
  8
0
100
AcDbLine
 62
7
  6
CONTINUOUS
 10
4.6477094923
 20
3.6509588509
 11
4.6477094923
 21
3.6609588509
  0
LINE
  5
26C
100
AcDbEntity
  8
0
100
AcDbLine
 62
9
  6
CONTINUOUS
 10
4.7841884354
 20
4.9685706912
 11
4.2487308192
 21
4.9685706912
  0
LINE
  5
26D
100
AcDbEntity
  8
0
100
AcDbLine
 62
9
  6
CONTINUOUS
 10
4.2435073993
 20
4.9846076154
 11
4.7894118554
 21
4.9846076154
  0
LINE
  5
26E
100
AcDbEntity
  8
0
100
AcDbLine
 62
7
  6
CONTINUOUS
 10
4.2763345465
 20
5.0245010087
 11
4.7565847081
 21
5.0245010087
  0
LINE
  5
26F
100
AcDbEntity
  8
0
100
AcDbLine
 62
9
  6
CONTINUOUS
 10
4.7638921318
 20
5.058879734
 11
4.2690271229
 21
5.058879734
  0
LINE
  5
270
100
AcDbEntity
  8
0
100
AcDbLine
 62
7
  6
CONTINUOUS
 10
4.2788085989
 20
5.0709588509
 11
4.7541106558
 21
5.0709588509
  0
LINE
  5
271
100
AcDbEntity
  8
0
100
AcDbLine
 62
7
  6
CONTINUOUS
 10
4.6632096273
 20
3.6609588509
 11
4.6632096273
 21
3.6509588509
  0
LINE
  5
272
100
AcDbEntity
  8
0
100
AcDbLine
 62
7
  6
CONTINUOUS
 10
4.6999596273
 20
5.0709588509
 11
4.6999596273
 21
5.1059588509
  0
LINE
  5
273
100
AcDbEntity
  8
0
100
AcDbLine
 62
7
  6
CONTINUOUS
 10
4.7339596273
 20
3.2901853482
 11
4.7339596273
 21
3.3051853482
  0
LINE
  5
274
100
AcDbEntity
  8
0
100
AcDbLine
 62
7
  6
CONTINUOUS
 10
4.7339596273
 20
3.3359588509
 11
4.7339596273
 21
3.3667179312
  0
LINE
  5
275
100
AcDbEntity
  8
0
100
AcDbLine
 62
7
  6
CONTINUOUS
 10
4.7339596273
 20
3.5601946659
 11
4.7339596273
 21
3.5909588509
  0
LINE
  5
276
100
AcDbEntity
  8
0
100
AcDbLine
 62
7
  6
CONTINUOUS
 10
4.7690503701
 20
5.3872088509
 11
4.7690503701
 21
5.1059588509
  0
LINE
  5
277
100
AcDbEntity
  8
0
100
AcDbLine
 62
7
  6
CONTINUOUS
 10
4.7638921318
 20
5.058879734
 11
4.7565847081
 21
5.0245010087
  0
LINE
  5
278
100
AcDbEntity
  8
0
100
AcDbLine
 62
7
  6
CONTINUOUS
 10
4.2638688846
 20
5.1059588509
 11
4.7690503701
 21
5.1059588509
  0
LINE
  5
279
100
AcDbEntity
  8
0
100
AcDbLine
 62
7
  6
CONTINUOUS
 10
4.7894118554
 20
4.9846076154
 11
4.7565847081
 21
5.0245010087
  0
LINE
  5
27A
100
AcDbEntity
  8
0
100
AcDbLine
 62
7
  6
CONTINUOUS
 10
4.7664778539
 20
4.2879072199
 11
4.7906662332
 21
4.4406266367
  0
LINE
  5
27B
100
AcDbEntity
  8
0
100
AcDbLine
 62
7
  6
CONTINUOUS
 10
4.2989596273
 20
3.5909588509
 11
4.3089596273
 21
3.6159588509
  0
LINE
  5
27C
100
AcDbEntity
  8
0
100
AcDbLine
 62
7
  6
CONTINUOUS
 10
4.7690503701
 20
5.3872088509
 11
4.2638688846
 21
5.3872088509
  0
LINE
  5
27D
100
AcDbEntity
  8
0
100
AcDbLine
 62
7
  6
CONTINUOUS
 10
5.1414596273
 20
6.6167173832
 11
5.1414596273
 21
6.6722088509
  0
LINE
  5
27E
100
AcDbEntity
  8
0
100
AcDbLine
 62
7
  6
CONTINUOUS
 10
4.306829519
 20
3.3900079937
 11
4.3157525198
 21
3.4022951471
  0
LINE
  5
27F
100
AcDbEntity
  8
0
100
AcDbLine
 62
7
  6
CONTINUOUS
 10
4.7239596273
 20
3.3109588509
 11
4.7339596273
 21
3.3359588509
  0
LINE
  5
280
100
AcDbEntity
  8
0
100
AcDbLine
 62
7
  6
CONTINUOUS
 10
4.7260897357
 20
3.5369097081
 11
4.7171667348
 21
3.5246225547
  0
LINE
  5
281
100
AcDbEntity
  8
0
100
AcDbLine
 62
7
  6
CONTINUOUS
 10
4.7239596273
 20
3.6159588509
 11
4.7449433316
 21
3.6332395486
  0
LINE
  5
282
100
AcDbEntity
  8
0
100
AcDbLine
 62
7
  6
CONTINUOUS
 10
4.2989596273
 20
3.3051853482
 11
4.3089596273
 21
3.3109588509
  0
LINE
  5
283
100
AcDbEntity
  8
0
100
AcDbLine
 62
9
  6
CONTINUOUS
 10
4.2855507941
 20
6.3872088509
 11
4.7473684606
 21
6.3872088509
  0
LINE
  5
284
100
AcDbEntity
  8
0
100
AcDbLine
 62
9
  6
CONTINUOUS
 10
4.2509659809
 20
6.3976257498
 11
4.7819532738
 21
6.3976257498
  0
LINE
  5
285
100
AcDbEntity
  8
0
100
AcDbLine
 62
7
  6
CONTINUOUS
 10
4.7239596273
 20
3.2844118455
 11
4.7339596273
 21
3.2901853482
  0
LINE
  5
286
100
AcDbEntity
  8
0
100
AcDbLine
 62
9
  6
CONTINUOUS
 10
5.1002459572
 20
6.5579539408
 11
3.9326732975
 21
6.5579539408
  0
LINE
  5
287
100
AcDbEntity
  8
0
100
AcDbLine
 62
9
  6
CONTINUOUS
 10
3.8914596273
 20
6.6167173832
 11
5.1414596273
 21
6.6167173832
  0
LINE
  5
288
100
AcDbEntity
  8
0
100
AcDbLine
 62
7
  6
CONTINUOUS
 10
3.8914596273
 20
6.6722088509
 11
5.1414596273
 21
6.6722088509
  0
ARC
  5
289
100
AcDbEntity
  8
0
100
AcDbCircle
 62
7
  6
CONTINUOUS
 10
3.4218013805
 20
5.1476313237
 40
1.5
100
AcDbArc
 50
56.4423050822
 51
70.0877073885
  0
ARC
  5
28A
100
AcDbEntity
  8
0
100
AcDbCircle
 62
7
  6
CONTINUOUS
 10
4.2459763019
 20
3.458125726
 40
0.1129421753
100
AcDbArc
 50
336.3911199819
 51
338.69595105
  0
ARC
  5
28B
100
AcDbEntity
  8
0
100
AcDbCircle
 62
9
  6
CONTINUOUS
 10
4.2480516673
 20
3.4574285226
 40
0.1107541019
100
AcDbArc
 50
335.5696366058
 51
338.9931754209
  0
ARC
  5
28C
100
AcDbEntity
  8
0
100
AcDbCircle
 62
7
  6
CONTINUOUS
 10
4.2501879039
 20
3.4562948604
 40
0.1083498366
100
AcDbArc
 50
333.5928951768
 51
336.3863155369
  0
ARC
  5
28D
100
AcDbEntity
  8
0
100
AcDbCircle
 62
7
  6
CONTINUOUS
 10
4.2522021319
 20
3.4568960545
 40
0.1066288256
100
AcDbArc
 50
339.3246984024
 51
341.6200980845
  0
ARC
  5
28E
100
AcDbEntity
  8
0
100
AcDbCircle
 62
9
  6
CONTINUOUS
 10
4.2528828245
 20
3.4552740252
 40
0.1054644385
100
AcDbArc
 50
333.8199415969
 51
335.5498017391
  0
ARC
  5
28F
100
AcDbEntity
  8
0
100
AcDbCircle
 62
9
  6
CONTINUOUS
 10
4.2572771011
 20
3.4530977302
 40
0.1005607957
100
AcDbArc
 50
329.8417417056
 51
333.8280930231
  0
ARC
  5
290
100
AcDbEntity
  8
0
100
AcDbCircle
 62
9
  6
CONTINUOUS
 10
4.2273512622
 20
3.4476488169
 40
0.0981762482
100
AcDbArc
 50
324.0495887949
 51
329.3242208847
  0
ARC
  5
291
100
AcDbEntity
  8
0
100
AcDbCircle
 62
9
  6
CONTINUOUS
 10
4.2623411656
 20
3.4502275105
 40
0.0947402482
100
AcDbArc
 50
328.4697129652
 51
329.8039882603
  0
ARC
  5
292
100
AcDbEntity
  8
0
100
AcDbCircle
 62
7
  6
CONTINUOUS
 10
4.2505523733
 20
3.4533783549
 40
0.0936632489
100
AcDbArc
 50
329.3346541089
 51
335.140716486
  0
ARC
  5
293
100
AcDbEntity
  8
0
100
AcDbCircle
 62
9
  6
CONTINUOUS
 10
4.2329122507
 20
3.4437181647
 40
0.0913668979
100
AcDbArc
 50
321.18392768
 51
323.9976595164
  0
ARC
  5
294
100
AcDbEntity
  8
0
100
AcDbCircle
 62
9
  6
CONTINUOUS
 10
4.2658392749
 20
3.4480535514
 40
0.0906217192
100
AcDbArc
 50
323.3511666343
 51
328.4846788307
  0
ARC
  5
295
100
AcDbEntity
  8
0
100
AcDbCircle
 62
7
  6
CONTINUOUS
 10
4.2572462084
 20
3.4493994635
 40
0.0858761489
100
AcDbArc
 50
325.1400732337
 51
329.3403109743
  0
ARC
  5
296
100
AcDbEntity
  8
0
100
AcDbCircle
 62
7
  6
CONTINUOUS
 10
4.2605749352
 20
3.4470868273
 40
0.0818229178
100
AcDbArc
 50
323.1346624833
 51
325.1365934013
  0
ARC
  5
297
100
AcDbEntity
  8
0
100
AcDbCircle
 62
7
  6
CONTINUOUS
 10
4.278801107
 20
3.4358144128
 40
0.0729152411
100
AcDbArc
 50
307.3306126192
 51
313.8339053421
  0
ARC
  5
298
100
AcDbEntity
  8
0
100
AcDbCircle
 62
7
  6
CONTINUOUS
 10
4.2197757724
 20
3.4634750963
 40
0.1262309075
100
AcDbArc
 50
355.2450062348
 51
4.7549937653
  0
ARC
  5
299
100
AcDbEntity
  8
0
100
AcDbCircle
 62
7
  6
CONTINUOUS
 10
4.205686197
 20
3.4634588509
 40
0.125
100
AcDbArc
 50
35.9873668392
 51
324.0126331608
  0
ARC
  5
29A
100
AcDbEntity
  8
0
100
AcDbCircle
 62
7
  6
CONTINUOUS
 10
4.2378350213
 20
3.4609941567
 40
0.1215772219
100
AcDbArc
 50
341.9303086308
 51
345.9271041755
  0
ARC
  5
29B
100
AcDbEntity
  8
0
100
AcDbCircle
 62
7
  6
CONTINUOUS
 10
4.2384302273
 20
3.4660946648
 40
0.1209582728
100
AcDbArc
 50
14.0628273548
 51
18.0745965342
  0
ARC
  5
29C
100
AcDbEntity
  8
0
100
AcDbCircle
 62
9
  6
CONTINUOUS
 10
4.2391232373
 20
3.4606054369
 40
0.1202328752
100
AcDbArc
 50
340.813013637
 51
345.9575456187
  0
ARC
  5
29D
100
AcDbEntity
  8
0
100
AcDbCircle
 62
9
  6
CONTINUOUS
 10
4.2397624273
 20
3.4665068577
 40
0.1195655753
100
AcDbArc
 50
14.0263130562
 51
18.6555762516
  0
ARC
  5
29E
100
AcDbEntity
  8
0
100
AcDbCircle
 62
7
  6
CONTINUOUS
 10
4.2411936088
 20
3.4599286366
 40
0.1180537874
100
AcDbArc
 50
339.8402877549
 51
341.9163423125
  0
ARC
  5
29F
100
AcDbEntity
  8
0
100
AcDbCircle
 62
9
  6
CONTINUOUS
 10
4.2097899132
 20
3.4700693096
 40
0.1180197681
100
AcDbArc
 50
19.5020913409
 51
24.9179972122
  0
ARC
  5
2A0
100
AcDbEntity
  8
0
100
AcDbCircle
 62
7
  6
CONTINUOUS
 10
4.241392016
 20
3.4670573414
 40
0.1178439631
100
AcDbArc
 50
18.0764138914
 51
20.1247174457
  0
ARC
  5
2A1
100
AcDbEntity
  8
0
100
AcDbCircle
 62
7
  6
CONTINUOUS
 10
4.2435830318
 20
3.4678545875
 40
0.1155124136
100
AcDbArc
 50
20.1273366178
 51
21.2866371383
  0
ARC
  5
2A2
100
AcDbEntity
  8
0
100
AcDbCircle
 62
7
  6
CONTINUOUS
 10
4.2436271707
 20
3.4590457417
 40
0.1154650373
100
AcDbArc
 50
338.6941311936
 51
339.8353784216
  0
ARC
  5
2A3
100
AcDbEntity
  8
0
100
AcDbCircle
 62
9
  6
CONTINUOUS
 10
4.243797189
 20
3.4678594173
 40
0.1153101513
100
AcDbArc
 50
18.6601173699
 51
20.1273366178
  0
ARC
  5
2A4
100
AcDbEntity
  8
0
100
AcDbCircle
 62
9
  6
CONTINUOUS
 10
4.2441566569
 20
3.4589284249
 40
0.1149279248
100
AcDbArc
 50
338.9912134647
 51
340.7779224137
  0
ARC
  5
2A5
100
AcDbEntity
  8
0
100
AcDbCircle
 62
7
  6
CONTINUOUS
 10
4.2455184902
 20
3.4590628077
 40
0.1136547364
100
AcDbArc
 50
341.6459294824
 51
345.9296755629
  0
ARC
  5
2A6
100
AcDbEntity
  8
0
100
AcDbCircle
 62
9
  6
CONTINUOUS
 10
4.2458242306
 20
3.4686160435
 40
0.1131465015
100
AcDbArc
 50
20.4855502609
 51
21.6317018036
  0
ARC
  5
2A7
100
AcDbEntity
  8
0
100
AcDbCircle
 62
7
  6
CONTINUOUS
 10
4.2464068944
 20
3.4681233843
 40
0.1127277215
100
AcDbArc
 50
14.0477306685
 51
18.3611673271
  0
ARC
  5
2A8
100
AcDbEntity
  8
0
100
AcDbCircle
 62
7
  6
CONTINUOUS
 10
4.246605079
 20
3.4690511397
 40
0.1122621552
100
AcDbArc
 50
21.2775458734
 51
23.6475443818
  0
ARC
  5
2A9
100
AcDbEntity
  8
0
100
AcDbCircle
 62
9
  6
CONTINUOUS
 10
4.249893963
 20
3.4702722708
 40
0.1087528468
100
AcDbArc
 50
21.6109853982
 51
24.9305243905
  0
ARC
  5
2AA
100
AcDbEntity
  8
0
100
AcDbCircle
 62
9
  6
CONTINUOUS
 10
4.2345060442
 20
3.4844207199
 40
0.0893597111
100
AcDbArc
 50
35.9695971326
 51
40.1721686947
  0
ARC
  5
2AB
100
AcDbEntity
  8
0
100
AcDbCircle
 62
7
  6
CONTINUOUS
 10
4.2510301392
 20
3.4710162256
 40
0.1074204551
100
AcDbArc
 50
23.6341324639
 51
26.4317331491
  0
ARC
  5
2AC
100
AcDbEntity
  8
0
100
AcDbCircle
 62
7
  6
CONTINUOUS
 10
4.2534546507
 20
3.470471597
 40
0.1052990679
100
AcDbArc
 50
18.3564986878
 51
20.6445715418
  0
ARC
  5
2AD
100
AcDbEntity
  8
0
100
AcDbCircle
 62
9
  6
CONTINUOUS
 10
4.2533172829
 20
3.4718525103
 40
0.1049824128
100
AcDbArc
 50
24.9359832266
 51
26.2025678229
  0
ARC
  5
2AE
100
AcDbEntity
  8
0
100
AcDbCircle
 62
7
  6
CONTINUOUS
 10
4.2555840956
 20
3.4732955057
 40
0.1023279671
100
AcDbArc
 50
26.4239455771
 51
28.7991696295
  0
ARC
  5
2AF
100
AcDbEntity
  8
0
100
AcDbCircle
 62
9
  6
CONTINUOUS
 10
4.2589514631
 20
3.4747149245
 40
0.0986633541
100
AcDbArc
 50
26.1558092099
 51
30.6764351483
  0
ARC
  5
2B0
100
AcDbEntity
  8
0
100
AcDbCircle
 62
7
  6
CONTINUOUS
 10
4.2615173187
 20
3.4766591958
 40
0.0955082172
100
AcDbArc
 50
28.7455556328
 51
34.2927836486
  0
ARC
  5
2B1
100
AcDbEntity
  8
0
100
AcDbCircle
 62
9
  6
CONTINUOUS
 10
4.262699098
 20
3.4769064939
 40
0.0943220438
100
AcDbArc
 50
30.6929073229
 51
31.5509491362
  0
ARC
  5
2B2
100
AcDbEntity
  8
0
100
AcDbCircle
 62
9
  6
CONTINUOUS
 10
4.2671555699
 20
3.4797533223
 40
0.0890347771
100
AcDbArc
 50
31.4903819227
 51
37.0363718919
  0
ARC
  5
2B3
100
AcDbEntity
  8
0
100
AcDbCircle
 62
7
  6
CONTINUOUS
 10
4.2574028258
 20
3.4775942457
 40
0.0857026671
100
AcDbArc
 50
30.6693713769
 51
36.7893552928
  0
ARC
  5
2B4
100
AcDbEntity
  8
0
100
AcDbCircle
 62
7
  6
CONTINUOUS
 10
4.2796766742
 20
3.4921278257
 40
0.0715694749
100
AcDbArc
 50
46.360383748
 51
53.0356096445
  0
ARC
  5
2B5
100
AcDbEntity
  8
0
100
AcDbCircle
 62
7
  6
CONTINUOUS
 10
4.2943329956
 20
3.6409588509
 40
0.01
100
AcDbArc
 50
90.0
 51
230.5275401516
  0
ARC
  5
2B6
100
AcDbEntity
  8
0
100
AcDbCircle
 62
7
  6
CONTINUOUS
 10
4.3379399768
 20
3.4547974123
 40
0.1173418205
100
AcDbArc
 50
35.5635680987
 51
46.4164233189
  0
ARC
  5
2B7
100
AcDbEntity
  8
0
100
AcDbCircle
 62
7
  6
CONTINUOUS
 10
4.3396193293
 20
3.4565788621
 40
0.1148936274
100
AcDbArc
 50
46.4105981999
 51
51.7186636167
  0
ARC
  5
2B8
100
AcDbEntity
  8
0
100
AcDbCircle
 62
7
  6
CONTINUOUS
 10
4.3406184162
 20
3.4566855481
 40
0.1140648396
100
AcDbArc
 50
30.0469567161
 51
35.5745449292
  0
ARC
  5
2B9
100
AcDbEntity
  8
0
100
AcDbCircle
 62
9
  6
CONTINUOUS
 10
4.3381212228
 20
3.4573930566
 40
0.1082956082
100
AcDbArc
 50
335.0820027878
 51
340.4979086591
  0
ARC
  5
2BA
100
AcDbEntity
  8
0
100
AcDbCircle
 62
9
  6
CONTINUOUS
 10
4.3454839071
 20
3.4539498092
 40
0.1001675942
100
AcDbArc
 50
331.3605078205
 51
335.0938260112
  0
ARC
  5
2BB
100
AcDbEntity
  8
0
100
AcDbCircle
 62
7
  6
CONTINUOUS
 10
4.401470859
 20
3.4431491586
 40
0.0820759432
100
AcDbArc
 50
218.4151181372
 51
224.9290875168
  0
ARC
  5
2BC
100
AcDbEntity
  8
0
100
AcDbCircle
 62
7
  6
CONTINUOUS
 10
4.3911973681
 20
3.4307417261
 40
0.0659071979
100
AcDbArc
 50
236.8767361693
 51
243.2195790245
  0
ARC
  5
2BD
100
AcDbEntity
  8
0
100
AcDbCircle
 62
7
  6
CONTINUOUS
 10
4.3893556599
 20
3.4270081131
 40
0.0617442416
100
AcDbArc
 50
243.1842267602
 51
249.7806815207
  0
ARC
  5
2BE
100
AcDbEntity
  8
0
100
AcDbCircle
 62
9
  6
CONTINUOUS
 10
4.3807604731
 20
3.416939699
 40
0.0475474897
100
AcDbArc
 50
255.9403231907
 51
274.6656717345
  0
ARC
  5
2BF
100
AcDbEntity
  8
0
100
AcDbCircle
 62
7
  6
CONTINUOUS
 10
4.3507408329
 20
3.2767587351
 40
0.0424763374
100
AcDbArc
 50
169.6201340777
 51
260.8067816086
  0
ARC
  5
2C0
100
AcDbEntity
  8
0
100
AcDbCircle
 62
9
  6
CONTINUOUS
 10
4.3153376652
 20
3.4634418707
 40
0.1319413533
100
AcDbArc
 50
0.0073737142
 51
4.7549937653
  0
ARC
  5
2C1
100
AcDbEntity
  8
0
100
AcDbCircle
 62
9
  6
CONTINUOUS
 10
4.315753931
 20
3.4634975713
 40
0.1315219045
100
AcDbArc
 50
4.7458442681
 51
9.4764148323
  0
ARC
  5
2C2
100
AcDbEntity
  8
0
100
AcDbCircle
 62
9
  6
CONTINUOUS
 10
4.321540935
 20
3.4644518599
 40
0.125656758
100
AcDbArc
 50
9.4816656822
 51
14.3678727068
  0
ARC
  5
2C3
100
AcDbEntity
  8
0
100
AcDbCircle
 62
9
  6
CONTINUOUS
 10
4.3293563648
 20
3.4663812054
 40
0.1176070359
100
AcDbArc
 50
14.4021570727
 51
19.5201303117
  0
ARC
  5
2C4
100
AcDbEntity
  8
0
100
AcDbCircle
 62
7
  6
CONTINUOUS
 10
4.338025895
 20
3.4720592601
 40
0.1172364305
100
AcDbArc
 50
313.5927116362
 51
324.4438778454
  0
ARC
  5
2C5
100
AcDbEntity
  8
0
100
AcDbCircle
 62
9
  6
CONTINUOUS
 10
4.3304137575
 20
3.460214003
 40
0.1165026709
100
AcDbArc
 50
340.4555958858
 51
345.62211673
  0
ARC
  5
2C6
100
AcDbEntity
  8
0
100
AcDbCircle
 62
7
  6
CONTINUOUS
 10
4.3400955263
 20
3.4705690653
 40
0.1146861415
100
AcDbArc
 50
324.4483000014
 51
329.9458984835
  0
ARC
  5
2C7
100
AcDbEntity
  8
0
100
AcDbCircle
 62
7
  6
CONTINUOUS
 10
4.3401140732
 20
3.4697683573
 40
0.1141393171
100
AcDbArc
 50
308.2709948219
 51
313.6144122944
  0
ARC
  5
2C8
100
AcDbEntity
  8
0
100
AcDbCircle
 62
7
  6
CONTINUOUS
 10
4.3441352408
 20
3.4682051557
 40
0.11000567
100
AcDbArc
 50
329.9578409355
 51
335.7308130849
  0
ARC
  5
2C9
100
AcDbEntity
  8
0
100
AcDbCircle
 62
9
  6
CONTINUOUS
 10
4.3366932633
 20
3.4689416138
 40
0.1098363087
100
AcDbArc
 50
19.5401041698
 51
24.8799843835
  0
ARC
  5
2CA
100
AcDbEntity
  8
0
100
AcDbCircle
 62
7
  6
CONTINUOUS
 10
4.3496644797
 20
3.4656642271
 40
0.1039207067
100
AcDbArc
 50
335.7549187798
 51
341.6927517822
  0
ARC
  5
2CB
100
AcDbEntity
  8
0
100
AcDbCircle
 62
9
  6
CONTINUOUS
 10
4.344199755
 20
3.4723256457
 40
0.1016027987
100
AcDbArc
 50
24.9296993574
 51
28.3000204362
  0
ARC
  5
2CC
100
AcDbEntity
  8
0
100
AcDbCircle
 62
7
  6
CONTINUOUS
 10
4.3533911646
 20
3.4643495108
 40
0.0999697064
100
AcDbArc
 50
341.7372120942
 51
347.7154223661
  0
ARC
  5
2CD
100
AcDbEntity
  8
0
100
AcDbCircle
 62
7
  6
CONTINUOUS
 10
4.3535685052
 20
3.4626166129
 40
0.0997861341
100
AcDbArc
 50
12.2875930333
 51
18.2769480688
  0
ARC
  5
2CE
100
AcDbEntity
  8
0
100
AcDbCircle
 62
7
  6
CONTINUOUS
 10
4.3555135101
 20
3.463894203
 40
0.0977990821
100
AcDbArc
 50
347.7115069002
 51
353.7640789304
  0
ARC
  5
2CF
100
AcDbEntity
  8
0
100
AcDbCircle
 62
9
  6
CONTINUOUS
 10
4.3492500353
 20
3.4750016597
 40
0.0958874822
100
AcDbArc
 50
28.3227926965
 51
30.6794775967
  0
ARC
  5
2D0
100
AcDbEntity
  8
0
100
AcDbCircle
 62
7
  6
CONTINUOUS
 10
4.4024535621
 20
3.4828936282
 40
0.0833895651
100
AcDbArc
 50
135.1211088859
 51
141.5365027193
  0
ARC
  5
2D1
100
AcDbEntity
  8
0
100
AcDbCircle
 62
7
  6
CONTINUOUS
 10
4.4005244225
 20
3.4988034481
 40
0.0690146569
100
AcDbArc
 50
125.2897497638
 51
127.8242108509
  0
ARC
  5
2D2
100
AcDbEntity
  8
0
100
AcDbCircle
 62
9
  6
CONTINUOUS
 10
4.3808076168
 20
3.5096920803
 40
0.0478363056
100
AcDbArc
 50
94.6940963365
 51
104.0312561056
  0
ARC
  5
2D3
100
AcDbEntity
  8
0
100
AcDbCircle
 62
9
  6
CONTINUOUS
 10
4.3807604723
 20
3.5101045066
 40
0.0474214064
100
AcDbArc
 50
85.3218946617
 51
94.6781053386
  0
ARC
  5
2D4
100
AcDbEntity
  8
0
100
AcDbCircle
 62
7
  6
CONTINUOUS
 10
4.0955911482
 20
3.7463203952
 40
0.2
100
AcDbArc
 50
338.9695227533
 51
36.3424046393
  0
ARC
  5
2D5
100
AcDbEntity
  8
0
100
AcDbCircle
 62
7
  6
CONTINUOUS
 10
4.2916029785
 20
3.6709588509
 40
0.01
100
AcDbArc
 50
158.9695227421
 51
270.0
  0
ARC
  5
2D6
100
AcDbEntity
  8
0
100
AcDbCircle
 62
7
  6
CONTINUOUS
 10
4.692043591
 20
3.4582721597
 40
0.1103736602
100
AcDbArc
 50
128.4634691378
 51
133.8433490705
  0
ARC
  5
2D7
100
AcDbEntity
  8
0
100
AcDbCircle
 62
7
  6
CONTINUOUS
 10
4.6304656926
 20
3.4440240737
 40
0.0833895651
100
AcDbArc
 50
315.1211088858
 51
321.5365027193
  0
ARC
  5
2D8
100
AcDbEntity
  8
0
100
AcDbCircle
 62
7
  6
CONTINUOUS
 10
4.6444858733
 20
3.4245011045
 40
0.0590729942
100
AcDbArc
 50
278.6178779495
 51
290.2736091134
  0
ARC
  5
2D9
100
AcDbEntity
  8
0
100
AcDbCircle
 62
7
  6
CONTINUOUS
 10
4.6387099569
 20
3.418303579
 40
0.0549827938
100
AcDbArc
 50
288.5915330817
 51
290.9018774944
  0
ARC
  5
2DA
100
AcDbEntity
  8
0
100
AcDbCircle
 62
9
  6
CONTINUOUS
 10
4.6521116379
 20
3.4172256216
 40
0.0478363056
100
AcDbArc
 50
274.6940963363
 51
284.0312561055
  0
ARC
  5
2DB
100
AcDbEntity
  8
0
100
AcDbCircle
 62
9
  6
CONTINUOUS
 10
4.6521587824
 20
3.4168131953
 40
0.0474214064
100
AcDbArc
 50
265.3218946615
 51
274.6781053385
  0
ARC
  5
2DC
100
AcDbEntity
  8
0
100
AcDbCircle
 62
7
  6
CONTINUOUS
 10
4.6821784218
 20
3.2767587351
 40
0.0424763374
100
AcDbArc
 50
279.1932183914
 51
10.3798659223
  0
ARC
  5
2DD
100
AcDbEntity
  8
0
100
AcDbCircle
 62
7
  6
CONTINUOUS
 10
4.6921186813
 20
3.4695592054
 40
0.111031853
100
AcDbArc
 50
209.7958945659
 51
215.3408663961
  0
ARC
  5
2DE
100
AcDbEntity
  8
0
100
AcDbCircle
 62
7
  6
CONTINUOUS
 10
4.6889990239
 20
3.4591383183
 40
0.1074401872
100
AcDbArc
 50
150.2069379081
 51
155.9163042596
  0
ARC
  5
2DF
100
AcDbEntity
  8
0
100
AcDbCircle
 62
7
  6
CONTINUOUS
 10
4.6882330788
 20
3.4673901809
 40
0.1065821202
100
AcDbArc
 50
204.0664390686
 51
209.8219776192
  0
ARC
  5
2E0
100
AcDbEntity
  8
0
100
AcDbCircle
 62
7
  6
CONTINUOUS
 10
4.6839216703
 20
3.4614496743
 40
0.1018616261
100
AcDbArc
 50
155.9378104403
 51
161.8516025604
  0
ARC
  5
2E1
100
AcDbEntity
  8
0
100
AcDbCircle
 62
7
  6
CONTINUOUS
 10
4.6830012823
 20
3.4651126576
 40
0.1008763573
100
AcDbArc
 50
198.1253609952
 51
204.0970865446
  0
ARC
  5
2E2
100
AcDbEntity
  8
0
100
AcDbCircle
 62
7
  6
CONTINUOUS
 10
4.6804773904
 20
3.4626556679
 40
0.0982130742
100
AcDbArc
 50
161.8942929173
 51
167.8547377415
  0
ARC
  5
2E3
100
AcDbEntity
  8
0
100
AcDbCircle
 62
7
  6
CONTINUOUS
 10
4.6803304482
 20
3.4642223318
 40
0.0980610784
100
AcDbArc
 50
192.1467554864
 51
198.1164462945
  0
ARC
  5
2E4
100
AcDbEntity
  8
0
100
AcDbCircle
 62
7
  6
CONTINUOUS
 10
4.6314483956
 20
3.4837685433
 40
0.0820759432
100
AcDbArc
 50
38.4151181372
 51
44.9290875168
  0
ARC
  5
2E5
100
AcDbEntity
  8
0
100
AcDbCircle
 62
7
  6
CONTINUOUS
 10
4.6417218866
 20
3.4961759758
 40
0.0659071979
100
AcDbArc
 50
56.8767361693
 51
63.2195790244
  0
ARC
  5
2E6
100
AcDbEntity
  8
0
100
AcDbCircle
 62
7
  6
CONTINUOUS
 10
4.6435635948
 20
3.4999095887
 40
0.0617442416
100
AcDbArc
 50
63.1842267602
 51
69.7806815208
  0
ARC
  5
2E7
100
AcDbEntity
  8
0
100
AcDbCircle
 62
7
  6
CONTINUOUS
 10
4.6445932958
 20
3.5028365382
 40
0.0586417987
100
AcDbArc
 50
69.736373206
 51
81.4258449209
  0
ARC
  5
2E8
100
AcDbEntity
  8
0
100
AcDbCircle
 62
9
  6
CONTINUOUS
 10
4.6521587815
 20
3.5099780029
 40
0.0475474897
100
AcDbArc
 50
75.9403231908
 51
94.6656717347
  0
ARC
  5
2E9
100
AcDbEntity
  8
0
100
AcDbCircle
 62
7
  6
CONTINUOUS
 10
4.694565503
 20
3.4556186851
 40
0.1140349684
100
AcDbArc
 50
136.7038289419
 51
139.2365133158
  0
ARC
  5
2EA
100
AcDbEntity
  8
0
100
AcDbCircle
 62
7
  6
CONTINUOUS
 10
4.6940342426
 20
3.4561275766
 40
0.1132993249
100
AcDbArc
 50
133.8181656018
 51
136.7068927203
  0
ARC
  5
2EB
100
AcDbEntity
  8
0
100
AcDbCircle
 62
7
  6
CONTINUOUS
 10
4.6937044303
 20
3.4563253114
 40
0.1129214022
100
AcDbArc
 50
139.2228033098
 51
150.154559759
  0
ARC
  5
2EC
100
AcDbEntity
  8
0
100
AcDbCircle
 62
7
  6
CONTINUOUS
 10
4.7532425804
 20
3.4347898762
 40
0.0715694749
100
AcDbArc
 50
226.360383748
 51
233.0356096445
  0
ARC
  5
2ED
100
AcDbEntity
  8
0
100
AcDbCircle
 62
9
  6
CONTINUOUS
 10
4.7175815895
 20
3.4634758312
 40
0.1319413533
100
AcDbArc
 50
180.0073737141
 51
184.7549937653
  0
ARC
  5
2EE
100
AcDbEntity
  8
0
100
AcDbCircle
 62
9
  6
CONTINUOUS
 10
4.7171653236
 20
3.4634201305
 40
0.1315219045
100
AcDbArc
 50
184.745844268
 51
189.4764148323
  0
ARC
  5
2EF
100
AcDbEntity
  8
0
100
AcDbCircle
 62
9
  6
CONTINUOUS
 10
4.7170889823
 20
3.4634513503
 40
0.1314487452
100
AcDbArc
 50
177.3759701169
 51
179.9967306328
  0
ARC
  5
2F0
100
AcDbEntity
  8
0
100
AcDbCircle
 62
9
  6
CONTINUOUS
 10
4.7113783196
 20
3.462465842
 40
0.125656758
100
AcDbArc
 50
189.4816656822
 51
194.3678727068
  0
ARC
  5
2F1
100
AcDbEntity
  8
0
100
AcDbCircle
 62
9
  6
CONTINUOUS
 10
4.7035628898
 20
3.4605364965
 40
0.1176070359
100
AcDbArc
 50
194.4021570726
 51
199.5201303116
  0
ARC
  5
2F2
100
AcDbEntity
  8
0
100
AcDbCircle
 62
9
  6
CONTINUOUS
 10
4.7025054971
 20
3.4667036988
 40
0.1165026709
100
AcDbArc
 50
160.4555958859
 51
165.6221167301
  0
ARC
  5
2F3
100
AcDbEntity
  8
0
100
AcDbCircle
 62
7
  6
CONTINUOUS
 10
4.6943858452
 20
3.4711429133
 40
0.1137973168
100
AcDbArc
 50
215.3310247947
 51
226.1829813643
  0
ARC
  5
2F4
100
AcDbEntity
  8
0
100
AcDbCircle
 62
7
  6
CONTINUOUS
 10
4.6925456664
 20
3.4692201011
 40
0.1111358412
100
AcDbArc
 50
226.1811851853
 51
231.5241214196
  0
ARC
  5
2F5
100
AcDbEntity
  8
0
100
AcDbCircle
 62
7
  6
CONTINUOUS
 10
4.7541181476
 20
3.4911032891
 40
0.0729152411
100
AcDbArc
 50
127.3306126192
 51
133.8339053421
  0
ARC
  5
2F6
100
AcDbEntity
  8
0
100
AcDbCircle
 62
7
  6
CONTINUOUS
 10
4.7385862591
 20
3.6409588509
 40
0.01
100
AcDbArc
 50
309.4724598484
 51
90.0
  0
ARC
  5
2F7
100
AcDbEntity
  8
0
100
AcDbCircle
 62
7
  6
CONTINUOUS
 10
4.5164596273
 20
4.0559588509
 40
0.3225
100
AcDbArc
 50
323.6575953607
 51
36.2735444504
  0
ARC
  5
2F8
100
AcDbEntity
  8
0
100
AcDbCircle
 62
7
  6
CONTINUOUS
 10
4.5164596273
 20
4.0559588509
 40
0.3225
100
AcDbArc
 50
143.7264555496
 51
216.3424046393
  0
ARC
  5
2F9
100
AcDbEntity
  8
0
100
AcDbCircle
 62
9
  6
CONTINUOUS
 10
4.5164596273
 20
4.0559588509
 40
0.2597704967
100
AcDbArc
 50
312.632493044
 51
47.2656362209
  0
ARC
  5
2FA
100
AcDbEntity
  8
0
100
AcDbCircle
 62
9
  6
CONTINUOUS
 10
4.5164596273
 20
4.0559588509
 40
0.2597704967
100
AcDbArc
 50
132.7343548413
 51
227.3675069564
  0
CIRCLE
  5
2FB
100
AcDbEntity
  8
0
100
AcDbCircle
 62
7
  6
CONTINUOUS
 10
4.5164596273
 20
4.0559588509
 40
0.2348566488
  0
CIRCLE
  5
2FC
100
AcDbEntity
  8
0
100
AcDbCircle
 62
9
  6
CONTINUOUS
 10
4.5164596273
 20
4.0559588509
 40
0.2341905455
  0
CIRCLE
  5
2FD
100
AcDbEntity
  8
0
100
AcDbCircle
 62
9
  6
CONTINUOUS
 10
4.5164596273
 20
4.0559588509
 40
0.2248566488
  0
CIRCLE
  5
2FE
100
AcDbEntity
  8
0
100
AcDbCircle
 62
7
  6
CONTINUOUS
 10
4.5164596273
 20
4.0559588509
 40
0.21125
  0
ARC
  5
2FF
100
AcDbEntity
  8
0
100
AcDbCircle
 62
9
  6
CONTINUOUS
 10
4.5164597843
 20
3.9978437251
 40
0.197886896
100
AcDbArc
 50
264.6466553871
 51
275.356596537
  0
CIRCLE
  5
300
100
AcDbEntity
  8
0
100
AcDbCircle
 62
7
  6
CONTINUOUS
 10
4.5164596273
 20
4.0559588509
 40
0.121
  0
CIRCLE
  5
301
100
AcDbEntity
  8
0
100
AcDbCircle
 62
7
  6
CONTINUOUS
 10
4.5164596273
 20
4.0559588509
 40
0.075
  0
ARC
  5
302
100
AcDbEntity
  8
0
100
AcDbCircle
 62
7
  6
CONTINUOUS
 10
4.5164596273
 20
4.0342088509
 40
0.075
100
AcDbArc
 50
8.3475086551
 51
171.6545034805
  0
ARC
  5
303
100
AcDbEntity
  8
0
100
AcDbCircle
 62
7
  6
CONTINUOUS
 10
4.7413162761
 20
3.6709588509
 40
0.01
100
AcDbArc
 50
270.0
 51
21.0304772613
  0
ARC
  5
304
100
AcDbEntity
  8
0
100
AcDbCircle
 62
7
  6
CONTINUOUS
 10
4.5164596273
 20
4.3007053727
 40
1.0797465218
100
AcDbArc
 50
260.8067816086
 51
279.1932183914
  0
ARC
  5
305
100
AcDbEntity
  8
0
100
AcDbCircle
 62
7
  6
CONTINUOUS
 10
4.2364596273
 20
4.7059588509
 40
0.57
100
AcDbArc
 50
337.1448062398
 51
22.8551937602
  0
ARC
  5
306
100
AcDbEntity
  8
0
100
AcDbCircle
 62
7
  6
CONTINUOUS
 10
4.2121185421
 20
4.2793033244
 40
0.055
100
AcDbArc
 50
323.7264555496
 51
9.0
  0
ARC
  5
307
100
AcDbEntity
  8
0
100
AcDbCircle
 62
7
  6
CONTINUOUS
 10
4.7541106558
 20
5.0609588509
 40
0.01
100
AcDbArc
 50
347.999999998
 51
90.0
  0
ARC
  5
308
100
AcDbEntity
  8
0
100
AcDbCircle
 62
7
  6
CONTINUOUS
 10
4.2788085989
 20
5.0609588509
 40
0.01
100
AcDbArc
 50
90.0
 51
192.0000000025
  0
ARC
  5
309
100
AcDbEntity
  8
0
100
AcDbCircle
 62
7
  6
CONTINUOUS
 10
4.251229193
 20
4.9782535693
 40
0.01
100
AcDbArc
 50
140.5499999995
 51
255.5321107568
  0
ARC
  5
30A
100
AcDbEntity
  8
0
100
AcDbCircle
 62
7
  6
CONTINUOUS
 10
4.2521299048
 20
4.4421909813
 40
0.01
100
AcDbArc
 50
100.3793406087
 51
189.0000000002
  0
ARC
  5
30B
100
AcDbEntity
  8
0
100
AcDbCircle
 62
9
  6
CONTINUOUS
 10
3.3851816899
 20
7.8278406526
 40
4.1730297007
100
AcDbArc
 50
287.9975081872
 51
288.2554488878
  0
ARC
  5
30C
100
AcDbEntity
  8
0
100
AcDbCircle
 62
7
  6
CONTINUOUS
 10
4.2855145059
 20
6.4497088509
 40
0.0625
100
AcDbArc
 50
236.4423050822
 51
270.0
  0
ARC
  5
30D
100
AcDbEntity
  8
0
100
AcDbCircle
 62
7
  6
CONTINUOUS
 10
4.7474047487
 20
6.4497088509
 40
0.0625
100
AcDbArc
 50
270.0
 51
303.5576949178
  0
ARC
  5
30E
100
AcDbEntity
  8
0
100
AcDbCircle
 62
7
  6
CONTINUOUS
 10
3.9539596273
 20
6.6167173832
 40
0.0625
100
AcDbArc
 50
180.0
 51
250.0877073885
  0
ARC
  5
30F
100
AcDbEntity
  8
0
100
AcDbCircle
 62
7
  6
CONTINUOUS
 10
4.8131434823
 20
3.4634750963
 40
0.1262309075
100
AcDbArc
 50
175.2450062347
 51
184.7549937653
  0
ARC
  5
310
100
AcDbEntity
  8
0
100
AcDbCircle
 62
7
  6
CONTINUOUS
 10
4.8272330577
 20
3.4634588509
 40
0.125
100
AcDbArc
 50
215.9873668392
 51
144.0126331608
  0
ARC
  5
311
100
AcDbEntity
  8
0
100
AcDbCircle
 62
7
  6
CONTINUOUS
 10
4.7950842334
 20
3.4659235452
 40
0.1215772219
100
AcDbArc
 50
161.9303086308
 51
165.9271041755
  0
ARC
  5
312
100
AcDbEntity
  8
0
100
AcDbCircle
 62
7
  6
CONTINUOUS
 10
4.7944890274
 20
3.4608230371
 40
0.1209582728
100
AcDbArc
 50
194.0628273548
 51
198.0745965342
  0
ARC
  5
313
100
AcDbEntity
  8
0
100
AcDbCircle
 62
9
  6
CONTINUOUS
 10
4.7937960173
 20
3.466312265
 40
0.1202328752
100
AcDbArc
 50
160.8130136371
 51
165.9575456187
  0
ARC
  5
314
100
AcDbEntity
  8
0
100
AcDbCircle
 62
9
  6
CONTINUOUS
 10
4.7931568273
 20
3.4604108442
 40
0.1195655753
100
AcDbArc
 50
194.0263130562
 51
198.6555762516
  0
ARC
  5
315
100
AcDbEntity
  8
0
100
AcDbCircle
 62
7
  6
CONTINUOUS
 10
4.7917256459
 20
3.4669890652
 40
0.1180537874
100
AcDbArc
 50
159.8402877549
 51
161.9163423125
  0
ARC
  5
316
100
AcDbEntity
  8
0
100
AcDbCircle
 62
9
  6
CONTINUOUS
 10
4.8231293415
 20
3.4568483922
 40
0.1180197681
100
AcDbArc
 50
199.502091341
 51
204.9179972122
  0
ARC
  5
317
100
AcDbEntity
  8
0
100
AcDbCircle
 62
7
  6
CONTINUOUS
 10
4.7915272387
 20
3.4598603605
 40
0.1178439631
100
AcDbArc
 50
198.0764138914
 51
200.1247174456
  0
ARC
  5
318
100
AcDbEntity
  8
0
100
AcDbCircle
 62
7
  6
CONTINUOUS
 10
4.7893362228
 20
3.4590631144
 40
0.1155124135
100
AcDbArc
 50
200.1273366176
 51
201.2866371385
  0
ARC
  5
319
100
AcDbEntity
  8
0
100
AcDbCircle
 62
7
  6
CONTINUOUS
 10
4.789292084
 20
3.4678719602
 40
0.1154650373
100
AcDbArc
 50
158.6941311936
 51
159.8353784217
  0
ARC
  5
31A
100
AcDbEntity
  8
0
100
AcDbCircle
 62
9
  6
CONTINUOUS
 10
4.7891220656
 20
3.4590582845
 40
0.1153101513
100
AcDbArc
 50
198.6601173699
 51
200.1273366176
  0
ARC
  5
31B
100
AcDbEntity
  8
0
100
AcDbCircle
 62
9
  6
CONTINUOUS
 10
4.7887625978
 20
3.4679892769
 40
0.1149279248
100
AcDbArc
 50
158.9912134647
 51
160.7779224137
  0
ARC
  5
31C
100
AcDbEntity
  8
0
100
AcDbCircle
 62
7
  6
CONTINUOUS
 10
4.7874007644
 20
3.4678548942
 40
0.1136547364
100
AcDbArc
 50
161.6459294824
 51
165.9296755629
  0
ARC
  5
31D
100
AcDbEntity
  8
0
100
AcDbCircle
 62
9
  6
CONTINUOUS
 10
4.7870950241
 20
3.4583016583
 40
0.1131465015
100
AcDbArc
 50
200.4855502611
 51
201.6317018036
  0
ARC
  5
31E
100
AcDbEntity
  8
0
100
AcDbCircle
 62
7
  6
CONTINUOUS
 10
4.7869429528
 20
3.4687919759
 40
0.1129421753
100
AcDbArc
 50
156.3911199819
 51
158.69595105
  0
ARC
  5
31F
100
AcDbEntity
  8
0
100
AcDbCircle
 62
7
  6
CONTINUOUS
 10
4.7865123602
 20
3.4587943176
 40
0.1127277215
100
AcDbArc
 50
194.0477306685
 51
198.3611673271
  0
ARC
  5
320
100
AcDbEntity
  8
0
100
AcDbCircle
 62
7
  6
CONTINUOUS
 10
4.7863141756
 20
3.4578665621
 40
0.1122621551
100
AcDbArc
 50
201.2775458733
 51
203.6475443819
  0
ARC
  5
321
100
AcDbEntity
  8
0
100
AcDbCircle
 62
9
  6
CONTINUOUS
 10
4.7848675874
 20
3.4694891793
 40
0.1107541019
100
AcDbArc
 50
155.5696366058
 51
158.9931754208
  0
ARC
  5
322
100
AcDbEntity
  8
0
100
AcDbCircle
 62
9
  6
CONTINUOUS
 10
4.7830252917
 20
3.4566454311
 40
0.1087528468
100
AcDbArc
 50
201.6109853982
 51
204.9305243905
  0
ARC
  5
323
100
AcDbEntity
  8
0
100
AcDbCircle
 62
7
  6
CONTINUOUS
 10
4.7827313508
 20
3.4706228415
 40
0.1083498366
100
AcDbArc
 50
153.5928951768
 51
156.3863155369
  0
ARC
  5
324
100
AcDbEntity
  8
0
100
AcDbCircle
 62
7
  6
CONTINUOUS
 10
4.7818891154
 20
3.4559014763
 40
0.1074204551
100
AcDbArc
 50
203.634132464
 51
206.431733149
  0
ARC
  5
325
100
AcDbEntity
  8
0
100
AcDbCircle
 62
7
  6
CONTINUOUS
 10
4.7807171228
 20
3.4700216473
 40
0.1066288256
100
AcDbArc
 50
159.3246984024
 51
161.6200980845
  0
ARC
  5
326
100
AcDbEntity
  8
0
100
AcDbCircle
 62
9
  6
CONTINUOUS
 10
4.7800364302
 20
3.4716436767
 40
0.1054644385
100
AcDbArc
 50
153.8199415969
 51
155.5498017391
  0
ARC
  5
327
100
AcDbEntity
  8
0
100
AcDbCircle
 62
7
  6
CONTINUOUS
 10
4.7794646039
 20
3.4564461048
 40
0.1052990679
100
AcDbArc
 50
198.3564986878
 51
200.6445715418
  0
ARC
  5
328
100
AcDbEntity
  8
0
100
AcDbCircle
 62
9
  6
CONTINUOUS
 10
4.7796019718
 20
3.4550651916
 40
0.1049824128
100
AcDbArc
 50
204.9359832267
 51
206.2025678229
  0
ARC
  5
329
100
AcDbEntity
  8
0
100
AcDbCircle
 62
7
  6
CONTINUOUS
 10
4.777335159
 20
3.4536221962
 40
0.1023279671
100
AcDbArc
 50
206.423945577
 51
208.7991696296
  0
ARC
  5
32A
100
AcDbEntity
  8
0
100
AcDbCircle
 62
9
  6
CONTINUOUS
 10
4.7756421535
 20
3.4738199717
 40
0.1005607957
100
AcDbArc
 50
149.8417417056
 51
153.8280930231
  0
ARC
  5
32B
100
AcDbEntity
  8
0
100
AcDbCircle
 62
9
  6
CONTINUOUS
 10
4.7739677916
 20
3.4522027774
 40
0.0986633541
100
AcDbArc
 50
206.1558092099
 51
210.6764351483
  0
ARC
  5
32C
100
AcDbEntity
  8
0
100
AcDbCircle
 62
9
  6
CONTINUOUS
 10
4.8055679925
 20
3.479268885
 40
0.0981762482
100
AcDbArc
 50
144.0495887949
 51
149.3242208847
  0
ARC
  5
32D
100
AcDbEntity
  8
0
100
AcDbCircle
 62
7
  6
CONTINUOUS
 10
4.771401936
 20
3.4502585061
 40
0.0955082172
100
AcDbArc
 50
208.7455556328
 51
214.2927836486
  0
ARC
  5
32E
100
AcDbEntity
  8
0
100
AcDbCircle
 62
9
  6
CONTINUOUS
 10
4.7705780891
 20
3.4766901914
 40
0.0947402482
100
AcDbArc
 50
148.4697129652
 51
149.8039882603
  0
ARC
  5
32F
100
AcDbEntity
  8
0
100
AcDbCircle
 62
9
  6
CONTINUOUS
 10
4.7702201567
 20
3.450011208
 40
0.0943220439
100
AcDbArc
 50
210.6929073232
 51
211.550949136
  0
ARC
  5
330
100
AcDbEntity
  8
0
100
AcDbCircle
 62
7
  6
CONTINUOUS
 10
4.7823668813
 20
3.4735393469
 40
0.0936632489
100
AcDbArc
 50
149.3346541089
 51
155.140716486
  0
ARC
  5
331
100
AcDbEntity
  8
0
100
AcDbCircle
 62
9
  6
CONTINUOUS
 10
4.800007004
 20
3.4831995372
 40
0.0913668979
100
AcDbArc
 50
141.1839276801
 51
143.9976595164
  0
ARC
  5
332
100
AcDbEntity
  8
0
100
AcDbCircle
 62
9
  6
CONTINUOUS
 10
4.7670799798
 20
3.4788641505
 40
0.0906217192
100
AcDbArc
 50
143.3511666344
 51
148.4846788307
  0
ARC
  5
333
100
AcDbEntity
  8
0
100
AcDbCircle
 62
9
  6
CONTINUOUS
 10
4.7984132104
 20
3.442496982
 40
0.0893597111
100
AcDbArc
 50
215.9695971326
 51
220.1721686947
  0
ARC
  5
334
100
AcDbEntity
  8
0
100
AcDbCircle
 62
9
  6
CONTINUOUS
 10
4.7657636847
 20
3.4471643796
 40
0.0890347771
100
AcDbArc
 50
211.4903819227
 51
217.0363718919
  0
ARC
  5
335
100
AcDbEntity
  8
0
100
AcDbCircle
 62
7
  6
CONTINUOUS
 10
4.7657473434
 20
3.4805110179
 40
0.0886664078
100
AcDbArc
 50
140.0659140986
 51
145.8190251623
  0
ARC
  5
336
100
AcDbEntity
  8
0
100
AcDbCircle
 62
7
  6
CONTINUOUS
 10
4.7644528627
 20
3.4454273709
 40
0.0870451718
100
AcDbArc
 50
214.2427089323
 51
220.1525486885
  0
ARC
  5
337
100
AcDbEntity
  8
0
100
AcDbCircle
 62
7
  6
CONTINUOUS
 10
4.7756730462
 20
3.4775182384
 40
0.0858761489
100
AcDbArc
 50
145.1400732336
 51
149.3403109743
  0
ARC
  5
338
100
AcDbEntity
  8
0
100
AcDbCircle
 62
7
  6
CONTINUOUS
 10
4.7755164288
 20
3.4493234562
 40
0.0857026671
100
AcDbArc
 50
210.6693713769
 51
216.7893552928
  0
ARC
  5
339
100
AcDbEntity
  8
0
100
AcDbCircle
 62
7
  6
CONTINUOUS
 10
4.7723443195
 20
3.4798308746
 40
0.0818229178
100
AcDbArc
 50
143.1346624832
 51
145.1365934014
  0
ARC
  5
33A
100
AcDbEntity
  8
0
100
AcDbCircle
 62
7
  6
CONTINUOUS
 10
4.7592725856
 20
3.485849779
 40
0.0802747129
100
AcDbArc
 50
133.8908138897
 51
140.0212964647
  0
ARC
  5
33B
100
AcDbEntity
  8
0
100
AcDbCircle
 62
7
  6
CONTINUOUS
 10
4.8208007126
 20
4.2793033244
 40
0.055
100
AcDbArc
 50
171.0
 51
216.2735444504
  0
ARC
  5
33C
100
AcDbEntity
  8
0
100
AcDbCircle
 62
7
  6
CONTINUOUS
 10
4.9373281065
 20
3.7463203952
 40
0.2
100
AcDbArc
 50
143.6575953607
 51
201.0304772467
  0
ARC
  5
33D
100
AcDbEntity
  8
0
100
AcDbCircle
 62
7
  6
CONTINUOUS
 10
4.7964596273
 20
4.7059588509
 40
0.57
100
AcDbArc
 50
157.1448062398
 51
202.8551937602
  0
ARC
  5
33E
100
AcDbEntity
  8
0
100
AcDbCircle
 62
7
  6
CONTINUOUS
 10
4.7816900616
 20
4.9782535693
 40
0.01
100
AcDbArc
 50
284.4678892432
 51
39.4500000005
  0
ARC
  5
33F
100
AcDbEntity
  8
0
100
AcDbCircle
 62
7
  6
CONTINUOUS
 10
4.7807893498
 20
4.4421909813
 40
0.01
100
AcDbArc
 50
350.9999999983
 51
79.6206593927
  0
ARC
  5
340
100
AcDbEntity
  8
0
100
AcDbCircle
 62
7
  6
CONTINUOUS
 10
5.6111178741
 20
5.1476313237
 40
1.5
100
AcDbArc
 50
109.9122926115
 51
123.5576949178
  0
ARC
  5
341
100
AcDbEntity
  8
0
100
AcDbCircle
 62
9
  6
CONTINUOUS
 10
6.1303742973
 20
9.3021758721
 40
5.724349669
100
AcDbArc
 50
251.7795458294
 51
251.967600395
  0
ARC
  5
342
100
AcDbEntity
  8
0
100
AcDbCircle
 62
7
  6
CONTINUOUS
 10
5.0789596273
 20
6.6167173832
 40
0.0625
100
AcDbArc
 50
289.9122926115
 51
360.0
  0
SPLINE
  5
343
100
AcDbEntity
  8
0
100
AcDbSpline
 62
7
  6
CONTINUOUS
 70
0
 71
3
 72
9
 73
5
 74
0
 42
0.0000001
 43
0.0000001
 44
0.0000000001
 40
0.0
 40
0.0
 40
0.0
 40
0.0
 40
0.2470538647
 40
1.0
 40
1.0
 40
1.0
 40
1.0
 10
4.6777363513
 20
3.5513730506
 30
0.0
 10
4.678790029
 20
3.5506868996
 30
0.0
 10
4.6829782713
 20
3.5477927401
 30
0.0
 10
4.6868490107
 20
3.5444449915
 30
0.0
 10
4.6895566363
 20
3.5417331257
 30
0.0
  0
LINE
  5
344
100
AcDbEntity
  8
0
100
AcDbLine
 62
7
  6
CONTINUOUS
 10
4.695151913
 20
3.5339851053
 11
4.6937451056
 21
3.5342060114
  0
SPLINE
  5
345
100
AcDbEntity
  8
0
100
AcDbSpline
 62
7
  6
CONTINUOUS
 70
0
 71
3
 72
21
 73
17
 74
0
 42
0.0000001
 43
0.0000001
 44
0.0000000001
 40
0.0
 40
0.0
 40
0.0
 40
0.0
 40
0.0931272263
 40
0.1643543115
 40
0.2142622314
 40
0.2435049683
 40
0.253515722
 40
0.2617778954
 40
0.2861491547
 40
0.3252519651
 40
0.377618709
 40
0.4418025219
 40
0.5163935443
 40
0.6000299754
 40
0.7892682033
 40
1.0
 40
1.0
 40
1.0
 40
1.0
 10
4.6935125083
 20
3.3928769781
 30
0.0
 10
4.6934275148
 20
3.3928224317
 30
0.0
 10
4.6932743875
 20
3.3927270553
 30
0.0
 10
4.6930798901
 20
3.3926132871
 30
0.0
 10
4.6929246238
 20
3.3925256759
 30
0.0
 10
4.6928623979
 20
3.3924922399
 30
0.0
 10
4.6927906766
 20
3.392447808
 30
0.0
 10
4.6928592736
 20
3.3924643252
 30
0.0
 10
4.6929156376
 20
3.392486281
 30
0.0
 10
4.6930442785
 20
3.3925275904
 30
0.0
 10
4.6932010798
 20
3.3925784584
 30
0.0
 10
4.6934012084
 20
3.3926378285
 30
0.0
 10
4.6936336234
 20
3.3927005984
 30
0.0
 10
4.6940004982
 20
3.3927875816
 30
0.0
 10
4.6945171119
 20
3.3928809329
 30
0.0
 10
4.6949500228
 20
3.3929176488
 30
0.0
 10
4.6951782885
 20
3.3929285614
 30
0.0
  0
SPLINE
  5
346
100
AcDbEntity
  8
0
100
AcDbSpline
 62
7
  6
CONTINUOUS
 70
0
 71
3
 72
9
 73
5
 74
0
 42
0.0000001
 43
0.0000001
 44
0.0000000001
 40
0.0
 40
0.0
 40
0.0
 40
0.0
 40
0.5076118584
 40
1.0
 40
1.0
 40
1.0
 40
1.0
 10
4.6895555256
 20
3.3851835162
 30
0.0
 10
4.6860202001
 20
3.3816427886
 30
0.0
 10
4.6783652302
 20
3.3753140868
 30
0.0
 10
4.6695082824
 20
3.3707678398
 30
0.0
 10
4.6649548794
 20
3.3690877629
 30
0.0
  0
SPLINE
  5
347
100
AcDbEntity
  8
0
100
AcDbSpline
 62
7
  6
CONTINUOUS
 70
0
 71
3
 72
11
 73
7
 74
0
 42
0.0000001
 43
0.0000001
 44
0.0000000001
 40
0.0
 40
0.0
 40
0.0
 40
0.0
 40
0.2446505436
 40
0.4910922638
 40
0.7420107273
 40
1.0
 40
1.0
 40
1.0
 40
1.0
 10
4.7495110112
 20
3.3656614238
 30
0.0
 10
4.7461015538
 20
3.3653617174
 30
0.0
 10
4.7391800723
 20
3.3654350478
 30
0.0
 10
4.7289558662
 20
3.3675502067
 30
0.0
 10
4.719130998
 20
3.3715935731
 30
0.0
 10
4.7130912613
 20
3.3754361591
 30
0.0
 10
4.7102065275
 20
3.3776051939
 30
0.0
  0
SPLINE
  5
348
100
AcDbEntity
  8
0
100
AcDbSpline
 62
7
  6
CONTINUOUS
 70
0
 71
3
 72
9
 73
5
 74
0
 42
0.0000001
 43
0.0000001
 44
0.0000000001
 40
0.0
 40
0.0
 40
0.0
 40
0.0
 40
0.2473855812
 40
1.0
 40
1.0
 40
1.0
 40
1.0
 10
4.7038510476
 20
3.3829954149
 30
0.0
 10
4.7033338522
 20
3.3834873748
 30
0.0
 10
4.7012715572
 20
3.3855056658
 30
0.0
 10
4.6993226008
 20
3.3876392671
 30
0.0
 10
4.6979215985
 20
3.3892984762
 30
0.0
  0
SPLINE
  5
349
100
AcDbEntity
  8
0
100
AcDbSpline
 62
7
  6
CONTINUOUS
 70
0
 71
3
 72
9
 73
5
 74
0
 42
0.0000001
 43
0.0000001
 44
0.0000000001
 40
0.0
 40
0.0
 40
0.0
 40
0.0
 40
0.2538560279
 40
1.0
 40
1.0
 40
1.0
 40
1.0
 10
4.6856871026
 20
3.5188110246
 30
0.0
 10
4.6861891348
 20
3.5198212572
 30
0.0
 10
4.6882305193
 20
3.5237686682
 30
0.0
 10
4.6905326377
 20
3.5275822977
 30
0.0
 10
4.6923965352
 20
3.5303245784
 30
0.0
  0
SPLINE
  5
34A
100
AcDbEntity
  8
0
100
AcDbSpline
 62
7
  6
CONTINUOUS
 70
0
 71
3
 72
11
 73
7
 74
0
 42
0.0000001
 43
0.0000001
 44
0.0000000001
 40
0.0
 40
0.0
 40
0.0
 40
0.0
 40
0.2581232752
 40
0.5090700407
 40
0.7554472908
 40
1.0
 40
1.0
 40
1.0
 40
1.0
 10
4.7099013736
 20
3.5490818134
 30
0.0
 10
4.7128008571
 20
3.5512873033
 30
0.0
 10
4.7188761314
 20
3.5551967956
 30
0.0
 10
4.7287732766
 20
3.5593162947
 30
0.0
 10
4.7390809367
 20
3.5614785961
 30
0.0
 10
4.746062101
 20
3.561558476
 30
0.0
 10
4.7495003272
 20
3.5612567572
 30
0.0
  0
SPLINE
  5
34B
100
AcDbEntity
  8
0
100
AcDbSpline
 62
7
  6
CONTINUOUS
 70
0
 71
3
 72
9
 73
5
 74
0
 42
0.0000001
 43
0.0000001
 44
0.0000000001
 40
0.0
 40
0.0
 40
0.0
 40
0.0
 40
0.5076118584
 40
1.0
 40
1.0
 40
1.0
 40
1.0
 10
4.3433637291
 20
3.5417341857
 30
0.0
 10
4.3468990546
 20
3.5452749133
 30
0.0
 10
4.3545540244
 20
3.551603615
 30
0.0
 10
4.3634109722
 20
3.5561498621
 30
0.0
 10
4.3679643753
 20
3.5578299389
 30
0.0
  0
SPLINE
  5
34C
100
AcDbEntity
  8
0
100
AcDbSpline
 62
7
  6
CONTINUOUS
 70
0
 71
3
 72
9
 73
5
 74
0
 42
0.0000001
 43
0.0000001
 44
0.0000000001
 40
0.0
 40
0.0
 40
0.0
 40
0.0
 40
0.2513456988
 40
1.0
 40
1.0
 40
1.0
 40
1.0
 10
4.3679643753
 20
3.5578299389
 30
0.0
 10
4.369046523
 20
3.5582292208
 30
0.0
 10
4.373396491
 20
3.5596940011
 30
0.0
 10
4.3779181846
 20
3.5606515967
 30
0.0
 10
4.3813297044
 20
3.5610583033
 30
0.0
  0
SPLINE
  5
34D
100
AcDbEntity
  8
0
100
AcDbSpline
 62
7
  6
CONTINUOUS
 70
0
 71
3
 72
21
 73
17
 74
0
 42
0.0000001
 43
0.0000001
 44
0.0000000001
 40
0.0
 40
0.0
 40
0.0
 40
0.0
 40
0.0931272263
 40
0.1643543115
 40
0.2142622314
 40
0.2435049684
 40
0.253515722
 40
0.2617778954
 40
0.2861491547
 40
0.3252519651
 40
0.377618709
 40
0.4418025219
 40
0.5163935443
 40
0.6000299754
 40
0.7892682033
 40
1.0
 40
1.0
 40
1.0
 40
1.0
 10
4.3394067464
 20
3.5340407238
 30
0.0
 10
4.3394917398
 20
3.5340952701
 30
0.0
 10
4.3396448672
 20
3.5341906466
 30
0.0
 10
4.3398393645
 20
3.5343044148
 30
0.0
 10
4.3399946309
 20
3.534392026
 30
0.0
 10
4.3400568568
 20
3.534425462
 30
0.0
 10
4.3401285781
 20
3.5344698939
 30
0.0
 10
4.340059981
 20
3.5344533767
 30
0.0
 10
4.3400036171
 20
3.5344314209
 30
0.0
 10
4.3398749762
 20
3.5343901114
 30
0.0
 10
4.3397181748
 20
3.5343392435
 30
0.0
 10
4.3395180463
 20
3.5342798734
 30
0.0
 10
4.3392856312
 20
3.5342171035
 30
0.0
 10
4.3389187564
 20
3.5341301202
 30
0.0
 10
4.3384021427
 20
3.534036769
 30
0.0
 10
4.3379692318
 20
3.5340000531
 30
0.0
 10
4.3377409661
 20
3.5339891405
 30
0.0
  0
LINE
  5
34E
100
AcDbEntity
  8
0
100
AcDbLine
 62
7
  6
CONTINUOUS
 10
4.3377673417
 20
3.3929325965
 11
4.3391741491
 21
3.3927116904
  0
SPLINE
  5
34F
100
AcDbEntity
  8
0
100
AcDbSpline
 62
7
  6
CONTINUOUS
 70
0
 71
3
 72
9
 73
5
 74
0
 42
0.0000001
 43
0.0000001
 44
0.0000000001
 40
0.0
 40
0.0
 40
0.0
 40
0.0
 40
0.2493381821
 40
1.0
 40
1.0
 40
1.0
 40
1.0
 10
4.3813578118
 20
3.3658559894
 30
0.0
 10
4.380223718
 20
3.3659906088
 30
0.0
 10
4.3756922129
 20
3.366665942
 30
0.0
 10
4.3712427259
 20
3.3678814333
 30
0.0
 10
4.3680159478
 20
3.369068765
 30
0.0
  0
SPLINE
  5
350
100
AcDbEntity
  8
0
100
AcDbSpline
 62
7
  6
CONTINUOUS
 70
0
 71
3
 72
9
 73
5
 74
0
 42
0.0000001
 43
0.0000001
 44
0.0000000001
 40
0.0
 40
0.0
 40
0.0
 40
0.0
 40
0.2470538647
 40
1.0
 40
1.0
 40
1.0
 40
1.0
 10
4.3551829034
 20
3.3755446512
 30
0.0
 10
4.3541292257
 20
3.3762308023
 30
0.0
 10
4.3499409833
 20
3.3791249618
 30
0.0
 10
4.346070244
 20
3.3824727103
 30
0.0
 10
4.3433626183
 20
3.3851845762
 30
0.0
  0
SPLINE
  5
351
100
AcDbEntity
  8
0
100
AcDbSpline
 62
7
  6
CONTINUOUS
 70
0
 71
3
 72
9
 73
5
 74
0
 42
0.0000001
 43
0.0000001
 44
0.0000000001
 40
0.0
 40
0.0
 40
0.0
 40
0.0
 40
0.2538560279
 40
1.0
 40
1.0
 40
1.0
 40
1.0
 10
4.347232152
 20
3.4081066772
 30
0.0
 10
4.3467301198
 20
3.4070964447
 30
0.0
 10
4.3446887354
 20
3.4031490337
 30
0.0
 10
4.3423866169
 20
3.3993354042
 30
0.0
 10
4.3405227194
 20
3.3965931235
 30
0.0
  0
SPLINE
  5
352
100
AcDbEntity
  8
0
100
AcDbSpline
 62
7
  6
CONTINUOUS
 70
0
 71
3
 72
9
 73
5
 74
0
 42
0.0000001
 43
0.0000001
 44
0.0000000001
 40
0.0
 40
0.0
 40
0.0
 40
0.0
 40
0.2556178184
 40
1.0
 40
1.0
 40
1.0
 40
1.0
 10
4.3405227194
 20
3.3965931235
 30
0.0
 10
4.3396855685
 20
3.3953614556
 30
0.0
 10
4.3362948938
 20
3.3906234422
 30
0.0
 10
4.3324295944
 20
3.386219229
 30
0.0
 10
4.3293000274
 20
3.3832169657
 30
0.0
  0
SPLINE
  5
353
100
AcDbEntity
  8
0
100
AcDbSpline
 62
7
  6
CONTINUOUS
 70
0
 71
3
 72
11
 73
7
 74
0
 42
0.0000001
 43
0.0000001
 44
0.0000000001
 40
0.0
 40
0.0
 40
0.0
 40
0.0
 40
0.2581232752
 40
0.5090700407
 40
0.7554472908
 40
1.0
 40
1.0
 40
1.0
 40
1.0
 10
4.3230178811
 20
3.3778358884
 30
0.0
 10
4.3201183976
 20
3.3756303985
 30
0.0
 10
4.3140431233
 20
3.3717209062
 30
0.0
 10
4.3041459781
 20
3.3676014072
 30
0.0
 10
4.2938383179
 20
3.3654391058
 30
0.0
 10
4.2868571537
 20
3.3653592259
 30
0.0
 10
4.2834189274
 20
3.3656609447
 30
0.0
  0
SPLINE
  5
354
100
AcDbEntity
  8
0
100
AcDbSpline
 62
7
  6
CONTINUOUS
 70
0
 71
3
 72
11
 73
7
 74
0
 42
0.0000001
 43
0.0000001
 44
0.0000000001
 40
0.0
 40
0.0
 40
0.0
 40
0.0
 40
0.2446505436
 40
0.4910922638
 40
0.7420107273
 40
1.0
 40
1.0
 40
1.0
 40
1.0
 10
4.2834082434
 20
3.5612562781
 30
0.0
 10
4.2868177008
 20
3.5615559844
 30
0.0
 10
4.2937391824
 20
3.5614826541
 30
0.0
 10
4.3039633884
 20
3.5593674952
 30
0.0
 10
4.3137882566
 20
3.5553241288
 30
0.0
 10
4.3198279934
 20
3.5514815428
 30
0.0
 10
4.3227127271
 20
3.549312508
 30
0.0
  0
SPLINE
  5
355
100
AcDbEntity
  8
0
100
AcDbSpline
 62
7
  6
CONTINUOUS
 70
0
 71
3
 72
9
 73
5
 74
0
 42
0.0000001
 43
0.0000001
 44
0.0000000001
 40
0.0
 40
0.0
 40
0.0
 40
0.0
 40
0.2447663814
 40
1.0
 40
1.0
 40
1.0
 40
1.0
 10
4.3290682071
 20
3.543922287
 30
0.0
 10
4.3301099724
 20
3.5429313524
 30
0.0
 10
4.3342498445
 20
3.538761436
 30
0.0
 10
4.3379224378
 20
3.5341348895
 30
0.0
 10
4.3404232721
 20
3.5304706263
 30
0.0
  0
SPLINE
  5
356
100
AcDbEntity
  8
0
100
AcDbSpline
 62
7
  6
CONTINUOUS
 70
0
 71
3
 72
9
 73
5
 74
0
 42
0.0000001
 43
0.0000001
 44
0.0000000001
 40
0.0
 40
0.0
 40
0.0
 40
0.0
 40
0.2478968587
 40
1.0
 40
1.0
 40
1.0
 40
1.0
 10
4.7392393022
 20
3.5520254252
 30
0.0
 10
4.7386524798
 20
3.5518755042
 30
0.0
 10
4.7362971916
 20
3.5512247811
 30
0.0
 10
4.7339925639
 20
3.5503925122
 30
0.0
 10
4.7323006411
 20
3.5496755432
 30
0.0
  0
SPLINE
  5
357
100
AcDbEntity
  8
0
100
AcDbSpline
 62
7
  6
CONTINUOUS
 70
0
 71
3
 72
9
 73
5
 74
0
 42
0.0000001
 43
0.0000001
 44
0.0000000001
 40
0.0
 40
0.0
 40
0.0
 40
0.0
 40
0.2437265593
 40
1.0
 40
1.0
 40
1.0
 40
1.0
 10
4.7323006411
 20
3.5496755432
 30
0.0
 10
4.7311095664
 20
3.5491708135
 30
0.0
 10
4.7263022634
 20
3.5469142456
 30
0.0
 10
4.7218413683
 20
3.5439401111
 30
0.0
 10
4.718732381
 20
3.5414011373
 30
0.0
  0
SPLINE
  5
358
100
AcDbEntity
  8
0
100
AcDbSpline
 62
7
  6
CONTINUOUS
 70
0
 71
3
 72
9
 73
5
 74
0
 42
0.0000001
 43
0.0000001
 44
0.0000000001
 40
0.0
 40
0.0
 40
0.0
 40
0.0
 40
0.2425875004
 40
1.0
 40
1.0
 40
1.0
 40
1.0
 10
4.718732381
 20
3.5414011373
 30
0.0
 10
4.7176529159
 20
3.5405195854
 30
0.0
 10
4.7133256197
 20
3.5367365922
 30
0.0
 10
4.7094928285
 20
3.5324006276
 30
0.0
 10
4.7068820781
 20
3.5289194154
 30
0.0
  0
SPLINE
  5
359
100
AcDbEntity
  8
0
100
AcDbSpline
 62
7
  6
CONTINUOUS
 70
0
 71
3
 72
9
 73
5
 74
0
 42
0.0000001
 43
0.0000001
 44
0.0000000001
 40
0.0
 40
0.0
 40
0.0
 40
0.0
 40
0.4898356611
 40
1.0
 40
1.0
 40
1.0
 40
1.0
 10
4.6973821891
 20
3.5129145458
 30
0.0
 10
4.6945985306
 20
3.5069281762
 30
0.0
 10
4.6901126238
 20
3.4941267987
 30
0.0
 10
4.687916367
 20
3.4807588216
 30
0.0
 10
4.6873470261
 20
3.4739065249
 30
0.0
  0
SPLINE
  5
35A
100
AcDbEntity
  8
0
100
AcDbSpline
 62
7
  6
CONTINUOUS
 70
0
 71
3
 72
9
 73
5
 74
0
 42
0.0000001
 43
0.0000001
 44
0.0000000001
 40
0.0
 40
0.0
 40
0.0
 40
0.0
 40
0.5101643389
 40
1.0
 40
1.0
 40
1.0
 40
1.0
 10
4.6873470261
 20
3.4530111769
 30
0.0
 10
4.687916367
 20
3.4461588802
 30
0.0
 10
4.6901126238
 20
3.4327909031
 30
0.0
 10
4.6945985306
 20
3.4199895257
 30
0.0
 10
4.6973821891
 20
3.414003156
 30
0.0
  0
SPLINE
  5
35B
100
AcDbEntity
  8
0
100
AcDbSpline
 62
7
  6
CONTINUOUS
 70
0
 71
3
 72
9
 73
5
 74
0
 42
0.0000001
 43
0.0000001
 44
0.0000000001
 40
0.0
 40
0.0
 40
0.0
 40
0.0
 40
0.2531993849
 40
1.0
 40
1.0
 40
1.0
 40
1.0
 10
4.6973821891
 20
3.414003156
 30
0.0
 10
4.697719889
 20
3.4132769188
 30
0.0
 10
4.6990880984
 20
3.4104248832
 30
0.0
 10
4.7005956009
 20
3.4076392893
 30
0.0
 10
4.7018014163
 20
3.4056079661
 30
0.0
  0
SPLINE
  5
35C
100
AcDbEntity
  8
0
100
AcDbSpline
 62
7
  6
CONTINUOUS
 70
0
 71
3
 72
9
 73
5
 74
0
 42
0.0000001
 43
0.0000001
 44
0.0000000001
 40
0.0
 40
0.0
 40
0.0
 40
0.0
 40
0.5153309017
 40
1.0
 40
1.0
 40
1.0
 40
1.0
 10
4.7068820781
 20
3.3979982865
 30
0.0
 10
4.709492903
 20
3.394516975
 30
0.0
 10
4.7151136805
 20
3.3881513061
 30
0.0
 10
4.7218519615
 20
3.3829518031
 30
0.0
 10
4.7253464802
 20
3.3808215534
 30
0.0
  0
SPLINE
  5
35D
100
AcDbEntity
  8
0
100
AcDbSpline
 62
7
  6
CONTINUOUS
 70
0
 71
3
 72
9
 73
5
 74
0
 42
0.0000001
 43
0.0000001
 44
0.0000000001
 40
0.0
 40
0.0
 40
0.0
 40
0.0
 40
0.2532669898
 40
1.0
 40
1.0
 40
1.0
 40
1.0
 10
4.7253464802
 20
3.3808215534
 30
0.0
 10
4.7259105555
 20
3.3804776945
 30
0.0
 10
4.7281614563
 20
3.3791593966
 30
0.0
 10
4.7305072429
 20
3.3780021289
 30
0.0
 10
4.7323006411
 20
3.3772421587
 30
0.0
  0
SPLINE
  5
35E
100
AcDbEntity
  8
0
100
AcDbSpline
 62
7
  6
CONTINUOUS
 70
0
 71
3
 72
9
 73
5
 74
0
 42
0.0000001
 43
0.0000001
 44
0.0000000001
 40
0.0
 40
0.0
 40
0.0
 40
0.0
 40
0.252438952
 40
1.0
 40
1.0
 40
1.0
 40
1.0
 10
4.7323006411
 20
3.3772421587
 30
0.0
 10
4.7328696125
 20
3.3770010514
 30
0.0
 10
4.7351406614
 20
3.3760870719
 30
0.0
 10
4.7374798275
 20
3.3753412174
 30
0.0
 10
4.7392529829
 20
3.3748887837
 30
0.0
  0
SPLINE
  5
35F
100
AcDbEntity
  8
0
100
AcDbSpline
 62
7
  6
CONTINUOUS
 70
0
 71
3
 72
9
 73
5
 74
0
 42
0.0000001
 43
0.0000001
 44
0.0000000001
 40
0.0
 40
0.0
 40
0.0
 40
0.0
 40
0.5101643389
 40
1.0
 40
1.0
 40
1.0
 40
1.0
 10
4.3455722286
 20
3.4739065249
 30
0.0
 10
4.3450028877
 20
3.4807588216
 30
0.0
 10
4.3428066309
 20
3.4941267987
 30
0.0
 10
4.3383207241
 20
3.5069281762
 30
0.0
 10
4.3355370656
 20
3.5129145458
 30
0.0
  0
SPLINE
  5
360
100
AcDbEntity
  8
0
100
AcDbSpline
 62
7
  6
CONTINUOUS
 70
0
 71
3
 72
9
 73
5
 74
0
 42
0.0000001
 43
0.0000001
 44
0.0000000001
 40
0.0
 40
0.0
 40
0.0
 40
0.0
 40
0.2531993849
 40
1.0
 40
1.0
 40
1.0
 40
1.0
 10
4.3355370656
 20
3.5129145458
 30
0.0
 10
4.3351993657
 20
3.5136407831
 30
0.0
 10
4.3338311563
 20
3.5164928186
 30
0.0
 10
4.3323236537
 20
3.5192784126
 30
0.0
 10
4.3311178383
 20
3.5213097358
 30
0.0
  0
SPLINE
  5
361
100
AcDbEntity
  8
0
100
AcDbSpline
 62
7
  6
CONTINUOUS
 70
0
 71
3
 72
9
 73
5
 74
0
 42
0.0000001
 43
0.0000001
 44
0.0000000001
 40
0.0
 40
0.0
 40
0.0
 40
0.0
 40
0.5153309017
 40
1.0
 40
1.0
 40
1.0
 40
1.0
 10
4.3260371766
 20
3.5289194154
 30
0.0
 10
4.3234263517
 20
3.5324007269
 30
0.0
 10
4.3178055742
 20
3.5387663958
 30
0.0
 10
4.3110672932
 20
3.5439658988
 30
0.0
 10
4.3075727745
 20
3.5460961485
 30
0.0
  0
SPLINE
  5
362
100
AcDbEntity
  8
0
100
AcDbSpline
 62
7
  6
CONTINUOUS
 70
0
 71
3
 72
9
 73
5
 74
0
 42
0.0000001
 43
0.0000001
 44
0.0000000001
 40
0.0
 40
0.0
 40
0.0
 40
0.0
 40
0.2532669898
 40
1.0
 40
1.0
 40
1.0
 40
1.0
 10
4.3075727745
 20
3.5460961485
 30
0.0
 10
4.3070086992
 20
3.5464400074
 30
0.0
 10
4.3047577984
 20
3.5477583052
 30
0.0
 10
4.3024120117
 20
3.5489155729
 30
0.0
 10
4.3006186136
 20
3.5496755432
 30
0.0
  0
SPLINE
  5
363
100
AcDbEntity
  8
0
100
AcDbSpline
 62
7
  6
CONTINUOUS
 70
0
 71
3
 72
9
 73
5
 74
0
 42
0.0000001
 43
0.0000001
 44
0.0000000001
 40
0.0
 40
0.0
 40
0.0
 40
0.0
 40
0.252438952
 40
1.0
 40
1.0
 40
1.0
 40
1.0
 10
4.3006186136
 20
3.5496755432
 30
0.0
 10
4.3000496421
 20
3.5499166504
 30
0.0
 10
4.2977785933
 20
3.55083063
 30
0.0
 10
4.2954394272
 20
3.5515764844
 30
0.0
 10
4.2936662717
 20
3.5520289181
 30
0.0
  0
SPLINE
  5
364
100
AcDbEntity
  8
0
100
AcDbSpline
 62
7
  6
CONTINUOUS
 70
0
 71
3
 72
9
 73
5
 74
0
 42
0.0000001
 43
0.0000001
 44
0.0000000001
 40
0.0
 40
0.0
 40
0.0
 40
0.0
 40
0.2478968587
 40
1.0
 40
1.0
 40
1.0
 40
1.0
 10
4.2936799524
 20
3.3748922767
 30
0.0
 10
4.2942667748
 20
3.3750421977
 30
0.0
 10
4.2966220631
 20
3.3756929207
 30
0.0
 10
4.2989266908
 20
3.3765251897
 30
0.0
 10
4.3006186136
 20
3.3772421587
 30
0.0
  0
SPLINE
  5
365
100
AcDbEntity
  8
0
100
AcDbSpline
 62
7
  6
CONTINUOUS
 70
0
 71
3
 72
9
 73
5
 74
0
 42
0.0000001
 43
0.0000001
 44
0.0000000001
 40
0.0
 40
0.0
 40
0.0
 40
0.0
 40
0.2437265593
 40
1.0
 40
1.0
 40
1.0
 40
1.0
 10
4.3006186136
 20
3.3772421587
 30
0.0
 10
4.3018096883
 20
3.3777468884
 30
0.0
 10
4.3066169912
 20
3.3800034562
 30
0.0
 10
4.3110778863
 20
3.3829775908
 30
0.0
 10
4.3141868736
 20
3.3855165646
 30
0.0
  0
SPLINE
  5
366
100
AcDbEntity
  8
0
100
AcDbSpline
 62
7
  6
CONTINUOUS
 70
0
 71
3
 72
9
 73
5
 74
0
 42
0.0000001
 43
0.0000001
 44
0.0000000001
 40
0.0
 40
0.0
 40
0.0
 40
0.0
 40
0.2425875004
 40
1.0
 40
1.0
 40
1.0
 40
1.0
 10
4.3141868736
 20
3.3855165646
 30
0.0
 10
4.3152663388
 20
3.3863981165
 30
0.0
 10
4.319593635
 20
3.3901811096
 30
0.0
 10
4.3234264261
 20
3.3945170743
 30
0.0
 10
4.3260371766
 20
3.3979982865
 30
0.0
  0
SPLINE
  5
367
100
AcDbEntity
  8
0
100
AcDbSpline
 62
7
  6
CONTINUOUS
 70
0
 71
3
 72
9
 73
5
 74
0
 42
0.0000001
 43
0.0000001
 44
0.0000000001
 40
0.0
 40
0.0
 40
0.0
 40
0.0
 40
0.4898356611
 40
1.0
 40
1.0
 40
1.0
 40
1.0
 10
4.3355370656
 20
3.414003156
 30
0.0
 10
4.3383207241
 20
3.4199895257
 30
0.0
 10
4.3428066309
 20
3.4327909031
 30
0.0
 10
4.3450028877
 20
3.4461588802
 30
0.0
 10
4.3455722286
 20
3.4530111769
 30
0.0
  0
SPLINE
  5
368
100
AcDbEntity
  8
0
100
AcDbSpline
 62
7
  6
CONTINUOUS
 70
0
 71
3
 72
16
 73
12
 74
0
 42
0.0000001
 43
0.0000001
 44
0.0000000001
 40
0.0
 40
0.0
 40
0.0
 40
0.0
 40
0.1384949588
 40
0.2619233973
 40
0.3757292261
 40
0.4863608226
 40
0.5426589665
 40
0.6004776723
 40
0.7215141005
 40
0.8527898228
 40
1.0
 40
1.0
 40
1.0
 40
1.0
 10
4.7841884354
 20
4.9685706912
 30
0.0
 10
4.7817653009
 20
4.9679454747
 30
0.0
 10
4.7772445883
 20
4.9664768961
 30
0.0
 10
4.7712035729
 20
4.9632910585
 30
0.0
 10
4.766340326
 20
4.9592254889
 30
0.0
 10
4.7632879267
 20
4.9551117156
 30
0.0
 10
4.7614520668
 20
4.9514819218
 30
0.0
 10
4.7599409884
 20
4.9475033626
 30
0.0
 10
4.758853044
 20
4.9419500061
 30
0.0
 10
4.759204064
 20
4.9346706212
 30
0.0
 10
4.7606754577
 20
4.9297999522
 30
0.0
 10
4.7617085997
 20
4.9273488169
 30
0.0
  0
SPLINE
  5
369
100
AcDbEntity
  8
0
100
AcDbSpline
 62
7
  6
CONTINUOUS
 70
0
 71
3
 72
16
 73
12
 74
0
 42
0.0000001
 43
0.0000001
 44
0.0000000001
 40
0.0
 40
0.0
 40
0.0
 40
0.0
 40
0.1472101772
 40
0.2784858995
 40
0.3995223277
 40
0.4573410335
 40
0.5136391774
 40
0.6242707739
 40
0.7380766027
 40
0.8615050412
 40
1.0
 40
1.0
 40
1.0
 40
1.0
 10
4.271210655
 20
4.9273488169
 30
0.0
 10
4.2722437969
 20
4.9297999522
 30
0.0
 10
4.2737151906
 20
4.9346706212
 30
0.0
 10
4.2740662107
 20
4.9419500061
 30
0.0
 10
4.2729782663
 20
4.9475033626
 30
0.0
 10
4.2714671878
 20
4.9514819218
 30
0.0
 10
4.2696313279
 20
4.9551117156
 30
0.0
 10
4.2665789286
 20
4.9592254889
 30
0.0
 10
4.2617156817
 20
4.9632910585
 30
0.0
 10
4.2556746663
 20
4.9664768961
 30
0.0
 10
4.2511539537
 20
4.9679454747
 30
0.0
 10
4.2487308192
 20
4.9685706912
 30
0.0
  0
SPLINE
  5
36A
100
AcDbEntity
  8
0
100
AcDbSpline
 62
7
  6
CONTINUOUS
 70
0
 71
3
 72
9
 73
5
 74
0
 42
0.0000001
 43
0.0000001
 44
0.0000000001
 40
0.0
 40
0.0
 40
0.0
 40
0.0
 40
0.267777653
 40
1.0
 40
1.0
 40
1.0
 40
1.0
 10
4.25032826
 20
4.4520273463
 30
0.0
 10
4.2510852179
 20
4.452165992
 30
0.0
 10
4.2539004139
 20
4.4527410104
 30
0.0
 10
4.2566714215
 20
4.4535627678
 30
0.0
 10
4.2586228189
 20
4.4543502238
 30
0.0
  0
SPLINE
  5
36B
100
AcDbEntity
  8
0
100
AcDbSpline
 62
7
  6
CONTINUOUS
 70
0
 71
3
 72
15
 73
11
 74
0
 42
0.0000001
 43
0.0000001
 44
0.0000000001
 40
0.0
 40
0.0
 40
0.0
 40
0.0
 40
0.1266665729
 40
0.2438300757
 40
0.3564995853
 40
0.4699869311
 40
0.5886209974
 40
0.7141986229
 40
0.8496532733
 40
1.0
 40
1.0
 40
1.0
 40
1.0
 10
4.2586228189
 20
4.4543502238
 30
0.0
 10
4.260060274
 20
4.4549302864
 30
0.0
 10
4.2627555911
 20
4.4562464358
 30
0.0
 10
4.2662904103
 20
4.4588477273
 30
0.0
 10
4.2691244227
 20
4.4619906423
 30
0.0
 10
4.2712616807
 20
4.4656593719
 30
0.0
 10
4.2727349582
 20
4.4698091955
 30
0.0
 10
4.273381237
 20
4.4744458934
 30
0.0
 10
4.2729743206
 20
4.4795035875
 30
0.0
 10
4.2719252653
 20
4.4828734677
 30
0.0
 10
4.271210655
 20
4.4845688849
 30
0.0
  0
SPLINE
  5
36C
100
AcDbEntity
  8
0
100
AcDbSpline
 62
7
  6
CONTINUOUS
 70
0
 71
3
 72
15
 73
11
 74
0
 42
0.0000001
 43
0.0000001
 44
0.0000000001
 40
0.0
 40
0.0
 40
0.0
 40
0.0
 40
0.1446639348
 40
0.2731964026
 40
0.3917899059
 40
0.5034644647
 40
0.6130497373
 40
0.727940425
 40
0.8550622277
 40
1.0
 40
1.0
 40
1.0
 40
1.0
 10
4.7617085997
 20
4.4845688849
 30
0.0
 10
4.7608600581
 20
4.4825557151
 30
0.0
 10
4.7596914825
 20
4.4785415097
 30
0.0
 10
4.7596031996
 20
4.4725569697
 30
0.0
 10
4.7609241023
 20
4.4672480521
 30
0.0
 10
4.7632702491
 20
4.4626327117
 30
0.0
 10
4.7666295569
 20
4.4587566252
 30
0.0
 10
4.7710196146
 20
4.455686351
 30
0.0
 10
4.7764296861
 20
4.4533929916
 30
0.0
 10
4.7804379849
 20
4.4524216951
 30
0.0
 10
4.7825909946
 20
4.4520273463
 30
0.0
  0
SPLINE
  5
36D
100
AcDbEntity
  8
0
100
AcDbSpline
 62
7
  6
CONTINUOUS
 70
0
 71
3
 72
11
 73
7
 74
0
 42
0.0000001
 43
0.0000001
 44
0.0000000001
 40
0.0
 40
0.0
 40
0.0
 40
0.0
 40
0.224337909
 40
0.4669254716
 40
0.7262908439
 40
1.0
 40
1.0
 40
1.0
 40
1.0
 10
4.6702553522
 20
3.5634588509
 30
0.0
 10
4.6664159152
 20
3.5634588509
 30
0.0
 10
4.6584121387
 20
3.5625211444
 30
0.0
 10
4.6464926202
 20
3.5587998439
 30
0.0
 10
4.6345801541
 20
3.5528280885
 30
0.0
 10
4.6270579129
 20
3.5476083646
 30
0.0
 10
4.6233894601
 20
3.5446952768
 30
0.0
  0
SPLINE
  5
36E
100
AcDbEntity
  8
0
100
AcDbSpline
 62
7
  6
CONTINUOUS
 70
0
 71
3
 72
9
 73
5
 74
0
 42
0.0000001
 43
0.0000001
 44
0.0000000001
 40
0.0
 40
0.0
 40
0.0
 40
0.0
 40
0.7497352423
 40
1.0
 40
1.0
 40
1.0
 40
1.0
 10
4.5844625862
 20
3.4833188071
 30
0.0
 10
4.5834116307
 20
3.478432006
 30
0.0
 10
4.5825086114
 20
3.471788166
 30
0.0
 10
4.5823253038
 20
3.4651220456
 30
0.0
 10
4.5823253984
 20
3.4634535143
 30
0.0
  0
SPLINE
  5
36F
100
AcDbEntity
  8
0
100
AcDbSpline
 62
7
  6
CONTINUOUS
 70
0
 71
3
 72
9
 73
5
 74
0
 42
0.0000001
 43
0.0000001
 44
0.0000000001
 40
0.0
 40
0.0
 40
0.0
 40
0.0
 40
0.2502650218
 40
1.0
 40
1.0
 40
1.0
 40
1.0
 10
4.5823253984
 20
3.4634535143
 30
0.0
 10
4.5823254929
 20
3.4617849993
 30
0.0
 10
4.5825095524
 20
3.4551189713
 30
0.0
 10
4.5834133016
 20
3.4484753054
 30
0.0
 10
4.5844647755
 20
3.4435886726
 30
0.0
  0
SPLINE
  5
370
100
AcDbEntity
  8
0
100
AcDbSpline
 62
7
  6
CONTINUOUS
 70
0
 71
3
 72
11
 73
7
 74
0
 42
0.0000001
 43
0.0000001
 44
0.0000000001
 40
0.0
 40
0.0
 40
0.0
 40
0.0
 40
0.2737072904
 40
0.5330711775
 40
0.7756586627
 40
1.0
 40
1.0
 40
1.0
 40
1.0
 10
4.6233986014
 20
3.3822151668
 30
0.0
 10
4.6270665139
 20
3.3793031573
 30
0.0
 10
4.6345875099
 20
3.3740853975
 30
0.0
 10
4.6464976711
 20
3.3681159496
 30
0.0
 10
4.6584147071
 20
3.3643961348
 30
0.0
 10
4.6664167268
 20
3.3634588509
 30
0.0
 10
4.6702553522
 20
3.3634588509
 30
0.0
  0
SPLINE
  5
371
100
AcDbEntity
  8
0
100
AcDbSpline
 62
7
  6
CONTINUOUS
 70
0
 71
3
 72
11
 73
7
 74
0
 42
0.0000001
 43
0.0000001
 44
0.0000000001
 40
0.0
 40
0.0
 40
0.0
 40
0.0
 40
0.2240969927
 40
0.4666908307
 40
0.7261755363
 40
1.0
 40
1.0
 40
1.0
 40
1.0
 10
4.3626639024
 20
3.3609588509
 30
0.0
 10
4.3666010667
 20
3.3609588509
 30
0.0
 10
4.3748129639
 20
3.3619211959
 30
0.0
 10
4.3870492892
 20
3.365731171
 30
0.0
 10
4.3992921657
 20
3.3718413466
 30
0.0
 10
4.40703241
 20
3.3771796538
 30
0.0
 10
4.4108098741
 20
3.380158718
 30
0.0
  0
SPLINE
  5
372
100
AcDbEntity
  8
0
100
AcDbSpline
 62
7
  6
CONTINUOUS
 70
0
 71
3
 72
9
 73
5
 74
0
 42
0.0000001
 43
0.0000001
 44
0.0000000001
 40
0.0
 40
0.0
 40
0.0
 40
0.0
 40
0.5000797595
 40
1.0
 40
1.0
 40
1.0
 40
1.0
 10
4.4527339208
 20
3.4532710116
 30
0.0
 10
4.453288747
 20
3.4583631489
 30
0.0
 10
4.4535706109
 20
3.4686549388
 30
0.0
 10
4.4521581391
 20
3.4788495708
 30
0.0
 10
4.4510687067
 20
3.4838529792
 30
0.0
  0
SPLINE
  5
373
100
AcDbEntity
  8
0
100
AcDbSpline
 62
7
  6
CONTINUOUS
 70
0
 71
3
 72
9
 73
5
 74
0
 42
0.0000001
 43
0.0000001
 44
0.0000000001
 40
0.0
 40
0.0
 40
0.0
 40
0.0
 40
0.2512213494
 40
1.0
 40
1.0
 40
1.0
 40
1.0
 10
4.4483206014
 20
3.4939105869
 30
0.0
 10
4.4477473233
 20
3.4956471233
 30
0.0
 10
4.4452766719
 20
3.5024963204
 30
0.0
 10
4.4420831438
 20
3.5090803826
 30
0.0
 10
4.4393546909
 20
3.5137989064
 30
0.0
  0
SPLINE
  5
374
100
AcDbEntity
  8
0
100
AcDbSpline
 62
7
  6
CONTINUOUS
 70
0
 71
3
 72
11
 73
7
 74
0
 42
0.0000001
 43
0.0000001
 44
0.0000000001
 40
0.0
 40
0.0
 40
0.0
 40
0.0
 40
0.2738222882
 40
0.5333052845
 40
0.7758989864
 40
1.0
 40
1.0
 40
1.0
 40
1.0
 10
4.410798616
 20
3.5467678569
 30
0.0
 10
4.4070218208
 20
3.5497455996
 30
0.0
 10
4.399283111
 20
3.5550814971
 30
0.0
 10
4.387043072
 20
3.5611888422
 30
0.0
 10
4.3748098066
 20
3.5649970152
 30
0.0
 10
4.3666000691
 20
3.5659588509
 30
0.0
 10
4.3626639024
 20
3.5659588509
 30
0.0
  0
SPLINE
  5
375
100
AcDbEntity
  8
0
100
AcDbSpline
 62
9
  6
CONTINUOUS
 70
0
 71
3
 72
9
 73
5
 74
0
 42
0.0000001
 43
0.0000001
 44
0.0000000001
 40
0.0
 40
0.0
 40
0.0
 40
0.0
 40
0.5061894798
 40
1.0
 40
1.0
 40
1.0
 40
1.0
 10
4.3287492858
 20
3.4634588509
 30
0.0
 10
4.3287492858
 20
3.4555591189
 30
0.0
 10
4.3274668451
 20
3.4399280464
 30
0.0
 10
4.323618623
 20
3.4247104336
 30
0.0
 10
4.3210388053
 20
3.4174485234
 30
0.0
  0
SPLINE
  5
376
100
AcDbEntity
  8
0
100
AcDbSpline
 62
9
  6
CONTINUOUS
 70
0
 71
3
 72
9
 73
5
 74
0
 42
0.0000001
 43
0.0000001
 44
0.0000000001
 40
0.0
 40
0.0
 40
0.0
 40
0.0
 40
0.2559606752
 40
1.0
 40
1.0
 40
1.0
 40
1.0
 10
4.3210388053
 20
3.4174485234
 30
0.0
 10
4.3204118264
 20
3.4156836451
 30
0.0
 10
4.317806289
 20
3.4088456742
 30
0.0
 10
4.3145685838
 20
3.4022429562
 30
0.0
 10
4.3117895134
 20
3.3975613191
 30
0.0
  0
SPLINE
  5
377
100
AcDbEntity
  8
0
100
AcDbSpline
 62
9
  6
CONTINUOUS
 70
0
 71
3
 72
10
 73
6
 74
0
 42
0.0000001
 43
0.0000001
 44
0.0000000001
 40
0.0
 40
0.0
 40
0.0
 40
0.0
 40
0.256072648
 40
0.6354558422
 40
1.0
 40
1.0
 40
1.0
 40
1.0
 10
4.3340054603
 20
3.4634588509
 30
0.0
 10
4.3340054603
 20
3.4593380365
 30
0.0
 10
4.3334723558
 20
3.4491068383
 30
0.0
 10
4.3306000628
 20
3.4332073585
 30
0.0
 10
4.326548125
 20
3.4218675089
 30
0.0
 10
4.3240746042
 20
3.4165481029
 30
0.0
  0
SPLINE
  5
378
100
AcDbEntity
  8
0
100
AcDbSpline
 62
9
  6
CONTINUOUS
 70
0
 71
3
 72
9
 73
5
 74
0
 42
0.0000001
 43
0.0000001
 44
0.0000000001
 40
0.0
 40
0.0
 40
0.0
 40
0.0
 40
0.2563141814
 40
1.0
 40
1.0
 40
1.0
 40
1.0
 10
4.3240746042
 20
3.4165481029
 30
0.0
 10
4.3234795689
 20
3.4152684554
 30
0.0
 10
4.3210472836
 20
3.4103287461
 30
0.0
 10
4.3181580073
 20
3.4056099568
 30
0.0
 10
4.3157507803
 20
3.4022976756
 30
0.0
  0
SPLINE
  5
379
100
AcDbEntity
  8
0
100
AcDbSpline
 62
9
  6
CONTINUOUS
 70
0
 71
3
 72
9
 73
5
 74
0
 42
0.0000001
 43
0.0000001
 44
0.0000000001
 40
0.0
 40
0.0
 40
0.0
 40
0.0
 40
0.5027913714
 40
1.0
 40
1.0
 40
1.0
 40
1.0
 10
4.3596600292
 20
3.4634588509
 30
0.0
 10
4.3596600292
 20
3.4580416386
 30
0.0
 10
4.3590046083
 20
3.4472584031
 30
0.0
 10
4.3570639587
 20
3.4366287552
 30
0.0
 10
4.3557630977
 20
3.4314320373
 30
0.0
  0
SPLINE
  5
37A
100
AcDbEntity
  8
0
100
AcDbSpline
 62
9
  6
CONTINUOUS
 70
0
 71
3
 72
9
 73
5
 74
0
 42
0.0000001
 43
0.0000001
 44
0.0000000001
 40
0.0
 40
0.0
 40
0.0
 40
0.0
 40
0.5078234153
 40
1.0
 40
1.0
 40
1.0
 40
1.0
 10
4.4049982595
 20
3.5510597203
 30
0.0
 10
4.4018216004
 20
3.552816925
 30
0.0
 10
4.39521428
 20
3.5556896152
 30
0.0
 10
4.3881347158
 20
3.5570805012
 30
0.0
 10
4.3846280509
 20
3.5573679345
 30
0.0
  0
SPLINE
  5
37B
100
AcDbEntity
  8
0
100
AcDbSpline
 62
9
  6
CONTINUOUS
 70
0
 71
3
 72
9
 73
5
 74
0
 42
0.0000001
 43
0.0000001
 44
0.0000000001
 40
0.0
 40
0.0
 40
0.0
 40
0.0
 40
0.2478427457
 40
1.0
 40
1.0
 40
1.0
 40
1.0
 10
4.3692096482
 20
3.5561011231
 30
0.0
 10
4.3685729062
 20
3.5559423724
 30
0.0
 10
4.3660168967
 20
3.5552500047
 30
0.0
 10
4.3635169624
 20
3.5543528708
 30
0.0
 10
4.3616832621
 20
3.5535758221
 30
0.0
  0
SPLINE
  5
37C
100
AcDbEntity
  8
0
100
AcDbSpline
 62
9
  6
CONTINUOUS
 70
0
 71
3
 72
9
 73
5
 74
0
 42
0.0000001
 43
0.0000001
 44
0.0000000001
 40
0.0
 40
0.0
 40
0.0
 40
0.0
 40
0.4821080614
 40
1.0
 40
1.0
 40
1.0
 40
1.0
 10
4.3616832621
 20
3.5535758221
 30
0.0
 10
4.3570783358
 20
3.5516244389
 30
0.0
 10
4.3480731069
 20
3.5462055173
 30
0.0
 10
4.3406780476
 20
3.5387956805
 30
0.0
 10
4.3372751094
 20
3.5346382521
 30
0.0
  0
SPLINE
  5
37D
100
AcDbEntity
  8
0
100
AcDbSpline
 62
9
  6
CONTINUOUS
 70
0
 71
3
 72
9
 73
5
 74
0
 42
0.0000001
 43
0.0000001
 44
0.0000000001
 40
0.0
 40
0.0
 40
0.0
 40
0.0
 40
0.5061894798
 40
1.0
 40
1.0
 40
1.0
 40
1.0
 10
4.7041699689
 20
3.4634588509
 30
0.0
 10
4.7041699689
 20
3.471358583
 30
0.0
 10
4.7054524095
 20
3.4869896555
 30
0.0
 10
4.7093006317
 20
3.5022072682
 30
0.0
 10
4.7118804494
 20
3.5094691784
 30
0.0
  0
SPLINE
  5
37E
100
AcDbEntity
  8
0
100
AcDbSpline
 62
9
  6
CONTINUOUS
 70
0
 71
3
 72
9
 73
5
 74
0
 42
0.0000001
 43
0.0000001
 44
0.0000000001
 40
0.0
 40
0.0
 40
0.0
 40
0.0
 40
0.2559606752
 40
1.0
 40
1.0
 40
1.0
 40
1.0
 10
4.7118804494
 20
3.5094691784
 30
0.0
 10
4.7125074283
 20
3.5112340568
 30
0.0
 10
4.7151129656
 20
3.5180720276
 30
0.0
 10
4.7183506708
 20
3.5246747456
 30
0.0
 10
4.7211297412
 20
3.5293563827
 30
0.0
  0
SPLINE
  5
37F
100
AcDbEntity
  8
0
100
AcDbSpline
 62
9
  6
CONTINUOUS
 70
0
 71
3
 72
10
 73
6
 74
0
 42
0.0000001
 43
0.0000001
 44
0.0000000001
 40
0.0
 40
0.0
 40
0.0
 40
0.0
 40
0.256072648
 40
0.6354558422
 40
1.0
 40
1.0
 40
1.0
 40
1.0
 10
4.6989137943
 20
3.4634588509
 30
0.0
 10
4.6989137943
 20
3.4675796654
 30
0.0
 10
4.6994468988
 20
3.4778108636
 30
0.0
 10
4.7023191918
 20
3.4937103433
 30
0.0
 10
4.7063711296
 20
3.5050501929
 30
0.0
 10
4.7088446504
 20
3.510369599
 30
0.0
  0
SPLINE
  5
380
100
AcDbEntity
  8
0
100
AcDbSpline
 62
9
  6
CONTINUOUS
 70
0
 71
3
 72
9
 73
5
 74
0
 42
0.0000001
 43
0.0000001
 44
0.0000000001
 40
0.0
 40
0.0
 40
0.0
 40
0.0
 40
0.2563141814
 40
1.0
 40
1.0
 40
1.0
 40
1.0
 10
4.7088446504
 20
3.510369599
 30
0.0
 10
4.7094396858
 20
3.5116492464
 30
0.0
 10
4.7118719711
 20
3.5165889558
 30
0.0
 10
4.7147612474
 20
3.521307745
 30
0.0
 10
4.7171684744
 20
3.5246200263
 30
0.0
  0
SPLINE
  5
381
100
AcDbEntity
  8
0
100
AcDbSpline
 62
9
  6
CONTINUOUS
 70
0
 71
3
 72
9
 73
5
 74
0
 42
0.0000001
 43
0.0000001
 44
0.0000000001
 40
0.0
 40
0.0
 40
0.0
 40
0.0
 40
0.5027913714
 40
1.0
 40
1.0
 40
1.0
 40
1.0
 10
4.6732592255
 20
3.4634588509
 30
0.0
 10
4.6732592255
 20
3.4688760633
 30
0.0
 10
4.6739146464
 20
3.4796592988
 30
0.0
 10
4.675855296
 20
3.4902889466
 30
0.0
 10
4.6771561569
 20
3.4954856646
 30
0.0
  0
SPLINE
  5
382
100
AcDbEntity
  8
0
100
AcDbSpline
 62
9
  6
CONTINUOUS
 70
0
 71
3
 72
9
 73
5
 74
0
 42
0.0000001
 43
0.0000001
 44
0.0000000001
 40
0.0
 40
0.0
 40
0.0
 40
0.0
 40
0.2478427457
 40
1.0
 40
1.0
 40
1.0
 40
1.0
 10
4.6637096065
 20
3.3708165787
 30
0.0
 10
4.6643463484
 20
3.3709753295
 30
0.0
 10
4.666902358
 20
3.3716676972
 30
0.0
 10
4.6694022923
 20
3.3725648311
 30
0.0
 10
4.6712359926
 20
3.3733418798
 30
0.0
  0
SPLINE
  5
383
100
AcDbEntity
  8
0
100
AcDbSpline
 62
9
  6
CONTINUOUS
 70
0
 71
3
 72
9
 73
5
 74
0
 42
0.0000001
 43
0.0000001
 44
0.0000000001
 40
0.0
 40
0.0
 40
0.0
 40
0.0
 40
0.4821080614
 40
1.0
 40
1.0
 40
1.0
 40
1.0
 10
4.6712359926
 20
3.3733418798
 30
0.0
 10
4.6758409189
 20
3.3752932629
 30
0.0
 10
4.6848461478
 20
3.3807121846
 30
0.0
 10
4.6922412071
 20
3.3881220214
 30
0.0
 10
4.6956441452
 20
3.3922794497
 30
0.0
  0
SPLINE
  5
384
100
AcDbEntity
  8
0
100
AcDbSpline
 62
9
  6
CONTINUOUS
 70
0
 71
3
 72
9
 73
5
 74
0
 42
0.0000001
 43
0.0000001
 44
0.0000000001
 40
0.0
 40
0.0
 40
0.0
 40
0.0
 40
0.2438431602
 40
1.0
 40
1.0
 40
1.0
 40
1.0
 10
4.3068274299
 20
3.5369066717
 30
0.0
 10
4.3077753113
 20
3.5356024119
 30
0.0
 10
4.3115239133
 20
3.5301535226
 30
0.0
 10
4.3147152915
 20
3.5243271048
 30
0.0
 10
4.3168234238
 20
3.5197934815
 30
0.0
  0
SPLINE
  5
385
100
AcDbEntity
  8
0
100
AcDbSpline
 62
9
  6
CONTINUOUS
 70
0
 71
3
 72
9
 73
5
 74
0
 42
0.0000001
 43
0.0000001
 44
0.0000000001
 40
0.0
 40
0.0
 40
0.0
 40
0.0
 40
0.4938105202
 40
1.0
 40
1.0
 40
1.0
 40
1.0
 10
4.3210388053
 20
3.5094691784
 30
0.0
 10
4.323618623
 20
3.5022072682
 30
0.0
 10
4.3274668451
 20
3.4869896555
 30
0.0
 10
4.3287492858
 20
3.471358583
 30
0.0
 10
4.3287492858
 20
3.4634588509
 30
0.0
  0
SPLINE
  5
386
100
AcDbEntity
  8
0
100
AcDbSpline
 62
9
  6
CONTINUOUS
 70
0
 71
3
 72
9
 73
5
 74
0
 42
0.0000001
 43
0.0000001
 44
0.0000000001
 40
0.0
 40
0.0
 40
0.0
 40
0.0
 40
0.2438431602
 40
1.0
 40
1.0
 40
1.0
 40
1.0
 10
4.3157507803
 20
3.5246200263
 30
0.0
 10
4.3165400962
 20
3.5235339482
 30
0.0
 10
4.3196616171
 20
3.5189965709
 30
0.0
 10
4.3223191288
 20
3.5141448197
 30
0.0
 10
4.3240746042
 20
3.510369599
 30
0.0
  0
SPLINE
  5
387
100
AcDbEntity
  8
0
100
AcDbSpline
 62
9
  6
CONTINUOUS
 70
0
 71
3
 72
10
 73
6
 74
0
 42
0.0000001
 43
0.0000001
 44
0.0000000001
 40
0.0
 40
0.0
 40
0.0
 40
0.0
 40
0.2411720164
 40
0.6165592825
 40
1.0
 40
1.0
 40
1.0
 40
1.0
 10
4.3240746042
 20
3.510369599
 30
0.0
 10
4.3257110587
 20
3.5068503379
 30
0.0
 10
4.3293469246
 20
3.4975910138
 30
0.0
 10
4.3330613544
 20
3.4818605847
 30
0.0
 10
4.3340054603
 20
3.4696294834
 30
0.0
 10
4.3340054603
 20
3.4634588509
 30
0.0
  0
SPLINE
  5
388
100
AcDbEntity
  8
0
100
AcDbSpline
 62
9
  6
CONTINUOUS
 70
0
 71
3
 72
9
 73
5
 74
0
 42
0.0000001
 43
0.0000001
 44
0.0000000001
 40
0.0
 40
0.0
 40
0.0
 40
0.0
 40
0.2564268352
 40
1.0
 40
1.0
 40
1.0
 40
1.0
 10
4.3372776199
 20
3.3922763828
 30
0.0
 10
4.3380635429
 20
3.3913163033
 30
0.0
 10
4.3412139092
 20
3.3876436794
 30
0.0
 10
4.3447145556
 20
3.3842663343
 30
0.0
 10
4.3475011998
 20
3.381990604
 30
0.0
  0
SPLINE
  5
389
100
AcDbEntity
  8
0
100
AcDbSpline
 62
9
  6
CONTINUOUS
 70
0
 71
3
 72
9
 73
5
 74
0
 42
0.0000001
 43
0.0000001
 44
0.0000000001
 40
0.0
 40
0.0
 40
0.0
 40
0.0
 40
0.2573318247
 40
1.0
 40
1.0
 40
1.0
 40
1.0
 10
4.3475011998
 20
3.381990604
 30
0.0
 10
4.3486068631
 20
3.3810876572
 30
0.0
 10
4.3530165378
 20
3.3777210942
 30
0.0
 10
4.3578899354
 20
3.3749493396
 30
0.0
 10
4.3616832621
 20
3.3733418798
 30
0.0
  0
SPLINE
  5
38A
100
AcDbEntity
  8
0
100
AcDbSpline
 62
9
  6
CONTINUOUS
 70
0
 71
3
 72
9
 73
5
 74
0
 42
0.0000001
 43
0.0000001
 44
0.0000000001
 40
0.0
 40
0.0
 40
0.0
 40
0.0
 40
0.2525153236
 40
1.0
 40
1.0
 40
1.0
 40
1.0
 10
4.3616832621
 20
3.3733418798
 30
0.0
 10
4.3622988686
 20
3.3730810104
 30
0.0
 10
4.3647559568
 20
3.3720939789
 30
0.0
 10
4.3672892763
 20
3.3712953605
 30
0.0
 10
4.3692096482
 20
3.3708165787
 30
0.0
  0
SPLINE
  5
38B
100
AcDbEntity
  8
0
100
AcDbSpline
 62
9
  6
CONTINUOUS
 70
0
 71
3
 72
9
 73
5
 74
0
 42
0.0000001
 43
0.0000001
 44
0.0000000001
 40
0.0
 40
0.0
 40
0.0
 40
0.0
 40
0.4951770111
 40
1.0
 40
1.0
 40
1.0
 40
1.0
 10
4.3846280509
 20
3.3695497674
 30
0.0
 10
4.3872150471
 20
3.3697618175
 30
0.0
 10
4.3924128121
 20
3.3706221068
 30
0.0
 10
4.3974011838
 20
3.3723093893
 30
0.0
 10
4.3998376825
 20
3.3733418798
 30
0.0
  0
SPLINE
  5
38C
100
AcDbEntity
  8
0
100
AcDbSpline
 62
9
  6
CONTINUOUS
 70
0
 71
3
 72
9
 73
5
 74
0
 42
0.0000001
 43
0.0000001
 44
0.0000000001
 40
0.0
 40
0.0
 40
0.0
 40
0.0
 40
0.4970180998
 40
1.0
 40
1.0
 40
1.0
 40
1.0
 10
4.4432674582
 20
3.4312845274
 30
0.0
 10
4.4446071364
 20
3.4364972747
 30
0.0
 10
4.4466045622
 20
3.447173842
 30
0.0
 10
4.4472790174
 20
3.458012126
 30
0.0
 10
4.4472790174
 20
3.4634588509
 30
0.0
  0
SPLINE
  5
38D
100
AcDbEntity
  8
0
100
AcDbSpline
 62
9
  6
CONTINUOUS
 70
0
 71
3
 72
9
 73
5
 74
0
 42
0.0000001
 43
0.0000001
 44
0.0000000001
 40
0.0
 40
0.0
 40
0.0
 40
0.0
 40
0.4972086286
 40
1.0
 40
1.0
 40
1.0
 40
1.0
 10
4.3557630977
 20
3.4954856646
 30
0.0
 10
4.3570639587
 20
3.4902889466
 30
0.0
 10
4.3590046083
 20
3.4796592988
 30
0.0
 10
4.3596600292
 20
3.4688760633
 30
0.0
 10
4.3596600292
 20
3.4634588509
 30
0.0
  0
SPLINE
  5
38E
100
AcDbEntity
  8
0
100
AcDbSpline
 62
9
  6
CONTINUOUS
 70
0
 71
3
 72
25
 73
21
 74
0
 42
0.0000001
 43
0.0000001
 44
0.0000000001
 40
0.0
 40
0.0
 40
0.0
 40
0.0
 40
0.0563812027
 40
0.1150346547
 40
0.17573526
 40
0.2381938626
 40
0.302058692
 40
0.3344610813
 40
0.367174419
 40
0.4333270025
 40
0.5000008145
 40
0.5666744708
 40
0.6328273877
 40
0.6655412741
 40
0.6979438218
 40
0.7618078829
 40
0.8242656568
 40
0.8849659399
 40
0.9436190868
 40
1.0
 40
1.0
 40
1.0
 40
1.0
 10
4.6531644131
 20
4.2879072199
 30
0.0
 10
4.6482829626
 20
4.2900938924
 30
0.0
 10
4.6382206103
 20
4.294327363
 30
0.0
 10
4.6226451426
 20
4.3002787681
 30
0.0
 10
4.6063937272
 20
4.3060603816
 30
0.0
 10
4.5895882068
 20
4.3117553642
 30
0.0
 10
4.575123965
 20
4.3159753053
 30
0.0
 10
4.5632148253
 20
4.3187988511
 30
0.0
 10
4.5509864219
 20
4.3211715444
 30
0.0
 10
4.5353908902
 20
4.3231823287
 30
0.0
 10
4.5164594536
 20
4.3240144775
 30
0.0
 10
4.4975279785
 20
4.3231822828
 30
0.0
 10
4.4819324073
 20
4.3211714129
 30
0.0
 10
4.4697037992
 20
4.3187992635
 30
0.0
 10
4.457794618
 20
4.3159758933
 30
0.0
 10
4.4433306356
 20
4.31175546
 30
0.0
 10
4.4265259564
 20
4.3060585487
 30
0.0
 10
4.4102750014
 20
4.3002760964
 30
0.0
 10
4.3946991544
 20
4.2943259693
 30
0.0
 10
4.3846364266
 20
4.2900935249
 30
0.0
 10
4.3797548415
 20
4.2879072199
 30
0.0
  0
SPLINE
  5
38F
100
AcDbEntity
  8
0
100
AcDbSpline
 62
9
  6
CONTINUOUS
 70
0
 71
3
 72
9
 73
5
 74
0
 42
0.0000001
 43
0.0000001
 44
0.0000000001
 40
0.0
 40
0.0
 40
0.0
 40
0.0
 40
0.5133812958
 40
1.0
 40
1.0
 40
1.0
 40
1.0
 10
4.3401801427
 20
4.24676307
 30
0.0
 10
4.3480951348
 20
4.2525412939
 30
0.0
 10
4.3623387432
 20
4.2654506936
 30
0.0
 10
4.3743315106
 20
4.2803659457
 30
0.0
 10
4.3797548415
 20
4.2879072199
 30
0.0
  0
SPLINE
  5
390
100
AcDbEntity
  8
0
100
AcDbSpline
 62
9
  6
CONTINUOUS
 70
0
 71
3
 72
9
 73
5
 74
0
 42
0.0000001
 43
0.0000001
 44
0.0000000001
 40
0.0
 40
0.0
 40
0.0
 40
0.0
 40
0.4866191758
 40
1.0
 40
1.0
 40
1.0
 40
1.0
 10
4.6531644131
 20
4.2879072199
 30
0.0
 10
4.6585877496
 20
4.2803659374
 30
0.0
 10
4.6705803575
 20
4.2654504949
 30
0.0
 10
4.6848243272
 20
4.2525415662
 30
0.0
 10
4.6927391106
 20
4.24676307
 30
0.0
  0
SPLINE
  5
391
100
AcDbEntity
  8
0
100
AcDbSpline
 62
9
  6
CONTINUOUS
 70
0
 71
3
 72
9
 73
5
 74
0
 42
0.0000001
 43
0.0000001
 44
0.0000000001
 40
0.0
 40
0.0
 40
0.0
 40
0.0
 40
0.2435538134
 40
1.0
 40
1.0
 40
1.0
 40
1.0
 10
4.3789970657
 20
4.2519333093
 30
0.0
 10
4.3758611109
 20
4.2514070205
 30
0.0
 10
4.3629766716
 20
4.2493052717
 30
0.0
 10
4.350018231
 20
4.2475956267
 30
0.0
 10
4.3401774131
 20
4.2467618887
 30
0.0
  0
SPLINE
  5
392
100
AcDbEntity
  8
0
100
AcDbSpline
 62
9
  6
CONTINUOUS
 70
0
 71
3
 72
9
 73
5
 74
0
 42
0.0000001
 43
0.0000001
 44
0.0000000001
 40
0.0
 40
0.0
 40
0.0
 40
0.0
 40
0.2557563972
 40
1.0
 40
1.0
 40
1.0
 40
1.0
 10
4.6927425581
 20
4.2467612399
 30
0.0
 10
4.6894151267
 20
4.2470435735
 30
0.0
 10
4.6764216967
 20
4.2483506598
 30
0.0
 10
4.6635056875
 20
4.250324967
 30
0.0
 10
4.6539221889
 20
4.2519333093
 30
0.0
  0
LINE
  5
393
100
AcDbEntity
  8
0
100
AcDbLine
 62
9
  6
CONTINUOUS
 10
4.6539215322
 20
4.2519313847
 11
4.6414904418
 21
4.2543869812
  0
LINE
  5
394
100
AcDbEntity
  8
0
100
AcDbLine
 62
9
  6
CONTINUOUS
 10
4.3914284453
 20
4.2543869016
 11
4.3789977267
 21
4.2519313756
  0
SPLINE
  5
395
100
AcDbEntity
  8
0
100
AcDbSpline
 62
9
  6
CONTINUOUS
 70
0
 71
3
 72
12
 73
8
 74
0
 42
0.0000001
 43
0.0000001
 44
0.0000000001
 40
0.0
 40
0.0
 40
0.0
 40
0.0
 40
0.1959107582
 40
0.4342183603
 40
0.5680971274
 40
0.7090504177
 40
1.0
 40
1.0
 40
1.0
 40
1.0
 10
4.3789982169
 20
4.2519319043
 30
0.0
 10
4.3800841371
 20
4.2540701632
 30
0.0
 10
4.3817946198
 20
4.259164082
 30
0.0
 10
4.382634786
 20
4.2661079073
 30
0.0
 10
4.3825408062
 20
4.2723959777
 30
0.0
 10
4.3818740482
 20
4.2792944928
 30
0.0
 10
4.3807690984
 20
4.2844931652
 30
0.0
 10
4.3797559433
 20
4.2879076224
 30
0.0
  0
SPLINE
  5
396
100
AcDbEntity
  8
0
100
AcDbSpline
 62
9
  6
CONTINUOUS
 70
0
 71
3
 72
12
 73
8
 74
0
 42
0.0000001
 43
0.0000001
 44
0.0000000001
 40
0.0
 40
0.0
 40
0.0
 40
0.0
 40
0.0997051743
 40
0.2097045105
 40
0.4554622587
 40
0.7256328983
 40
1.0
 40
1.0
 40
1.0
 40
1.0
 10
4.653922162
 20
4.2519333035
 30
0.0
 10
4.6533694211
 20
4.253021569
 30
0.0
 10
4.6523869426
 20
4.255403803
 30
0.0
 10
4.6508989079
 20
4.2607870079
 30
0.0
 10
4.6500690017
 20
4.2684627478
 30
0.0
 10
4.6507863883
 20
4.2781480923
 30
0.0
 10
4.6522089338
 20
4.2846871835
 30
0.0
 10
4.6531644175
 20
4.2879072178
 30
0.0
  0
SPLINE
  5
397
100
AcDbEntity
  8
0
100
AcDbSpline
 62
9
  6
CONTINUOUS
 70
0
 71
3
 72
9
 73
5
 74
0
 42
0.0000001
 43
0.0000001
 44
0.0000000001
 40
0.0
 40
0.0
 40
0.0
 40
0.0
 40
0.2438431602
 40
1.0
 40
1.0
 40
1.0
 40
1.0
 10
4.7260918247
 20
3.3900110301
 30
0.0
 10
4.7251439434
 20
3.39131529
 30
0.0
 10
4.7213953414
 20
3.3967641793
 30
0.0
 10
4.7182039632
 20
3.402590597
 30
0.0
 10
4.7160958309
 20
3.4071242204
 30
0.0
  0
SPLINE
  5
398
100
AcDbEntity
  8
0
100
AcDbSpline
 62
9
  6
CONTINUOUS
 70
0
 71
3
 72
9
 73
5
 74
0
 42
0.0000001
 43
0.0000001
 44
0.0000000001
 40
0.0
 40
0.0
 40
0.0
 40
0.0
 40
0.4938105202
 40
1.0
 40
1.0
 40
1.0
 40
1.0
 10
4.7118804494
 20
3.4174485234
 30
0.0
 10
4.7093006317
 20
3.4247104336
 30
0.0
 10
4.7054524095
 20
3.4399280464
 30
0.0
 10
4.7041699689
 20
3.4555591189
 30
0.0
 10
4.7041699689
 20
3.4634588509
 30
0.0
  0
SPLINE
  5
399
100
AcDbEntity
  8
0
100
AcDbSpline
 62
9
  6
CONTINUOUS
 70
0
 71
3
 72
9
 73
5
 74
0
 42
0.0000001
 43
0.0000001
 44
0.0000000001
 40
0.0
 40
0.0
 40
0.0
 40
0.0
 40
0.2438431602
 40
1.0
 40
1.0
 40
1.0
 40
1.0
 10
4.7171684744
 20
3.4022976756
 30
0.0
 10
4.7163791584
 20
3.4033837536
 30
0.0
 10
4.7132576376
 20
3.4079211309
 30
0.0
 10
4.7106001259
 20
3.4127728822
 30
0.0
 10
4.7088446504
 20
3.4165481029
 30
0.0
  0
SPLINE
  5
39A
100
AcDbEntity
  8
0
100
AcDbSpline
 62
9
  6
CONTINUOUS
 70
0
 71
3
 72
10
 73
6
 74
0
 42
0.0000001
 43
0.0000001
 44
0.0000000001
 40
0.0
 40
0.0
 40
0.0
 40
0.0
 40
0.2411720164
 40
0.6165592825
 40
1.0
 40
1.0
 40
1.0
 40
1.0
 10
4.7088446504
 20
3.4165481029
 30
0.0
 10
4.707208196
 20
3.420067364
 30
0.0
 10
4.70357233
 20
3.4293266881
 30
0.0
 10
4.6998579002
 20
3.4450571172
 30
0.0
 10
4.6989137943
 20
3.4572882185
 30
0.0
 10
4.6989137943
 20
3.4634588509
 30
0.0
  0
SPLINE
  5
39B
100
AcDbEntity
  8
0
100
AcDbSpline
 62
9
  6
CONTINUOUS
 70
0
 71
3
 72
9
 73
5
 74
0
 42
0.0000001
 43
0.0000001
 44
0.0000000001
 40
0.0
 40
0.0
 40
0.0
 40
0.0
 40
0.4972086286
 40
1.0
 40
1.0
 40
1.0
 40
1.0
 10
4.6771561569
 20
3.4314320373
 30
0.0
 10
4.675855296
 20
3.4366287552
 30
0.0
 10
4.6739146464
 20
3.4472584031
 30
0.0
 10
4.6732592255
 20
3.4580416386
 30
0.0
 10
4.6732592255
 20
3.4634588509
 30
0.0
  0
SPLINE
  5
39C
100
AcDbEntity
  8
0
100
AcDbSpline
 62
9
  6
CONTINUOUS
 70
0
 71
3
 72
9
 73
5
 74
0
 42
0.0000001
 43
0.0000001
 44
0.0000000001
 40
0.0
 40
0.0
 40
0.0
 40
0.0
 40
0.2564268352
 40
1.0
 40
1.0
 40
1.0
 40
1.0
 10
4.6956416347
 20
3.5346413191
 30
0.0
 10
4.6948557118
 20
3.5356013985
 30
0.0
 10
4.6917053455
 20
3.5392740224
 30
0.0
 10
4.688204699
 20
3.5426513676
 30
0.0
 10
4.6854180549
 20
3.5449270978
 30
0.0
  0
SPLINE
  5
39D
100
AcDbEntity
  8
0
100
AcDbSpline
 62
9
  6
CONTINUOUS
 70
0
 71
3
 72
9
 73
5
 74
0
 42
0.0000001
 43
0.0000001
 44
0.0000000001
 40
0.0
 40
0.0
 40
0.0
 40
0.0
 40
0.2573318247
 40
1.0
 40
1.0
 40
1.0
 40
1.0
 10
4.6854180549
 20
3.5449270978
 30
0.0
 10
4.6843123916
 20
3.5458300447
 30
0.0
 10
4.6799027169
 20
3.5491966076
 30
0.0
 10
4.6750293193
 20
3.5519683623
 30
0.0
 10
4.6712359926
 20
3.5535758221
 30
0.0
  0
SPLINE
  5
39E
100
AcDbEntity
  8
0
100
AcDbSpline
 62
9
  6
CONTINUOUS
 70
0
 71
3
 72
9
 73
5
 74
0
 42
0.0000001
 43
0.0000001
 44
0.0000000001
 40
0.0
 40
0.0
 40
0.0
 40
0.0
 40
0.2525153236
 40
1.0
 40
1.0
 40
1.0
 40
1.0
 10
4.6712359926
 20
3.5535758221
 30
0.0
 10
4.670620386
 20
3.5538366915
 30
0.0
 10
4.6681632978
 20
3.554823723
 30
0.0
 10
4.6656299783
 20
3.5556223414
 30
0.0
 10
4.6637096065
 20
3.5561011231
 30
0.0
  0
SPLINE
  5
39F
100
AcDbEntity
  8
0
100
AcDbSpline
 62
9
  6
CONTINUOUS
 70
0
 71
3
 72
9
 73
5
 74
0
 42
0.0000001
 43
0.0000001
 44
0.0000000001
 40
0.0
 40
0.0
 40
0.0
 40
0.0
 40
0.247333103
 40
1.0
 40
1.0
 40
1.0
 40
1.0
 10
4.5896517964
 20
3.4956331744
 30
0.0
 10
4.5891084864
 20
3.4935191308
 30
0.0
 10
4.5871452572
 20
3.4849131141
 30
0.0
 10
4.5860818286
 20
3.4761047525
 30
0.0
 10
4.5857780668
 20
3.4694693306
 30
0.0
  0
SPLINE
  5
3A0
100
AcDbEntity
  8
0
100
AcDbSpline
 62
7
  6
CONTINUOUS
 70
0
 71
3
 72
11
 73
7
 74
0
 42
0.0000001
 43
0.0000001
 44
0.0000000001
 40
0.0
 40
0.0
 40
0.0
 40
0.0
 40
0.2565421154
 40
0.502467762
 40
0.7466536818
 40
1.0
 40
1.0
 40
1.0
 40
1.0
 10
4.6702553522
 20
3.3634588509
 30
0.0
 10
4.6737714267
 20
3.3634588509
 30
0.0
 10
4.6806900189
 20
3.3642095009
 30
0.0
 10
4.690396627
 20
3.3677776315
 30
0.0
 10
4.698826377
 20
3.3736864915
 30
0.0
 10
4.7033893298
 20
3.3788343698
 30
0.0
 10
4.7054380045
 20
3.3816378709
 30
0.0
  0
SPLINE
  5
3A1
100
AcDbEntity
  8
0
100
AcDbSpline
 62
7
  6
CONTINUOUS
 70
0
 71
3
 72
11
 73
7
 74
0
 42
0.0000001
 43
0.0000001
 44
0.0000000001
 40
0.0
 40
0.0
 40
0.0
 40
0.0
 40
0.2539806931
 40
0.4981704572
 40
0.743756374
 40
1.0
 40
1.0
 40
1.0
 40
1.0
 10
4.7058542964
 20
3.5447024156
 30
0.0
 10
4.703801921
 20
3.5475878089
 30
0.0
 10
4.6992205511
 20
3.5528896385
 30
0.0
 10
4.6907039696
 20
3.5589944824
 30
0.0
 10
4.6808577954
 20
3.5626840451
 30
0.0
 10
4.6738277679
 20
3.5634588509
 30
0.0
 10
4.6702553522
 20
3.5634588509
 30
0.0
  0
SPLINE
  5
3A2
100
AcDbEntity
  8
0
100
AcDbSpline
 62
9
  6
CONTINUOUS
 70
0
 71
3
 72
9
 73
5
 74
0
 42
0.0000001
 43
0.0000001
 44
0.0000000001
 40
0.0
 40
0.0
 40
0.0
 40
0.0
 40
0.4923730739
 40
1.0
 40
1.0
 40
1.0
 40
1.0
 10
4.3583746771
 20
3.8589969775
 30
0.0
 10
4.3695217374
 20
3.8553793588
 30
0.0
 10
4.3922145869
 20
3.8481956321
 30
0.0
 10
4.4151765355
 20
3.8418734996
 30
0.0
 10
4.4269301659
 20
3.8390738523
 30
0.0
  0
SPLINE
  5
3A3
100
AcDbEntity
  8
0
100
AcDbSpline
 62
9
  6
CONTINUOUS
 70
0
 71
3
 72
9
 73
5
 74
0
 42
0.0000001
 43
0.0000001
 44
0.0000000001
 40
0.0
 40
0.0
 40
0.0
 40
0.0
 40
0.5076267187
 40
1.0
 40
1.0
 40
1.0
 40
1.0
 10
4.6059900488
 20
3.8390740856
 30
0.0
 10
4.6177437842
 20
3.8418737774
 30
0.0
 10
4.6407059473
 20
3.848196001
 30
0.0
 10
4.6633990104
 20
3.855379819
 30
0.0
 10
4.6745461804
 20
3.8589974844
 30
0.0
  0
LINE
  5
3A4
100
AcDbEntity
  8
0
100
AcDbLine
 62
9
  6
CONTINUOUS
 10
4.6924004137
 20
3.8648424557
 11
4.6711015018
 21
3.8523415001
  0
SPLINE
  5
3A5
100
AcDbEntity
  8
0
100
AcDbSpline
 62
9
  6
CONTINUOUS
 70
0
 71
3
 72
9
 73
5
 74
0
 42
0.0000001
 43
0.0000001
 44
0.0000000001
 40
0.0
 40
0.0
 40
0.0
 40
0.0
 40
0.5012770262
 40
1.0
 40
1.0
 40
1.0
 40
1.0
 10
4.6711015018
 20
3.8523415001
 30
0.0
 10
4.6542968208
 20
3.8426247865
 30
0.0
 10
4.6203355268
 20
3.8239697262
 30
0.0
 10
4.5837855244
 20
3.8102489989
 30
0.0
 10
4.5649945558
 20
3.8057901512
 30
0.0
  0
SPLINE
  5
3A6
100
AcDbEntity
  8
0
100
AcDbSpline
 62
9
  6
CONTINUOUS
 70
0
 71
3
 72
9
 73
5
 74
0
 42
0.0000001
 43
0.0000001
 44
0.0000000001
 40
0.0
 40
0.0
 40
0.0
 40
0.0
 40
0.2498823582
 40
1.0
 40
1.0
 40
1.0
 40
1.0
 10
4.5649945558
 20
3.8057901512
 30
0.0
 10
4.5625240968
 20
3.8052039441
 30
0.0
 10
4.5525992661
 20
3.8030237827
 30
0.0
 10
4.5425227284
 20
3.8015247903
 30
0.0
 10
4.5349333403
 20
3.8008210072
 30
0.0
  0
SPLINE
  5
3A7
100
AcDbEntity
  8
0
100
AcDbSpline
 62
9
  6
CONTINUOUS
 70
0
 71
3
 72
9
 73
5
 74
0
 42
0.0000001
 43
0.0000001
 44
0.0000000001
 40
0.0
 40
0.0
 40
0.0
 40
0.0
 40
0.2501940676
 40
1.0
 40
1.0
 40
1.0
 40
1.0
 10
4.4979974106
 20
3.8008199591
 30
0.0
 10
4.4954650209
 20
3.8010546527
 30
0.0
 10
4.485361214
 20
3.802179259
 30
0.0
 10
4.4753403899
 20
3.8040305149
 30
0.0
 10
4.4679244739
 20
3.8057902172
 30
0.0
  0
SPLINE
  5
3A8
100
AcDbEntity
  8
0
100
AcDbSpline
 62
9
  6
CONTINUOUS
 70
0
 71
3
 72
9
 73
5
 74
0
 42
0.0000001
 43
0.0000001
 44
0.0000000001
 40
0.0
 40
0.0
 40
0.0
 40
0.0
 40
0.4987235339
 40
1.0
 40
1.0
 40
1.0
 40
1.0
 10
4.4679244739
 20
3.8057902172
 30
0.0
 10
4.4491337712
 20
3.8102490113
 30
0.0
 10
4.4125843127
 20
3.8239694877
 30
0.0
 10
4.378623505
 20
3.8426242155
 30
0.0
 10
4.3618190844
 20
3.8523407481
 30
0.0
  0
LINE
  5
3A9
100
AcDbEntity
  8
0
100
AcDbLine
 62
9
  6
CONTINUOUS
 10
4.3618190844
 20
3.8523407481
 11
4.340518841
 21
3.8648424557
  0
SPLINE
  5
3AA
100
AcDbEntity
  8
0
100
AcDbSpline
 62
7
  6
CONTINUOUS
 70
0
 71
3
 72
9
 73
5
 74
0
 42
0.0000001
 43
0.0000001
 44
0.0000000001
 40
0.0
 40
0.0
 40
0.0
 40
0.0
 40
0.2539572881
 40
1.0
 40
1.0
 40
1.0
 40
1.0
 10
4.3626639024
 20
3.5659588509
 30
0.0
 10
4.3620557814
 20
3.5659588509
 30
0.0
 10
4.359661457
 20
3.5659152543
 30
0.0
 10
4.3572699042
 20
3.5656946922
 30
0.0
 10
4.3555037988
 20
3.5654257914
 30
0.0
  0
SPLINE
  5
3AB
100
AcDbEntity
  8
0
100
AcDbSpline
 62
7
  6
CONTINUOUS
 70
0
 71
3
 72
11
 73
7
 74
0
 42
0.0000001
 43
0.0000001
 44
0.0000000001
 40
0.0
 40
0.0
 40
0.0
 40
0.0
 40
0.2513034328
 40
0.4965824666
 40
0.743528545
 40
1.0
 40
1.0
 40
1.0
 40
1.0
 10
4.3555037988
 20
3.5654257914
 30
0.0
 10
4.3525576062
 20
3.5649772148
 30
0.0
 10
4.3468020654
 20
3.5635107503
 30
0.0
 10
4.3388660773
 20
3.5595118079
 30
0.0
 10
4.3319363702
 20
3.5538622695
 30
0.0
 10
4.328094881
 20
3.5492450472
 30
0.0
 10
4.3263428484
 20
3.5467589472
 30
0.0
  0
SPLINE
  5
3AC
100
AcDbEntity
  8
0
100
AcDbSpline
 62
7
  6
CONTINUOUS
 70
0
 71
3
 72
11
 73
7
 74
0
 42
0.0000001
 43
0.0000001
 44
0.0000000001
 40
0.0
 40
0.0
 40
0.0
 40
0.0
 40
0.2535429449
 40
0.4974587477
 40
0.7431473402
 40
1.0
 40
1.0
 40
1.0
 40
1.0
 10
4.3263491714
 20
3.3801497885
 30
0.0
 10
4.3284290865
 20
3.3771996461
 30
0.0
 10
4.3330809599
 20
3.3717752468
 30
0.0
 10
4.3417582557
 20
3.365526208
 30
0.0
 10
4.3518177968
 20
3.361750154
 30
0.0
 10
4.3590071587
 20
3.3609588509
 30
0.0
 10
4.3626639024
 20
3.3609588509
 30
0.0
  0
SPLINE
  5
3AD
100
AcDbEntity
  8
0
100
AcDbSpline
 62
7
  6
CONTINUOUS
 70
0
 71
3
 72
9
 73
5
 74
0
 42
0.0000001
 43
0.0000001
 44
0.0000000001
 40
0.0
 40
0.0
 40
0.0
 40
0.0
 40
0.2456992409
 40
1.0
 40
1.0
 40
1.0
 40
1.0
 10
4.3683521556
 20
3.3671037629
 30
0.0
 10
4.3674724402
 20
3.3675544768
 30
0.0
 10
4.3639378014
 20
3.369477567
 30
0.0
 10
4.3605923922
 20
3.3717437398
 30
0.0
 10
4.3581954716
 20
3.37360476
 30
0.0
  0
SPLINE
  5
3AE
100
AcDbEntity
  8
0
100
AcDbSpline
 62
7
  6
CONTINUOUS
 70
0
 71
3
 72
9
 73
5
 74
0
 42
0.0000001
 43
0.0000001
 44
0.0000000001
 40
0.0
 40
0.0
 40
0.0
 40
0.0
 40
0.5088635781
 40
1.0
 40
1.0
 40
1.0
 40
1.0
 10
4.3606538541
 20
3.5551360376
 30
0.0
 10
4.3634141077
 20
3.5570887331
 30
0.0
 10
4.3691388734
 20
3.560524377
 30
0.0
 10
4.3753660659
 20
3.5629487787
 30
0.0
 10
4.3785002949
 20
3.5638576207
 30
0.0
  0
ENDSEC
  0
SECTION
  2
OBJECTS
  0
DICTIONARY
  5
C
100
AcDbDictionary
280
0
281
1
  3
ACAD_GROUP
350
D
  3
ACAD_MLINESTYLE
350
17
  3
ACAD_LAYOUT
350
1A
  3
ACAD_PLOTSETTINGS
350
19
  3
ACAD_PLOTSTYLENAME
350
E
  0
DICTIONARY
  5
D
102
{ACAD_REACTORS
330
C
102
}
100
AcDbDictionary
280
0
281
1
  0
ACDBDICTIONARYWDFLT
  5
E
102
{ACAD_REACTORS
330
C
102
}
100
AcDbDictionary
281
1
  3
Normal
350
F
100
AcDbDictionaryWithDefault
340
F
  0
DICTIONARY
  5
17
102
{ACAD_REACTORS
330
C
102
}
100
AcDbDictionary
280
0
281
1
  3
Standard
350
18
  0
DICTIONARY
  5
19
102
{ACAD_REACTORS
330
C
102
}
100
AcDbDictionary
281
1
  0
DICTIONARY
  5
1A
102
{ACAD_REACTORS
330
C
102
}
100
AcDbDictionary
281
1
  3
Model
350
3AF
  3
Layout1
350
3B0
  0
ACDBPLACEHOLDER
  5
F
102
{ACAD_REACTORS
330
E
102
}
  0
MLINESTYLE
  5
18
102
{ACAD_REACTORS
330
17
102
}
100
AcDbMlineStyle
  2
STANDARD
 70
0
  3

 62
256
 51
90.0
 52
90.0
 71
2
 49
0.5
 62
256
  6
BYLAYER
 49
-0.5
 62
256
  6
BYLAYER
  0
LAYOUT
  5
3AF
102
{ACAD_REACTORS
330
1A
102
}
100
AcDbPlotSettings
  1

  2
none_device
  4

  6

 40
0.0
 41
0.0
 42
0.0
 43
0.0
 44
215.9
 45
279.4
 46
0.0
 47
0.0
 48
0.0
 49
0.0
140
0.0
141
0.0
142
1.0
143
1.0
 70
1024
 72
0
 73
0
 74
0
  7

 75
0
147
1.0
148
0.0
149
0.0
100
AcDbLayout
  1
Model
 70
0
 71
0
 10
0.0
 20
0.0
 11
8.5
 21
11.0
 12
0.0
 22
0.0
 32
0.0
 14
0.0
 24
0.0
 34
0.0
 15
0.0
 25
0.0
 35
0.0
146
0.0
 13
0.0
 23
0.0
 33
0.0
 16
1.0
 26
0.0
 36
0.0
 17
0.0
 27
1.0
 37
0.0
 76
0
330
22E
345
0
346
0
  0
LAYOUT
  5
3B0
102
{ACAD_REACTORS
330
1A
102
}
100
AcDbPlotSettings
  1

  2
none_device
  4

  6

 40
0.0
 41
0.0
 42
0.0
 43
0.0
 44
215.9
 45
279.4
 46
0.0
 47
0.0
 48
0.0
 49
0.0
140
0.0
141
0.0
142
1.0
143
1.0
 70
0
 72
0
 73
0
 74
0
  7

 75
0
147
1.0
148
0.0
149
0.0
100
AcDbLayout
  1
Layout1
 70
0
 71
1
 10
0.0
 20
0.0
 11
8.5
 21
11.0
 12
0.0
 22
0.0
 32
0.0
 14
0.0
 24
0.0
 34
0.0
 15
0.0
 25
0.0
 35
0.0
146
0.0
 13
0.0
 23
0.0
 33
0.0
 16
1.0
 26
0.0
 36
0.0
 17
0.0
 27
1.0
 37
0.0
 76
0
330
22F
345
0
346
0
  0
ENDSEC
  0
EOF
