999
DXF file: C:\Prowork\plots\482_right.dxf
999
Pro/ENGINEER 2018500 by Parametric Technology Corporation
  0
SECTION
  2
HEADER
  9
$ACADVER
  1
AC1032
  9
$DWGCODEPAGE
  3
ANSI_1252
  9
$EXTMAX
 10
8.5
 20
11.0
 30
0.0
  9
$EXTMIN
 10
0.0
 20
0.0
 30
0.0
  9
$LIMMIN
 10
0.0
 20
0.0
  9
$LIMMAX
 10
8.5
 20
11.0
  9
$VIEWCTR
 10
4.25
 20
5.5
  9
$VIEWSIZE
 40
11.0
  9
$CLAYER
  8
0
  9
$LTSCALE
 40
0.717037037
  9
$CELTYPE
  6
BYLAYER
  9
$DIMSCALE
 40
1.0
  9
$DIMASZ
 40
0.1
  9
$DIMEXO
 40
0.0625
  9
$DIMDLI
 40
0.4954074074
  9
$DIMEXE
 40
0.125
  9
$DIMCEN
 40
0.1173333333
  9
$DIMLFAC
 40
1.0
  9
$DIMBLK
  1
_FILLED
  9
$DIMALT
 70
1
  9
$DIMALTD
 70
2
  9
$DIMALTTD
 70
2
  9
$DIMALTF
 40
25.4
  9
$DIMTXT
 40
0.08
  9
$DIMTOL
 70
1
  9
$DIMLIM
 70
0
  9
$DIMTFAC
 40
1.0
  9
$DIMTP
 40
0.001
  9
$DIMTM
 40
0.001
  9
$DIMGAP
 40
0.09
  9
$DIMDSEP
 70
46
  9
$AUNITS
 70
0
  9
$PDMODE
 70
3
  9
$PDSIZE
 40
0.06
  9
$HANDSEED
  5
50F
  9
$TILEMODE
 70
1
  9
$MEASUREMENT
 70
0
  9
$INSUNITS
 70
1
  0
ENDSEC
  0
SECTION
  2
CLASSES
  0
CLASS
  1
ACDBDICTIONARYWDFLT
  2
AcDbDictionaryWithDefault
  3
AutoCAD 2000
 90
0
 91
1
280
0
281
0
  0
CLASS
  1
ACDBPLACEHOLDER
  2
AcDbPlaceHolder
  3
AutoCAD 2000
 90
0
 91
1
280
0
281
0
  0
CLASS
  1
LAYOUT
  2
AcDbLayout
  3
AutoCAD 2000
 90
0
 91
0
280
0
281
0
  0
ENDSEC
  0
SECTION
  2
TABLES
  0
TABLE
  2
VPORT
  5
8
100
AcDbSymbolTable
 70
2
  0
VPORT
  5
1F4
100
AcDbSymbolTableRecord
100
AcDbViewportTableRecord
  2
*ACTIVE
 70
0
 10
0.0
 20
0.0
 11
1.0
 21
1.0
 12
4.25
 22
5.5
 13
0.0
 23
0.0
 14
1.0
 24
1.0
 15
0.0
 25
0.0
 16
0.0
 26
0.0
 36
1.0
 17
0.0
 27
0.0
 37
0.0
 40
11.0
 41
0.7727272727
 42
50.0
 43
0.0
 44
0.0
 50
0.0
 51
0.0
 71
0
 72
100
 73
1
 74
1
 75
0
 76
0
 77
0
 78
0
  0
ENDTAB
  0
TABLE
  2
LTYPE
  5
5
100
AcDbSymbolTable
 70
6
  0
LTYPE
  5
14
100
AcDbSymbolTableRecord
100
AcDbLinetypeTableRecord
  2
BYBLOCK
 70
0
  3

 72
65
 73
0
 40
0.0
  0
LTYPE
  5
15
100
AcDbSymbolTableRecord
100
AcDbLinetypeTableRecord
  2
BYLAYER
 70
0
  3

 72
65
 73
0
 40
0.0
  0
LTYPE
  5
16
100
AcDbSymbolTableRecord
100
AcDbLinetypeTableRecord
  2
CONTINUOUS
 70
64
  3
Solid line
 72
65
 73
0
 40
0.0
  0
LTYPE
  5
1F5
100
AcDbSymbolTableRecord
100
AcDbLinetypeTableRecord
  2
CENTER
 70
64
  3
____ _ ____ _ ____ _ ____ _ ____ _ ____ _ ____
 72
65
 73
4
 40
0.6
 49
0.375
 74
0
 49
-0.075
 74
0
 49
0.075
 74
0
 49
-0.075
 74
0
  0
LTYPE
  5
1F6
100
AcDbSymbolTableRecord
100
AcDbLinetypeTableRecord
  2
HIDDEN
 70
64
  3
- - - - - - - - - - - - - - - - - - - -
 72
65
 73
2
 40
0.2
 49
0.1
 74
0
 49
-0.1
 74
0
  0
LTYPE
  5
1F7
100
AcDbSymbolTableRecord
100
AcDbLinetypeTableRecord
  2
PHANTOM
 70
64
  3
_____ _ _ _____ _ _ _____ _ _ _____
 72
65
 73
6
 40
0.8
 49
0.45
 74
0
 49
-0.05
 74
0
 49
0.1
 74
0
 49
-0.05
 74
0
 49
0.1
 74
0
 49
-0.05
 74
0
  0
LTYPE
  5
1F8
100
AcDbSymbolTableRecord
100
AcDbLinetypeTableRecord
  2
DOT
 70
64
  3
. . . . . . . . . . . . . . . . . . . .
 72
65
 73
2
 40
0.2
 49
0.1
 74
0
 49
-0.1
 74
0
  0
LTYPE
  5
1F9
100
AcDbSymbolTableRecord
100
AcDbLinetypeTableRecord
  2
DASHED
 70
64
  3
- - - - - - - - - - - - - - - - - - - -
 72
65
 73
2
 40
0.2
 49
0.1
 74
0
 49
-0.1
 74
0
  0
ENDTAB
  0
TABLE
  2
LAYER
  5
2
100
AcDbSymbolTable
 70
36
  0
LAYER
  5
10
100
AcDbSymbolTableRecord
100
AcDbLayerTableRecord
  2
0
 70
0
 62
7
  6
CONTINUOUS
370
-3
390
F
  0
LAYER
  5
1FA
100
AcDbSymbolTableRecord
100
AcDbLayerTableRecord
  2
DEFAULT_1
 70
0
 62
7
  6
CENTER
370
-3
390
F
  0
LAYER
  5
1FB
100
AcDbSymbolTableRecord
100
AcDbLayerTableRecord
  2
DEFAULT_2
 70
0
 62
8
  6
HIDDEN
370
-3
390
F
  0
LAYER
  5
1FC
100
AcDbSymbolTableRecord
100
AcDbLayerTableRecord
  2
DEFAULT_3
 70
0
 62
7
  6
PHANTOM
370
-3
390
F
  0
LAYER
  5
1FD
100
AcDbSymbolTableRecord
100
AcDbLayerTableRecord
  2
403
 70
0
 62
7
  6
CONTINUOUS
370
-3
390
F
  0
LAYER
  5
1FE
100
AcDbSymbolTableRecord
100
AcDbLayerTableRecord
  2
436
 70
0
 62
7
  6
CONTINUOUS
370
-3
390
F
  0
LAYER
  5
1FF
100
AcDbSymbolTableRecord
100
AcDbLayerTableRecord
  2
441
 70
0
 62
7
  6
CONTINUOUS
370
-3
390
F
  0
LAYER
  5
200
100
AcDbSymbolTableRecord
100
AcDbLayerTableRecord
  2
50350
 70
0
 62
7
  6
CONTINUOUS
370
-3
390
F
  0
LAYER
  5
201
100
AcDbSymbolTableRecord
100
AcDbLayerTableRecord
  2
50355
 70
0
 62
7
  6
CONTINUOUS
370
-3
390
F
  0
LAYER
  5
202
100
AcDbSymbolTableRecord
100
AcDbLayerTableRecord
  2
50359
 70
0
 62
7
  6
CONTINUOUS
370
-3
390
F
  0
LAYER
  5
203
100
AcDbSymbolTableRecord
100
AcDbLayerTableRecord
  2
50362
 70
0
 62
7
  6
CONTINUOUS
370
-3
390
F
  0
LAYER
  5
204
100
AcDbSymbolTableRecord
100
AcDbLayerTableRecord
  2
50392
 70
0
 62
7
  6
CONTINUOUS
370
-3
390
F
  0
LAYER
  5
205
100
AcDbSymbolTableRecord
100
AcDbLayerTableRecord
  2
50663
 70
0
 62
7
  6
CONTINUOUS
370
-3
390
F
  0
LAYER
  5
206
100
AcDbSymbolTableRecord
100
AcDbLayerTableRecord
  2
50664
 70
0
 62
7
  6
CONTINUOUS
370
-3
390
F
  0
LAYER
  5
207
100
AcDbSymbolTableRecord
100
AcDbLayerTableRecord
  2
50668
 70
0
 62
7
  6
CONTINUOUS
370
-3
390
F
  0
LAYER
  5
208
100
AcDbSymbolTableRecord
100
AcDbLayerTableRecord
  2
50675
 70
0
 62
7
  6
CONTINUOUS
370
-3
390
F
  0
LAYER
  5
209
100
AcDbSymbolTableRecord
100
AcDbLayerTableRecord
  2
50677
 70
0
 62
7
  6
CONTINUOUS
370
-3
390
F
  0
LAYER
  5
20A
100
AcDbSymbolTableRecord
100
AcDbLayerTableRecord
  2
50678
 70
0
 62
7
  6
CONTINUOUS
370
-3
390
F
  0
LAYER
  5
20B
100
AcDbSymbolTableRecord
100
AcDbLayerTableRecord
  2
50851
 70
0
 62
7
  6
CONTINUOUS
370
-3
390
F
  0
LAYER
  5
20C
100
AcDbSymbolTableRecord
100
AcDbLayerTableRecord
  2
6-403
 70
0
 62
7
  6
CONTINUOUS
370
-3
390
F
  0
LAYER
  5
20D
100
AcDbSymbolTableRecord
100
AcDbLayerTableRecord
  2
91203
 70
0
 62
7
  6
CONTINUOUS
370
-3
390
F
  0
LAYER
  5
20E
100
AcDbSymbolTableRecord
100
AcDbLayerTableRecord
  2
92073
 70
0
 62
7
  6
CONTINUOUS
370
-3
390
F
  0
LAYER
  5
20F
100
AcDbSymbolTableRecord
100
AcDbLayerTableRecord
  2
DEFAULT_COORDINATE_SYSTEM
 70
0
 62
7
  6
CONTINUOUS
370
-3
390
F
  0
LAYER
  5
210
100
AcDbSymbolTableRecord
100
AcDbLayerTableRecord
  2
DEFAULT_DATUM_AXES
 70
0
 62
7
  6
CONTINUOUS
370
-3
390
F
  0
LAYER
  5
211
100
AcDbSymbolTableRecord
100
AcDbLayerTableRecord
  2
DEFAULT_DATUM_PLANES
 70
0
 62
7
  6
CONTINUOUS
370
-3
390
F
  0
LAYER
  5
212
100
AcDbSymbolTableRecord
100
AcDbLayerTableRecord
  2
INTF_50350
 70
0
 62
7
  6
CONTINUOUS
370
-3
390
F
  0
LAYER
  5
213
100
AcDbSymbolTableRecord
100
AcDbLayerTableRecord
  2
INTF_50355
 70
0
 62
7
  6
CONTINUOUS
370
-3
390
F
  0
LAYER
  5
214
100
AcDbSymbolTableRecord
100
AcDbLayerTableRecord
  2
INTF_50359
 70
0
 62
7
  6
CONTINUOUS
370
-3
390
F
  0
LAYER
  5
215
100
AcDbSymbolTableRecord
100
AcDbLayerTableRecord
  2
INTF_50362
 70
0
 62
7
  6
CONTINUOUS
370
-3
390
F
  0
LAYER
  5
216
100
AcDbSymbolTableRecord
100
AcDbLayerTableRecord
  2
INTF_50392
 70
0
 62
7
  6
CONTINUOUS
370
-3
390
F
  0
LAYER
  5
217
100
AcDbSymbolTableRecord
100
AcDbLayerTableRecord
  2
INTF_50663
 70
0
 62
7
  6
CONTINUOUS
370
-3
390
F
  0
LAYER
  5
218
100
AcDbSymbolTableRecord
100
AcDbLayerTableRecord
  2
INTF_50664
 70
0
 62
7
  6
CONTINUOUS
370
-3
390
F
  0
LAYER
  5
219
100
AcDbSymbolTableRecord
100
AcDbLayerTableRecord
  2
INTF_50668
 70
0
 62
7
  6
CONTINUOUS
370
-3
390
F
  0
LAYER
  5
21A
100
AcDbSymbolTableRecord
100
AcDbLayerTableRecord
  2
INTF_50675
 70
0
 62
7
  6
CONTINUOUS
370
-3
390
F
  0
LAYER
  5
21B
100
AcDbSymbolTableRecord
100
AcDbLayerTableRecord
  2
INTF_50677
 70
0
 62
7
  6
CONTINUOUS
370
-3
390
F
  0
LAYER
  5
21C
100
AcDbSymbolTableRecord
100
AcDbLayerTableRecord
  2
INTF_50678
 70
0
 62
7
  6
CONTINUOUS
370
-3
390
F
  0
LAYER
  5
21D
100
AcDbSymbolTableRecord
100
AcDbLayerTableRecord
  2
INTF_50851
 70
0
 62
7
  6
CONTINUOUS
370
-3
390
F
  0
LAYER
  5
21E
100
AcDbSymbolTableRecord
100
AcDbLayerTableRecord
  2
INTF_91203
 70
0
 62
7
  6
CONTINUOUS
370
-3
390
F
  0
LAYER
  5
21F
100
AcDbSymbolTableRecord
100
AcDbLayerTableRecord
  2
INTF_92073
 70
0
 62
7
  6
CONTINUOUS
370
-3
390
F
  0
LAYER
  5
220
100
AcDbSymbolTableRecord
100
AcDbLayerTableRecord
  2
INTF_BLANK
 70
0
 62
7
  6
CONTINUOUS
370
-3
390
F
  0
LAYER
  5
221
100
AcDbSymbolTableRecord
100
AcDbLayerTableRecord
  2
NONE
 70
0
 62
7
  6
CONTINUOUS
370
-3
390
F
  0
LAYER
  5
222
100
AcDbSymbolTableRecord
100
AcDbLayerTableRecord
  2
PLATED_SURFACE
 70
0
 62
7
  6
CONTINUOUS
370
-3
390
F
  0
LAYER
  5
223
100
AcDbSymbolTableRecord
100
AcDbLayerTableRecord
  2
QUILT
 70
0
 62
7
  6
CONTINUOUS
370
-3
390
F
  0
LAYER
  5
224
100
AcDbSymbolTableRecord
100
AcDbLayerTableRecord
  2
WETTED_SURFACE
 70
0
 62
7
  6
CONTINUOUS
370
-3
390
F
  0
LAYER
  5
225
100
AcDbSymbolTableRecord
100
AcDbLayerTableRecord
  2
_BLACK_HOLE
 70
0
 62
7
  6
CONTINUOUS
370
-3
390
F
  0
ENDTAB
  0
TABLE
  2
STYLE
  5
3
100
AcDbSymbolTable
 70
1
  0
STYLE
  5
11
100
AcDbSymbolTableRecord
100
AcDbTextStyleTableRecord
  2
STANDARD
 70
0
 40
0.0
 41
0.8
 50
0.0
 71
0
 42
0.2
  3
txt
  4

  0
STYLE
  5
226
100
AcDbSymbolTableRecord
100
AcDbTextStyleTableRecord
  2
TEXTSTYLE_1
 70
0
 40
0.0
 41
0.8
 50
0.0
 71
0
 42
0.2
  3
gdt
  4

  0
ENDTAB
  0
TABLE
  2
VIEW
  5
6
100
AcDbSymbolTable
 70
0
  0
ENDTAB
  0
TABLE
  2
UCS
  5
7
100
AcDbSymbolTable
 70
0
  0
ENDTAB
  0
TABLE
  2
APPID
  5
9
100
AcDbSymbolTable
 70
1
  0
APPID
  5
227
100
AcDbSymbolTableRecord
100
AcDbRegAppTableRecord
  2
ACAD
 70
0
  0
ENDTAB
  0
TABLE
  2
BLOCK_RECORD
  5
1
100
AcDbSymbolTable
 70
0
  0
BLOCK_RECORD
  5
228
100
AcDbSymbolTableRecord
100
AcDbBlockTableRecord
  2
*Model_Space
  0
BLOCK_RECORD
  5
229
100
AcDbSymbolTableRecord
100
AcDbBlockTableRecord
  2
*Paper_Space
  0
BLOCK_RECORD
  5
22A
100
AcDbSymbolTableRecord
100
AcDbBlockTableRecord
  2
_FILLED
  0
ENDTAB
  0
TABLE
  2
DIMSTYLE
  5
A
100
AcDbSymbolTable
 70
1
100
AcDbDimStyleTable
 71
0
  0
DIMSTYLE
105
22B
100
AcDbSymbolTableRecord
100
AcDbDimStyleTableRecord
  2
STANDARD
 70
0
  3

  4

 40
1.0
 41
0.1
 42
0.0625
 43
0.38
 44
0.125
 45
0.0
 46
0.0
 47
0.001
 48
0.001
140
0.08
141
0.09
142
0.0
143
25.4
144
1.0
145
0.0
146
1.0
147
0.09
 71
1.0
 72
0.0
 73
1
 74
1
 75
0
 76
0
 77
0
 78
4
 79
1
170
1
171
2
172
0
173
0
174
0
175
0
176
0
177
0
178
0
270
2
179
3
271
3
272
3
273
2
274
2
275
0
280
0
281
0
282
0
283
1
284
4
285
0
286
0
287
3
288
0
340
11
278
46
341
22A
342
22A
343
22A
344
22A
  0
ENDTAB
  0
ENDSEC
  0
SECTION
  2
BLOCKS
  0
BLOCK
  5
20
100
AcDbEntity
  8
0
100
AcDbBlockBegin
  2
*Model_Space
 70
0
 10
0.0
 20
0.0
 30
0.0
  3
*Model_Space
  1

  0
ENDBLK
  5
21
100
AcDbEntity
  8
0
100
AcDbBlockEnd
  0
BLOCK
  5
1C
100
AcDbEntity
  8
0
100
AcDbBlockBegin
  2
*Paper_Space
 70
0
 10
0.0
 20
0.0
 30
0.0
  3
*Paper_Space
  1

  0
ENDBLK
  5
1D
100
AcDbEntity
  8
0
100
AcDbBlockEnd
  0
BLOCK
  5
22C
100
AcDbEntity
  8
0
100
AcDbBlockBegin
  2
_FILLED
 70
64
 10
0.0
 20
0.0
  3
_FILLED
  1

  0
SOLID
  5
22D
100
AcDbEntity
  8
0
  6
BYBLOCK
 62
0
100
AcDbTrace
 10
0.0
 20
0.0
 11
-1.0
 21
0.2
 12
-1.0
 22
-0.2
 13
-1.0
 23
-0.2
  0
ENDBLK
  5
22E
100
AcDbEntity
  8
0
  6
BYBLOCK
 62
0
100
AcDbBlockEnd
  0
ENDSEC
  0
SECTION
  2
ENTITIES
  0
MTEXT
  5
22F
100
AcDbEntity
  8
0
100
AcDbMText
 62
7
  6
CONTINUOUS
  7
STANDARD
 71
1
 72
1
 10
7.0281832298
 20
0.4151358696
 30
0.0
 11
1.0
 21
0.0
 31
0.0
 73
2
 44
0.9
  1
SCALE: .50
 40
0.08
 41
0.64
  0
LINE
  5
230
100
AcDbEntity
  8
0
100
AcDbLine
 62
7
  6
CONTINUOUS
 10
0.0
 20
0.0
 11
8.5
 21
0.0
  0
LINE
  5
231
100
AcDbEntity
  8
0
100
AcDbLine
 62
7
  6
CONTINUOUS
 10
0.0
 20
0.0
 11
0.0
 21
11.0
  0
LINE
  5
232
100
AcDbEntity
  8
0
100
AcDbLine
 62
7
  6
CONTINUOUS
 10
8.5
 20
0.0
 11
8.5
 21
11.0
  0
LINE
  5
233
100
AcDbEntity
  8
0
100
AcDbLine
 62
7
  6
CONTINUOUS
 10
0.0
 20
11.0
 11
8.5
 21
11.0
  0
LINE
  5
234
100
AcDbEntity
  8
0
100
AcDbLine
 62
7
  6
CONTINUOUS
 10
5.5368044626
 20
0.2059122671
 11
5.4816626889
 21
0.2059122671
  0
LINE
  5
235
100
AcDbEntity
  8
0
100
AcDbLine
 62
9
  6
CONTINUOUS
 10
3.3421101968
 20
0.394626691
 11
3.4313044626
 21
0.3926499809
  0
LINE
  5
236
100
AcDbEntity
  8
0
100
AcDbLine
 62
7
  6
CONTINUOUS
 10
3.3440128073
 20
0.3417105589
 11
3.4313044626
 21
0.3386622671
  0
LINE
  5
237
100
AcDbEntity
  8
0
100
AcDbLine
 62
7
  6
CONTINUOUS
 10
4.5055544626
 20
0.5783215243
 11
4.2243044626
 21
0.5783215243
  0
LINE
  5
238
100
AcDbEntity
  8
0
100
AcDbLine
 62
7
  6
CONTINUOUS
 10
3.6055790625
 20
0.5821890378
 11
3.5214591299
 21
0.5821890378
  0
LINE
  5
239
100
AcDbEntity
  8
0
100
AcDbLine
 62
9
  6
CONTINUOUS
 10
3.5200456677
 20
0.5855384027
 11
3.6069925247
 21
0.5855384027
  0
LINE
  5
23A
100
AcDbEntity
  8
0
100
AcDbLine
 62
7
  6
CONTINUOUS
 10
3.6213044626
 20
0.6159122671
 11
3.6338044626
 21
0.6159122671
  0
LINE
  5
23B
100
AcDbEntity
  8
0
100
AcDbLine
 62
7
  6
CONTINUOUS
 10
3.6968044626
 20
0.6277872671
 11
3.6596451117
 21
0.6277872671
  0
LINE
  5
23C
100
AcDbEntity
  8
0
100
AcDbLine
 62
7
  6
CONTINUOUS
 10
3.6389637542
 20
0.6277872671
 11
3.6346480667
 21
0.6277872671
  0
LINE
  5
23D
100
AcDbEntity
  8
0
100
AcDbLine
 62
7
  6
CONTINUOUS
 10
4.1593044626
 20
0.6277872671
 11
4.1752134656
 21
0.6277872671
  0
LINE
  5
23E
100
AcDbEntity
  8
0
100
AcDbLine
 62
7
  6
CONTINUOUS
 10
4.1958956873
 20
0.6277872671
 11
4.20299756
 21
0.6277872671
  0
LINE
  5
23F
100
AcDbEntity
  8
0
100
AcDbLine
 62
7
  6
CONTINUOUS
 10
3.7468044626
 20
0.6309122671
 11
4.0718044626
 21
0.6309122671
  0
LINE
  5
240
100
AcDbEntity
  8
0
100
AcDbLine
 62
7
  6
CONTINUOUS
 10
4.1593044626
 20
0.6359122671
 11
4.0718044626
 21
0.6359122671
  0
LINE
  5
241
100
AcDbEntity
  8
0
100
AcDbLine
 62
7
  6
CONTINUOUS
 10
3.6477440805
 20
0.642991173
 11
3.6508690805
 21
0.642991173
  0
LINE
  5
242
100
AcDbEntity
  8
0
100
AcDbLine
 62
7
  6
CONTINUOUS
 10
4.1839938847
 20
0.6429918771
 11
4.1871188847
 21
0.6429918771
  0
LINE
  5
243
100
AcDbEntity
  8
0
100
AcDbLine
 62
7
  6
CONTINUOUS
 10
4.2117863262
 20
0.6430175354
 11
4.2149113262
 21
0.6430175354
  0
LINE
  5
244
100
AcDbEntity
  8
0
100
AcDbLine
 62
7
  6
CONTINUOUS
 10
3.7468044626
 20
0.6434122671
 11
3.6968044626
 21
0.6434122671
  0
LINE
  5
245
100
AcDbEntity
  8
0
100
AcDbLine
 62
7
  6
CONTINUOUS
 10
3.6614662385
 20
0.6665806901
 11
3.6821426867
 21
0.6665806901
  0
LINE
  5
246
100
AcDbEntity
  8
0
100
AcDbLine
 62
7
  6
CONTINUOUS
 10
3.4663044626
 20
0.6736622671
 11
3.4788044626
 21
0.6736622671
  0
LINE
  5
247
100
AcDbEntity
  8
0
100
AcDbLine
 62
7
  6
CONTINUOUS
 10
3.6733669626
 20
0.6788777484
 11
3.6702419626
 21
0.6788777484
  0
LINE
  5
248
100
AcDbEntity
  8
0
100
AcDbLine
 62
9
  6
CONTINUOUS
 10
3.6452419626
 20
0.6788856566
 11
3.6483669626
 21
0.6788856566
  0
LINE
  5
249
100
AcDbEntity
  8
0
100
AcDbLine
 62
9
  6
CONTINUOUS
 10
3.6069925247
 20
0.6974000173
 11
3.5200456677
 21
0.6974000173
  0
LINE
  5
24A
100
AcDbEntity
  8
0
100
AcDbLine
 62
7
  6
CONTINUOUS
 10
4.5055544626
 20
0.7046168957
 11
4.2243044626
 21
0.7046168957
  0
LINE
  5
24B
100
AcDbEntity
  8
0
100
AcDbLine
 62
9
  6
CONTINUOUS
 10
4.2077419626
 20
0.7163907181
 11
4.2108669626
 21
0.7163907181
  0
LINE
  5
24C
100
AcDbEntity
  8
0
100
AcDbLine
 62
9
  6
CONTINUOUS
 10
3.5200456677
 20
0.7190506524
 11
3.6069925247
 21
0.7190506524
  0
LINE
  5
24D
100
AcDbEntity
  8
0
100
AcDbLine
 62
7
  6
CONTINUOUS
 10
3.4313044626
 20
0.7372737217
 11
3.4663044626
 21
0.7371622671
  0
LINE
  5
24E
100
AcDbEntity
  8
0
100
AcDbLine
 62
7
  6
CONTINUOUS
 10
3.4418044626
 20
0.7413577691
 11
3.4313044626
 21
0.7413577691
  0
LINE
  5
24F
100
AcDbEntity
  8
0
100
AcDbLine
 62
7
  6
CONTINUOUS
 10
3.4313044626
 20
0.7444838649
 11
3.4418044626
 21
0.7444838649
  0
LINE
  5
250
100
AcDbEntity
  8
0
100
AcDbLine
 62
7
  6
CONTINUOUS
 10
3.7468044626
 20
0.7480695546
 11
4.0718044626
 21
0.7480695546
  0
LINE
  5
251
100
AcDbEntity
  8
0
100
AcDbLine
 62
7
  6
CONTINUOUS
 10
3.4418044626
 20
0.7562434106
 11
3.4313044626
 21
0.7562434106
  0
LINE
  5
252
100
AcDbEntity
  8
0
100
AcDbLine
 62
7
  6
CONTINUOUS
 10
3.4313044626
 20
0.7621185489
 11
3.4418044626
 21
0.7621185489
  0
LINE
  5
253
100
AcDbEntity
  8
0
100
AcDbLine
 62
7
  6
CONTINUOUS
 10
3.4418044626
 20
0.7751636937
 11
3.4313044626
 21
0.7751636937
  0
LINE
  5
254
100
AcDbEntity
  8
0
100
AcDbLine
 62
7
  6
CONTINUOUS
 10
3.4313044626
 20
0.7789939159
 11
3.4418044626
 21
0.7789939159
  0
LINE
  5
255
100
AcDbEntity
  8
0
100
AcDbLine
 62
7
  6
CONTINUOUS
 10
3.4418044626
 20
0.7801352182
 11
3.4313044626
 21
0.7801352182
  0
LINE
  5
256
100
AcDbEntity
  8
0
100
AcDbLine
 62
7
  6
CONTINUOUS
 10
3.4313044626
 20
0.7880507706
 11
3.4418044626
 21
0.7880507706
  0
LINE
  5
257
100
AcDbEntity
  8
0
100
AcDbLine
 62
7
  6
CONTINUOUS
 10
3.4418044626
 20
0.7999188485
 11
3.4313044626
 21
0.7999188485
  0
LINE
  5
258
100
AcDbEntity
  8
0
100
AcDbLine
 62
7
  6
CONTINUOUS
 10
3.4313044626
 20
0.8046173116
 11
3.4418044626
 21
0.8046173116
  0
LINE
  5
259
100
AcDbEntity
  8
0
100
AcDbLine
 62
7
  6
CONTINUOUS
 10
3.4418044626
 20
0.8101514872
 11
3.4313044626
 21
0.8101514872
  0
LINE
  5
25A
100
AcDbEntity
  8
0
100
AcDbLine
 62
7
  6
CONTINUOUS
 10
3.4313044626
 20
0.8191527214
 11
3.4418044626
 21
0.8191527214
  0
LINE
  5
25B
100
AcDbEntity
  8
0
100
AcDbLine
 62
7
  6
CONTINUOUS
 10
3.2635002911
 20
0.8230372671
 11
3.2699790511
 21
0.8230372671
  0
LINE
  5
25C
100
AcDbEntity
  8
0
100
AcDbLine
 62
7
  6
CONTINUOUS
 10
3.4418044626
 20
0.8284122671
 11
3.4313044626
 21
0.8284122671
  0
LINE
  5
25D
100
AcDbEntity
  8
0
100
AcDbLine
 62
7
  6
CONTINUOUS
 10
3.4418044626
 20
0.8334122671
 11
3.4313044626
 21
0.8334122671
  0
LINE
  5
25E
100
AcDbEntity
  8
0
100
AcDbLine
 62
7
  6
CONTINUOUS
 10
3.2699790511
 20
0.8387872671
 11
3.2635002911
 21
0.8387872671
  0
LINE
  5
25F
100
AcDbEntity
  8
0
100
AcDbLine
 62
7
  6
CONTINUOUS
 10
3.4418044626
 20
0.8426718127
 11
3.4313044626
 21
0.8426718127
  0
LINE
  5
260
100
AcDbEntity
  8
0
100
AcDbLine
 62
7
  6
CONTINUOUS
 10
3.4313044626
 20
0.8516730469
 11
3.4418044626
 21
0.8516730469
  0
LINE
  5
261
100
AcDbEntity
  8
0
100
AcDbLine
 62
7
  6
CONTINUOUS
 10
3.89046682
 20
1.1201484568
 11
3.9322072231
 21
1.1212352614
  0
LINE
  5
262
100
AcDbEntity
  8
0
100
AcDbLine
 62
7
  6
CONTINUOUS
 10
3.89046682
 20
1.1227534568
 11
3.9322072231
 21
1.1238402614
  0
LINE
  5
263
100
AcDbEntity
  8
0
100
AcDbLine
 62
7
  6
CONTINUOUS
 10
3.4418044626
 20
0.8572072225
 11
3.4313044626
 21
0.8572072225
  0
LINE
  5
264
100
AcDbEntity
  8
0
100
AcDbLine
 62
7
  6
CONTINUOUS
 10
3.4418044626
 20
0.8619056856
 11
3.4313044626
 21
0.8619056856
  0
LINE
  5
265
100
AcDbEntity
  8
0
100
AcDbLine
 62
7
  6
CONTINUOUS
 10
3.4418044626
 20
0.8737737635
 11
3.4313044626
 21
0.8737737635
  0
LINE
  5
266
100
AcDbEntity
  8
0
100
AcDbLine
 62
7
  6
CONTINUOUS
 10
3.4313044626
 20
0.881689316
 11
3.4418044626
 21
0.881689316
  0
LINE
  5
267
100
AcDbEntity
  8
0
100
AcDbLine
 62
7
  6
CONTINUOUS
 10
3.4418044626
 20
0.8828306183
 11
3.4313044626
 21
0.8828306183
  0
LINE
  5
268
100
AcDbEntity
  8
0
100
AcDbLine
 62
7
  6
CONTINUOUS
 10
3.4418044626
 20
0.8866608405
 11
3.4313044626
 21
0.8866608405
  0
LINE
  5
269
100
AcDbEntity
  8
0
100
AcDbLine
 62
7
  6
CONTINUOUS
 10
3.4418044626
 20
0.8997059852
 11
3.4313044626
 21
0.8997059852
  0
LINE
  5
26A
100
AcDbEntity
  8
0
100
AcDbLine
 62
7
  6
CONTINUOUS
 10
3.4313044626
 20
0.9055811236
 11
3.4418044626
 21
0.9055811236
  0
LINE
  5
26B
100
AcDbEntity
  8
0
100
AcDbLine
 62
7
  6
CONTINUOUS
 10
4.0718044626
 20
0.9137549796
 11
3.7468044626
 21
0.9137549796
  0
LINE
  5
26C
100
AcDbEntity
  8
0
100
AcDbLine
 62
7
  6
CONTINUOUS
 10
3.4418044626
 20
0.9173406693
 11
3.4313044626
 21
0.9173406693
  0
LINE
  5
26D
100
AcDbEntity
  8
0
100
AcDbLine
 62
7
  6
CONTINUOUS
 10
3.4313044626
 20
0.9204667651
 11
3.4418044626
 21
0.9204667651
  0
LINE
  5
26E
100
AcDbEntity
  8
0
100
AcDbLine
 62
7
  6
CONTINUOUS
 10
3.4313044626
 20
0.9245508124
 11
3.4663044626
 21
0.9246622671
  0
LINE
  5
26F
100
AcDbEntity
  8
0
100
AcDbLine
 62
9
  6
CONTINUOUS
 10
3.6069925247
 20
0.9427738817
 11
3.5200456677
 21
0.9427738817
  0
LINE
  5
270
100
AcDbEntity
  8
0
100
AcDbLine
 62
7
  6
CONTINUOUS
 10
4.5055544626
 20
0.9572076385
 11
4.2243044626
 21
0.9572076385
  0
LINE
  5
271
100
AcDbEntity
  8
0
100
AcDbLine
 62
9
  6
CONTINUOUS
 10
3.5200456677
 20
0.9644245168
 11
3.6069925247
 21
0.9644245168
  0
LINE
  5
272
100
AcDbEntity
  8
0
100
AcDbLine
 62
7
  6
CONTINUOUS
 10
3.7468044626
 20
0.9809122671
 11
4.0718044626
 21
0.9809122671
  0
LINE
  5
273
100
AcDbEntity
  8
0
100
AcDbLine
 62
7
  6
CONTINUOUS
 10
3.4788044626
 20
0.9881622671
 11
3.4663044626
 21
0.9881622671
  0
LINE
  5
274
100
AcDbEntity
  8
0
100
AcDbLine
 62
7
  6
CONTINUOUS
 10
3.7468044626
 20
0.9950049796
 11
3.8339796451
 21
0.9950049796
  0
LINE
  5
275
100
AcDbEntity
  8
0
100
AcDbLine
 62
7
  6
CONTINUOUS
 10
3.9846292801
 20
0.9950049796
 11
4.0718044626
 21
0.9950049796
  0
LINE
  5
276
100
AcDbEntity
  8
0
100
AcDbLine
 62
7
  6
CONTINUOUS
 10
3.6968044626
 20
1.0184122671
 11
3.7468044626
 21
1.0184122671
  0
LINE
  5
277
100
AcDbEntity
  8
0
100
AcDbLine
 62
7
  6
CONTINUOUS
 10
3.6633674102
 20
1.0188232463
 11
3.6602424102
 21
1.0188232463
  0
LINE
  5
278
100
AcDbEntity
  8
0
100
AcDbLine
 62
7
  6
CONTINUOUS
 10
3.6383699433
 20
1.0188281558
 11
3.6352449433
 21
1.0188281558
  0
LINE
  5
279
100
AcDbEntity
  8
0
100
AcDbLine
 62
7
  6
CONTINUOUS
 10
4.2010159457
 20
1.0188302381
 11
4.1978906509
 21
1.0188302385
  0
LINE
  5
27A
100
AcDbEntity
  8
0
100
AcDbLine
 62
7
  6
CONTINUOUS
 10
4.1732153075
 20
1.0188330876
 11
4.1700903075
 21
1.0188330876
  0
LINE
  5
27B
100
AcDbEntity
  8
0
100
AcDbLine
 62
7
  6
CONTINUOUS
 10
4.0718044626
 20
1.0259122671
 11
4.1593044626
 21
1.0259122671
  0
LINE
  5
27C
100
AcDbEntity
  8
0
100
AcDbLine
 62
7
  6
CONTINUOUS
 10
3.7468044626
 20
1.0309122671
 11
3.7956713881
 21
1.0309122671
  0
LINE
  5
27D
100
AcDbEntity
  8
0
100
AcDbLine
 62
7
  6
CONTINUOUS
 10
4.0229375371
 20
1.0309122671
 11
4.0718044626
 21
1.0309122671
  0
LINE
  5
27E
100
AcDbEntity
  8
0
100
AcDbLine
 62
7
  6
CONTINUOUS
 10
3.6968044626
 20
1.0340372671
 11
3.6721514292
 21
1.0340372671
  0
LINE
  5
27F
100
AcDbEntity
  8
0
100
AcDbLine
 62
7
  6
CONTINUOUS
 10
3.6514574789
 20
1.0340372671
 11
3.6471483473
 21
1.0340372671
  0
LINE
  5
280
100
AcDbEntity
  8
0
100
AcDbLine
 62
7
  6
CONTINUOUS
 10
4.1593044626
 20
1.0340372671
 11
4.1613137829
 21
1.0340372671
  0
LINE
  5
281
100
AcDbEntity
  8
0
100
AcDbLine
 62
7
  6
CONTINUOUS
 10
4.1819954674
 20
1.0340372671
 11
4.1891120054
 21
1.0340372671
  0
LINE
  5
282
100
AcDbEntity
  8
0
100
AcDbLine
 62
7
  6
CONTINUOUS
 10
4.2097972392
 20
1.0340372671
 11
4.2169161597
 21
1.0340372671
  0
LINE
  5
283
100
AcDbEntity
  8
0
100
AcDbLine
 62
7
  6
CONTINUOUS
 10
3.6213044626
 20
1.0459122671
 11
3.6338044626
 21
1.0459122671
  0
LINE
  5
284
100
AcDbEntity
  8
0
100
AcDbLine
 62
9
  6
CONTINUOUS
 10
3.6069925247
 20
1.0762861315
 11
3.5200456677
 21
1.0762861315
  0
LINE
  5
285
100
AcDbEntity
  8
0
100
AcDbLine
 62
7
  6
CONTINUOUS
 10
3.6055790625
 20
1.0796354964
 11
3.5214591299
 21
1.0796354964
  0
LINE
  5
286
100
AcDbEntity
  8
0
100
AcDbLine
 62
7
  6
CONTINUOUS
 10
4.5055544626
 20
1.0835030099
 11
4.2243044626
 21
1.0835030099
  0
LINE
  5
287
100
AcDbEntity
  8
0
100
AcDbLine
 62
7
  6
CONTINUOUS
 10
3.9771952443
 20
1.0884122671
 11
3.8339796451
 21
1.0884122671
  0
LINE
  5
288
100
AcDbEntity
  8
0
100
AcDbLine
 62
7
  6
CONTINUOUS
 10
4.0655544626
 20
1.1269122671
 11
3.7530544626
 21
1.1269122671
  0
LWPOLYLINE
  5
289
100
AcDbEntity
  8
0
100
AcDbPolyline
 62
7
  6
CONTINUOUS
 90
6
 70
0
 10
3.3440128083
 20
1.3201139466
 10
3.3424738173
 20
1.3200006342
 10
3.3397710976
 20
1.319506516
 10
3.3371423792
 20
1.3186388026
 10
3.3346835279
 20
1.3174308656
 10
3.3323914997
 20
1.3158816027
  0
LINE
  5
28A
100
AcDbEntity
  8
0
100
AcDbLine
 62
7
  6
CONTINUOUS
 10
3.3440128073
 20
1.3201139753
 11
3.4313044626
 21
1.3231622671
  0
LINE
  5
28B
100
AcDbEntity
  8
0
100
AcDbLine
 62
9
  6
CONTINUOUS
 10
3.4313044626
 20
1.2691745532
 11
3.3421102562
 21
1.267199093
  0
LINE
  5
28C
100
AcDbEntity
  8
0
100
AcDbLine
 62
7
  6
CONTINUOUS
 10
4.0655544626
 20
1.3364122671
 11
3.7530544626
 21
1.3364122671
  0
LINE
  5
28D
100
AcDbEntity
  8
0
100
AcDbLine
 62
7
  6
CONTINUOUS
 10
5.5368044626
 20
1.4559122671
 11
5.4816626889
 21
1.4559122671
  0
LINE
  5
28E
100
AcDbEntity
  8
0
100
AcDbLine
 62
7
  6
CONTINUOUS
 10
3.7688023551
 20
1.0627282389
 11
3.7815207739
 21
1.0553778032
  0
LINE
  5
28F
100
AcDbEntity
  8
0
100
AcDbLine
 62
7
  6
CONTINUOUS
 10
3.7687971983
 20
1.0835614351
 11
3.7815083363
 21
1.0762159105
  0
LINE
  5
290
100
AcDbEntity
  8
0
100
AcDbLine
 62
7
  6
CONTINUOUS
 10
3.7687845358
 20
1.1044227082
 11
3.7815272932
 21
1.0970578356
  0
LINE
  5
291
100
AcDbEntity
  8
0
100
AcDbLine
 62
7
  6
CONTINUOUS
 10
3.7687870581
 20
1.1252430954
 11
3.7815085395
 21
1.1178915874
  0
LINE
  5
292
100
AcDbEntity
  8
0
100
AcDbLine
 62
7
  6
CONTINUOUS
 10
4.0498065561
 20
1.0561419049
 11
4.0370850775
 21
1.0634942834
  0
LINE
  5
293
100
AcDbEntity
  8
0
100
AcDbLine
 62
7
  6
CONTINUOUS
 10
4.0498098452
 20
1.0769694996
 11
4.0370791015
 21
1.0843275711
  0
LINE
  5
294
100
AcDbEntity
  8
0
100
AcDbLine
 62
7
  6
CONTINUOUS
 10
4.0498068975
 20
1.0978171215
 11
4.0370944723
 21
1.1051637444
  0
LINE
  5
295
100
AcDbEntity
  8
0
100
AcDbLine
 62
7
  6
CONTINUOUS
 10
4.0498189445
 20
1.1186442246
 11
4.0371035682
 21
1.1259920267
  0
LINE
  5
296
100
AcDbEntity
  8
0
100
AcDbLine
 62
7
  6
CONTINUOUS
 10
3.6596426876
 20
0.6277872671
 11
3.659510025
 21
0.6279001592
  0
LINE
  5
297
100
AcDbEntity
  8
0
100
AcDbLine
 62
7
  6
CONTINUOUS
 10
3.6508690805
 20
0.642991173
 11
3.6507233443
 21
0.6431174088
  0
LINE
  5
298
100
AcDbEntity
  8
0
100
AcDbLine
 62
7
  6
CONTINUOUS
 10
3.2699790511
 20
0.8844079795
 11
3.2698324397
 21
0.884554591
  0
LINE
  5
299
100
AcDbEntity
  8
0
100
AcDbLine
 62
7
  6
CONTINUOUS
 10
4.1958928264
 20
0.6277872671
 11
4.195727398
 21
0.6279292269
  0
LINE
  5
29A
100
AcDbEntity
  8
0
100
AcDbLine
 62
7
  6
CONTINUOUS
 10
3.635390382
 20
1.0187023919
 11
3.6352449433
 21
1.0188281558
  0
LINE
  5
29B
100
AcDbEntity
  8
0
100
AcDbLine
 62
7
  6
CONTINUOUS
 10
4.1871188847
 20
0.6429918771
 11
4.1869381139
 21
0.6431484023
  0
LINE
  5
29C
100
AcDbEntity
  8
0
100
AcDbLine
 62
7
  6
CONTINUOUS
 10
3.6514662352
 20
1.0340372671
 11
3.6516025178
 21
1.0339181345
  0
LINE
  5
29D
100
AcDbEntity
  8
0
100
AcDbLine
 62
7
  6
CONTINUOUS
 10
4.2169163767
 20
1.0340372671
 11
4.2170806682
 21
1.0338972493
  0
LINE
  5
29E
100
AcDbEntity
  8
0
100
AcDbLine
 62
7
  6
CONTINUOUS
 10
4.1613163756
 20
1.0340372671
 11
4.1614817178
 21
1.0338954548
  0
LINE
  5
29F
100
AcDbEntity
  8
0
100
AcDbLine
 62
7
  6
CONTINUOUS
 10
4.1891163748
 20
1.0340372671
 11
4.1892825159
 21
1.0338940825
  0
LINE
  5
2A0
100
AcDbEntity
  8
0
100
AcDbLine
 62
7
  6
CONTINUOUS
 10
4.1980718104
 20
1.0186734138
 11
4.1978906509
 21
1.0188302385
  0
LINE
  5
2A1
100
AcDbEntity
  8
0
100
AcDbLine
 62
7
  6
CONTINUOUS
 10
4.1702709962
 20
1.0186766259
 11
4.1700903075
 21
1.0188330876
  0
LINE
  5
2A2
100
AcDbEntity
  8
0
100
AcDbLine
 62
7
  6
CONTINUOUS
 10
3.7288825035
 20
1.1510842262
 11
3.7530544626
 21
1.1269122671
  0
LINE
  5
2A3
100
AcDbEntity
  8
0
100
AcDbLine
 62
9
  6
CONTINUOUS
 10
4.2196426867
 20
0.7071175683
 11
4.2108669626
 21
0.7163812208
  0
LINE
  5
2A4
100
AcDbEntity
  8
0
100
AcDbLine
 62
7
  6
CONTINUOUS
 10
3.7686794626
 20
1.06286212
 11
3.7688023504
 21
1.0627234772
  0
LINE
  5
2A5
100
AcDbEntity
  8
0
100
AcDbLine
 62
7
  6
CONTINUOUS
 10
4.0499294626
 20
1.0560099132
 11
4.0498065627
 21
1.0561485639
  0
LINE
  5
2A6
100
AcDbEntity
  8
0
100
AcDbLine
 62
7
  6
CONTINUOUS
 10
3.7686794626
 20
1.0836971163
 11
3.7687971983
 21
1.0835614149
  0
LINE
  5
2A7
100
AcDbEntity
  8
0
100
AcDbLine
 62
7
  6
CONTINUOUS
 10
3.7815085395
 20
1.1178915874
 11
3.7813817029
 21
1.1180378952
  0
LINE
  5
2A8
100
AcDbEntity
  8
0
100
AcDbLine
 62
7
  6
CONTINUOUS
 10
3.7815272932
 20
1.0970578356
 11
3.7813984381
 21
1.0972065641
  0
LINE
  5
2A9
100
AcDbEntity
  8
0
100
AcDbLine
 62
7
  6
CONTINUOUS
 10
3.7813920749
 20
1.0555266976
 11
3.7815207739
 21
1.0553778032
  0
LINE
  5
2AA
100
AcDbEntity
  8
0
100
AcDbLine
 62
7
  6
CONTINUOUS
 10
3.781381694
 20
1.076362873
 11
3.7815083363
 21
1.0762159105
  0
LINE
  5
2AB
100
AcDbEntity
  8
0
100
AcDbLine
 62
9
  6
CONTINUOUS
 10
3.6483669626
 20
0.6788856566
 11
3.6571426867
 21
0.6665892379
  0
LINE
  5
2AC
100
AcDbEntity
  8
0
100
AcDbLine
 62
7
  6
CONTINUOUS
 10
3.6733669626
 20
0.6788777484
 11
3.6821426867
 21
0.6665806901
  0
LINE
  5
2AD
100
AcDbEntity
  8
0
100
AcDbLine
 62
7
  6
CONTINUOUS
 10
4.0301057328
 20
10.5443097267
 11
4.0097531924
 21
10.5090580927
  0
LINE
  5
2AE
100
AcDbEntity
  8
0
100
AcDbLine
 62
7
  6
CONTINUOUS
 10
4.0655544626
 20
1.3364122671
 11
4.0897264217
 21
1.312240308
  0
LINE
  5
2AF
100
AcDbEntity
  8
0
100
AcDbLine
 62
7
  6
CONTINUOUS
 10
4.0499294626
 20
1.0768449115
 11
4.0498098571
 21
1.0769816927
  0
LINE
  5
2B0
100
AcDbEntity
  8
0
100
AcDbLine
 62
7
  6
CONTINUOUS
 10
4.0372294328
 20
1.1258468697
 11
4.0371035682
 21
1.1259920267
  0
LINE
  5
2B1
100
AcDbEntity
  8
0
100
AcDbLine
 62
7
  6
CONTINUOUS
 10
4.0370791015
 20
1.0843275711
 11
4.0372090731
 21
1.0841773044
  0
LINE
  5
2B2
100
AcDbEntity
  8
0
100
AcDbLine
 62
7
  6
CONTINUOUS
 10
4.0370850775
 20
1.0634942834
 11
4.0372141756
 21
1.0633449494
  0
LINE
  5
2B3
100
AcDbEntity
  8
0
100
AcDbLine
 62
7
  6
CONTINUOUS
 10
4.0372206235
 20
1.105017676
 11
4.0370944723
 21
1.1051637444
  0
LINE
  5
2B4
100
AcDbEntity
  8
0
100
AcDbLine
 62
7
  6
CONTINUOUS
 10
3.6507233443
 20
0.6431174088
 11
3.6580842517
 21
0.6303762284
  0
LINE
  5
2B5
100
AcDbEntity
  8
0
100
AcDbLine
 62
7
  6
CONTINUOUS
 10
3.6603891951
 20
1.0186962337
 11
3.6524363129
 21
1.0324613263
  0
LINE
  5
2B6
100
AcDbEntity
  8
0
100
AcDbLine
 62
7
  6
CONTINUOUS
 10
3.5199237957
 20
0.5854815728
 11
3.4788044626
 21
0.6736622671
  0
LINE
  5
2B7
100
AcDbEntity
  8
0
100
AcDbLine
 62
7
  6
CONTINUOUS
 10
4.1869381139
 20
0.6431484023
 11
4.1948909685
 21
0.6293846829
  0
LINE
  5
2B8
100
AcDbEntity
  8
0
100
AcDbLine
 62
7
  6
CONTINUOUS
 10
4.2147306308
 20
0.6431737353
 11
4.2226899201
 21
0.6294007411
  0
LINE
  5
2B9
100
AcDbEntity
  8
0
100
AcDbLine
 62
7
  6
CONTINUOUS
 10
3.6213044626
 20
1.0459122671
 11
3.6071143968
 21
1.0763429614
  0
LINE
  5
2BA
100
AcDbEntity
  8
0
100
AcDbLine
 62
7
  6
CONTINUOUS
 10
3.5214591299
 20
0.5821890378
 11
3.5200456677
 21
0.5855384027
  0
LINE
  5
2BB
100
AcDbEntity
  8
0
100
AcDbLine
 62
7
  6
CONTINUOUS
 10
4.1702709962
 20
1.0186766259
 11
4.1629060827
 21
1.0314228001
  0
LINE
  5
2BC
100
AcDbEntity
  8
0
100
AcDbLine
 62
7
  6
CONTINUOUS
 10
4.1980718104
 20
1.0186734138
 11
4.1907056465
 21
1.0314215355
  0
LINE
  5
2BD
100
AcDbEntity
  8
0
100
AcDbLine
 62
7
  6
CONTINUOUS
 10
4.2243044626
 20
1.0213930235
 11
4.2185103851
 21
1.0314211096
  0
LINE
  5
2BE
100
AcDbEntity
  8
0
100
AcDbLine
 62
7
  6
CONTINUOUS
 10
3.6069925247
 20
1.0762861315
 11
3.6055790625
 21
1.0796354964
  0
LINE
  5
2BF
100
AcDbEntity
  8
0
100
AcDbLine
 62
7
  6
CONTINUOUS
 10
3.6062100001
 20
1.0781353401
 11
3.6060170023
 21
1.078594972
  0
LINE
  5
2C0
100
AcDbEntity
  8
0
100
AcDbLine
 62
7
  6
CONTINUOUS
 10
3.6055954775
 20
1.0795946816
 11
3.6055790625
 21
1.0796354964
  0
LWPOLYLINE
  5
2C1
100
AcDbEntity
  8
0
100
AcDbPolyline
 62
7
  6
CONTINUOUS
 90
12
 70
0
 10
3.3250125259
 20
0.3582374547
 10
3.325166695
 20
0.3574524494
 10
3.3259411671
 20
0.35479181
 10
3.3270899896
 20
0.3522375803
 10
3.3285678343
 20
0.3498914239
 10
3.330334466
 20
0.3477944075
 10
3.3323915016
 20
0.34594293
 10
3.3346835297
 20
0.3443936676
 10
3.3371423806
 20
0.3431857311
 10
3.3397710985
 20
0.342318018
 10
3.3424738178
 20
0.3418239
 10
3.3440128083
 20
0.3417105877
  0
LINE
  5
2C2
100
AcDbEntity
  8
0
100
AcDbLine
 62
7
  6
CONTINUOUS
 10
3.2851025045
 20
0.9128614723
 11
3.2850696286
 21
0.913210531
  0
LINE
  5
2C3
100
AcDbEntity
  8
0
100
AcDbLine
 62
7
  6
CONTINUOUS
 10
3.2852979574
 20
0.9096741403
 11
3.2850558126
 21
0.9133371717
  0
LINE
  5
2C4
100
AcDbEntity
  8
0
100
AcDbLine
 62
7
  6
CONTINUOUS
 10
3.2853101455
 20
0.9095499619
 11
3.2852104472
 21
0.9112117032
  0
LINE
  5
2C5
100
AcDbEntity
  8
0
100
AcDbLine
 62
9
  6
CONTINUOUS
 10
3.2790433553
 20
0.9064326136
 11
3.2790555553
 21
0.9042138379
  0
LINE
  5
2C6
100
AcDbEntity
  8
0
100
AcDbLine
 62
9
  6
CONTINUOUS
 10
3.2790250041
 20
0.7688548266
 11
3.2790501319
 21
0.7559554632
  0
LINE
  5
2C7
100
AcDbEntity
  8
0
100
AcDbLine
 62
9
  6
CONTINUOUS
 10
3.2790210295
 20
0.897722561
 11
3.2790250041
 21
0.7688548266
  0
LINE
  5
2C8
100
AcDbEntity
  8
0
100
AcDbLine
 62
9
  6
CONTINUOUS
 10
3.2790555553
 20
0.9042138379
 11
3.2790210295
 21
0.897722561
  0
LINE
  5
2C9
100
AcDbEntity
  8
0
100
AcDbLine
 62
9
  6
CONTINUOUS
 10
3.2790501319
 20
0.7559554632
 11
3.2790433553
 21
0.7553919206
  0
LINE
  5
2CA
100
AcDbEntity
  8
0
100
AcDbLine
 62
7
  6
CONTINUOUS
 10
3.6420321689
 20
0.805481057
 11
3.6412300719
 21
0.8432712512
  0
LINE
  5
2CB
100
AcDbEntity
  8
0
100
AcDbLine
 62
7
  6
CONTINUOUS
 10
3.6443550239
 20
0.8432735174
 11
3.6451571347
 21
0.8054826555
  0
LINE
  5
2CC
100
AcDbEntity
  8
0
100
AcDbLine
 62
7
  6
CONTINUOUS
 10
3.6662772344
 20
0.8410467519
 11
3.6666739762
 21
0.8223193872
  0
LINE
  5
2CD
100
AcDbEntity
  8
0
100
AcDbLine
 62
7
  6
CONTINUOUS
 10
3.6697990217
 20
0.8223172386
 11
3.669402278
 21
0.8410446958
  0
LINE
  5
2CE
100
AcDbEntity
  8
0
100
AcDbLine
 62
7
  6
CONTINUOUS
 10
3.6787065819
 20
0.8149776204
 11
3.6780120423
 21
0.8502248142
  0
LINE
  5
2CF
100
AcDbEntity
  8
0
100
AcDbLine
 62
7
  6
CONTINUOUS
 10
3.4313044626
 20
1.3231622671
 11
3.4313044626
 21
0.3386622671
  0
LINE
  5
2D0
100
AcDbEntity
  8
0
100
AcDbLine
 62
7
  6
CONTINUOUS
 10
3.4418044626
 20
0.7372737217
 11
3.4418044626
 21
0.7413577691
  0
LINE
  5
2D1
100
AcDbEntity
  8
0
100
AcDbLine
 62
7
  6
CONTINUOUS
 10
3.4418044626
 20
0.7444838649
 11
3.4418044626
 21
0.7562434106
  0
LINE
  5
2D2
100
AcDbEntity
  8
0
100
AcDbLine
 62
7
  6
CONTINUOUS
 10
3.4418044626
 20
0.7621185489
 11
3.4418044626
 21
0.7801352182
  0
LINE
  5
2D3
100
AcDbEntity
  8
0
100
AcDbLine
 62
7
  6
CONTINUOUS
 10
3.4418044626
 20
0.7880507706
 11
3.4418044626
 21
0.8101514872
  0
LINE
  5
2D4
100
AcDbEntity
  8
0
100
AcDbLine
 62
7
  6
CONTINUOUS
 10
3.4418044626
 20
0.8191527214
 11
3.4418044626
 21
0.8426718127
  0
LINE
  5
2D5
100
AcDbEntity
  8
0
100
AcDbLine
 62
7
  6
CONTINUOUS
 10
3.4418044626
 20
0.8516730469
 11
3.4418044626
 21
0.8737737635
  0
LINE
  5
2D6
100
AcDbEntity
  8
0
100
AcDbLine
 62
7
  6
CONTINUOUS
 10
3.4418044626
 20
0.881689316
 11
3.4418044626
 21
0.8997059852
  0
LINE
  5
2D7
100
AcDbEntity
  8
0
100
AcDbLine
 62
7
  6
CONTINUOUS
 10
3.4418044626
 20
0.9204667651
 11
3.4418044626
 21
0.924385262
  0
LINE
  5
2D8
100
AcDbEntity
  8
0
100
AcDbLine
 62
7
  6
CONTINUOUS
 10
3.4418044626
 20
0.9055811236
 11
3.4418044626
 21
0.9173406693
  0
LINE
  5
2D9
100
AcDbEntity
  8
0
100
AcDbLine
 62
7
  6
CONTINUOUS
 10
3.4663044626
 20
0.9881622671
 11
3.4663044626
 21
0.6736622671
  0
LINE
  5
2DA
100
AcDbEntity
  8
0
100
AcDbLine
 62
7
  6
CONTINUOUS
 10
3.4788044626
 20
0.6736622671
 11
3.4788044626
 21
0.9881622671
  0
LINE
  5
2DB
100
AcDbEntity
  8
0
100
AcDbLine
 62
7
  6
CONTINUOUS
 10
3.6213044626
 20
1.0459122671
 11
3.6213044626
 21
0.6159122671
  0
LINE
  5
2DC
100
AcDbEntity
  8
0
100
AcDbLine
 62
7
  6
CONTINUOUS
 10
3.6338044626
 20
1.0458787244
 11
3.6338044626
 21
0.6159458098
  0
LINE
  5
2DD
100
AcDbEntity
  8
0
100
AcDbLine
 62
7
  6
CONTINUOUS
 10
3.6968044626
 20
1.0340057208
 11
3.6968044626
 21
0.6278188134
  0
LINE
  5
2DE
100
AcDbEntity
  8
0
100
AcDbLine
 62
7
  6
CONTINUOUS
 10
3.6980544626
 20
10.7209122671
 11
3.6980544626
 21
10.7834122671
  0
LINE
  5
2DF
100
AcDbEntity
  8
0
100
AcDbLine
 62
7
  6
CONTINUOUS
 10
3.7093044626
 20
10.7209122671
 11
3.7093044626
 21
10.6909122671
  0
LINE
  5
2E0
100
AcDbEntity
  8
0
100
AcDbLine
 62
7
  6
CONTINUOUS
 10
3.285210824
 20
0.7506171997
 11
3.2853087862
 21
0.7522508194
  0
LINE
  5
2E1
100
AcDbEntity
  8
0
100
AcDbLine
 62
7
  6
CONTINUOUS
 10
3.2850557788
 20
0.7484872736
 11
3.2852963484
 21
0.7521253406
  0
LINE
  5
2E2
100
AcDbEntity
  8
0
100
AcDbLine
 62
7
  6
CONTINUOUS
 10
4.1679204062
 20
0.8467645598
 11
4.1680244829
 21
0.8419968932
  0
LINE
  5
2E3
100
AcDbEntity
  8
0
100
AcDbLine
 62
7
  6
CONTINUOUS
 10
3.7288825035
 20
1.1510842262
 11
3.7288825035
 21
1.312240308
  0
LINE
  5
2E4
100
AcDbEntity
  8
0
100
AcDbLine
 62
7
  6
CONTINUOUS
 10
3.7468044626
 20
1.0309122671
 11
3.7468044626
 21
0.6309122671
  0
LINE
  5
2E5
100
AcDbEntity
  8
0
100
AcDbLine
 62
7
  6
CONTINUOUS
 10
3.7686794626
 20
1.1269122671
 11
3.7686794626
 21
1.1253671155
  0
LINE
  5
2E6
100
AcDbEntity
  8
0
100
AcDbLine
 62
7
  6
CONTINUOUS
 10
3.7686794626
 20
1.1080974187
 11
3.7686794626
 21
1.1045321155
  0
LINE
  5
2E7
100
AcDbEntity
  8
0
100
AcDbLine
 62
7
  6
CONTINUOUS
 10
3.7686794626
 20
1.0309122671
 11
3.7686794626
 21
1.0455844542
  0
LINE
  5
2E8
100
AcDbEntity
  8
0
100
AcDbLine
 62
7
  6
CONTINUOUS
 10
3.7686794626
 20
1.0628702347
 11
3.7686794626
 21
1.0664260289
  0
LINE
  5
2E9
100
AcDbEntity
  8
0
100
AcDbLine
 62
7
  6
CONTINUOUS
 10
3.7686794626
 20
1.083698597
 11
3.7686794626
 21
1.0872499612
  0
LINE
  5
2EA
100
AcDbEntity
  8
0
100
AcDbLine
 62
7
  6
CONTINUOUS
 10
3.7813817029
 20
1.1180378952
 11
3.7813817029
 21
1.1154328952
  0
LINE
  5
2EB
100
AcDbEntity
  8
0
100
AcDbLine
 62
7
  6
CONTINUOUS
 10
3.781381694
 20
1.076362873
 11
3.7813816932
 21
1.0737575007
  0
LINE
  5
2EC
100
AcDbEntity
  8
0
100
AcDbLine
 62
7
  6
CONTINUOUS
 10
3.7813920749
 20
1.0555266976
 11
3.7813920749
 21
1.0529216976
  0
LINE
  5
2ED
100
AcDbEntity
  8
0
100
AcDbLine
 62
7
  6
CONTINUOUS
 10
3.7813984381
 20
1.0972065641
 11
3.7813984381
 21
1.0946015641
  0
LINE
  5
2EE
100
AcDbEntity
  8
0
100
AcDbLine
 62
7
  6
CONTINUOUS
 10
3.7818044626
 20
10.6909122671
 11
3.7818044626
 21
10.5693097267
  0
LINE
  5
2EF
100
AcDbEntity
  8
0
100
AcDbLine
 62
7
  6
CONTINUOUS
 10
3.8155544626
 20
10.4840580927
 11
3.8155544626
 21
1.3364122671
  0
LINE
  5
2F0
100
AcDbEntity
  8
0
100
AcDbLine
 62
7
  6
CONTINUOUS
 10
3.819093483
 20
1.1510842262
 11
3.819093483
 21
1.312240308
  0
LINE
  5
2F1
100
AcDbEntity
  8
0
100
AcDbLine
 62
7
  6
CONTINUOUS
 10
3.8339796451
 20
1.0884122671
 11
3.8339796451
 21
1.0870314367
  0
LINE
  5
2F2
100
AcDbEntity
  8
0
100
AcDbLine
 62
7
  6
CONTINUOUS
 10
3.8339796451
 20
1.0697617399
 11
3.8339796451
 21
1.0661964367
  0
LINE
  5
2F3
100
AcDbEntity
  8
0
100
AcDbLine
 62
7
  6
CONTINUOUS
 10
3.8339796451
 20
1.0489267399
 11
3.8339796451
 21
0.9950049796
  0
LINE
  5
2F4
100
AcDbEntity
  8
0
100
AcDbLine
 62
7
  6
CONTINUOUS
 10
3.8617309077
 20
1.0803099902
 11
3.8617309077
 21
1.0777049902
  0
LINE
  5
2F5
100
AcDbEntity
  8
0
100
AcDbLine
 62
7
  6
CONTINUOUS
 10
3.8617309077
 20
1.0594749902
 11
3.8617309077
 21
1.0568699902
  0
LINE
  5
2F6
100
AcDbEntity
  8
0
100
AcDbLine
 62
7
  6
CONTINUOUS
 10
3.9568780175
 20
1.0593970439
 11
3.9568780175
 21
1.0620020439
  0
LINE
  5
2F7
100
AcDbEntity
  8
0
100
AcDbLine
 62
7
  6
CONTINUOUS
 10
3.9568780175
 20
1.0802320439
 11
3.9568780175
 21
1.0828370439
  0
LINE
  5
2F8
100
AcDbEntity
  8
0
100
AcDbLine
 62
7
  6
CONTINUOUS
 10
3.9846292801
 20
0.9950049796
 11
3.9846292801
 21
1.0526755975
  0
LINE
  5
2F9
100
AcDbEntity
  8
0
100
AcDbLine
 62
7
  6
CONTINUOUS
 10
3.9846292801
 20
1.0699452943
 11
3.9846292801
 21
1.0735105975
  0
LINE
  5
2FA
100
AcDbEntity
  8
0
100
AcDbLine
 62
7
  6
CONTINUOUS
 10
3.9995154422
 20
1.1510842262
 11
3.9995154422
 21
1.312240308
  0
LINE
  5
2FB
100
AcDbEntity
  8
0
100
AcDbLine
 62
7
  6
CONTINUOUS
 10
4.0030544626
 20
1.3364122671
 11
4.0030544626
 21
10.4840580927
  0
LINE
  5
2FC
100
AcDbEntity
  8
0
100
AcDbLine
 62
7
  6
CONTINUOUS
 10
4.0368044626
 20
10.5693097267
 11
4.0368044626
 21
10.6909122671
  0
LINE
  5
2FD
100
AcDbEntity
  8
0
100
AcDbLine
 62
7
  6
CONTINUOUS
 10
4.0372090731
 20
1.0841773044
 11
4.0372090731
 21
1.0867823246
  0
LINE
  5
2FE
100
AcDbEntity
  8
0
100
AcDbLine
 62
7
  6
CONTINUOUS
 10
4.0372141756
 20
1.0633449494
 11
4.0372141754
 21
1.06594977
  0
LINE
  5
2FF
100
AcDbEntity
  8
0
100
AcDbLine
 62
7
  6
CONTINUOUS
 10
4.0372206235
 20
1.105017676
 11
4.0372206235
 21
1.107622676
  0
LINE
  5
300
100
AcDbEntity
  8
0
100
AcDbLine
 62
7
  6
CONTINUOUS
 10
4.048920304
 20
1.0520471155
 11
4.048920304
 21
1.0347774187
  0
LINE
  5
301
100
AcDbEntity
  8
0
100
AcDbLine
 62
7
  6
CONTINUOUS
 10
4.0499294626
 20
1.0309122671
 11
4.0499294626
 21
1.0351720998
  0
LINE
  5
302
100
AcDbEntity
  8
0
100
AcDbLine
 62
7
  6
CONTINUOUS
 10
4.0499294626
 20
1.0524472642
 11
4.0499294626
 21
1.0560001177
  0
LINE
  5
303
100
AcDbEntity
  8
0
100
AcDbLine
 62
7
  6
CONTINUOUS
 10
4.0499294626
 20
1.0732892767
 11
4.0499294626
 21
1.0768319747
  0
LINE
  5
304
100
AcDbEntity
  8
0
100
AcDbLine
 62
7
  6
CONTINUOUS
 10
4.0499294626
 20
1.0941146155
 11
4.0499294626
 21
1.0976799187
  0
LINE
  5
305
100
AcDbEntity
  8
0
100
AcDbLine
 62
7
  6
CONTINUOUS
 10
4.0499294626
 20
1.1149496155
 11
4.0499294626
 21
1.1185149187
  0
LINE
  5
306
100
AcDbEntity
  8
0
100
AcDbLine
 62
7
  6
CONTINUOUS
 10
4.0718044626
 20
0.6309122671
 11
4.0718044626
 21
1.0309122671
  0
LINE
  5
307
100
AcDbEntity
  8
0
100
AcDbLine
 62
7
  6
CONTINUOUS
 10
3.2850505889
 20
0.7484122671
 11
3.2850696387
 21
0.7486141105
  0
LINE
  5
308
100
AcDbEntity
  8
0
100
AcDbLine
 62
7
  6
CONTINUOUS
 10
4.2171912463
 20
0.8103608899
 11
4.2163742165
 21
0.8478151719
  0
LINE
  5
309
100
AcDbEntity
  8
0
100
AcDbLine
 62
7
  6
CONTINUOUS
 10
4.0897264217
 20
1.1510842262
 11
4.0897264217
 21
1.312240308
  0
LINE
  5
30A
100
AcDbEntity
  8
0
100
AcDbLine
 62
7
  6
CONTINUOUS
 10
4.1093044626
 20
10.6909122671
 11
4.1093044626
 21
10.7209122671
  0
LINE
  5
30B
100
AcDbEntity
  8
0
100
AcDbLine
 62
7
  6
CONTINUOUS
 10
4.1205544626
 20
10.7834122671
 11
4.1205544626
 21
10.7209122671
  0
LINE
  5
30C
100
AcDbEntity
  8
0
100
AcDbLine
 62
7
  6
CONTINUOUS
 10
4.1593044626
 20
1.0340195906
 11
4.1593044626
 21
0.6278103272
  0
LINE
  5
30D
100
AcDbEntity
  8
0
100
AcDbLine
 62
7
  6
CONTINUOUS
 10
4.2243044626
 20
0.5783215243
 11
4.2243044626
 21
1.0835030099
  0
LINE
  5
30E
100
AcDbEntity
  8
0
100
AcDbLine
 62
7
  6
CONTINUOUS
 10
3.3251666948
 20
1.3043720838
 11
3.3250125202
 21
1.3035870473
  0
LINE
  5
30F
100
AcDbEntity
  8
0
100
AcDbLine
 62
7
  6
CONTINUOUS
 10
4.5055544626
 20
0.5783215243
 11
4.5055544626
 21
1.0835030099
  0
LINE
  5
310
100
AcDbEntity
  8
0
100
AcDbLine
 62
7
  6
CONTINUOUS
 10
5.2555544626
 20
1.0621484311
 11
5.2555544626
 21
0.5996761031
  0
LINE
  5
311
100
AcDbEntity
  8
0
100
AcDbLine
 62
9
  6
CONTINUOUS
 10
5.2656816902
 20
1.0962562412
 11
5.2656816902
 21
0.565568293
  0
LINE
  5
312
100
AcDbEntity
  8
0
100
AcDbLine
 62
9
  6
CONTINUOUS
 10
5.4227455874
 20
0.2475550104
 11
5.4227455874
 21
1.4142695237
  0
LINE
  5
313
100
AcDbEntity
  8
0
100
AcDbLine
 62
9
  6
CONTINUOUS
 10
5.4816626889
 20
1.4559122671
 11
5.4816626889
 21
0.2059122671
  0
LINE
  5
314
100
AcDbEntity
  8
0
100
AcDbLine
 62
7
  6
CONTINUOUS
 10
3.6055790625
 20
0.5821890378
 11
3.6055955535
 21
0.5822299319
  0
LINE
  5
315
100
AcDbEntity
  8
0
100
AcDbLine
 62
7
  6
CONTINUOUS
 10
3.5208303487
 20
1.0781404614
 11
3.5214591299
 21
1.0796354964
  0
LINE
  5
316
100
AcDbEntity
  8
0
100
AcDbLine
 62
7
  6
CONTINUOUS
 10
3.5200456677
 20
1.0762861315
 11
3.5214591299
 21
1.0796354964
  0
LINE
  5
317
100
AcDbEntity
  8
0
100
AcDbLine
 62
7
  6
CONTINUOUS
 10
3.4788044626
 20
0.9881622671
 11
3.5199237957
 21
1.0763429614
  0
LINE
  5
318
100
AcDbEntity
  8
0
100
AcDbLine
 62
7
  6
CONTINUOUS
 10
5.5368044626
 20
1.4559122671
 11
5.5368044626
 21
0.2059122671
  0
LINE
  5
319
100
AcDbEntity
  8
0
100
AcDbLine
 62
7
  6
CONTINUOUS
 10
3.6055955535
 20
0.5822299319
 11
3.6069925247
 21
0.5855384027
  0
LINE
  5
31A
100
AcDbEntity
  8
0
100
AcDbLine
 62
7
  6
CONTINUOUS
 10
3.6071143968
 20
0.5854815728
 11
3.6213044626
 21
0.6159122671
  0
LINE
  5
31B
100
AcDbEntity
  8
0
100
AcDbLine
 62
7
  6
CONTINUOUS
 10
3.6470190989
 20
1.0339252508
 11
3.6382238038
 21
1.0187015828
  0
LINE
  5
31C
100
AcDbEntity
  8
0
100
AcDbLine
 62
7
  6
CONTINUOUS
 10
3.6720159626
 20
1.0339195848
 11
3.6632205379
 21
1.0186961321
  0
LINE
  5
31D
100
AcDbEntity
  8
0
100
AcDbLine
 62
7
  6
CONTINUOUS
 10
3.6391019035
 20
0.6279064446
 11
3.647889061
 21
0.6431165364
  0
LINE
  5
31E
100
AcDbEntity
  8
0
100
AcDbLine
 62
7
  6
CONTINUOUS
 10
4.1818254332
 20
1.0338903155
 11
4.1730353905
 21
1.0186775165
  0
LINE
  5
31F
100
AcDbEntity
  8
0
100
AcDbLine
 62
7
  6
CONTINUOUS
 10
4.2096268735
 20
1.0338896997
 11
4.200834977
 21
1.0186739746
  0
LINE
  5
320
100
AcDbEntity
  8
0
100
AcDbLine
 62
9
  6
CONTINUOUS
 10
3.6364662385
 20
0.6665892379
 11
3.6452419626
 21
0.6788856566
  0
LINE
  5
321
100
AcDbEntity
  8
0
100
AcDbLine
 62
7
  6
CONTINUOUS
 10
3.6614662385
 20
0.6665806901
 11
3.6702419626
 21
0.6788777484
  0
LWPOLYLINE
  5
322
100
AcDbEntity
  8
0
100
AcDbPolyline
 62
7
  6
CONTINUOUS
 90
5
 70
0
 10
3.3303344641
 20
1.3140301248
 10
3.3285678327
 20
1.3119331081
 10
3.3270899884
 20
1.3095869517
 10
3.3259411664
 20
1.3070327225
 10
3.3251666948
 20
1.3043720838
  0
LINE
  5
323
100
AcDbEntity
  8
0
100
AcDbLine
 62
7
  6
CONTINUOUS
 10
3.8088557328
 20
10.5090580927
 11
3.7885031924
 21
10.5443097267
  0
LINE
  5
324
100
AcDbEntity
  8
0
100
AcDbLine
 62
7
  6
CONTINUOUS
 10
4.1753836526
 20
0.6279344066
 11
4.1841739267
 21
0.6431475629
  0
LINE
  5
325
100
AcDbEntity
  8
0
100
AcDbLine
 62
7
  6
CONTINUOUS
 10
4.2031543736
 20
0.6279235192
 11
4.2119679513
 21
0.643174808
  0
LINE
  5
326
100
AcDbEntity
  8
0
100
AcDbLine
 62
7
  6
CONTINUOUS
 10
4.0499294626
 20
1.1149496155
 11
4.0498237887
 21
1.1148210547
  0
LINE
  5
327
100
AcDbEntity
  8
0
100
AcDbLine
 62
7
  6
CONTINUOUS
 10
3.7686794626
 20
1.0664274179
 11
3.7687911263
 21
1.0665595732
  0
LINE
  5
328
100
AcDbEntity
  8
0
100
AcDbLine
 62
7
  6
CONTINUOUS
 10
3.7686794626
 20
1.0455924142
 11
3.7687925292
 21
1.0457254009
  0
LINE
  5
329
100
AcDbEntity
  8
0
100
AcDbLine
 62
7
  6
CONTINUOUS
 10
3.7686794626
 20
1.1080974187
 11
3.7687955891
 21
1.1082321886
  0
LINE
  5
32A
100
AcDbEntity
  8
0
100
AcDbLine
 62
7
  6
CONTINUOUS
 10
3.7813817029
 20
1.1154328952
 11
3.7815067204
 21
1.1155775843
  0
LINE
  5
32B
100
AcDbEntity
  8
0
100
AcDbLine
 62
7
  6
CONTINUOUS
 10
3.781521653
 20
1.0530713546
 11
3.7813920749
 21
1.0529216976
  0
LINE
  5
32C
100
AcDbEntity
  8
0
100
AcDbLine
 62
7
  6
CONTINUOUS
 10
3.7815098292
 20
1.0739053862
 11
3.7813816932
 21
1.0737575007
  0
LINE
  5
32D
100
AcDbEntity
  8
0
100
AcDbLine
 62
7
  6
CONTINUOUS
 10
3.7686794626
 20
1.0872624117
 11
3.7688067646
 21
1.0874035254
  0
LINE
  5
32E
100
AcDbEntity
  8
0
100
AcDbLine
 62
7
  6
CONTINUOUS
 10
3.7530544626
 20
1.3364122671
 11
3.7288825035
 21
1.312240308
  0
LINE
  5
32F
100
AcDbEntity
  8
0
100
AcDbLine
 62
7
  6
CONTINUOUS
 10
3.2698324397
 20
0.7772699432
 11
3.2699790511
 21
0.7774165546
  0
LINE
  5
330
100
AcDbEntity
  8
0
100
AcDbLine
 62
7
  6
CONTINUOUS
 10
3.3323914996
 20
1.3158816027
 11
3.3303344641
 21
1.3140301248
  0
LINE
  5
331
100
AcDbEntity
  8
0
100
AcDbLine
 62
7
  6
CONTINUOUS
 10
4.0499294626
 20
1.0732796209
 11
4.0498152569
 21
1.073145965
  0
LINE
  5
332
100
AcDbEntity
  8
0
100
AcDbLine
 62
7
  6
CONTINUOUS
 10
4.0372090731
 20
1.0867823246
 11
4.0370790894
 21
1.0866320577
  0
LINE
  5
333
100
AcDbEntity
  8
0
100
AcDbLine
 62
7
  6
CONTINUOUS
 10
4.0370926998
 20
1.1074750702
 11
4.0372206235
 21
1.107622676
  0
LINE
  5
334
100
AcDbEntity
  8
0
100
AcDbLine
 62
7
  6
CONTINUOUS
 10
4.0372141754
 20
1.06594977
 11
4.0370843754
 21
1.0658000064
  0
LINE
  5
335
100
AcDbEntity
  8
0
100
AcDbLine
 62
7
  6
CONTINUOUS
 10
4.0499294626
 20
1.0941146155
 11
4.0498100299
 21
1.0939779403
  0
LINE
  5
336
100
AcDbEntity
  8
0
100
AcDbLine
 62
7
  6
CONTINUOUS
 10
4.0897264217
 20
1.1510842262
 11
4.0655544626
 21
1.1269122671
  0
LINE
  5
337
100
AcDbEntity
  8
0
100
AcDbLine
 62
7
  6
CONTINUOUS
 10
3.67214269
 20
1.0340372671
 11
3.6720072429
 21
1.0339195906
  0
LINE
  5
338
100
AcDbEntity
  8
0
100
AcDbLine
 62
7
  6
CONTINUOUS
 10
3.6382238038
 20
1.0187015828
 11
3.6383699433
 21
1.0188281558
  0
LINE
  5
339
100
AcDbEntity
  8
0
100
AcDbLine
 62
7
  6
CONTINUOUS
 10
3.6633674102
 20
1.0188232463
 11
3.6632205379
 21
1.0186961321
  0
LINE
  5
33A
100
AcDbEntity
  8
0
100
AcDbLine
 62
7
  6
CONTINUOUS
 10
3.6471426889
 20
1.0340372671
 11
3.647010544
 21
1.0339252564
  0
LINE
  5
33B
100
AcDbEntity
  8
0
100
AcDbLine
 62
9
  6
CONTINUOUS
 10
4.2077419626
 20
0.7163812208
 11
4.1989662385
 21
0.7071175683
  0
LINE
  5
33C
100
AcDbEntity
  8
0
100
AcDbLine
 62
7
  6
CONTINUOUS
 10
4.1819928263
 20
1.0340372671
 11
4.1818245148
 21
1.0338903163
  0
LINE
  5
33D
100
AcDbEntity
  8
0
100
AcDbLine
 62
7
  6
CONTINUOUS
 10
3.6477440805
 20
0.642991173
 11
3.647889061
 21
0.6431165364
  0
LINE
  5
33E
100
AcDbEntity
  8
0
100
AcDbLine
 62
7
  6
CONTINUOUS
 10
4.1732153075
 20
1.0188330876
 11
4.1730353905
 21
1.0186775165
  0
LINE
  5
33F
100
AcDbEntity
  8
0
100
AcDbLine
 62
7
  6
CONTINUOUS
 10
4.2010159457
 20
1.0188302381
 11
4.200834977
 21
1.0186739746
  0
LINE
  5
340
100
AcDbEntity
  8
0
100
AcDbLine
 62
7
  6
CONTINUOUS
 10
4.1752163754
 20
0.6277872671
 11
4.1753847946
 21
0.6279344057
  0
LINE
  5
341
100
AcDbEntity
  8
0
100
AcDbLine
 62
7
  6
CONTINUOUS
 10
4.2119679513
 20
0.643174808
 11
4.2117863262
 21
0.6430175354
  0
LINE
  5
342
100
AcDbEntity
  8
0
100
AcDbLine
 62
7
  6
CONTINUOUS
 10
4.2030163679
 20
0.6277872671
 11
4.2031784322
 21
0.6279235
  0
LINE
  5
343
100
AcDbEntity
  8
0
100
AcDbLine
 62
7
  6
CONTINUOUS
 10
3.7815067204
 20
1.1155775843
 11
3.7706481637
 21
1.1093026306
  0
LINE
  5
344
100
AcDbEntity
  8
0
100
AcDbLine
 62
7
  6
CONTINUOUS
 10
3.7815257433
 20
1.0947489481
 11
3.770635987
 21
1.0884550365
  0
LINE
  5
345
100
AcDbEntity
  8
0
100
AcDbLine
 62
7
  6
CONTINUOUS
 10
3.7815098292
 20
1.0739053862
 11
3.7706429831
 21
1.0676255029
  0
LINE
  5
346
100
AcDbEntity
  8
0
100
AcDbLine
 62
7
  6
CONTINUOUS
 10
3.781521653
 20
1.0530713546
 11
3.7706501047
 21
1.0467881778
  0
LINE
  5
347
100
AcDbEntity
  8
0
100
AcDbLine
 62
7
  6
CONTINUOUS
 10
4.0370926998
 20
1.1074750702
 11
4.0479016586
 21
1.1137218164
  0
LINE
  5
348
100
AcDbEntity
  8
0
100
AcDbLine
 62
7
  6
CONTINUOUS
 10
4.0370790894
 20
1.0866320577
 11
4.0479023656
 21
1.0928877376
  0
LINE
  5
349
100
AcDbEntity
  8
0
100
AcDbLine
 62
7
  6
CONTINUOUS
 10
4.0370843754
 20
1.0658000064
 11
4.0479025358
 21
1.072052471
  0
LINE
  5
34A
100
AcDbEntity
  8
0
100
AcDbLine
 62
9
  6
CONTINUOUS
 10
3.8155544626
 20
10.4840580927
 11
4.0030544626
 21
10.4840580927
  0
LINE
  5
34B
100
AcDbEntity
  8
0
100
AcDbLine
 62
9
  6
CONTINUOUS
 10
3.7885031924
 20
10.5443097267
 11
4.0301057328
 21
10.5443097267
  0
LINE
  5
34C
100
AcDbEntity
  8
0
100
AcDbLine
 62
9
  6
CONTINUOUS
 10
4.0368044626
 20
10.5693097267
 11
3.7818044626
 21
10.5693097267
  0
LINE
  5
34D
100
AcDbEntity
  8
0
100
AcDbLine
 62
7
  6
CONTINUOUS
 10
3.7093044626
 20
10.6909122671
 11
4.1093044626
 21
10.6909122671
  0
LINE
  5
34E
100
AcDbEntity
  8
0
100
AcDbLine
 62
7
  6
CONTINUOUS
 10
4.1205544626
 20
10.7209122671
 11
3.6980544626
 21
10.7209122671
  0
LINE
  5
34F
100
AcDbEntity
  8
0
100
AcDbLine
 62
7
  6
CONTINUOUS
 10
4.1205544626
 20
10.7834122671
 11
3.6980544626
 21
10.7834122671
  0
LINE
  5
350
100
AcDbEntity
  8
0
100
AcDbLine
 62
9
  6
CONTINUOUS
 10
4.0097531924
 20
10.5090580927
 11
3.8088557328
 21
10.5090580927
  0
ARC
  5
351
100
AcDbEntity
  8
0
100
AcDbCircle
 62
7
  6
CONTINUOUS
 10
-26.461989918
 20
0.2653935863
 40
30.1456754068
100
AcDbArc
 50
1.1116176001
 51
1.2836875244
  0
ARC
  5
352
100
AcDbEntity
  8
0
100
AcDbCircle
 62
7
  6
CONTINUOUS
 10
-25.9554874768
 20
0.2771681765
 40
29.6140425756
100
AcDbArc
 50
1.1087906643
 51
1.2839495947
  0
ARC
  5
353
100
AcDbEntity
  8
0
100
AcDbCircle
 62
7
  6
CONTINUOUS
 10
-23.2668357082
 20
0.3315709892
 40
26.9291699316
100
AcDbArc
 50
1.1035642185
 51
1.296173191
  0
ARC
  5
354
100
AcDbEntity
  8
0
100
AcDbCircle
 62
7
  6
CONTINUOUS
 10
-19.7175241832
 20
0.3402158048
 40
23.939273471
100
AcDbArc
 50
1.2594732135
 51
1.433441062
  0
ARC
  5
355
100
AcDbEntity
  8
0
100
AcDbCircle
 62
7
  6
CONTINUOUS
 10
-18.2246535258
 20
0.376477919
 40
22.4530885523
100
AcDbArc
 50
1.2502960277
 51
1.4357734988
  0
ARC
  5
356
100
AcDbEntity
  8
0
100
AcDbCircle
 62
7
  6
CONTINUOUS
 10
-17.4284453343
 20
0.3931673077
 40
21.6217905748
100
AcDbArc
 50
1.2541381876
 51
1.4683928208
  0
ARC
  5
357
100
AcDbEntity
  8
0
100
AcDbCircle
 62
7
  6
CONTINUOUS
 10
-16.7090124894
 20
0.4262672187
 40
20.3826354721
100
AcDbArc
 50
1.1660238645
 51
1.4582723033
  0
ARC
  5
358
100
AcDbEntity
  8
0
100
AcDbCircle
 62
7
  6
CONTINUOUS
 10
-16.7114158143
 20
0.4262838209
 40
20.3819136068
100
AcDbArc
 50
1.1660242679
 51
1.4582805582
  0
ARC
  5
359
100
AcDbEntity
  8
0
100
AcDbCircle
 62
7
  6
CONTINUOUS
 10
-15.6190095647
 20
0.4516979439
 40
19.2642196965
100
AcDbArc
 50
1.1647003328
 51
1.4751370051
  0
ARC
  5
35A
100
AcDbEntity
  8
0
100
AcDbCircle
 62
7
  6
CONTINUOUS
 10
-15.614566543
 20
0.4517278784
 40
19.2629013367
100
AcDbArc
 50
1.1646977426
 51
1.4751592507
  0
ARC
  5
35B
100
AcDbEntity
  8
0
100
AcDbCircle
 62
7
  6
CONTINUOUS
 10
-14.7881854979
 20
0.455738621
 40
18.9879161954
100
AcDbArc
 50
1.239278195
 51
1.4832528134
  0
ARC
  5
35C
100
AcDbEntity
  8
0
100
AcDbCircle
 62
9
  6
CONTINUOUS
 10
-9.5041777628
 20
0.839671568
 40
12.8454088257
100
AcDbArc
 50
359.4604086995
 51
359.7927775613
  0
ARC
  5
35D
100
AcDbEntity
  8
0
100
AcDbCircle
 62
9
  6
CONTINUOUS
 10
-8.5276119475
 20
0.8285190842
 40
11.8688267097
100
AcDbArc
 50
0.1935408268
 51
0.5533370641
  0
ARC
  5
35E
100
AcDbEntity
  8
0
100
AcDbCircle
 62
7
  6
CONTINUOUS
 10
-3.8289033313
 20
0.731456385
 40
7.9973894956
100
AcDbArc
 50
1.3032148625
 51
1.7488070188
  0
ARC
  5
35F
100
AcDbEntity
  8
0
100
AcDbCircle
 62
7
  6
CONTINUOUS
 10
-3.0204614616
 20
0.7562367724
 40
7.2370272587
100
AcDbArc
 50
1.5123239217
 51
1.6363132551
  0
ARC
  5
360
100
AcDbEntity
  8
0
100
AcDbCircle
 62
7
  6
CONTINUOUS
 10
-3.4693459689
 20
0.7792130696
 40
7.1222930452
100
AcDbArc
 50
1.4261882497
 51
1.5437427441
  0
ARC
  5
361
100
AcDbEntity
  8
0
100
AcDbCircle
 62
7
  6
CONTINUOUS
 10
-3.4125155793
 20
0.7800154086
 40
7.090452692
100
AcDbArc
 50
1.4261085684
 51
1.5441909543
  0
ARC
  5
362
100
AcDbEntity
  8
0
100
AcDbCircle
 62
7
  6
CONTINUOUS
 10
-2.9781912265
 20
0.7917743634
 40
6.6353004423
100
AcDbArc
 50
1.4222695408
 51
1.5484609203
  0
ARC
  5
363
100
AcDbEntity
  8
0
100
AcDbCircle
 62
7
  6
CONTINUOUS
 10
-2.3119925359
 20
0.7751117171
 40
6.5354210739
100
AcDbArc
 50
1.5970462555
 51
1.7749562868
  0
ARC
  5
364
100
AcDbEntity
  8
0
100
AcDbCircle
 62
7
  6
CONTINUOUS
 10
-2.6469575853
 20
0.7769331819
 40
6.3162150947
100
AcDbArc
 50
1.5245966606
 51
1.6544040878
  0
ARC
  5
365
100
AcDbEntity
  8
0
100
AcDbCircle
 62
7
  6
CONTINUOUS
 10
-2.2714742675
 20
0.7874392695
 40
5.9374612955
100
AcDbArc
 50
1.5204673491
 51
1.6585542658
  0
ARC
  5
366
100
AcDbEntity
  8
0
100
AcDbCircle
 62
7
  6
CONTINUOUS
 10
-2.2565212799
 20
0.7885198889
 40
5.8974935096
100
AcDbArc
 50
1.5458862633
 51
1.6839532344
  0
ARC
  5
367
100
AcDbEntity
  8
0
100
AcDbCircle
 62
7
  6
CONTINUOUS
 10
-1.89232722
 20
0.7986996665
 40
5.5362812559
100
AcDbArc
 50
1.5414170156
 51
1.6884916891
  0
ARC
  5
368
100
AcDbEntity
  8
0
100
AcDbCircle
 62
7
  6
CONTINUOUS
 10
-1.2072282617
 20
0.8399103723
 40
4.8593611904
100
AcDbArc
 50
1.5468847735
 51
1.7042529453
  0
ARC
  5
369
100
AcDbEntity
  8
0
100
AcDbCircle
 62
7
  6
CONTINUOUS
 10
-1.1819284655
 20
0.8398830811
 40
4.8590623386
100
AcDbArc
 50
1.5473018861
 51
1.7046797421
  0
ARC
  5
36A
100
AcDbEntity
  8
0
100
AcDbCircle
 62
7
  6
CONTINUOUS
 10
-0.6155243783
 20
0.8353462563
 40
4.2839422631
100
AcDbArc
 50
1.6578861348
 51
1.8322458936
  0
ARC
  5
36B
100
AcDbEntity
  8
0
100
AcDbCircle
 62
7
  6
CONTINUOUS
 10
-0.331752319
 20
0.8440870643
 40
3.996912439
100
AcDbArc
 50
1.6516401844
 51
1.8385195466
  0
ARC
  5
36C
100
AcDbEntity
  8
0
100
AcDbCircle
 62
7
  6
CONTINUOUS
 10
-0.3230565401
 20
0.8451015226
 40
3.96320106
100
AcDbArc
 50
1.6877145253
 51
1.8740230832
  0
ARC
  5
36D
100
AcDbEntity
  8
0
100
AcDbCircle
 62
7
  6
CONTINUOUS
 10
-0.0471916682
 20
0.8535816855
 40
3.6903297722
100
AcDbArc
 50
1.6808778441
 51
1.8809603971
  0
ARC
  5
36E
100
AcDbEntity
  8
0
100
AcDbCircle
 62
7
  6
CONTINUOUS
 10
4.0087351524
 20
-0.2530191495
 40
1.5
100
AcDbArc
 50
19.4944839556
 51
33.074218907
  0
ARC
  5
36F
100
AcDbEntity
  8
0
100
AcDbCircle
 62
7
  6
CONTINUOUS
 10
5.4816626889
 20
0.2684122671
 40
0.0625
100
AcDbArc
 50
199.4944839556
 51
270.0
  0
ARC
  5
370
100
AcDbEntity
  8
0
100
AcDbCircle
 62
7
  6
CONTINUOUS
 10
3.4129687086
 20
0.6150126063
 40
0.2107911922
100
AcDbArc
 50
22.6489578483
 51
23.0073028177
  0
ARC
  5
371
100
AcDbEntity
  8
0
100
AcDbCircle
 62
7
  6
CONTINUOUS
 10
3.4178510986
 20
0.6170473201
 40
0.205501789
100
AcDbArc
 50
22.130183874
 51
22.649607687
  0
ARC
  5
372
100
AcDbEntity
  8
0
100
AcDbCircle
 62
7
  6
CONTINUOUS
 10
3.4238705733
 20
0.6633682817
 40
0.1989752226
100
AcDbArc
 50
336.9736997834
 51
339.9180053463
  0
ARC
  5
373
100
AcDbEntity
  8
0
100
AcDbCircle
 62
7
  6
CONTINUOUS
 10
3.432410973
 20
0.6228701552
 40
0.1898210242
100
AcDbArc
 50
20.0312744568
 51
22.1576560354
  0
ARC
  5
374
100
AcDbEntity
  8
0
100
AcDbCircle
 62
7
  6
CONTINUOUS
 10
3.4506322959
 20
0.6534591034
 40
0.1704381337
100
AcDbArc
 50
339.9575705494
 51
343.2982538103
  0
ARC
  5
375
100
AcDbEntity
  8
0
100
AcDbCircle
 62
7
  6
CONTINUOUS
 10
3.4525681028
 20
0.6301087471
 40
0.1684038593
100
AcDbArc
 50
17.1765426392
 51
20.0665845609
  0
ARC
  5
376
100
AcDbEntity
  8
0
100
AcDbCircle
 62
7
  6
CONTINUOUS
 10
3.4622244226
 20
0.6331348421
 40
0.1582845655
100
AcDbArc
 50
16.6395665611
 51
17.1622608966
  0
ARC
  5
377
100
AcDbEntity
  8
0
100
AcDbCircle
 62
7
  6
CONTINUOUS
 10
3.4752372477
 20
0.6368607832
 40
0.1447498126
100
AcDbArc
 50
12.8704637558
 51
16.7014366169
  0
ARC
  5
378
100
AcDbEntity
  8
0
100
AcDbCircle
 62
7
  6
CONTINUOUS
 10
3.4950712751
 20
0.6420923036
 40
0.1245086693
100
AcDbArc
 50
351.2226364687
 51
355.4802291398
  0
ARC
  5
379
100
AcDbEntity
  8
0
100
AcDbCircle
 62
7
  6
CONTINUOUS
 10
3.5030430443
 20
0.6414691933
 40
0.1165125879
100
AcDbArc
 50
355.4767733147
 51
4.5221057579
  0
ARC
  5
37A
100
AcDbEntity
  8
0
100
AcDbCircle
 62
7
  6
CONTINUOUS
 10
3.2843044626
 20
0.7580622671
 40
0.0059
100
AcDbArc
 50
206.9106905226
 51
275.9164079043
  0
ARC
  5
37B
100
AcDbEntity
  8
0
100
AcDbCircle
 62
7
  6
CONTINUOUS
 10
0.9299059583
 20
0.8760779593
 40
3.2919507834
100
AcDbArc
 50
1.7661906251
 51
1.9943865117
  0
ARC
  5
37C
100
AcDbEntity
  8
0
100
AcDbCircle
 62
7
  6
CONTINUOUS
 10
1.2531291947
 20
0.8872150317
 40
2.9129707105
100
AcDbArc
 50
1.737120627
 51
2.1851560242
  0
ARC
  5
37D
100
AcDbEntity
  8
0
100
AcDbCircle
 62
7
  6
CONTINUOUS
 10
0.873648856
 20
0.8827191126
 40
2.7940157545
100
AcDbArc
 50
1.8376823436
 51
2.0760782108
  0
ARC
  5
37E
100
AcDbEntity
  8
0
100
AcDbCircle
 62
7
  6
CONTINUOUS
 10
1.2766737749
 20
0.8977395909
 40
2.3626044439
100
AcDbArc
 50
1.9504650082
 51
2.1439299573
  0
ARC
  5
37F
100
AcDbEntity
  8
0
100
AcDbCircle
 62
7
  6
CONTINUOUS
 10
1.2813579444
 20
0.8976762906
 40
2.3610487368
100
AcDbArc
 50
1.8697056042
 51
2.1469548548
  0
ARC
  5
380
100
AcDbEntity
  8
0
100
AcDbCircle
 62
7
  6
CONTINUOUS
 10
1.8990678554
 20
0.8414041457
 40
1.3891004787
100
AcDbArc
 50
356.3150059737
 51
356.5226018702
  0
ARC
  5
381
100
AcDbEntity
  8
0
100
AcDbCircle
 62
7
  6
CONTINUOUS
 10
2.0578667387
 20
0.831444217
 40
1.2299902118
100
AcDbArc
 50
356.7611925947
 51
357.3367298351
  0
ARC
  5
382
100
AcDbEntity
  8
0
100
AcDbCircle
 62
7
  6
CONTINUOUS
 10
2.0603733232
 20
0.8304967558
 40
1.2274809235
100
AcDbArc
 50
2.6640388596
 51
3.6983725671
  0
ARC
  5
383
100
AcDbEntity
  8
0
100
AcDbCircle
 62
7
  6
CONTINUOUS
 10
2.0715119075
 20
0.8309122739
 40
1.2163350686
100
AcDbArc
 50
357.3318935746
 51
2.6688740604
  0
ARC
  5
384
100
AcDbEntity
  8
0
100
AcDbCircle
 62
7
  6
CONTINUOUS
 10
2.0866498958
 20
0.8298376412
 40
1.2011622615
100
AcDbArc
 50
356.5305896824
 51
356.760134887
  0
ARC
  5
385
100
AcDbEntity
  8
0
100
AcDbCircle
 62
7
  6
CONTINUOUS
 10
2.0880707816
 20
0.9280961908
 40
1.5506397741
100
AcDbArc
 50
2.1446295903
 51
2.5088805891
  0
ARC
  5
386
100
AcDbEntity
  8
0
100
AcDbCircle
 62
7
  6
CONTINUOUS
 10
2.2099298912
 20
0.9210497874
 40
2.0111371845
100
AcDbArc
 50
1.9830555518
 51
2.3124578143
  0
ARC
  5
387
100
AcDbEntity
  8
0
100
AcDbCircle
 62
7
  6
CONTINUOUS
 10
3.4811145698
 20
0.830920422
 40
0.211282026
100
AcDbArc
 50
177.866163817
 51
182.1336199972
  0
ARC
  5
388
100
AcDbEntity
  8
0
100
AcDbCircle
 62
7
  6
CONTINUOUS
 10
3.4278332774
 20
0.8309122671
 40
0.1666725773
100
AcDbArc
 50
189.6113601359
 51
206.9106905226
  0
ARC
  5
389
100
AcDbEntity
  8
0
100
AcDbCircle
 62
7
  6
CONTINUOUS
 10
3.4278332774
 20
0.8309122671
 40
0.1666725773
100
AcDbArc
 50
153.0893094774
 51
170.3886398641
  0
ARC
  5
38A
100
AcDbEntity
  8
0
100
AcDbCircle
 62
7
  6
CONTINUOUS
 10
3.3799969576
 20
0.8390141527
 40
0.118155013
100
AcDbArc
 50
170.3892238633
 51
171.6999014279
  0
ARC
  5
38B
100
AcDbEntity
  8
0
100
AcDbCircle
 62
7
  6
CONTINUOUS
 10
3.3799946124
 20
0.8228099742
 40
0.1181526328
100
AcDbArc
 50
188.300052638
 51
189.6107712921
  0
ARC
  5
38C
100
AcDbEntity
  8
0
100
AcDbCircle
 62
7
  6
CONTINUOUS
 10
3.2843044626
 20
0.9037622671
 40
0.0059
100
AcDbArc
 50
94.1181448782
 51
153.0893094774
  0
ARC
  5
38D
100
AcDbEntity
  8
0
100
AcDbCircle
 62
7
  6
CONTINUOUS
 10
3.2843044626
 20
0.9037622671
 40
0.0059
100
AcDbArc
 50
90.0
 51
94.1181448782
  0
ARC
  5
38E
100
AcDbEntity
  8
0
100
AcDbCircle
 62
7
  6
CONTINUOUS
 10
2.5953948405
 20
0.9385048098
 40
1.5697255001
100
AcDbArc
 50
2.1824791199
 51
2.5286199379
  0
ARC
  5
38F
100
AcDbEntity
  8
0
100
AcDbCircle
 62
7
  6
CONTINUOUS
 10
2.2278048086
 20
0.9336469713
 40
1.4139187789
100
AcDbArc
 50
2.1271388349
 51
2.5265987219
  0
ARC
  5
390
100
AcDbEntity
  8
0
100
AcDbCircle
 62
7
  6
CONTINUOUS
 10
3.0015918627
 20
0.9535055016
 40
1.2188104464
100
AcDbArc
 50
2.2895886698
 51
2.7552837457
  0
ARC
  5
391
100
AcDbEntity
  8
0
100
AcDbCircle
 62
7
  6
CONTINUOUS
 10
3.2334199558
 20
0.9670918109
 40
0.9310605017
100
AcDbArc
 50
2.5033580787
 51
3.002700336
  0
ARC
  5
392
100
AcDbEntity
  8
0
100
AcDbCircle
 62
7
  6
CONTINUOUS
 10
3.4287511632
 20
1.000384114
 40
0.1937294485
100
AcDbArc
 50
20.0417861243
 51
23.0661676537
  0
ARC
  5
393
100
AcDbEntity
  8
0
100
AcDbCircle
 62
7
  6
CONTINUOUS
 10
3.4545535496
 20
1.0096677322
 40
0.1663080772
100
AcDbArc
 50
16.659592508
 51
20.0835369706
  0
ARC
  5
394
100
AcDbEntity
  8
0
100
AcDbCircle
 62
7
  6
CONTINUOUS
 10
3.4752372477
 20
1.0157468973
 40
0.1447498126
100
AcDbArc
 50
12.8704637556
 51
16.7014366167
  0
ARC
  5
395
100
AcDbEntity
  8
0
100
AcDbCircle
 62
7
  6
CONTINUOUS
 10
3.48815381
 20
1.0186620325
 40
0.1315084294
100
AcDbArc
 50
8.7771857965
 51
12.8858160484
  0
ARC
  5
396
100
AcDbEntity
  8
0
100
AcDbCircle
 62
7
  6
CONTINUOUS
 10
3.4928237111
 20
1.0212460886
 40
0.1267703688
100
AcDbArc
 50
349.205116783
 51
355.4396772823
  0
ARC
  5
397
100
AcDbEntity
  8
0
100
AcDbCircle
 62
7
  6
CONTINUOUS
 10
3.4963031828
 20
1.0198758333
 40
0.1232692832
100
AcDbArc
 50
4.497278752
 51
8.797611746
  0
ARC
  5
398
100
AcDbEntity
  8
0
100
AcDbCircle
 62
7
  6
CONTINUOUS
 10
3.5030430443
 20
1.0203553075
 40
0.1165125879
100
AcDbArc
 50
355.4767733147
 51
4.5221057577
  0
ARC
  5
399
100
AcDbEntity
  8
0
100
AcDbCircle
 62
7
  6
CONTINUOUS
 10
6.8479595766
 20
0.7916686962
 40
3.179719611
100
AcDbArc
 50
181.82096778
 51
181.9490083741
  0
ARC
  5
39A
100
AcDbEntity
  8
0
100
AcDbCircle
 62
7
  6
CONTINUOUS
 10
6.8158735744
 20
0.7913674741
 40
3.1695041255
100
AcDbArc
 50
181.8184119425
 51
181.9479448511
  0
ARC
  5
39B
100
AcDbEntity
  8
0
100
AcDbCircle
 62
7
  6
CONTINUOUS
 10
6.390503493
 20
0.7764523425
 40
2.7188876589
100
AcDbArc
 50
181.8088969278
 51
182.0564792102
  0
ARC
  5
39C
100
AcDbEntity
  8
0
100
AcDbCircle
 62
7
  6
CONTINUOUS
 10
6.3386949248
 20
0.7757184289
 40
2.695192694
100
AcDbArc
 50
181.8056894695
 51
182.0587672014
  0
ARC
  5
39D
100
AcDbEntity
  8
0
100
AcDbCircle
 62
7
  6
CONTINUOUS
 10
3.9307567658
 20
0.7887603942
 40
0.2970749882
100
AcDbArc
 50
103.435561752
 51
104.0407084418
  0
ARC
  5
39E
100
AcDbEntity
  8
0
100
AcDbCircle
 62
7
  6
CONTINUOUS
 10
5.3180544626
 20
0.5996761031
 40
0.0625
100
AcDbArc
 50
180.0
 51
213.0742189069
  0
ARC
  5
39F
100
AcDbEntity
  8
0
100
AcDbCircle
 62
7
  6
CONTINUOUS
 10
6.0153044626
 20
0.8309122671
 40
2.7315
100
AcDbArc
 50
181.7307782453
 51
189.9649595851
  0
ARC
  5
3A0
100
AcDbEntity
  8
0
100
AcDbCircle
 62
7
  6
CONTINUOUS
 10
6.0153044626
 20
0.8309122671
 40
2.7315
100
AcDbArc
 50
170.0350404138
 51
178.2692217547
  0
ARC
  5
3A1
100
AcDbEntity
  8
0
100
AcDbCircle
 62
7
  6
CONTINUOUS
 10
3.9057479489
 20
0.8125092338
 40
0.2725615288
100
AcDbArc
 50
78.5363828148
 51
79.1877735533
  0
ARC
  5
3A2
100
AcDbEntity
  8
0
100
AcDbCircle
 62
7
  6
CONTINUOUS
 10
12.9988128423
 20
0.9526815583
 40
8.8310586735
100
AcDbArc
 50
181.3258996502
 51
181.7349968573
  0
ARC
  5
3A3
100
AcDbEntity
  8
0
100
AcDbCircle
 62
7
  6
CONTINUOUS
 10
10.2162194177
 20
0.8919791658
 40
6.5713412231
100
AcDbArc
 50
181.5109155978
 51
181.6382611168
  0
ARC
  5
3A4
100
AcDbEntity
  8
0
100
AcDbCircle
 62
7
  6
CONTINUOUS
 10
10.1381292019
 20
0.8892583605
 40
6.4713391728
100
AcDbArc
 50
181.5153179262
 51
181.6426643259
  0
ARC
  5
3A5
100
AcDbEntity
  8
0
100
AcDbCircle
 62
7
  6
CONTINUOUS
 10
9.8352124458
 20
0.881591682
 40
6.1933167567
100
AcDbArc
 50
181.5070316806
 51
181.6421487994
  0
ARC
  5
3A6
100
AcDbEntity
  8
0
100
AcDbCircle
 62
7
  6
CONTINUOUS
 10
9.7780553876
 20
0.8792465492
 40
6.1080026314
100
AcDbArc
 50
181.5115367265
 51
181.6464557575
  0
ARC
  5
3A7
100
AcDbEntity
  8
0
100
AcDbCircle
 62
7
  6
CONTINUOUS
 10
9.28639044
 20
0.8429342134
 40
5.0685676764
100
AcDbArc
 50
181.566221087
 51
181.7075966282
  0
ARC
  5
3A8
100
AcDbEntity
  8
0
100
AcDbCircle
 62
7
  6
CONTINUOUS
 10
8.6174615112
 20
0.826871082
 40
4.9835737094
100
AcDbArc
 50
181.4704318169
 51
181.8431647056
  0
ARC
  5
3A9
100
AcDbEntity
  8
0
100
AcDbCircle
 62
7
  6
CONTINUOUS
 10
8.1927980767
 20
0.8138647256
 40
4.5337248279
100
AcDbArc
 50
181.4519399878
 51
181.8616565787
  0
ARC
  5
3AA
100
AcDbEntity
  8
0
100
AcDbCircle
 62
7
  6
CONTINUOUS
 10
8.1545952491
 20
0.8326245807
 40
4.4869969047
100
AcDbArc
 50
181.6458493173
 51
181.8134958262
  0
ARC
  5
3AB
100
AcDbEntity
  8
0
100
AcDbCircle
 62
7
  6
CONTINUOUS
 10
8.1023803779
 20
0.8106521456
 40
4.4225849716
100
AcDbArc
 50
181.4466553601
 51
181.8668147922
  0
ARC
  5
3AC
100
AcDbEntity
  8
0
100
AcDbCircle
 62
7
  6
CONTINUOUS
 10
7.8596528817
 20
0.8244705817
 40
4.2169316557
100
AcDbArc
 50
181.6355716932
 51
181.8165936976
  0
ARC
  5
3AD
100
AcDbEntity
  8
0
100
AcDbCircle
 62
7
  6
CONTINUOUS
 10
7.8708287763
 20
0.8239611175
 40
4.1999749814
100
AcDbArc
 50
181.6401266574
 51
181.8192266978
  0
ARC
  5
3AE
100
AcDbEntity
  8
0
100
AcDbCircle
 62
7
  6
CONTINUOUS
 10
7.4022685881
 20
0.7911255204
 40
3.7471962095
100
AcDbArc
 50
181.4087907035
 51
181.9046794487
  0
ARC
  5
3AF
100
AcDbEntity
  8
0
100
AcDbCircle
 62
7
  6
CONTINUOUS
 10
4.0087351524
 20
1.9148436837
 40
1.5
100
AcDbArc
 50
326.925781093
 51
340.5055160444
  0
ARC
  5
3B0
100
AcDbEntity
  8
0
100
AcDbCircle
 62
7
  6
CONTINUOUS
 10
3.9751573217
 20
2.3155927124
 40
1.2001181897
100
AcDbArc
 50
272.2883308131
 51
272.6713973582
  0
ARC
  5
3B1
100
AcDbEntity
  8
0
100
AcDbCircle
 62
7
  6
CONTINUOUS
 10
3.8800113288
 20
1.4027622403
 40
0.3290298149
100
AcDbArc
 50
283.5100653947
 51
287.1794300733
  0
ARC
  5
3B2
100
AcDbEntity
  8
0
100
AcDbCircle
 62
7
  6
CONTINUOUS
 10
3.9118925035
 20
1.3432537514
 40
0.26768565
100
AcDbArc
 50
258.5362410598
 51
259.1994973547
  0
ARC
  5
3B3
100
AcDbEntity
  8
0
100
AcDbCircle
 62
7
  6
CONTINUOUS
 10
3.4238705733
 20
1.0422543959
 40
0.1989752226
100
AcDbArc
 50
336.9736997834
 51
339.9180053463
  0
ARC
  5
3B4
100
AcDbEntity
  8
0
100
AcDbCircle
 62
7
  6
CONTINUOUS
 10
3.6982871495
 20
1.0403265837
 40
0.1937295785
100
AcDbArc
 50
200.0418022622
 51
203.0661671663
  0
ARC
  5
3B5
100
AcDbEntity
  8
0
100
AcDbCircle
 62
7
  6
CONTINUOUS
 10
3.4506322959
 20
1.0323452176
 40
0.1704381337
100
AcDbArc
 50
339.9575705495
 51
343.2982538104
  0
ARC
  5
3B6
100
AcDbEntity
  8
0
100
AcDbCircle
 62
7
  6
CONTINUOUS
 10
3.8349824177
 20
1.2064334642
 40
0.1498408489
100
AcDbArc
 50
132.304168713
 51
135.0792409339
  0
ARC
  5
3B7
100
AcDbEntity
  8
0
100
AcDbCircle
 62
7
  6
CONTINUOUS
 10
5.3180544626
 20
1.0621484311
 40
0.0625
100
AcDbArc
 50
146.9257810931
 51
180.0
  0
ARC
  5
3B8
100
AcDbEntity
  8
0
100
AcDbCircle
 62
7
  6
CONTINUOUS
 10
5.4816626889
 20
1.3934122671
 40
0.0625
100
AcDbArc
 50
90.0
 51
160.5055160444
  0
ARC
  5
3B9
100
AcDbEntity
  8
0
100
AcDbCircle
 62
7
  6
CONTINUOUS
 10
3.774340001
 20
1.1687560693
 40
0.0418641515
100
AcDbArc
 50
257.8005343682
 51
263.0860213279
  0
ARC
  5
3BA
100
AcDbEntity
  8
0
100
AcDbCircle
 62
7
  6
CONTINUOUS
 10
4.044588249
 20
1.2970643073
 40
0.0393479733
100
AcDbArc
 50
83.0813248044
 51
89.9524094214
  0
ARC
  5
3BB
100
AcDbEntity
  8
0
100
AcDbCircle
 62
7
  6
CONTINUOUS
 10
3.7740202275
 20
1.166259601
 40
0.0393473472
100
AcDbArc
 50
263.1106676851
 51
269.9530619433
  0
ARC
  5
3BC
100
AcDbEntity
  8
0
100
AcDbCircle
 62
7
  6
CONTINUOUS
 10
27.8599843675
 20
1.2754117486
 40
24.2063365288
100
AcDbArc
 50
181.0899184347
 51
181.3348578799
  0
ARC
  5
3BD
100
AcDbEntity
  8
0
100
AcDbCircle
 62
7
  6
CONTINUOUS
 10
28.1868057255
 20
1.3233490535
 40
23.9751032352
100
AcDbArc
 50
181.2260343404
 51
181.4360775086
  0
ARC
  5
3BE
100
AcDbEntity
  8
0
100
AcDbCircle
 62
7
  6
CONTINUOUS
 10
27.3403328244
 20
1.2630756621
 40
23.6658688472
100
AcDbArc
 50
181.0849236544
 51
181.3354428467
  0
ARC
  5
3BF
100
AcDbEntity
  8
0
100
AcDbCircle
 62
7
  6
CONTINUOUS
 10
24.7389633338
 20
1.2513727218
 40
21.0766568871
100
AcDbArc
 50
181.16643942
 51
181.4497497537
  0
ARC
  5
3C0
100
AcDbEntity
  8
0
100
AcDbCircle
 62
7
  6
CONTINUOUS
 10
24.7414493253
 20
1.251357936
 40
21.0760177082
100
AcDbArc
 50
181.1664404379
 51
181.4497554589
  0
ARC
  5
3C1
100
AcDbEntity
  8
0
100
AcDbCircle
 62
7
  6
CONTINUOUS
 10
23.3015450235
 20
1.1781843854
 40
19.6511935404
100
AcDbArc
 50
181.0590398884
 51
181.3607394707
  0
ARC
  5
3C2
100
AcDbEntity
  8
0
100
AcDbCircle
 62
7
  6
CONTINUOUS
 10
21.7003640013
 20
1.1794266547
 40
18.0590788555
100
AcDbArc
 50
181.1864915416
 51
181.4618676647
  0
ARC
  5
3C3
100
AcDbEntity
  8
0
100
AcDbCircle
 62
7
  6
CONTINUOUS
 10
21.6969071222
 20
1.1794188146
 40
18.0587468842
100
AcDbArc
 50
181.1864935486
 51
181.4618705546
  0
ARC
  5
3C4
100
AcDbEntity
  8
0
100
AcDbCircle
 62
7
  6
CONTINUOUS
 10
3.8318044626
 20
10.5693097267
 40
0.05
100
AcDbArc
 50
180.0
 51
210.0000002616
  0
ARC
  5
3C5
100
AcDbEntity
  8
0
100
AcDbCircle
 62
7
  6
CONTINUOUS
 10
3.9868044626
 20
10.5693097267
 40
0.05
100
AcDbArc
 50
329.999999717
 51
360.0
  0
ARC
  5
3C6
100
AcDbEntity
  8
0
100
AcDbCircle
 62
7
  6
CONTINUOUS
 10
4.0530544626
 20
10.4840580927
 40
0.05
100
AcDbArc
 50
149.999999461
 51
180.0
  0
ARC
  5
3C7
100
AcDbEntity
  8
0
100
AcDbCircle
 62
7
  6
CONTINUOUS
 10
3.7655544626
 20
10.4840580927
 40
0.05
100
AcDbArc
 50
0.0
 51
30.0000005463
  0
SPLINE
  5
3C8
100
AcDbEntity
  8
0
100
AcDbSpline
 62
7
  6
CONTINUOUS
 70
0
 71
3
 72
18
 73
14
 74
0
 42
0.0000001
 43
0.0000001
 44
0.0000000001
 40
0.0
 40
0.0
 40
0.0
 40
0.0
 40
0.1971701325
 40
0.3831683215
 40
0.5516682892
 40
0.697424166
 40
0.8161317867
 40
0.8644343206
 40
0.9050021141
 40
0.9378750162
 40
0.9635722918
 40
0.9833430213
 40
1.0
 40
1.0
 40
1.0
 40
1.0
 10
3.2630795509
 20
0.8057538016
 30
0.0
 10
3.2629107959
 20
0.8069104903
 30
0.0
 10
3.262615689
 20
0.8091633178
 30
0.0
 10
3.2622972341
 20
0.812418979
 30
0.0
 10
3.2621208612
 20
0.8153805119
 30
0.0
 10
3.2620905407
 20
0.8179480813
 30
0.0
 10
3.2621892639
 20
0.8198024282
 30
0.0
 10
3.2623587198
 20
0.8210221936
 30
0.0
 10
3.2625122573
 20
0.8217283323
 30
0.0
 10
3.2626999809
 20
0.8222873348
 30
0.0
 10
3.2629206942
 20
0.8226990132
 30
0.0
 10
3.2631828756
 20
0.8229705425
 30
0.0
 10
3.2634015392
 20
0.8230372671
 30
0.0
 10
3.2635002911
 20
0.8230372671
 30
0.0
  0
SPLINE
  5
3C9
100
AcDbEntity
  8
0
100
AcDbSpline
 62
7
  6
CONTINUOUS
 70
0
 71
3
 72
13
 73
9
 74
0
 42
0.0000001
 43
0.0000001
 44
0.0000000001
 40
0.0
 40
0.0
 40
0.0
 40
0.0
 40
0.0688068831
 40
0.1437924043
 40
0.2330452559
 40
0.3413419053
 40
0.6237800363
 40
1.0
 40
1.0
 40
1.0
 40
1.0
 10
3.2635002911
 20
0.8387872671
 30
0.0
 10
3.2634285718
 20
0.8387872671
 30
0.0
 10
3.2632769966
 20
0.838818868
 30
0.0
 10
3.2630734057
 20
0.8389596533
 30
0.0
 10
3.2628926212
 20
0.8391819618
 30
0.0
 10
3.2626556121
 20
0.8396248096
 30
0.0
 10
3.2624270421
 20
0.8403971991
 30
0.0
 10
3.262318607
 20
0.8410755414
 30
0.0
 10
3.2622707876
 20
0.8414647589
 30
0.0
  0
SPLINE
  5
3CA
100
AcDbEntity
  8
0
100
AcDbSpline
 62
7
  6
CONTINUOUS
 70
0
 71
3
 72
9
 73
5
 74
0
 42
0.0000001
 43
0.0000001
 44
0.0000000001
 40
0.0
 40
0.0
 40
0.0
 40
0.0
 40
0.4343020708
 40
1.0
 40
1.0
 40
1.0
 40
1.0
 10
3.2622707876
 20
0.8414647589
 30
0.0
 10
3.2621413278
 20
0.8425184759
 30
0.0
 10
3.2620624987
 20
0.8449690935
 30
0.0
 10
3.2621730702
 20
0.8474115092
 30
0.0
 10
3.2622711621
 20
0.8487908594
 30
0.0
  0
LINE
  5
3CB
100
AcDbEntity
  8
0
100
AcDbLine
 62
7
  6
CONTINUOUS
 10
3.2622711621
 20
0.8487908594
 11
3.2630795544
 21
0.8560707626
  0
SPLINE
  5
3CC
100
AcDbEntity
  8
0
100
AcDbSpline
 62
7
  6
CONTINUOUS
 70
0
 71
3
 72
11
 73
7
 74
0
 42
0.0000001
 43
0.0000001
 44
0.0000000001
 40
0.0
 40
0.0
 40
0.0
 40
0.0
 40
0.2499857469
 40
0.500005223
 40
0.7500307468
 40
1.0
 40
1.0
 40
1.0
 40
1.0
 10
3.9093044626
 20
1.3364122671
 30
0.0
 10
3.9014546619
 20
1.3364122671
 30
0.0
 10
3.8857308512
 20
1.3352071681
 30
0.0
 10
3.8626772564
 20
1.3300863723
 30
0.0
 10
3.8404086115
 20
1.3222895289
 30
0.0
 10
3.826114095
 20
1.3157506139
 30
0.0
 10
3.819093483
 20
1.312240308
 30
0.0
  0
SPLINE
  5
3CD
100
AcDbEntity
  8
0
100
AcDbSpline
 62
7
  6
CONTINUOUS
 70
0
 71
3
 72
11
 73
7
 74
0
 42
0.0000001
 43
0.0000001
 44
0.0000000001
 40
0.0
 40
0.0
 40
0.0
 40
0.0
 40
0.2499692525
 40
0.4999947764
 40
0.7500142527
 40
1.0
 40
1.0
 40
1.0
 40
1.0
 10
3.9995154422
 20
1.312240308
 30
0.0
 10
3.9924948302
 20
1.3157506139
 30
0.0
 10
3.9782003138
 20
1.322289529
 30
0.0
 10
3.9559316691
 20
1.3300863732
 30
0.0
 10
3.9328780742
 20
1.3352071689
 30
0.0
 10
3.9171542633
 20
1.3364122671
 30
0.0
 10
3.9093044626
 20
1.3364122671
 30
0.0
  0
SPLINE
  5
3CE
100
AcDbEntity
  8
0
100
AcDbSpline
 62
7
  6
CONTINUOUS
 70
0
 71
3
 72
11
 73
7
 74
0
 42
0.0000001
 43
0.0000001
 44
0.0000000001
 40
0.0
 40
0.0
 40
0.0
 40
0.0
 40
0.249977955
 40
0.5000016877
 40
0.750015748
 40
1.0
 40
1.0
 40
1.0
 40
1.0
 10
3.819093483
 20
1.1510842262
 30
0.0
 10
3.8261143405
 20
1.1475737975
 30
0.0
 10
3.8404089991
 20
1.1410346323
 30
0.0
 10
3.8626778425
 20
1.1332382432
 30
0.0
 10
3.885731077
 20
1.1281170824
 30
0.0
 10
3.9014547076
 20
1.1269122671
 30
0.0
 10
3.9093044626
 20
1.1269122671
 30
0.0
  0
SPLINE
  5
3CF
100
AcDbEntity
  8
0
100
AcDbSpline
 62
7
  6
CONTINUOUS
 70
0
 71
3
 72
9
 73
5
 74
0
 42
0.0000001
 43
0.0000001
 44
0.0000000001
 40
0.0
 40
0.0
 40
0.0
 40
0.0
 40
0.493981227
 40
1.0
 40
1.0
 40
1.0
 40
1.0
 10
3.7739879933
 20
1.1269122671
 30
0.0
 10
3.7763887421
 20
1.1269122671
 30
0.0
 10
3.7812576817
 20
1.127375095
 30
0.0
 10
3.7859657828
 20
1.128673726
 30
0.0
 10
3.7882801546
 20
1.1295053508
 30
0.0
  0
SPLINE
  5
3D0
100
AcDbEntity
  8
0
100
AcDbSpline
 62
7
  6
CONTINUOUS
 70
0
 71
3
 72
10
 73
6
 74
0
 42
0.0000001
 43
0.0000001
 44
0.0000000001
 40
0.0
 40
0.0
 40
0.0
 40
0.0
 40
0.4748961286
 40
0.7316994062
 40
1.0
 40
1.0
 40
1.0
 40
1.0
 10
3.7882801546
 20
1.1295053508
 30
0.0
 10
3.7939189829
 20
1.1315315549
 30
0.0
 10
3.8020401937
 20
1.1362415259
 30
0.0
 10
3.8118726094
 20
1.1441377941
 30
0.0
 10
3.8166998
 20
1.1486905431
 30
0.0
 10
3.819093483
 20
1.1510842262
 30
0.0
  0
SPLINE
  5
3D1
100
AcDbEntity
  8
0
100
AcDbSpline
 62
7
  6
CONTINUOUS
 70
0
 71
3
 72
11
 73
7
 74
0
 42
0.0000001
 43
0.0000001
 44
0.0000000001
 40
0.0
 40
0.0
 40
0.0
 40
0.0
 40
0.2369353331
 40
0.4801612192
 40
0.7337952497
 40
1.0
 40
1.0
 40
1.0
 40
1.0
 10
3.7739879933
 20
1.3364122671
 30
0.0
 10
3.7714671817
 20
1.3364122671
 30
0.0
 10
3.7663473184
 20
1.3359007125
 30
0.0
 10
3.7588134754
 20
1.3337188457
 30
0.0
 10
3.7514483684
 20
1.3302383988
 30
0.0
 10
3.7467733973
 20
1.3272594473
 30
0.0
 10
3.74446055
 20
1.3256247656
 30
0.0
  0
SPLINE
  5
3D2
100
AcDbEntity
  8
0
100
AcDbSpline
 62
7
  6
CONTINUOUS
 70
0
 71
3
 72
9
 73
5
 74
0
 42
0.0000001
 43
0.0000001
 44
0.0000000001
 40
0.0
 40
0.0
 40
0.0
 40
0.0
 40
0.2440450418
 40
1.0
 40
1.0
 40
1.0
 40
1.0
 10
3.74446055
 20
1.3256247656
 30
0.0
 10
3.7435768832
 20
1.3250002047
 30
0.0
 10
3.7400033258
 20
1.3223740386
 30
0.0
 10
3.7366096974
 20
1.3195079476
 30
0.0
 10
3.7341295881
 20
1.3172530778
 30
0.0
  0
SPLINE
  5
3D3
100
AcDbEntity
  8
0
100
AcDbSpline
 62
7
  6
CONTINUOUS
 70
0
 71
3
 72
9
 73
5
 74
0
 42
0.0000001
 43
0.0000001
 44
0.0000000001
 40
0.0
 40
0.0
 40
0.0
 40
0.0
 40
0.511407905
 40
1.0
 40
1.0
 40
1.0
 40
1.0
 10
3.819093483
 20
1.312240308
 30
0.0
 10
3.8166155978
 20
1.3147181932
 30
0.0
 10
3.8116222046
 20
1.319418908
 30
0.0
 10
3.8062494314
 20
1.323692423
 30
0.0
 10
3.8035154489
 20
1.3256247567
 30
0.0
  0
SPLINE
  5
3D4
100
AcDbEntity
  8
0
100
AcDbSpline
 62
7
  6
CONTINUOUS
 70
0
 71
3
 72
11
 73
7
 74
0
 42
0.0000001
 43
0.0000001
 44
0.0000000001
 40
0.0
 40
0.0
 40
0.0
 40
0.0
 40
0.266204761
 40
0.519838795
 40
0.7630646761
 40
1.0
 40
1.0
 40
1.0
 40
1.0
 10
3.8035154489
 20
1.3256247567
 30
0.0
 10
3.8012026007
 20
1.3272594397
 30
0.0
 10
3.7965276278
 20
1.3302383937
 30
0.0
 10
3.7891625178
 20
1.3337188437
 30
0.0
 10
3.7816286715
 20
1.3359007121
 30
0.0
 10
3.776508806
 20
1.3364122671
 30
0.0
 10
3.7739879933
 20
1.3364122671
 30
0.0
  0
SPLINE
  5
3D5
100
AcDbEntity
  8
0
100
AcDbSpline
 62
7
  6
CONTINUOUS
 70
0
 71
3
 72
11
 73
7
 74
0
 42
0.0000001
 43
0.0000001
 44
0.0000000001
 40
0.0
 40
0.0
 40
0.0
 40
0.0
 40
0.2359956879
 40
0.4787983269
 40
0.7327834446
 40
1.0
 40
1.0
 40
1.0
 40
1.0
 10
4.0446209319
 20
1.3364122671
 30
0.0
 10
4.0419767635
 20
1.3364122671
 30
0.0
 10
4.0365991916
 20
1.3358484994
 30
0.0
 10
4.028704056
 20
1.3334496699
 30
0.0
 10
4.0210031919
 20
1.3296428556
 30
0.0
 10
4.0161273415
 20
1.3264046746
 30
0.0
 10
4.0137153267
 20
1.3246309552
 30
0.0
  0
SPLINE
  5
3D6
100
AcDbEntity
  8
0
100
AcDbSpline
 62
7
  6
CONTINUOUS
 70
0
 71
3
 72
9
 73
5
 74
0
 42
0.0000001
 43
0.0000001
 44
0.0000000001
 40
0.0
 40
0.0
 40
0.0
 40
0.0
 40
0.2422360173
 40
1.0
 40
1.0
 40
1.0
 40
1.0
 10
4.0137153267
 20
1.3246309552
 30
0.0
 10
4.0124886957
 20
1.3237289296
 30
0.0
 10
4.0075165423
 20
1.31988041
 30
0.0
 10
4.0028833686
 20
1.3156082344
 30
0.0
 10
3.9995154422
 20
1.312240308
 30
0.0
  0
SPLINE
  5
3D7
100
AcDbEntity
  8
0
100
AcDbSpline
 62
7
  6
CONTINUOUS
 70
0
 71
3
 72
11
 73
7
 74
0
 42
0.0000001
 43
0.0000001
 44
0.0000000001
 40
0.0
 40
0.0
 40
0.0
 40
0.0
 40
0.2499843019
 40
0.4999983734
 40
0.7500220482
 40
1.0
 40
1.0
 40
1.0
 40
1.0
 10
3.9093044626
 20
1.1269122671
 30
0.0
 10
3.9171542191
 20
1.1269122671
 30
0.0
 10
3.9328778512
 20
1.1281170865
 30
0.0
 10
3.9559310876
 20
1.1332382392
 30
0.0
 10
3.978199927
 20
1.1410346358
 30
0.0
 10
3.9924945848
 20
1.1475737975
 30
0.0
 10
3.9995154422
 20
1.1510842262
 30
0.0
  0
SPLINE
  5
3D8
100
AcDbEntity
  8
0
100
AcDbSpline
 62
7
  6
CONTINUOUS
 70
0
 71
3
 72
10
 73
6
 74
0
 42
0.0000001
 43
0.0000001
 44
0.0000000001
 40
0.0
 40
0.0
 40
0.0
 40
0.0
 40
0.2683015113
 40
0.5251051038
 40
1.0
 40
1.0
 40
1.0
 40
1.0
 10
3.9995154422
 20
1.1510842262
 30
0.0
 10
4.0019092266
 20
1.1486904418
 30
0.0
 10
4.0067366224
 20
1.1441375097
 30
0.0
 10
4.0165694626
 20
1.1362409887
 30
0.0
 10
4.0246910741
 20
1.131530958
 30
0.0
 10
4.0303301677
 20
1.1295048486
 30
0.0
  0
SPLINE
  5
3D9
100
AcDbEntity
  8
0
100
AcDbSpline
 62
7
  6
CONTINUOUS
 70
0
 71
3
 72
9
 73
5
 74
0
 42
0.0000001
 43
0.0000001
 44
0.0000000001
 40
0.0
 40
0.0
 40
0.0
 40
0.0
 40
0.5060176972
 40
1.0
 40
1.0
 40
1.0
 40
1.0
 10
4.0303301677
 20
1.1295048486
 30
0.0
 10
4.0326443246
 20
1.1286733789
 30
0.0
 10
4.0373519773
 20
1.1273749991
 30
0.0
 10
4.0422204215
 20
1.1269122671
 30
0.0
 10
4.0446209319
 20
1.1269122671
 30
0.0
  0
SPLINE
  5
3DA
100
AcDbEntity
  8
0
100
AcDbSpline
 62
7
  6
CONTINUOUS
 70
0
 71
3
 72
9
 73
5
 74
0
 42
0.0000001
 43
0.0000001
 44
0.0000000001
 40
0.0
 40
0.0
 40
0.0
 40
0.0
 40
0.2483490732
 40
1.0
 40
1.0
 40
1.0
 40
1.0
 10
4.0446209319
 20
1.1269122671
 30
0.0
 10
4.0454101484
 20
1.1269122671
 30
0.0
 10
4.0485875921
 20
1.1270104986
 30
0.0
 10
4.0517501467
 20
1.1274986423
 30
0.0
 10
4.0540729784
 20
1.1280554449
 30
0.0
  0
LINE
  5
3DB
100
AcDbEntity
  8
0
100
AcDbLine
 62
7
  6
CONTINUOUS
 10
4.0540729784
 20
1.1280554449
 11
4.0589130933
 21
1.1295053508
  0
LINE
  5
3DC
100
AcDbEntity
  8
0
100
AcDbLine
 62
7
  6
CONTINUOUS
 10
4.0589130933
 20
1.1295053508
 11
4.0638205931
 21
1.1315612715
  0
SPLINE
  5
3DD
100
AcDbEntity
  8
0
100
AcDbSpline
 62
7
  6
CONTINUOUS
 70
0
 71
3
 72
9
 73
5
 74
0
 42
0.0000001
 43
0.0000001
 44
0.0000000001
 40
0.0
 40
0.0
 40
0.0
 40
0.0
 40
0.2437970379
 40
1.0
 40
1.0
 40
1.0
 40
1.0
 10
4.0638205931
 20
1.1315612715
 30
0.0
 10
4.0646783341
 20
1.131970876
 30
0.0
 10
4.0681551789
 20
1.1337375607
 30
0.0
 10
4.071467194
 20
1.1358190113
 30
0.0
 10
4.0738812158
 20
1.1375116487
 30
0.0
  0
SPLINE
  5
3DE
100
AcDbEntity
  8
0
100
AcDbSpline
 62
7
  6
CONTINUOUS
 70
0
 71
3
 72
9
 73
5
 74
0
 42
0.0000001
 43
0.0000001
 44
0.0000000001
 40
0.0
 40
0.0
 40
0.0
 40
0.0
 40
0.2439454751
 40
1.0
 40
1.0
 40
1.0
 40
1.0
 10
4.0738812158
 20
1.1375116487
 30
0.0
 10
4.0747765542
 20
1.1381394322
 30
0.0
 10
4.0783981232
 20
1.1407822619
 30
0.0
 10
4.0818347482
 20
1.1436732764
 30
0.0
 10
4.084345366
 20
1.1459497928
 30
0.0
  0
LINE
  5
3DF
100
AcDbEntity
  8
0
100
AcDbLine
 62
7
  6
CONTINUOUS
 10
4.084345366
 20
1.1459497928
 11
4.0897264217
 21
1.1510842262
  0
SPLINE
  5
3E0
100
AcDbEntity
  8
0
100
AcDbSpline
 62
7
  6
CONTINUOUS
 70
0
 71
3
 72
10
 73
6
 74
0
 42
0.0000001
 43
0.0000001
 44
0.0000000001
 40
0.0
 40
0.0
 40
0.0
 40
0.0
 40
0.2683015113
 40
0.5251051038
 40
1.0
 40
1.0
 40
1.0
 40
1.0
 10
3.7288825035
 20
1.1510842262
 30
0.0
 10
3.7312762879
 20
1.1486904418
 30
0.0
 10
3.7361036837
 20
1.1441375097
 30
0.0
 10
3.7459365239
 20
1.1362409887
 30
0.0
 10
3.7540581354
 20
1.131530958
 30
0.0
 10
3.759697229
 20
1.1295048486
 30
0.0
  0
LINE
  5
3E1
100
AcDbEntity
  8
0
100
AcDbLine
 62
7
  6
CONTINUOUS
 10
3.759697229
 20
1.1295048486
 11
3.7654934494
 21
1.1278372997
  0
SPLINE
  5
3E2
100
AcDbEntity
  8
0
100
AcDbSpline
 62
7
  6
CONTINUOUS
 70
0
 71
3
 72
10
 73
6
 74
0
 42
0.0000001
 43
0.0000001
 44
0.0000000001
 40
0.0
 40
0.0
 40
0.0
 40
0.0
 40
0.2682339185
 40
0.525012544
 40
1.0
 40
1.0
 40
1.0
 40
1.0
 10
4.0897264217
 20
1.312240308
 30
0.0
 10
4.087339185
 20
1.3146275447
 30
0.0
 10
4.0825250311
 20
1.3191686853
 30
0.0
 10
4.0727192743
 20
1.3270490404
 30
0.0
 10
4.0646231535
 20
1.3317553387
 30
0.0
 10
4.0590008326
 20
1.3337875247
 30
0.0
  0
SPLINE
  5
3E3
100
AcDbEntity
  8
0
100
AcDbSpline
 62
7
  6
CONTINUOUS
 70
0
 71
3
 72
9
 73
5
 74
0
 42
0.0000001
 43
0.0000001
 44
0.0000000001
 40
0.0
 40
0.0
 40
0.0
 40
0.0
 40
0.2542475387
 40
1.0
 40
1.0
 40
1.0
 40
1.0
 10
4.0590008326
 20
1.3337875247
 30
0.0
 10
4.0582067521
 20
1.3340745449
 30
0.0
 10
4.0550551327
 20
1.3351222536
 30
0.0
 10
4.0517868359
 20
1.3358281719
 30
0.0
 10
4.0493281223
 20
1.3361257539
 30
0.0
  0
SPLINE
  5
3E4
100
AcDbEntity
  8
0
100
AcDbSpline
 62
7
  6
CONTINUOUS
 70
0
 71
3
 72
9
 73
5
 74
0
 42
0.0000001
 43
0.0000001
 44
0.0000000001
 40
0.0
 40
0.0
 40
0.0
 40
0.0
 40
0.2527600888
 40
1.0
 40
1.0
 40
1.0
 40
1.0
 10
3.5200456677
 20
1.0762861315
 30
0.0
 10
3.5193818822
 20
1.0747228569
 30
0.0
 10
3.5168298936
 20
1.0685071803
 30
0.0
 10
3.5145956037
 20
1.0621581768
 30
0.0
 10
3.5131578863
 20
1.0573475136
 30
0.0
  0
SPLINE
  5
3E5
100
AcDbEntity
  8
0
100
AcDbSpline
 62
7
  6
CONTINUOUS
 70
0
 71
3
 72
13
 73
9
 74
0
 42
0.0000001
 43
0.0000001
 44
0.0000000001
 40
0.0
 40
0.0
 40
0.0
 40
0.0
 40
0.1263042166
 40
0.2510350002
 40
0.3747043429
 40
0.4979660567
 40
0.7459660522
 40
1.0
 40
1.0
 40
1.0
 40
1.0
 10
3.5131578863
 20
1.0573475136
 30
0.0
 10
3.5121331823
 20
1.0539188108
 30
0.0
 10
3.5103294343
 20
1.0470308972
 30
0.0
 10
3.5084531822
 20
1.0365702386
 30
0.0
 10
3.5074665778
 20
1.0260724774
 30
0.0
 10
3.5074096323
 20
1.0120326887
 30
0.0
 10
3.5097416834
 20
0.9943758968
 30
0.0
 10
3.5138250512
 20
0.9806968644
 30
0.0
 10
3.5162892846
 20
0.9739343646
 30
0.0
  0
SPLINE
  5
3E6
100
AcDbEntity
  8
0
100
AcDbSpline
 62
7
  6
CONTINUOUS
 70
0
 71
3
 72
12
 73
8
 74
0
 42
0.0000001
 43
0.0000001
 44
0.0000000001
 40
0.0
 40
0.0
 40
0.0
 40
0.0
 40
0.0864729935
 40
0.1867532346
 40
0.4249541063
 40
0.7025198943
 40
1.0
 40
1.0
 40
1.0
 40
1.0
 10
3.5200456677
 20
0.9644245168
 30
0.0
 10
3.5202924325
 20
0.9638433637
 30
0.0
 10
3.5207154523
 20
0.9625413535
 30
0.0
 10
3.5213240387
 20
0.9594943346
 30
0.0
 10
3.5215718153
 20
0.9549823177
 30
0.0
 10
3.5211816472
 20
0.9490489446
 30
0.0
 10
3.5204967465
 20
0.9448985439
 30
0.0
 10
3.5200456677
 20
0.9427738817
 30
0.0
  0
SPLINE
  5
3E7
100
AcDbEntity
  8
0
100
AcDbSpline
 62
7
  6
CONTINUOUS
 70
0
 71
3
 72
11
 73
7
 74
0
 42
0.0000001
 43
0.0000001
 44
0.0000000001
 40
0.0
 40
0.0
 40
0.0
 40
0.0
 40
0.2500038621
 40
0.4999999918
 40
0.7499961239
 40
1.0
 40
1.0
 40
1.0
 40
1.0
 10
3.5200456677
 20
0.9427738817
 30
0.0
 10
3.5161439531
 20
0.9243961048
 30
0.0
 10
3.5097911837
 20
0.8872989849
 30
0.0
 10
3.5063282669
 20
0.8309122687
 30
0.0
 10
3.5097911819
 20
0.7745255513
 30
0.0
 10
3.5161439529
 20
0.7374284304
 30
0.0
 10
3.5200456677
 20
0.7190506524
 30
0.0
  0
SPLINE
  5
3E8
100
AcDbEntity
  8
0
100
AcDbSpline
 62
7
  6
CONTINUOUS
 70
0
 71
3
 72
12
 73
8
 74
0
 42
0.0000001
 43
0.0000001
 44
0.0000000001
 40
0.0
 40
0.0
 40
0.0
 40
0.0
 40
0.2974823823
 40
0.5750499819
 40
0.8132489986
 40
0.9135277602
 40
1.0
 40
1.0
 40
1.0
 40
1.0
 10
3.5200456677
 20
0.7190506524
 30
0.0
 10
3.52049675
 20
0.716925974
 30
0.0
 10
3.5211816669
 20
0.7127755457
 30
0.0
 10
3.5215718182
 20
0.7068421533
 30
0.0
 10
3.5213240203
 20
0.7023301505
 30
0.0
 10
3.5207154472
 20
0.6992831595
 30
0.0
 10
3.5202924303
 20
0.6979811654
 30
0.0
 10
3.5200456677
 20
0.6974000173
 30
0.0
  0
SPLINE
  5
3E9
100
AcDbEntity
  8
0
100
AcDbSpline
 62
7
  6
CONTINUOUS
 70
0
 71
3
 72
9
 73
5
 74
0
 42
0.0000001
 43
0.0000001
 44
0.0000000001
 40
0.0
 40
0.0
 40
0.0
 40
0.0
 40
0.2527069851
 40
1.0
 40
1.0
 40
1.0
 40
1.0
 10
3.5200456677
 20
0.6974000173
 30
0.0
 10
3.5193943071
 20
0.6958660046
 30
0.0
 10
3.5168881938
 20
0.6897659427
 30
0.0
 10
3.5146876744
 20
0.6835376638
 30
0.0
 10
3.5132652493
 20
0.6788190889
 30
0.0
  0
SPLINE
  5
3EA
100
AcDbEntity
  8
0
100
AcDbSpline
 62
7
  6
CONTINUOUS
 70
0
 71
3
 72
11
 73
7
 74
0
 42
0.0000001
 43
0.0000001
 44
0.0000000001
 40
0.0
 40
0.0
 40
0.0
 40
0.0
 40
0.2521639698
 40
0.5000794695
 40
0.7479495672
 40
1.0
 40
1.0
 40
1.0
 40
1.0
 10
3.5132652493
 20
0.6788190889
 30
0.0
 10
3.5114355271
 20
0.6727493974
 30
0.0
 10
3.5085404888
 20
0.6604691156
 30
0.0
 10
3.5069727846
 20
0.6416528663
 30
0.0
 10
3.5084819496
 20
0.6228345181
 30
0.0
 10
3.5113429838
 20
0.6105500082
 30
0.0
 10
3.5131573851
 20
0.6044786983
 30
0.0
  0
SPLINE
  5
3EB
100
AcDbEntity
  8
0
100
AcDbSpline
 62
7
  6
CONTINUOUS
 70
0
 71
3
 72
9
 73
5
 74
0
 42
0.0000001
 43
0.0000001
 44
0.0000000001
 40
0.0
 40
0.0
 40
0.0
 40
0.0
 40
0.2473504587
 40
1.0
 40
1.0
 40
1.0
 40
1.0
 10
3.5131573851
 20
0.6044786983
 30
0.0
 10
3.5136333323
 20
0.6028860943
 30
0.0
 10
3.5156599843
 20
0.5964781646
 30
0.0
 10
3.5180688764
 20
0.5901939238
 30
0.0
 10
3.5200456677
 20
0.5855384027
 30
0.0
  0
SPLINE
  5
3EC
100
AcDbEntity
  8
0
100
AcDbSpline
 62
7
  6
CONTINUOUS
 70
0
 71
3
 72
9
 73
5
 74
0
 42
0.0000001
 43
0.0000001
 44
0.0000000001
 40
0.0
 40
0.0
 40
0.0
 40
0.0
 40
0.2523151354
 40
1.0
 40
1.0
 40
1.0
 40
1.0
 10
3.6138802816
 20
0.6044769374
 30
0.0
 10
3.6143403012
 20
0.6060161796
 30
0.0
 10
3.6160700513
 20
0.6121438917
 30
0.0
 10
3.6173962494
 20
0.6183878909
 30
0.0
 10
3.6181217918
 20
0.6230928542
 30
0.0
  0
SPLINE
  5
3ED
100
AcDbEntity
  8
0
100
AcDbSpline
 62
7
  6
CONTINUOUS
 70
0
 71
3
 72
9
 73
5
 74
0
 42
0.0000001
 43
0.0000001
 44
0.0000000001
 40
0.0
 40
0.0
 40
0.0
 40
0.0
 40
0.2486176175
 40
1.0
 40
1.0
 40
1.0
 40
1.0
 10
3.6191929272
 20
0.650655479
 30
0.0
 10
3.6190718526
 20
0.652198396
 30
0.0
 10
3.6184653267
 20
0.6583946564
 30
0.0
 10
3.6173905966
 20
0.6645431861
 30
0.0
 10
3.6163503878
 20
0.6691034554
 30
0.0
  0
SPLINE
  5
3EE
100
AcDbEntity
  8
0
100
AcDbSpline
 62
7
  6
CONTINUOUS
 70
0
 71
3
 72
12
 73
8
 74
0
 42
0.0000001
 43
0.0000001
 44
0.0000000001
 40
0.0
 40
0.0
 40
0.0
 40
0.0
 40
0.0864728354
 40
0.1867528229
 40
0.4249534851
 40
0.7025195076
 40
1.0
 40
1.0
 40
1.0
 40
1.0
 10
3.6069925247
 20
0.6974000173
 30
0.0
 10
3.6067457605
 20
0.6979811693
 30
0.0
 10
3.6063227448
 20
0.6992831781
 30
0.0
 10
3.6057141713
 20
0.7023301943
 30
0.0
 10
3.6054663745
 20
0.7068422065
 30
0.0
 10
3.6058565263
 20
0.7127755855
 30
0.0
 10
3.6065414454
 20
0.7169259876
 30
0.0
 10
3.6069925247
 20
0.7190506524
 30
0.0
  0
SPLINE
  5
3EF
100
AcDbEntity
  8
0
100
AcDbSpline
 62
7
  6
CONTINUOUS
 70
0
 71
3
 72
11
 73
7
 74
0
 42
0.0000001
 43
0.0000001
 44
0.0000000001
 40
0.0
 40
0.0
 40
0.0
 40
0.0
 40
0.2500038614
 40
0.499999991
 40
0.7499961232
 40
1.0
 40
1.0
 40
1.0
 40
1.0
 10
3.6069925247
 20
0.7190506524
 30
0.0
 10
3.6108942394
 20
0.7374284293
 30
0.0
 10
3.6172470092
 20
0.774525549
 30
0.0
 10
3.6207099256
 20
0.8309122652
 30
0.0
 10
3.6172470102
 20
0.8872989827
 30
0.0
 10
3.6108942396
 20
0.9243961037
 30
0.0
 10
3.6069925247
 20
0.9427738817
 30
0.0
  0
SPLINE
  5
3F0
100
AcDbEntity
  8
0
100
AcDbSpline
 62
7
  6
CONTINUOUS
 70
0
 71
3
 72
12
 73
8
 74
0
 42
0.0000001
 43
0.0000001
 44
0.0000000001
 40
0.0
 40
0.0
 40
0.0
 40
0.0
 40
0.2974819977
 40
0.5750493611
 40
0.813248585
 40
0.9135276012
 40
1.0
 40
1.0
 40
1.0
 40
1.0
 10
3.6069925247
 20
0.9427738817
 30
0.0
 10
3.6065414431
 20
0.9448985575
 30
0.0
 10
3.6058565445
 20
0.9490489844
 30
0.0
 10
3.605466377
 20
0.9549823709
 30
0.0
 10
3.6057141547
 20
0.9594943784
 30
0.0
 10
3.6063227407
 20
0.962541372
 30
0.0
 10
3.6067457617
 20
0.9638433677
 30
0.0
 10
3.6069925247
 20
0.9644245168
 30
0.0
  0
SPLINE
  5
3F1
100
AcDbEntity
  8
0
100
AcDbSpline
 62
7
  6
CONTINUOUS
 70
0
 71
3
 72
9
 73
5
 74
0
 42
0.0000001
 43
0.0000001
 44
0.0000000001
 40
0.0
 40
0.0
 40
0.0
 40
0.0
 40
0.2518123113
 40
1.0
 40
1.0
 40
1.0
 40
1.0
 10
3.6138802816
 20
0.9833630516
 30
0.0
 10
3.6142303046
 20
0.9845342412
 30
0.0
 10
3.6155659895
 20
0.9892012322
 30
0.0
 10
3.6166720766
 20
0.9939348481
 30
0.0
 10
3.6173507491
 20
0.997502811
 30
0.0
  0
SPLINE
  5
3F2
100
AcDbEntity
  8
0
100
AcDbSpline
 62
7
  6
CONTINUOUS
 70
0
 71
3
 72
13
 73
9
 74
0
 42
0.0000001
 43
0.0000001
 44
0.0000000001
 40
0.0
 40
0.0
 40
0.0
 40
0.0
 40
0.0426859323
 40
0.1085137673
 40
0.1980565862
 40
0.3114513556
 40
0.6091670664
 40
1.0
 40
1.0
 40
1.0
 40
1.0
 10
3.7688038364
 20
1.0627234503
 30
0.0
 10
3.768900254
 20
1.0626689028
 30
0.0
 10
3.7691700246
 20
1.0625783712
 30
0.0
 10
3.7696697648
 20
1.0624621022
 30
0.0
 10
3.7703581413
 20
1.0623447947
 30
0.0
 10
3.771645434
 20
1.0621697838
 30
0.0
 10
3.7737169973
 20
1.0619627549
 30
0.0
 10
3.7754984119
 20
1.0618233348
 30
0.0
 10
3.776510098
 20
1.0617507747
 30
0.0
  0
SPLINE
  5
3F3
100
AcDbEntity
  8
0
100
AcDbSpline
 62
7
  6
CONTINUOUS
 70
0
 71
3
 72
16
 73
12
 74
0
 42
0.0000001
 43
0.0000001
 44
0.0000000001
 40
0.0
 40
0.0
 40
0.0
 40
0.0
 40
0.0091637103
 40
0.0237013038
 40
0.0737440519
 40
0.1534857988
 40
0.2632545439
 40
0.4030095686
 40
0.5726027884
 40
0.7717791982
 40
1.0
 40
1.0
 40
1.0
 40
1.0
 10
3.7813918642
 20
1.0529216978
 30
0.0
 10
3.7813934426
 20
1.0528906187
 30
0.0
 10
3.7814444278
 20
1.0528177092
 30
0.0
 10
3.7816629008
 20
1.0526960569
 30
0.0
 10
3.7821385403
 20
1.052557552
 30
0.0
 10
3.7829352906
 20
1.0524021929
 30
0.0
 10
3.7840433265
 20
1.0522431407
 30
0.0
 10
3.7854571907
 20
1.0520819146
 30
0.0
 10
3.7871766699
 20
1.051919649
 30
0.0
 10
3.7891974431
 20
1.051756792
 30
0.0
 10
3.7906452912
 20
1.0516547601
 30
0.0
 10
3.7914185841
 20
1.0516030694
 30
0.0
  0
LINE
  5
3F4
100
AcDbEntity
  8
0
100
AcDbLine
 62
7
  6
CONTINUOUS
 10
3.7815465214
 20
1.1155775709
 11
3.7843779034
 21
1.1161450108
  0
LINE
  5
3F5
100
AcDbEntity
  8
0
100
AcDbLine
 62
7
  6
CONTINUOUS
 10
3.7843779034
 20
1.1161450108
 11
3.7881075682
 21
1.1165075535
  0
LINE
  5
3F6
100
AcDbEntity
  8
0
100
AcDbLine
 62
7
  6
CONTINUOUS
 10
3.7881075682
 20
1.1165075535
 11
3.7997877217
 21
1.1172296931
  0
SPLINE
  5
3F7
100
AcDbEntity
  8
0
100
AcDbSpline
 62
7
  6
CONTINUOUS
 70
0
 71
3
 72
11
 73
7
 74
0
 42
0.0000001
 43
0.0000001
 44
0.0000000001
 40
0.0
 40
0.0
 40
0.0
 40
0.0
 40
0.1883807331
 40
0.4257010473
 40
0.7005268073
 40
1.0
 40
1.0
 40
1.0
 40
1.0
 10
3.7997877217
 20
1.1172296931
 30
0.0
 10
3.8054776688
 20
1.1175152146
 30
0.0
 10
3.8183417147
 20
1.1180386466
 30
0.0
 10
3.8395157434
 20
1.1187412979
 30
0.0
 10
3.8640510235
 20
1.1194488757
 30
0.0
 10
3.8814131094
 20
1.1199111106
 30
0.0
 10
3.89046682
 20
1.1201484568
 30
0.0
  0
SPLINE
  5
3F8
100
AcDbEntity
  8
0
100
AcDbSpline
 62
7
  6
CONTINUOUS
 70
0
 71
3
 72
11
 73
7
 74
0
 42
0.0000001
 43
0.0000001
 44
0.0000000001
 40
0.0
 40
0.0
 40
0.0
 40
0.0
 40
0.3028363624
 40
0.5788829989
 40
0.8153312393
 40
1.0
 40
1.0
 40
1.0
 40
1.0
 10
3.9322072231
 20
1.1212352614
 30
0.0
 10
3.9411401219
 20
1.1214705686
 30
0.0
 10
3.9582154499
 20
1.121929264
 30
0.0
 10
3.9822637309
 20
1.1226346307
 30
0.0
 10
4.002823553
 20
1.1233322146
 30
0.0
 10
4.0152392552
 20
1.1238548939
 30
0.0
 10
4.0206807882
 20
1.124142837
 30
0.0
  0
SPLINE
  5
3F9
100
AcDbEntity
  8
0
100
AcDbSpline
 62
7
  6
CONTINUOUS
 70
0
 71
3
 72
14
 73
10
 74
0
 42
0.0000001
 43
0.0000001
 44
0.0000000001
 40
0.0
 40
0.0
 40
0.0
 40
0.0
 40
0.3815191718
 40
0.5403233238
 40
0.677268643
 40
0.791966811
 40
0.8841199074
 40
0.9534953262
 40
1.0
 40
1.0
 40
1.0
 40
1.0
 10
4.0206807882
 20
1.124142837
 30
0.0
 10
4.0227438621
 20
1.1242520062
 30
0.0
 10
4.0256651273
 20
1.1244189075
 30
0.0
 10
4.0293236933
 20
1.1246746412
 30
0.0
 10
4.0315391915
 20
1.1248537499
 30
0.0
 10
4.0333922517
 20
1.1250321666
 30
0.0
 10
4.0348782798
 20
1.1252079236
 30
0.0
 10
4.0359906443
 20
1.1253823549
 30
0.0
 10
4.0366059092
 20
1.1255164326
 30
0.0
 10
4.0368446794
 20
1.1255964674
 30
0.0
  0
LINE
  5
3FA
100
AcDbEntity
  8
0
100
AcDbLine
 62
7
  6
CONTINUOUS
 10
4.0368446794
 20
1.1255964674
 11
4.0372245338
 21
1.1258468855
  0
SPLINE
  5
3FB
100
AcDbEntity
  8
0
100
AcDbSpline
 62
7
  6
CONTINUOUS
 70
0
 71
3
 72
16
 73
12
 74
0
 42
0.0000001
 43
0.0000001
 44
0.0000000001
 40
0.0
 40
0.0
 40
0.0
 40
0.0
 40
0.0134687825
 40
0.0333806478
 40
0.0931458114
 40
0.1796838283
 40
0.2926753495
 40
0.4316902873
 40
0.5962695209
 40
0.7859301297
 40
1.0
 40
1.0
 40
1.0
 40
1.0
 10
3.7687940467
 20
1.0457253894
 30
0.0
 10
3.7688677071
 20
1.0457688249
 30
0.0
 10
3.7690677661
 20
1.045844394
 30
0.0
 10
3.7696393822
 20
1.045994135
 30
0.0
 10
3.770683561
 20
1.0461623401
 30
0.0
 10
3.7723176065
 20
1.0463570653
 30
0.0
 10
3.7744586375
 20
1.0465527252
 30
0.0
 10
3.777096016
 20
1.0467510898
 30
0.0
 10
3.7802214624
 20
1.0469500052
 30
0.0
 10
3.7838241552
 20
1.0471493623
 30
0.0
 10
3.7863843743
 20
1.0472749984
 30
0.0
 10
3.7877420145
 20
1.047338562
 30
0.0
  0
LINE
  5
3FC
100
AcDbEntity
  8
0
100
AcDbLine
 62
7
  6
CONTINUOUS
 10
3.7877420145
 20
1.047338562
 11
3.8339796451
 21
1.0489267399
  0
LINE
  5
3FD
100
AcDbEntity
  8
0
100
AcDbLine
 62
7
  6
CONTINUOUS
 10
4.037105095
 20
1.1259920222
 11
4.0359350844
 21
1.1263165322
  0
SPLINE
  5
3FE
100
AcDbEntity
  8
0
100
AcDbSpline
 62
7
  6
CONTINUOUS
 70
0
 71
3
 72
13
 73
9
 74
0
 42
0.0000001
 43
0.0000001
 44
0.0000000001
 40
0.0
 40
0.0
 40
0.0
 40
0.0
 40
0.0435023551
 40
0.1099072982
 40
0.1996988571
 40
0.3129793522
 40
0.6098722107
 40
1.0
 40
1.0
 40
1.0
 40
1.0
 10
4.0498175217
 20
1.1186461672
 30
0.0
 10
4.0497318524
 20
1.118696504
 30
0.0
 10
4.0494926831
 20
1.1187811321
 30
0.0
 10
4.0490504755
 20
1.1188898102
 30
0.0
 10
4.0484441452
 20
1.1189997863
 30
0.0
 10
4.0473141425
 20
1.1191638225
 30
0.0
 10
4.0454959091
 20
1.1193583628
 30
0.0
 10
4.0439321777
 20
1.1194890037
 30
0.0
 10
4.0430436836
 20
1.1195569053
 30
0.0
  0
SPLINE
  5
3FF
100
AcDbEntity
  8
0
100
AcDbSpline
 62
7
  6
CONTINUOUS
 70
0
 71
3
 72
17
 73
13
 74
0
 42
0.0000001
 43
0.0000001
 44
0.0000000001
 40
0.0
 40
0.0
 40
0.0
 40
0.0
 40
0.0132020468
 40
0.0328428454
 40
0.059101905
 40
0.0920229352
 40
0.1778452661
 40
0.2901981397
 40
0.4288783306
 40
0.5936545685
 40
0.7842400605
 40
1.0
 40
1.0
 40
1.0
 40
1.0
 10
3.6595101551
 20
0.6279019203
 30
0.0
 10
3.6594658159
 20
0.6279768238
 30
0.0
 10
3.6593891293
 20
0.6281815091
 30
0.0
 10
3.6592909245
 20
0.6285581473
 30
0.0
 10
3.6591915941
 20
0.6290687872
 30
0.0
 10
3.6590442278
 20
0.6300133468
 30
0.0
 10
3.6588692263
 20
0.6315274791
 30
0.0
 10
3.658669406
 20
0.6337394109
 30
0.0
 10
3.6584685698
 20
0.6364736742
 30
0.0
 10
3.658266744
 20
0.6397247369
 30
0.0
 10
3.6580648993
 20
0.6434848507
 30
0.0
 10
3.6579378092
 20
0.6461609428
 30
0.0
 10
3.6578734817
 20
0.6475820248
 30
0.0
  0
LINE
  5
400
100
AcDbEntity
  8
0
100
AcDbLine
 62
7
  6
CONTINUOUS
 10
3.6578734817
 20
0.6475820248
 11
3.6571426867
 21
0.6665806901
  0
SPLINE
  5
401
100
AcDbEntity
  8
0
100
AcDbSpline
 62
7
  6
CONTINUOUS
 70
0
 71
3
 72
14
 73
10
 74
0
 42
0.0000001
 43
0.0000001
 44
0.0000000001
 40
0.0
 40
0.0
 40
0.0
 40
0.0
 40
0.0397551962
 40
0.1035150959
 40
0.191747565
 40
0.3045317593
 40
0.4418351028
 40
0.6035813028
 40
1.0
 40
1.0
 40
1.0
 40
1.0
 10
3.6507233455
 20
0.6431164463
 30
0.0
 10
3.650655299
 20
0.6432312908
 30
0.0
 10
3.6505477184
 20
0.6435667749
 30
0.0
 10
3.6504085082
 20
0.6441934516
 30
0.0
 10
3.6502685949
 20
0.6450728254
 30
0.0
 10
3.6501256443
 20
0.6461994846
 30
0.0
 10
3.6499820857
 20
0.6475751073
 30
0.0
 10
3.6497753146
 20
0.649901165
 30
0.0
 10
3.6496426061
 20
0.6517708484
 30
0.0
 10
3.6495558098
 20
0.6530991106
 30
0.0
  0
LINE
  5
402
100
AcDbEntity
  8
0
100
AcDbLine
 62
7
  6
CONTINUOUS
 10
3.6495558098
 20
0.6530991106
 11
3.6483669626
 21
0.6788856566
  0
SPLINE
  5
403
100
AcDbEntity
  8
0
100
AcDbSpline
 62
7
  6
CONTINUOUS
 70
0
 71
3
 72
13
 73
9
 74
0
 42
0.0000001
 43
0.0000001
 44
0.0000000001
 40
0.0
 40
0.0
 40
0.0
 40
0.0
 40
0.0440677021
 40
0.1107138169
 40
0.2005173185
 40
0.3136899616
 40
0.6103733538
 40
1.0
 40
1.0
 40
1.0
 40
1.0
 10
3.6632205244
 20
1.0187048623
 30
0.0
 10
3.663167525
 20
1.0186129405
 30
0.0
 10
3.6630775813
 20
1.0183592163
 30
0.0
 10
3.6629622837
 20
1.0178910795
 30
0.0
 10
3.6628457352
 20
1.0172517209
 30
0.0
 10
3.6626722276
 20
1.0160613059
 30
0.0
 10
3.6624668778
 20
1.0141466138
 30
0.0
 10
3.662328845
 20
1.0124999225
 30
0.0
 10
3.662257014
 20
1.0115645324
 30
0.0
  0
SPLINE
  5
404
100
AcDbEntity
  8
0
100
AcDbSpline
 62
7
  6
CONTINUOUS
 70
0
 71
3
 72
20
 73
16
 74
0
 42
0.0000001
 43
0.0000001
 44
0.0000000001
 40
0.0
 40
0.0
 40
0.0
 40
0.0
 40
0.2265663737
 40
0.4261766514
 40
0.5975590141
 40
0.7396349316
 40
0.7993495006
 40
0.8513406778
 40
0.8955238009
 40
0.9318704698
 40
0.9603658709
 40
0.981021906
 40
0.9939424887
 40
0.9976730222
 40
1.0
 40
1.0
 40
1.0
 40
1.0
 10
3.653521897
 20
0.6832979316
 30
0.0
 10
3.6534173369
 20
0.6802418153
 30
0.0
 10
3.6532110678
 20
0.6744935079
 30
0.0
 10
3.6528836584
 20
0.6664350214
 30
0.0
 10
3.6525573872
 20
0.6595179119
 30
0.0
 10
3.6522738563
 20
0.6544891549
 30
0.0
 10
3.6520410875
 20
0.6510717889
 30
0.0
 10
3.6518771859
 20
0.648974197
 30
0.0
 10
3.6517139247
 20
0.6471928454
 30
0.0
 10
3.6515517672
 20
0.6457306054
 30
0.0
 10
3.6513917405
 20
0.6445865147
 30
0.0
 10
3.6512356399
 20
0.6437653166
 30
0.0
 10
3.6510961666
 20
0.6432757847
 30
0.0
 10
3.6509741741
 20
0.6430513017
 30
0.0
 10
3.6509004405
 20
0.6429985964
 30
0.0
 10
3.6508690706
 20
0.6429970798
 30
0.0
  0
SPLINE
  5
405
100
AcDbEntity
  8
0
100
AcDbSpline
 62
7
  6
CONTINUOUS
 70
0
 71
3
 72
16
 73
12
 74
0
 42
0.0000001
 43
0.0000001
 44
0.0000000001
 40
0.0
 40
0.0
 40
0.0
 40
0.0
 40
0.0137053657
 40
0.033758848
 40
0.0935037865
 40
0.1797518144
 40
0.2923778434
 40
0.431066786
 40
0.5954734323
 40
0.7852394915
 40
1.0
 40
1.0
 40
1.0
 40
1.0
 10
3.6720072527
 20
1.0339164782
 30
0.0
 10
3.6719653678
 20
1.0338439391
 30
0.0
 10
3.6718919014
 20
1.0336493058
 30
0.0
 10
3.6717465298
 20
1.033097007
 30
0.0
 10
3.6715825036
 20
1.0320933562
 30
0.0
 10
3.6713931604
 20
1.0305246898
 30
0.0
 10
3.6712028917
 20
1.0284699018
 30
0.0
 10
3.6710099962
 20
1.0259365215
 30
0.0
 10
3.6708164251
 20
1.0229304271
 30
0.0
 10
3.6706221159
 20
1.019458694
 30
0.0
 10
3.6704998167
 20
1.0169893536
 30
0.0
 10
3.6704379993
 20
1.0156782568
 30
0.0
  0
SPLINE
  5
406
100
AcDbEntity
  8
0
100
AcDbSpline
 62
7
  6
CONTINUOUS
 70
0
 71
3
 72
13
 73
9
 74
0
 42
0.0000001
 43
0.0000001
 44
0.0000000001
 40
0.0
 40
0.0
 40
0.0
 40
0.0
 40
0.0455767444
 40
0.1132243233
 40
0.2035737522
 40
0.3168773683
 40
0.6126366939
 40
1.0
 40
1.0
 40
1.0
 40
1.0
 10
3.6470105469
 20
1.0339221257
 30
0.0
 10
3.6469665193
 20
1.0338477345
 30
0.0
 10
3.6468902541
 20
1.0336448426
 30
0.0
 10
3.6467925552
 20
1.0332717312
 30
0.0
 10
3.6466937313
 20
1.032766211
 30
0.0
 10
3.6465471379
 20
1.0318304391
 30
0.0
 10
3.6463732817
 20
1.0303293616
 30
0.0
 10
3.646256358
 20
1.0290390103
 30
0.0
 10
3.6461955738
 20
1.0283068331
 30
0.0
  0
SPLINE
  5
407
100
AcDbEntity
  8
0
100
AcDbSpline
 62
7
  6
CONTINUOUS
 70
0
 71
3
 72
9
 73
5
 74
0
 42
0.0000001
 43
0.0000001
 44
0.0000000001
 40
0.0
 40
0.0
 40
0.0
 40
0.0
 40
0.5000049752
 40
1.0
 40
1.0
 40
1.0
 40
1.0
 10
3.9846292801
 20
1.0526755975
 30
0.0
 10
3.9800562487
 20
1.053997591
 30
0.0
 10
3.9708590869
 20
1.0564695382
 30
0.0
 10
3.9615535329
 20
1.0585032112
 30
0.0
 10
3.9568780175
 20
1.0593970439
 30
0.0
  0
SPLINE
  5
408
100
AcDbEntity
  8
0
100
AcDbSpline
 62
7
  6
CONTINUOUS
 70
0
 71
3
 72
8
 73
4
 74
0
 42
0.0000001
 43
0.0000001
 44
0.0000000001
 40
0.0
 40
0.0
 40
0.0
 40
0.0
 40
1.0
 40
1.0
 40
1.0
 40
1.0
 10
3.9568780175
 20
1.0620020439
 30
0.0
 10
3.9662357079
 20
1.0642413512
 30
0.0
 10
3.975489082
 20
1.0669390265
 30
0.0
 10
3.9846292801
 20
1.0699452943
 30
0.0
  0
SPLINE
  5
409
100
AcDbEntity
  8
0
100
AcDbSpline
 62
7
  6
CONTINUOUS
 70
0
 71
3
 72
8
 73
4
 74
0
 42
0.0000001
 43
0.0000001
 44
0.0000000001
 40
0.0
 40
0.0
 40
0.0
 40
0.0
 40
1.0
 40
1.0
 40
1.0
 40
1.0
 10
3.9846292801
 20
1.0735105975
 30
0.0
 10
3.9764779596
 20
1.075870507
 30
0.0
 10
3.9682351684
 20
1.077947051
 30
0.0
 10
3.959918365
 20
1.0796334615
 30
0.0
  0
SPLINE
  5
40A
100
AcDbEntity
  8
0
100
AcDbSpline
 62
7
  6
CONTINUOUS
 70
0
 71
3
 72
8
 73
4
 74
0
 42
0.0000001
 43
0.0000001
 44
0.0000000001
 40
0.0
 40
0.0
 40
0.0
 40
0.0
 40
1.0
 40
1.0
 40
1.0
 40
1.0
 10
3.8339796451
 20
1.0870314367
 30
0.0
 10
3.8421322695
 20
1.0846760195
 30
0.0
 10
3.8503736765
 20
1.0825946095
 30
0.0
 10
3.858690498
 20
1.0809082658
 30
0.0
  0
SPLINE
  5
40B
100
AcDbEntity
  8
0
100
AcDbSpline
 62
7
  6
CONTINUOUS
 70
0
 71
3
 72
8
 73
4
 74
0
 42
0.0000001
 43
0.0000001
 44
0.0000000001
 40
0.0
 40
0.0
 40
0.0
 40
0.0
 40
1.0
 40
1.0
 40
1.0
 40
1.0
 10
3.8586830387
 20
1.0769598503
 30
0.0
 10
3.8503623121
 20
1.0748792513
 30
0.0
 10
3.8421275549
 20
1.0724403495
 30
0.0
 10
3.8339796451
 20
1.0697617399
 30
0.0
  0
SPLINE
  5
40C
100
AcDbEntity
  8
0
100
AcDbSpline
 62
7
  6
CONTINUOUS
 70
0
 71
3
 72
9
 73
5
 74
0
 42
0.0000001
 43
0.0000001
 44
0.0000000001
 40
0.0
 40
0.0
 40
0.0
 40
0.0
 40
0.5000048944
 40
1.0
 40
1.0
 40
1.0
 40
1.0
 10
3.8339796451
 20
1.0661964367
 30
0.0
 10
3.8385527866
 20
1.064874826
 30
0.0
 10
3.8477497943
 20
1.0624023764
 30
0.0
 10
3.857055352
 20
1.0603686169
 30
0.0
 10
3.8617309077
 20
1.0594749902
 30
0.0
  0
SPLINE
  5
40D
100
AcDbEntity
  8
0
100
AcDbSpline
 62
7
  6
CONTINUOUS
 70
0
 71
3
 72
8
 73
4
 74
0
 42
0.0000001
 43
0.0000001
 44
0.0000000001
 40
0.0
 40
0.0
 40
0.0
 40
0.0
 40
1.0
 40
1.0
 40
1.0
 40
1.0
 10
3.8617309077
 20
1.0568699902
 30
0.0
 10
3.852373114
 20
1.0546311145
 30
0.0
 10
3.8431200842
 20
1.0519322748
 30
0.0
 10
3.8339796451
 20
1.0489267399
 30
0.0
  0
SPLINE
  5
40E
100
AcDbEntity
  8
0
100
AcDbSpline
 62
7
  6
CONTINUOUS
 70
0
 71
3
 72
13
 73
9
 74
0
 42
0.0000001
 43
0.0000001
 44
0.0000000001
 40
0.0
 40
0.0
 40
0.0
 40
0.0
 40
0.0455506833
 40
0.1133311856
 40
0.2038504221
 40
0.3172643617
 40
0.6128666702
 40
1.0
 40
1.0
 40
1.0
 40
1.0
 10
3.647889032
 20
0.643128808
 30
0.0
 10
3.6479389827
 20
0.6432171099
 30
0.0
 10
3.6480249706
 20
0.6434567822
 30
0.0
 10
3.6481353263
 20
0.6438966776
 30
0.0
 10
3.6482469184
 20
0.644492056
 30
0.0
 10
3.6484124806
 20
0.6455921958
 30
0.0
 10
3.6486091208
 20
0.6473550678
 30
0.0
 10
3.6487412537
 20
0.6488699
 30
0.0
 10
3.6488099035
 20
0.6497293903
 30
0.0
  0
SPLINE
  5
40F
100
AcDbEntity
  8
0
100
AcDbSpline
 62
7
  6
CONTINUOUS
 70
0
 71
3
 72
14
 73
10
 74
0
 42
0.0000001
 43
0.0000001
 44
0.0000000001
 40
0.0
 40
0.0
 40
0.0
 40
0.0
 40
0.0416331545
 40
0.1066023878
 40
0.1954415789
 40
0.3083206847
 40
0.4452989821
 40
0.6063657106
 40
1.0
 40
1.0
 40
1.0
 40
1.0
 10
3.6391023532
 20
0.6279105896
 30
0.0
 10
3.6391596286
 20
0.628010956
 30
0.0
 10
3.639253367
 20
0.6282951053
 30
0.0
 10
3.6393739922
 20
0.628822851
 30
0.0
 10
3.6394956063
 20
0.6295539606
 30
0.0
 10
3.6396193794
 20
0.6304857093
 30
0.0
 10
3.6397436993
 20
0.6316196645
 30
0.0
 10
3.6399223161
 20
0.6335312041
 30
0.0
 10
3.6400371781
 20
0.6350667205
 30
0.0
 10
3.64011231
 20
0.6361567247
 30
0.0
  0
LINE
  5
410
100
AcDbEntity
  8
0
100
AcDbLine
 62
7
  6
CONTINUOUS
 10
3.64011231
 20
0.6361567247
 11
3.640841415
 21
0.6499306575
  0
SPLINE
  5
411
100
AcDbEntity
  8
0
100
AcDbSpline
 62
7
  6
CONTINUOUS
 70
0
 71
3
 72
12
 73
8
 74
0
 42
0.0000001
 43
0.0000001
 44
0.0000000001
 40
0.0
 40
0.0
 40
0.0
 40
0.0
 40
0.046226684
 40
0.114369679
 40
0.318407992
 40
0.6138010035
 40
1.0
 40
1.0
 40
1.0
 40
1.0
 10
3.6516025082
 20
1.0339150266
 30
0.0
 10
3.6516460854
 20
1.0338390914
 30
0.0
 10
3.6517219858
 20
1.0336342413
 30
0.0
 10
3.6518723918
 20
1.0330507083
 30
0.0
 10
3.6520416202
 20
1.0319868531
 30
0.0
 10
3.6522373195
 20
1.0303216209
 30
0.0
 10
3.6523528751
 20
1.0290355091
 30
0.0
 10
3.6524133915
 20
1.0283065776
 30
0.0
  0
LINE
  5
412
100
AcDbEntity
  8
0
100
AcDbLine
 62
7
  6
CONTINUOUS
 10
3.6524133915
 20
1.0283065776
 11
3.6531709456
 21
1.0156778376
  0
LINE
  5
413
100
AcDbEntity
  8
0
100
AcDbLine
 62
7
  6
CONTINUOUS
 10
3.6531709456
 20
1.0156778376
 11
3.6546861825
 21
0.9710764486
  0
LINE
  5
414
100
AcDbEntity
  8
0
100
AcDbLine
 62
7
  6
CONTINUOUS
 10
3.6550649996
 20
0.9564674111
 11
3.6554436517
 21
0.9407239014
  0
LINE
  5
415
100
AcDbEntity
  8
0
100
AcDbLine
 62
7
  6
CONTINUOUS
 10
3.6573392923
 20
0.8502170604
 11
3.6577162385
 21
0.8309122671
  0
SPLINE
  5
416
100
AcDbEntity
  8
0
100
AcDbSpline
 62
7
  6
CONTINUOUS
 70
0
 71
3
 72
14
 73
10
 74
0
 42
0.0000001
 43
0.0000001
 44
0.0000000001
 40
0.0
 40
0.0
 40
0.0
 40
0.0
 40
0.0409335707
 40
0.1055273794
 40
0.1943681869
 40
0.3075278904
 40
0.4448668883
 40
0.606199134
 40
1.0
 40
1.0
 40
1.0
 40
1.0
 10
3.6603891934
 20
1.0187037484
 30
0.0
 10
3.6604536819
 20
1.0185913363
 30
0.0
 10
3.6605579298
 20
1.0182697341
 30
0.0
 10
3.6606922613
 20
1.017670672
 30
0.0
 10
3.6608274306
 20
1.0168363841
 30
0.0
 10
3.6609652006
 20
1.0157711303
 30
0.0
 10
3.6611036148
 20
1.0144744325
 30
0.0
 10
3.6613025787
 20
1.0122910988
 30
0.0
 10
3.6614306824
 20
1.0105380439
 30
0.0
 10
3.6615144626
 20
1.0092940804
 30
0.0
  0
SPLINE
  5
417
100
AcDbEntity
  8
0
100
AcDbSpline
 62
7
  6
CONTINUOUS
 70
0
 71
3
 72
10
 73
6
 74
0
 42
0.0000001
 43
0.0000001
 44
0.0000000001
 40
0.0
 40
0.0
 40
0.0
 40
0.0
 40
0.1832770912
 40
0.4127206184
 40
1.0
 40
1.0
 40
1.0
 40
1.0
 10
3.6615144626
 20
1.0092940804
 30
0.0
 10
3.6616664
 20
1.0070381232
 30
0.0
 10
3.6619545894
 20
1.0019543572
 30
0.0
 10
3.6625193875
 20
0.9896303337
 30
0.0
 10
3.662869703
 20
0.9795603124
 30
0.0
 10
3.6631025785
 20
0.9723188594
 30
0.0
  0
LINE
  5
418
100
AcDbEntity
  8
0
100
AcDbLine
 62
7
  6
CONTINUOUS
 10
3.6700794627
 20
0.6835262625
 11
3.6702419626
 21
0.6788860723
  0
SPLINE
  5
419
100
AcDbEntity
  8
0
100
AcDbSpline
 62
7
  6
CONTINUOUS
 70
0
 71
3
 72
11
 73
7
 74
0
 42
0.0000001
 43
0.0000001
 44
0.0000000001
 40
0.0
 40
0.0
 40
0.0
 40
0.0
 40
0.3706621896
 40
0.6609144146
 40
0.87028423
 40
1.0
 40
1.0
 40
1.0
 40
1.0
 10
3.7726912403
 20
1.0447985503
 30
0.0
 10
3.7722104492
 20
1.0448463601
 30
0.0
 10
3.7713542066
 20
1.0449390219
 30
0.0
 10
3.7702286201
 20
1.0450908953
 30
0.0
 10
3.7694243929
 20
1.0452428058
 30
0.0
 10
3.7689932171
 20
1.0453589179
 30
0.0
 10
3.7688416488
 20
1.0454338652
 30
0.0
  0
SPLINE
  5
41A
100
AcDbEntity
  8
0
100
AcDbSpline
 62
7
  6
CONTINUOUS
 70
0
 71
3
 72
18
 73
14
 74
0
 42
0.0000001
 43
0.0000001
 44
0.0000000001
 40
0.0
 40
0.0
 40
0.0
 40
0.0
 40
0.1967360542
 40
0.379286298
 40
0.5434218817
 40
0.6861867574
 40
0.8051922247
 40
0.8551086031
 40
0.8983090755
 40
0.9345532603
 40
0.9636276312
 40
0.9854483505
 40
1.0
 40
1.0
 40
1.0
 40
1.0
 10
3.8617388941
 20
1.0568699902
 30
0.0
 10
3.8565037697
 20
1.0567237533
 30
0.0
 10
3.8464112026
 20
1.0564345571
 30
0.0
 10
3.8319520464
 20
1.0559880032
 30
0.0
 10
3.8189303258
 20
1.0555420885
 30
0.0
 10
3.8076012555
 20
1.0550981106
 30
0.0
 10
3.7993128531
 20
1.0547126138
 30
0.0
 10
3.7936750219
 20
1.0543949047
 30
0.0
 10
3.7902385145
 20
1.0541718112
 30
0.0
 10
3.7873583247
 20
1.053949783
 30
0.0
 10
3.7850483687
 20
1.0537310148
 30
0.0
 10
3.783320394
 20
1.0535135438
 30
0.0
 10
3.7823643064
 20
1.0533468102
 30
0.0
 10
3.7819901635
 20
1.0532464522
 30
0.0
  0
LINE
  5
41B
100
AcDbEntity
  8
0
100
AcDbLine
 62
7
  6
CONTINUOUS
 10
3.7819901635
 20
1.0532464522
 11
3.7815151099
 21
1.0530713638
  0
SPLINE
  5
41C
100
AcDbEntity
  8
0
100
AcDbSpline
 62
7
  6
CONTINUOUS
 70
0
 71
3
 72
23
 73
19
 74
0
 42
0.0000001
 43
0.0000001
 44
0.0000000001
 40
0.0
 40
0.0
 40
0.0
 40
0.0
 40
0.2118739657
 40
0.4065871454
 40
0.5789061551
 40
0.6555402002
 40
0.7253096225
 40
0.787840754
 40
0.8428085057
 40
0.8899016909
 40
0.9288118696
 40
0.9592736025
 40
0.9811921545
 40
0.9889450039
 40
0.9945761245
 40
0.9966138013
 40
0.9981564999
 40
1.0
 40
1.0
 40
1.0
 40
1.0
 10
3.8617388941
 20
1.0594749902
 30
0.0
 10
3.8560512252
 20
1.059316112
 30
0.0
 10
3.8451367924
 20
1.0590027458
 30
0.0
 10
3.8295977893
 20
1.0585175385
 30
0.0
 10
3.8176903872
 20
1.0580994424
 30
0.0
 10
3.8091378318
 20
1.0577590602
 30
0.0
 10
3.8035322061
 20
1.0575142444
 30
0.0
 10
3.7985090267
 20
1.0572697654
 30
0.0
 10
3.7940955707
 20
1.0570260893
 30
0.0
 10
3.7903175294
 20
1.056783234
 30
0.0
 10
3.7871989011
 20
1.056543335
 30
0.0
 10
3.7847588213
 20
1.0563039146
 30
0.0
 10
3.7831567783
 20
1.0560966118
 30
0.0
 10
3.782225168
 20
1.055914723
 30
0.0
 10
3.781825008
 20
1.0558112974
 30
0.0
 10
3.7815922628
 20
1.0557188873
 30
0.0
 10
3.7814677962
 20
1.0556543796
 30
0.0
 10
3.7813893533
 20
1.0555761414
 30
0.0
 10
3.7813918642
 20
1.0555266978
 30
0.0
  0
SPLINE
  5
41D
100
AcDbEntity
  8
0
100
AcDbSpline
 62
7
  6
CONTINUOUS
 70
0
 71
3
 72
11
 73
7
 74
0
 42
0.0000001
 43
0.0000001
 44
0.0000000001
 40
0.0
 40
0.0
 40
0.0
 40
0.0
 40
0.3706629915
 40
0.6609151811
 40
0.870284621
 40
1.0
 40
1.0
 40
1.0
 40
1.0
 10
3.7726912428
 20
1.065633671
 30
0.0
 10
3.7722104518
 20
1.0656814632
 30
0.0
 10
3.7713542095
 20
1.065774087
 30
0.0
 10
3.7702286209
 20
1.065925899
 30
0.0
 10
3.7694243929
 20
1.0660777721
 30
0.0
 10
3.7689932161
 20
1.0661938694
 30
0.0
 10
3.7688416479
 20
1.0662688136
 30
0.0
  0
LINE
  5
41E
100
AcDbEntity
  8
0
100
AcDbLine
 62
7
  6
CONTINUOUS
 10
3.8339796451
 20
1.0661964367
 11
3.7877337927
 21
1.0646089845
  0
LINE
  5
41F
100
AcDbEntity
  8
0
100
AcDbLine
 62
7
  6
CONTINUOUS
 10
3.7877337927
 20
1.0646089845
 11
3.772691248
 21
1.0636556851
  0
SPLINE
  5
420
100
AcDbEntity
  8
0
100
AcDbSpline
 62
7
  6
CONTINUOUS
 70
0
 71
3
 72
11
 73
7
 74
0
 42
0.0000001
 43
0.0000001
 44
0.0000000001
 40
0.0
 40
0.0
 40
0.0
 40
0.0
 40
0.3706615307
 40
0.6609122981
 40
0.8702818874
 40
1.0
 40
1.0
 40
1.0
 40
1.0
 10
3.772691248
 20
1.0636556851
 30
0.0
 10
3.7722104569
 20
1.0636079236
 30
0.0
 10
3.7713542137
 20
1.0635153635
 30
0.0
 10
3.7702286185
 20
1.0633636374
 30
0.0
 10
3.7694243865
 20
1.0632117864
 30
0.0
 10
3.7689932083
 20
1.0630956712
 30
0.0
 10
3.7688416444
 20
1.0630207111
 30
0.0
  0
LINE
  5
421
100
AcDbEntity
  8
0
100
AcDbLine
 62
7
  6
CONTINUOUS
 10
3.8617388036
 20
1.0777049902
 11
3.8502070338
 21
1.0773758913
  0
SPLINE
  5
422
100
AcDbEntity
  8
0
100
AcDbSpline
 62
7
  6
CONTINUOUS
 70
0
 71
3
 72
17
 73
13
 74
0
 42
0.0000001
 43
0.0000001
 44
0.0000000001
 40
0.0
 40
0.0
 40
0.0
 40
0.0
 40
0.1990515565
 40
0.38177605
 40
0.5450625698
 40
0.68666168
 40
0.8044890337
 40
0.8968845751
 40
0.9330654928
 40
0.9623516183
 40
0.9846738743
 40
1.0
 40
1.0
 40
1.0
 40
1.0
 10
3.8502070338
 20
1.0773758913
 30
0.0
 10
3.8456765429
 20
1.0772434728
 30
0.0
 10
3.8369873935
 20
1.0769817888
 30
0.0
 10
3.8245828835
 20
1.076575586
 30
0.0
 10
3.813487325
 20
1.0761703379
 30
0.0
 10
3.803870414
 20
1.075767841
 30
0.0
 10
3.7958694073
 20
1.0753670603
 30
0.0
 10
3.7902691956
 20
1.0750173302
 30
0.0
 10
3.7866866631
 20
1.0747237765
 30
0.0
 10
3.7846972258
 20
1.0745242919
 30
0.0
 10
3.7831863258
 20
1.0743265219
 30
0.0
 10
3.7823409365
 20
1.0741746937
 30
0.0
 10
3.7820034047
 20
1.0740860505
 30
0.0
  0
LINE
  5
423
100
AcDbEntity
  8
0
100
AcDbLine
 62
7
  6
CONTINUOUS
 10
3.7820034047
 20
1.0740860505
 11
3.7815052289
 21
1.0739053596
  0
LINE
  5
424
100
AcDbEntity
  8
0
100
AcDbLine
 62
7
  6
CONTINUOUS
 10
3.8617388036
 20
1.0803099902
 11
3.8502070338
 21
1.0799808913
  0
SPLINE
  5
425
100
AcDbEntity
  8
0
100
AcDbSpline
 62
7
  6
CONTINUOUS
 70
0
 71
3
 72
21
 73
17
 74
0
 42
0.0000001
 43
0.0000001
 44
0.0000000001
 40
0.0
 40
0.0
 40
0.0
 40
0.0
 40
0.2157882274
 40
0.4116193417
 40
0.583626911
 40
0.6597830904
 40
0.7289005107
 40
0.7906881069
 40
0.844889754
 40
0.8912513265
 40
0.9295230845
 40
0.9595225743
 40
0.981171206
 40
0.9944571531
 40
0.9980602578
 40
1.0
 40
1.0
 40
1.0
 40
1.0
 10
3.8502070338
 20
1.0799808913
 30
0.0
 10
3.8452434145
 20
1.0798358132
 30
0.0
 10
3.8357754937
 20
1.0795499649
 30
0.0
 10
3.822352386
 20
1.0791044013
 30
0.0
 10
3.8121422789
 20
1.0787208184
 30
0.0
 10
3.8048476301
 20
1.0784086084
 30
0.0
 10
3.8000880002
 20
1.0781842223
 30
0.0
 10
3.795834133
 20
1.077960143
 30
0.0
 10
3.7921048796
 20
1.0777368155
 30
0.0
 10
3.7889172743
 20
1.0775141891
 30
0.0
 10
3.786289571
 20
1.0772942519
 30
0.0
 10
3.7842286854
 20
1.0770744054
 30
0.0
 10
3.7827555765
 20
1.0768672781
 30
0.0
 10
3.7818759697
 20
1.0766706798
 30
0.0
 10
3.7814824506
 20
1.076516318
 30
0.0
 10
3.7813803473
 20
1.0764074908
 30
0.0
 10
3.7813816731
 20
1.0763628729
 30
0.0
  0
LINE
  5
426
100
AcDbEntity
  8
0
100
AcDbLine
 62
7
  6
CONTINUOUS
 10
3.7717371119
 20
1.0865688426
 11
3.7693937067
 21
1.0869280661
  0
LINE
  5
427
100
AcDbEntity
  8
0
100
AcDbLine
 62
7
  6
CONTINUOUS
 10
3.7693937067
 20
1.0869280661
 11
3.7686841102
 21
1.0872627371
  0
LINE
  5
428
100
AcDbEntity
  8
0
100
AcDbLine
 62
7
  6
CONTINUOUS
 10
3.8339796451
 20
1.0870314367
 11
3.7877337891
 21
1.0854440648
  0
LINE
  5
429
100
AcDbEntity
  8
0
100
AcDbLine
 62
7
  6
CONTINUOUS
 10
3.7877337891
 20
1.0854440648
 11
3.7726912479
 21
1.0844906521
  0
SPLINE
  5
42A
100
AcDbEntity
  8
0
100
AcDbSpline
 62
7
  6
CONTINUOUS
 70
0
 71
3
 72
11
 73
7
 74
0
 42
0.0000001
 43
0.0000001
 44
0.0000000001
 40
0.0
 40
0.0
 40
0.0
 40
0.0
 40
0.3706625297
 40
0.6609136916
 40
0.8702829704
 40
1.0
 40
1.0
 40
1.0
 40
1.0
 10
3.7726912479
 20
1.0844906521
 30
0.0
 10
3.772210457
 20
1.084442894
 30
0.0
 10
3.7713542143
 20
1.0843503421
 30
0.0
 10
3.7702286196
 20
1.0841986341
 30
0.0
 10
3.7694243883
 20
1.084046803
 30
0.0
 10
3.7689932098
 20
1.0839307035
 30
0.0
 10
3.7688416448
 20
1.0838557503
 30
0.0
  0
LINE
  5
42B
100
AcDbEntity
  8
0
100
AcDbLine
 62
7
  6
CONTINUOUS
 10
4.0364037421
 20
1.0871563219
 11
4.0372202559
 21
1.0867822824
  0
LINE
  5
42C
100
AcDbEntity
  8
0
100
AcDbLine
 62
7
  6
CONTINUOUS
 10
4.0365817754
 20
1.0845053581
 11
4.037077844
 21
1.0843272026
  0
SPLINE
  5
42D
100
AcDbEntity
  8
0
100
AcDbSpline
 62
7
  6
CONTINUOUS
 70
0
 71
3
 72
11
 73
7
 74
0
 42
0.0000001
 43
0.0000001
 44
0.0000000001
 40
0.0
 40
0.0
 40
0.0
 40
0.0
 40
0.3706619851
 40
0.6609140862
 40
0.8702839497
 40
1.0
 40
1.0
 40
1.0
 40
1.0
 10
4.0459176842
 20
1.0740734788
 30
0.0
 10
4.0463984753
 20
1.0740256702
 30
0.0
 10
4.0472547181
 20
1.0739330106
 30
0.0
 10
4.0483803051
 20
1.0737811394
 30
0.0
 10
4.0491845327
 20
1.0736292276
 30
0.0
 10
4.0496157086
 20
1.0735131126
 30
0.0
 10
4.0497672766
 20
1.0734381637
 30
0.0
  0
LINE
  5
42E
100
AcDbEntity
  8
0
100
AcDbLine
 62
7
  6
CONTINUOUS
 10
3.9846292801
 20
1.0735105975
 11
4.0308751187
 21
1.0750987841
  0
LINE
  5
42F
100
AcDbEntity
  8
0
100
AcDbLine
 62
7
  6
CONTINUOUS
 10
4.0308751187
 20
1.0750987841
 11
4.045917682
 21
1.0760511657
  0
SPLINE
  5
430
100
AcDbEntity
  8
0
100
AcDbSpline
 62
7
  6
CONTINUOUS
 70
0
 71
3
 72
11
 73
7
 74
0
 42
0.0000001
 43
0.0000001
 44
0.0000000001
 40
0.0
 40
0.0
 40
0.0
 40
0.0
 40
0.3706614342
 40
0.6609128354
 40
0.8702826967
 40
1.0
 40
1.0
 40
1.0
 40
1.0
 10
4.045917682
 20
1.0760511657
 30
0.0
 10
4.0463984731
 20
1.0760989559
 30
0.0
 10
4.0472547161
 20
1.076191577
 30
0.0
 10
4.0483803065
 20
1.0763433944
 30
0.0
 10
4.049184536
 20
1.0764952882
 30
0.0
 10
4.0496157127
 20
1.0766114091
 30
0.0
 10
4.0497672786
 20
1.0766863652
 30
0.0
  0
LINE
  5
431
100
AcDbEntity
  8
0
100
AcDbLine
 62
7
  6
CONTINUOUS
 10
4.0365489743
 20
1.0636794343
 11
4.0370776388
 21
1.0634942993
  0
LINE
  5
432
100
AcDbEntity
  8
0
100
AcDbLine
 62
7
  6
CONTINUOUS
 10
4.0453741278
 20
1.0532915813
 11
4.0481010101
 21
1.0529799323
  0
LINE
  5
433
100
AcDbEntity
  8
0
100
AcDbLine
 62
7
  6
CONTINUOUS
 10
3.9846292801
 20
1.0526755975
 11
4.0308751318
 21
1.0542631737
  0
LINE
  5
434
100
AcDbEntity
  8
0
100
AcDbLine
 62
7
  6
CONTINUOUS
 10
4.0308751318
 20
1.0542631737
 11
4.0459176782
 21
1.0552163169
  0
SPLINE
  5
435
100
AcDbEntity
  8
0
100
AcDbSpline
 62
7
  6
CONTINUOUS
 70
0
 71
3
 72
11
 73
7
 74
0
 42
0.0000001
 43
0.0000001
 44
0.0000000001
 40
0.0
 40
0.0
 40
0.0
 40
0.0
 40
0.3706614154
 40
0.6609122429
 40
0.8702819062
 40
1.0
 40
1.0
 40
1.0
 40
1.0
 10
4.0459176782
 20
1.0552163169
 30
0.0
 10
4.0463984693
 20
1.0552640832
 30
0.0
 10
4.0472547125
 20
1.0553566537
 30
0.0
 10
4.0483803069
 20
1.055508396
 30
0.0
 10
4.0491845385
 20
1.0556602559
 30
0.0
 10
4.0496157165
 20
1.0557763735
 30
0.0
 10
4.0497672805
 20
1.0558513337
 30
0.0
  0
SPLINE
  5
436
100
AcDbEntity
  8
0
100
AcDbSpline
 62
7
  6
CONTINUOUS
 70
0
 71
3
 72
15
 73
11
 74
0
 42
0.0000001
 43
0.0000001
 44
0.0000000001
 40
0.0
 40
0.0
 40
0.0
 40
0.0
 40
0.0235067359
 40
0.0447622352
 40
0.0732193972
 40
0.1524987095
 40
0.2620229483
 40
0.4017472035
 40
0.5714831691
 40
1.0
 40
1.0
 40
1.0
 40
1.0
 10
3.6383700102
 20
1.0188312235
 30
0.0
 10
3.6384357094
 20
1.0188303214
 30
0.0
 10
3.6385247295
 20
1.018701222
 30
0.0
 10
3.6385999748
 20
1.0185229342
 30
0.0
 10
3.6387103185
 20
1.0181733628
 30
0.0
 10
3.6388334604
 20
1.0175818474
 30
0.0
 10
3.6389771053
 20
1.0166729683
 30
0.0
 10
3.6391205621
 20
1.0155111411
 30
0.0
 10
3.6393309149
 20
1.0134587351
 30
0.0
 10
3.6394623104
 20
1.0117915976
 30
0.0
 10
3.6395486787
 20
1.010596937
 30
0.0
  0
LINE
  5
437
100
AcDbEntity
  8
0
100
AcDbLine
 62
7
  6
CONTINUOUS
 10
3.6395486787
 20
1.010596937
 11
3.6403490665
 21
0.9959770018
  0
LINE
  5
438
100
AcDbEntity
  8
0
100
AcDbLine
 62
7
  6
CONTINUOUS
 10
3.6475642528
 20
0.704110076
 11
3.6478009491
 21
0.6960917811
  0
LINE
  5
439
100
AcDbEntity
  8
0
100
AcDbLine
 62
7
  6
CONTINUOUS
 10
3.6478009491
 20
0.6960917811
 11
3.6479655638
 21
0.6907929343
  0
LINE
  5
43A
100
AcDbEntity
  8
0
100
AcDbLine
 62
7
  6
CONTINUOUS
 10
3.6482010358
 20
0.6836312679
 11
3.6483669626
 21
0.678894886
  0
LINE
  5
43B
100
AcDbEntity
  8
0
100
AcDbLine
 62
7
  6
CONTINUOUS
 10
3.6380779327
 20
1.0183299472
 11
3.6382238808
 21
1.0187066341
  0
SPLINE
  5
43C
100
AcDbEntity
  8
0
100
AcDbSpline
 62
7
  6
CONTINUOUS
 70
0
 71
3
 72
10
 73
6
 74
0
 42
0.0000001
 43
0.0000001
 44
0.0000000001
 40
0.0
 40
0.0
 40
0.0
 40
0.0
 40
0.5685795111
 40
0.8033601326
 40
1.0
 40
1.0
 40
1.0
 40
1.0
 10
4.1862449334
 20
0.9472361571
 30
0.0
 10
4.1859266059
 20
0.9593411745
 30
0.0
 10
4.1854408364
 20
0.9764438701
 30
0.0
 10
4.1846934498
 20
0.9977280971
 30
0.0
 10
4.1843129254
 20
1.0069084361
 30
0.0
 10
4.1841157688
 20
1.0110916888
 30
0.0
  0
LINE
  5
43D
100
AcDbEntity
  8
0
100
AcDbLine
 62
7
  6
CONTINUOUS
 10
4.1841157688
 20
1.0110916888
 11
4.1832649685
 21
1.0256967317
  0
SPLINE
  5
43E
100
AcDbEntity
  8
0
100
AcDbSpline
 62
7
  6
CONTINUOUS
 70
0
 71
3
 72
10
 73
6
 74
0
 42
0.0000001
 43
0.0000001
 44
0.0000000001
 40
0.0
 40
0.0
 40
0.0
 40
0.0
 40
0.6222040014
 40
0.8418913201
 40
1.0
 40
1.0
 40
1.0
 40
1.0
 10
4.1832649685
 20
1.0256967317
 30
0.0
 10
4.1831461393
 20
1.0272427455
 30
0.0
 10
4.1829706061
 20
1.0293344304
 30
0.0
 10
4.1826589132
 20
1.0318068543
 30
0.0
 10
4.1825015237
 20
1.0327361784
 30
0.0
 10
4.1824134142
 20
1.033120218
 30
0.0
  0
LINE
  5
43F
100
AcDbEntity
  8
0
100
AcDbLine
 62
7
  6
CONTINUOUS
 10
4.1824134142
 20
1.033120218
 11
4.1819927716
 21
1.0340348747
  0
LINE
  5
440
100
AcDbEntity
  8
0
100
AcDbLine
 62
7
  6
CONTINUOUS
 10
4.1674892684
 20
0.8664054442
 11
4.1679204062
 21
0.8467645598
  0
LINE
  5
441
100
AcDbEntity
  8
0
100
AcDbLine
 62
7
  6
CONTINUOUS
 10
4.1680244829
 20
0.8419968932
 11
4.1696462135
 21
0.7685900502
  0
LINE
  5
442
100
AcDbEntity
  8
0
100
AcDbLine
 62
7
  6
CONTINUOUS
 10
4.1696462135
 20
0.7685900502
 11
4.1701186695
 21
0.7483374922
  0
LINE
  5
443
100
AcDbEntity
  8
0
100
AcDbLine
 62
7
  6
CONTINUOUS
 10
4.1718027393
 20
0.6853055372
 11
4.1730966767
 21
0.6506583248
  0
LINE
  5
444
100
AcDbEntity
  8
0
100
AcDbLine
 62
7
  6
CONTINUOUS
 10
4.1730966767
 20
0.6506583248
 11
4.1739593112
 21
0.6359304854
  0
SPLINE
  5
445
100
AcDbEntity
  8
0
100
AcDbSpline
 62
7
  6
CONTINUOUS
 70
0
 71
3
 72
10
 73
6
 74
0
 42
0.0000001
 43
0.0000001
 44
0.0000000001
 40
0.0
 40
0.0
 40
0.0
 40
0.0
 40
0.6270370482
 40
0.8453394101
 40
1.0
 40
1.0
 40
1.0
 40
1.0
 10
4.1739593112
 20
0.6359304854
 30
0.0
 10
4.1740789611
 20
0.6343908006
 30
0.0
 10
4.1742549234
 20
0.6323151135
 30
0.0
 10
4.1745719219
 20
0.6298728642
 30
0.0
 10
4.1747315659
 20
0.6289669709
 30
0.0
 10
4.1748219422
 20
0.6285969348
 30
0.0
  0
LINE
  5
446
100
AcDbEntity
  8
0
100
AcDbLine
 62
7
  6
CONTINUOUS
 10
4.1748219422
 20
0.6285969348
 11
4.175216374
 21
0.627787313
  0
SPLINE
  5
447
100
AcDbEntity
  8
0
100
AcDbSpline
 62
7
  6
CONTINUOUS
 70
0
 71
3
 72
31
 73
27
 74
0
 42
0.0000001
 43
0.0000001
 44
0.0000000001
 40
0.0
 40
0.0
 40
0.0
 40
0.0
 40
0.1497880058
 40
0.2321014961
 40
0.3171829801
 40
0.4034526534
 40
0.4892608916
 40
0.5729218061
 40
0.6528225786
 40
0.7274162468
 40
0.7952655722
 40
0.8262534124
 40
0.8550689327
 40
0.8815751978
 40
0.9056563349
 40
0.9271973737
 40
0.9460837799
 40
0.9622194902
 40
0.9755435203
 40
0.9860005293
 40
0.9935398932
 40
0.9962052752
 40
0.9981404985
 40
0.9988410055
 40
0.9993714391
 40
1.0
 40
1.0
 40
1.0
 40
1.0
 10
4.2108669626
 20
0.7163812208
 30
0.0
 10
4.2104181426
 20
0.7314917037
 30
0.0
 10
4.2097979756
 20
0.7549081155
 30
0.0
 10
4.2090092821
 20
0.786909638
 30
0.0
 10
4.2083998632
 20
0.8125031419
 30
0.0
 10
4.2077901227
 20
0.8384494328
 30
0.0
 10
4.2071805079
 20
0.8642523199
 30
0.0
 10
4.2065710529
 20
0.8894122561
 30
0.0
 10
4.205962328
 20
0.9134400544
 30
0.0
 10
4.2053544879
 20
0.9358715708
 30
0.0
 10
4.2048346886
 20
0.9533671535
 30
0.0
 10
4.2044133766
 20
0.9662434431
 30
0.0
 10
4.2041071675
 20
0.9749487495
 30
0.0
 10
4.2038011876
 20
0.9829565506
 30
0.0
 10
4.2034956797
 20
0.9902296224
 30
0.0
 10
4.2031907933
 20
0.99673295
 30
0.0
 10
4.2028869159
 20
1.0024334715
 30
0.0
 10
4.2025837045
 20
1.0073033847
 30
0.0
 10
4.2022839292
 20
1.0113209292
 30
0.0
 10
4.2019852646
 20
1.0144680467
 30
0.0
 10
4.201726974
 20
1.0165377228
 30
0.0
 10
4.2015000982
 20
1.0177433578
 30
0.0
 10
4.2013708384
 20
1.0182611688
 30
0.0
 10
4.2012557684
 20
1.0185635902
 30
0.0
 10
4.2011750815
 20
1.0187248997
 30
0.0
 10
4.2010793332
 20
1.0188297938
 30
0.0
 10
4.2010158991
 20
1.0188292225
 30
0.0
  0
SPLINE
  5
448
100
AcDbEntity
  8
0
100
AcDbSpline
 62
7
  6
CONTINUOUS
 70
0
 71
3
 72
25
 73
21
 74
0
 42
0.0000001
 43
0.0000001
 44
0.0000000001
 40
0.0
 40
0.0
 40
0.0
 40
0.0
 40
0.1446218462
 40
0.3061223521
 40
0.47282889
 40
0.5544138045
 40
0.632833601
 40
0.706684107
 40
0.7746198606
 40
0.8354451524
 40
0.888031251
 40
0.9109462336
 40
0.9314706923
 40
0.9495014558
 40
0.9649550853
 40
0.9777776886
 40
0.9879193472
 40
0.9953342519
 40
0.9980092952
 40
1.0
 40
1.0
 40
1.0
 40
1.0
 10
4.2077419626
 20
0.7163812208
 30
0.0
 10
4.2073095594
 20
0.7309389979
 30
0.0
 10
4.2064901678
 20
0.761756391
 30
0.0
 10
4.2053446257
 20
0.8093590103
 30
0.0
 10
4.2043819247
 20
0.850616039
 30
0.0
 10
4.203590833
 20
0.8835081083
 30
0.0
 10
4.2030021694
 20
0.9070512336
 30
0.0
 10
4.2024144356
 20
0.9292193889
 30
0.0
 10
4.2018275943
 20
0.949615048
 30
0.0
 10
4.2012428802
 20
0.9678683534
 30
0.0
 10
4.2007375358
 20
0.9815879498
 30
0.0
 10
4.2003247914
 20
0.9912494573
 30
0.0
 10
4.2000302083
 20
0.9974328495
 30
0.0
 10
4.1997364976
 20
1.0028639645
 30
0.0
 10
4.1994435297
 20
1.0075181409
 30
0.0
 10
4.1991532958
 20
1.0113764208
 30
0.0
 10
4.1988649315
 20
1.0144220396
 30
0.0
 10
4.1986134234
 20
1.0164451445
 30
0.0
 10
4.1983967137
 20
1.0176423774
 30
0.0
 10
4.1982868119
 20
1.0180999951
 30
0.0
 10
4.198227157
 20
1.0182913884
 30
0.0
  0
LINE
  5
449
100
AcDbEntity
  8
0
100
AcDbLine
 62
7
  6
CONTINUOUS
 10
4.198227157
 20
1.0182913884
 11
4.19807177
 21
1.0186743819
  0
SPLINE
  5
44A
100
AcDbEntity
  8
0
100
AcDbSpline
 62
7
  6
CONTINUOUS
 70
0
 71
3
 72
10
 73
6
 74
0
 42
0.0000001
 43
0.0000001
 44
0.0000000001
 40
0.0
 40
0.0
 40
0.0
 40
0.0
 40
0.5778298585
 40
0.8103801201
 40
1.0
 40
1.0
 40
1.0
 40
1.0
 10
4.1989662385
 20
0.707110932
 30
0.0
 10
4.1992976488
 20
0.6952835729
 30
0.0
 10
4.199781706
 20
0.6786965682
 30
0.0
 10
4.2005437047
 20
0.6582340461
 30
0.0
 10
4.2009365152
 20
0.6495981373
 30
0.0
 10
4.2011424262
 20
0.6457208272
 30
0.0
  0
LINE
  5
44B
100
AcDbEntity
  8
0
100
AcDbLine
 62
7
  6
CONTINUOUS
 10
4.2011424262
 20
0.6457208272
 11
4.2020141614
 21
0.6329839918
  0
SPLINE
  5
44C
100
AcDbEntity
  8
0
100
AcDbSpline
 62
7
  6
CONTINUOUS
 70
0
 71
3
 72
12
 73
8
 74
0
 42
0.0000001
 43
0.0000001
 44
0.0000000001
 40
0.0
 40
0.0
 40
0.0
 40
0.0
 40
0.3875726481
 40
0.6832340793
 40
0.8867740008
 40
0.9543579883
 40
1.0
 40
1.0
 40
1.0
 40
1.0
 10
4.2020141614
 20
0.6329839918
 30
0.0
 10
4.2020790554
 20
0.6323153325
 30
0.0
 10
4.202202924
 20
0.6311370101
 30
0.0
 10
4.2024129613
 20
0.6296152291
 30
0.0
 10
4.2025944909
 20
0.6286466243
 30
0.0
 10
4.2027558949
 20
0.6281224736
 30
0.0
 10
4.2028379006
 20
0.6279413654
 30
0.0
 10
4.2028845269
 20
0.6278774515
 30
0.0
  0
SPLINE
  5
44D
100
AcDbEntity
  8
0
100
AcDbSpline
 62
7
  6
CONTINUOUS
 70
0
 71
3
 72
9
 73
5
 74
0
 42
0.0000001
 43
0.0000001
 44
0.0000000001
 40
0.0
 40
0.0
 40
0.0
 40
0.0
 40
0.5257715426
 40
1.0
 40
1.0
 40
1.0
 40
1.0
 10
4.1952892684
 20
0.8664054442
 30
0.0
 10
4.1959014074
 20
0.838487191
 30
0.0
 10
4.1970431685
 20
0.7853871885
 30
0.0
 10
4.1982785731
 20
0.7322889318
 30
0.0
 10
4.1989662385
 20
0.707110932
 30
0.0
  0
SPLINE
  5
44E
100
AcDbEntity
  8
0
100
AcDbSpline
 62
7
  6
CONTINUOUS
 70
0
 71
3
 72
9
 73
5
 74
0
 42
0.0000001
 43
0.0000001
 44
0.0000000001
 40
0.0
 40
0.0
 40
0.0
 40
0.0
 40
0.5620582625
 40
1.0
 40
1.0
 40
1.0
 40
1.0
 10
4.2136146673
 20
0.9628913294
 30
0.0
 10
4.2133527003
 20
0.9720348512
 30
0.0
 10
4.2128512986
 20
0.9883017197
 30
0.0
 10
4.212227661
 20
1.0045648914
 30
0.0
 10
4.2118878322
 20
1.0116841122
 30
0.0
  0
LINE
  5
44F
100
AcDbEntity
  8
0
100
AcDbLine
 62
7
  6
CONTINUOUS
 10
4.2118878322
 20
1.0116841122
 11
4.2110255274
 21
1.0262012289
  0
SPLINE
  5
450
100
AcDbEntity
  8
0
100
AcDbSpline
 62
7
  6
CONTINUOUS
 70
0
 71
3
 72
11
 73
7
 74
0
 42
0.0000001
 43
0.0000001
 44
0.0000000001
 40
0.0
 40
0.0
 40
0.0
 40
0.0
 40
0.3477492589
 40
0.630689789
 40
0.8482235918
 40
1.0
 40
1.0
 40
1.0
 40
1.0
 10
4.2110255274
 20
1.0262012289
 30
0.0
 10
4.2109597377
 20
1.0270313245
 30
0.0
 10
4.2108314445
 20
1.0285360712
 30
0.0
 10
4.2106217915
 20
1.0305567387
 30
0.0
 10
4.2104139426
 20
1.0321044556
 30
0.0
 10
4.2102544759
 20
1.0329758513
 30
0.0
 10
4.2101628002
 20
1.0333275331
 30
0.0
  0
LINE
  5
451
100
AcDbEntity
  8
0
100
AcDbLine
 62
7
  6
CONTINUOUS
 10
4.2101628002
 20
1.0333275331
 11
4.2097927917
 21
1.0340351665
  0
LINE
  5
452
100
AcDbEntity
  8
0
100
AcDbLine
 62
7
  6
CONTINUOUS
 10
4.2142577197
 20
0.9390724436
 11
4.2140449334
 21
0.9472361571
  0
LINE
  5
453
100
AcDbEntity
  8
0
100
AcDbLine
 62
7
  6
CONTINUOUS
 10
4.2211684852
 20
0.9472361571
 11
4.2213856619
 21
0.9390704162
  0
LINE
  5
454
100
AcDbEntity
  8
0
100
AcDbLine
 62
7
  6
CONTINUOUS
 10
4.2196426867
 20
0.707110932
 11
4.2192328939
 21
0.7224932489
  0
LINE
  5
455
100
AcDbEntity
  8
0
100
AcDbLine
 62
7
  6
CONTINUOUS
 10
4.2163760338
 20
0.8478147257
 11
4.2159657166
 21
0.8664054442
  0
LINE
  5
456
100
AcDbEntity
  8
0
100
AcDbLine
 62
7
  6
CONTINUOUS
 10
3.781923767
 20
1.0969057917
 11
3.7815404412
 21
1.0970578585
  0
SPLINE
  5
457
100
AcDbEntity
  8
0
100
AcDbSpline
 62
9
  6
CONTINUOUS
 70
0
 71
3
 72
11
 73
7
 74
0
 42
0.0000001
 43
0.0000001
 44
0.0000000001
 40
0.0
 40
0.0
 40
0.0
 40
0.0
 40
0.0664846751
 40
0.262486492
 40
0.5790522151
 40
1.0
 40
1.0
 40
1.0
 40
1.0
 10
3.3440128051
 20
0.3417105589
 30
0.0
 10
3.3439933363
 20
0.3428839059
 30
0.0
 10
3.3438885516
 20
0.3475158484
 30
0.0
 10
3.3436603537
 20
0.3577340973
 30
0.0
 10
3.3430767911
 20
0.3742016495
 30
0.0
 10
3.3424723616
 20
0.3872054529
 30
0.0
 10
3.3421101968
 20
0.394626691
 30
0.0
  0
SPLINE
  5
458
100
AcDbEntity
  8
0
100
AcDbSpline
 62
7
  6
CONTINUOUS
 70
0
 71
3
 72
14
 73
10
 74
0
 42
0.0000001
 43
0.0000001
 44
0.0000000001
 40
0.0
 40
0.0
 40
0.0
 40
0.0
 40
0.0419843208
 40
0.1074451033
 40
0.1967698206
 40
0.3099955727
 40
0.4470531809
 40
0.6078306499
 40
1.0
 40
1.0
 40
1.0
 40
1.0
 10
4.2235196462
 20
0.6279429709
 30
0.0
 10
4.223447757
 20
0.6280724339
 30
0.0
 10
4.2233305033
 20
0.6284370875
 30
0.0
 10
4.2231793176
 20
0.6291130264
 30
0.0
 10
4.2230269732
 20
0.6300471232
 30
0.0
 10
4.222871897
 20
0.631234668
 30
0.0
 10
4.22271617
 20
0.6326763454
 30
0.0
 10
4.2224925335
 20
0.6350997826
 30
0.0
 10
4.2223485972
 20
0.6370449577
 30
0.0
 10
4.2222545688
 20
0.6384249846
 30
0.0
  0
LINE
  5
459
100
AcDbEntity
  8
0
100
AcDbLine
 62
7
  6
CONTINUOUS
 10
4.2222545688
 20
0.6384249846
 11
4.2218200246
 21
0.6457288462
  0
SPLINE
  5
45A
100
AcDbEntity
  8
0
100
AcDbSpline
 62
7
  6
CONTINUOUS
 70
0
 71
3
 72
9
 73
5
 74
0
 42
0.0000001
 43
0.0000001
 44
0.0000000001
 40
0.0
 40
0.0
 40
0.0
 40
0.0
 40
0.4307683189
 40
1.0
 40
1.0
 40
1.0
 40
1.0
 10
4.2218200246
 20
0.6457288462
 30
0.0
 10
4.2214695168
 20
0.652353688
 30
0.0
 10
4.2208372385
 20
0.6677420791
 30
0.0
 10
4.2203350425
 20
0.6831344893
 30
0.0
 10
4.2200736233
 20
0.6918971227
 30
0.0
  0
LINE
  5
45B
100
AcDbEntity
  8
0
100
AcDbLine
 62
7
  6
CONTINUOUS
 10
4.2197163673
 20
0.7043985479
 11
4.2196426867
 21
0.707110932
  0
SPLINE
  5
45C
100
AcDbEntity
  8
0
100
AcDbSpline
 62
7
  6
CONTINUOUS
 70
0
 71
3
 72
13
 73
9
 74
0
 42
0.0000001
 43
0.0000001
 44
0.0000000001
 40
0.0
 40
0.0
 40
0.0
 40
0.0
 40
0.0444562231
 40
0.1116670146
 40
0.2020269304
 40
0.3155856866
 40
0.611996894
 40
1.0
 40
1.0
 40
1.0
 40
1.0
 10
4.214730625
 20
0.6431798571
 30
0.0
 10
4.2146630908
 20
0.6433020849
 30
0.0
 10
4.2145490182
 20
0.6436371846
 30
0.0
 10
4.2144024176
 20
0.6442537351
 30
0.0
 10
4.214254276
 20
0.6450932846
 30
0.0
 10
4.2140339841
 20
0.6466492695
 30
0.0
 10
4.2137727198
 20
0.6491429997
 30
0.0
 10
4.2135969408
 20
0.6512856236
 30
0.0
 10
4.213505606
 20
0.6525009774
 30
0.0
  0
SPLINE
  5
45D
100
AcDbEntity
  8
0
100
AcDbSpline
 62
7
  6
CONTINUOUS
 70
0
 71
3
 72
11
 73
7
 74
0
 42
0.0000001
 43
0.0000001
 44
0.0000000001
 40
0.0
 40
0.0
 40
0.0
 40
0.0
 40
0.1679166108
 40
0.3940571199
 40
0.6739452499
 40
1.0
 40
1.0
 40
1.0
 40
1.0
 10
4.213505606
 20
0.6525009774
 30
0.0
 10
4.2132373758
 20
0.6560702044
 30
0.0
 10
4.2127552832
 20
0.6644569348
 30
0.0
 10
4.2121183534
 20
0.6788085114
 30
0.0
 10
4.2114769523
 20
0.696533725
 30
0.0
 10
4.211073158
 20
0.7094436308
 30
0.0
 10
4.2108669626
 20
0.7163907181
 30
0.0
  0
LINE
  5
45E
100
AcDbEntity
  8
0
100
AcDbLine
 62
7
  6
CONTINUOUS
 10
3.6380247828
 20
0.9747062882
 11
3.6379719884
 21
0.9762979442
  0
LINE
  5
45F
100
AcDbEntity
  8
0
100
AcDbLine
 62
7
  6
CONTINUOUS
 10
3.6379719884
 20
0.9762979442
 11
3.6379093869
 21
0.978151924
  0
SPLINE
  5
460
100
AcDbEntity
  8
0
100
AcDbSpline
 62
7
  6
CONTINUOUS
 70
0
 71
3
 72
13
 73
9
 74
0
 42
0.0000001
 43
0.0000001
 44
0.0000000001
 40
0.0
 40
0.0
 40
0.0
 40
0.0
 40
0.3713897611
 40
0.6634536055
 40
0.778914808
 40
0.8736431111
 40
0.9473989559
 40
1.0
 40
1.0
 40
1.0
 40
1.0
 10
3.637224188
 20
0.9959742605
 30
0.0
 10
3.6371032989
 20
0.9987034254
 30
0.0
 10
3.636869993
 20
1.0035780485
 30
0.0
 10
3.6365285441
 20
1.009297735
 30
0.0
 10
3.6362432622
 20
1.0129811792
 30
0.0
 10
3.6360483125
 20
1.0150609617
 30
0.0
 10
3.6358551395
 20
1.0166755974
 30
0.0
 10
3.635707378
 20
1.0175942698
 30
0.0
 10
3.6356239117
 20
1.0179720787
 30
0.0
  0
LINE
  5
461
100
AcDbEntity
  8
0
100
AcDbLine
 62
7
  6
CONTINUOUS
 10
3.6356239117
 20
1.0179720787
 11
3.6353904285
 21
1.0187036252
  0
SPLINE
  5
462
100
AcDbEntity
  8
0
100
AcDbSpline
 62
7
  6
CONTINUOUS
 70
0
 71
3
 72
20
 73
16
 74
0
 42
0.0000001
 43
0.0000001
 44
0.0000000001
 40
0.0
 40
0.0
 40
0.0
 40
0.0
 40
0.2269373887
 40
0.4271668254
 40
0.599171836
 40
0.7414435353
 40
0.8010251619
 40
0.8528185872
 40
0.8967885482
 40
0.9329055257
 40
0.9611522316
 40
0.9815427132
 40
0.9888257535
 40
0.9942199759
 40
1.0
 40
1.0
 40
1.0
 40
1.0
 10
3.6452419626
 20
0.6788856566
 30
0.0
 10
3.6453402618
 20
0.6761584396
 30
0.0
 10
3.6455346159
 20
0.6710252948
 30
0.0
 10
3.645843357
 20
0.6638266546
 30
0.0
 10
3.6461511336
 20
0.6576471714
 30
0.0
 10
3.6464187005
 20
0.6531592603
 30
0.0
 10
3.6466387824
 20
0.6501169507
 30
0.0
 10
3.646793356
 20
0.648255339
 30
0.0
 10
3.6469475568
 20
0.6466765899
 30
0.0
 10
3.6470996199
 20
0.6453834456
 30
0.0
 10
3.6472523599
 20
0.6443733244
 30
0.0
 10
3.6473822904
 20
0.6437178301
 30
0.0
 10
3.6475001644
 20
0.6433300447
 30
0.0
 10
3.6475776832
 20
0.6431372785
 30
0.0
 10
3.6476746452
 20
0.6429937253
 30
0.0
 10
3.6477440706
 20
0.6429970818
 30
0.0
  0
LINE
  5
463
100
AcDbEntity
  8
0
100
AcDbLine
 62
7
  6
CONTINUOUS
 10
3.6562050456
 20
0.6989986077
 11
3.6558931858
 21
0.711524515
  0
LINE
  5
464
100
AcDbEntity
  8
0
100
AcDbLine
 62
7
  6
CONTINUOUS
 10
3.6537082868
 20
0.8149776539
 11
3.6533926867
 21
0.8309122671
  0
LINE
  5
465
100
AcDbEntity
  8
0
100
AcDbLine
 62
7
  6
CONTINUOUS
 10
3.6812050456
 20
0.6989986077
 11
3.6808920109
 21
0.7115244997
  0
LINE
  5
466
100
AcDbEntity
  8
0
100
AcDbLine
 62
7
  6
CONTINUOUS
 10
3.6577162385
 20
0.8309122671
 11
3.6580273808
 21
0.8149704821
  0
LINE
  5
467
100
AcDbEntity
  8
0
100
AcDbLine
 62
7
  6
CONTINUOUS
 10
3.6602169137
 20
0.7115116437
 11
3.6605288888
 21
0.6989872964
  0
SPLINE
  5
468
100
AcDbEntity
  8
0
100
AcDbSpline
 62
7
  6
CONTINUOUS
 70
0
 71
3
 72
20
 73
16
 74
0
 42
0.0000001
 43
0.0000001
 44
0.0000000001
 40
0.0
 40
0.0
 40
0.0
 40
0.0
 40
0.2274177317
 40
0.4274891509
 40
0.5988958628
 40
0.7406071387
 40
0.8001153563
 40
0.8519522984
 40
0.8960419655
 40
0.9323142212
 40
0.9607114757
 40
0.9812288491
 40
0.9885786891
 40
0.9940496488
 40
1.0
 40
1.0
 40
1.0
 40
1.0
 10
3.6658306351
 20
0.983936446
 30
0.0
 10
3.6657336394
 20
0.986593883
 30
0.0
 10
3.6655421742
 20
0.991588884
 30
0.0
 10
3.6652382502
 20
0.9985852474
 30
0.0
 10
3.6649353976
 20
1.0045784087
 30
0.0
 10
3.6646718307
 20
1.0089276911
 30
0.0
 10
3.6644555092
 20
1.0118788531
 30
0.0
 10
3.6643033788
 20
1.0136899386
 30
0.0
 10
3.664151634
 20
1.0152286164
 30
0.0
 10
3.6640018364
 20
1.0164908665
 30
0.0
 10
3.6638517334
 20
1.0174778238
 30
0.0
 10
3.6637231416
 20
1.0181191791
 30
0.0
 10
3.663607732
 20
1.0184988443
 30
0.0
 10
3.6635297456
 20
1.0186900817
 30
0.0
 10
3.6634369797
 20
1.0188316811
 30
0.0
 10
3.6633674025
 20
1.0188319608
 30
0.0
  0
LINE
  5
469
100
AcDbEntity
  8
0
100
AcDbLine
 62
7
  6
CONTINUOUS
 10
3.6761197694
 20
0.9407380945
 11
3.6757408642
 21
0.9564806103
  0
SPLINE
  5
46A
100
AcDbEntity
  8
0
100
AcDbSpline
 62
7
  6
CONTINUOUS
 70
0
 71
3
 72
11
 73
7
 74
0
 42
0.0000001
 43
0.0000001
 44
0.0000000001
 40
0.0
 40
0.0
 40
0.0
 40
0.0
 40
0.3349037916
 40
0.6157607302
 40
0.8384631647
 40
1.0
 40
1.0
 40
1.0
 40
1.0
 10
3.674983416
 20
0.9844299085
 30
0.0
 10
3.6748368248
 20
0.9893312301
 30
0.0
 10
3.6745504049
 20
0.9983423827
 30
0.0
 10
3.674089935
 20
1.0106103618
 30
0.0
 10
3.6736332461
 20
1.0203376316
 30
0.0
 10
3.673285236
 20
1.0259535528
 30
0.0
 10
3.673089492
 20
1.0283105898
 30
0.0
  0
SPLINE
  5
46B
100
AcDbEntity
  8
0
100
AcDbSpline
 62
7
  6
CONTINUOUS
 70
0
 71
3
 72
11
 73
7
 74
0
 42
0.0000001
 43
0.0000001
 44
0.0000000001
 40
0.0
 40
0.0
 40
0.0
 40
0.0
 40
0.371740109
 40
0.6624707871
 40
0.8716127303
 40
1.0
 40
1.0
 40
1.0
 40
1.0
 10
3.673089492
 20
1.0283105898
 30
0.0
 10
3.6730325215
 20
1.0289965948
 30
0.0
 10
3.6729220374
 20
1.0302180213
 30
0.0
 10
3.6727414601
 20
1.0318233989
 30
0.0
 10
3.6725598422
 20
1.0329703195
 30
0.0
 10
3.6724227251
 20
1.0335851052
 30
0.0
 10
3.6723319225
 20
1.0338048213
 30
0.0
  0
LINE
  5
46C
100
AcDbEntity
  8
0
100
AcDbLine
 62
7
  6
CONTINUOUS
 10
3.6533926867
 20
0.8309122671
 11
3.6530100163
 21
0.8502247742
  0
LINE
  5
46D
100
AcDbEntity
  8
0
100
AcDbLine
 62
7
  6
CONTINUOUS
 10
3.6511197694
 20
0.9407380945
 11
3.650740719
 21
0.9564806069
  0
LINE
  5
46E
100
AcDbEntity
  8
0
100
AcDbLine
 62
7
  6
CONTINUOUS
 10
3.649983416
 20
0.9844299085
 11
3.6488470619
 21
1.0156848764
  0
LINE
  5
46F
100
AcDbEntity
  8
0
100
AcDbLine
 62
7
  6
CONTINUOUS
 10
3.6488470619
 20
1.0156848764
 11
3.6480894873
 21
1.0283105896
  0
SPLINE
  5
470
100
AcDbEntity
  8
0
100
AcDbSpline
 62
7
  6
CONTINUOUS
 70
0
 71
3
 72
11
 73
7
 74
0
 42
0.0000001
 43
0.0000001
 44
0.0000000001
 40
0.0
 40
0.0
 40
0.0
 40
0.0
 40
0.3717400302
 40
0.6624706575
 40
0.8716126178
 40
1.0
 40
1.0
 40
1.0
 40
1.0
 10
3.6480894873
 20
1.0283105896
 30
0.0
 10
3.6480325178
 20
1.0289965946
 30
0.0
 10
3.6479220356
 20
1.0302180212
 30
0.0
 10
3.6477414605
 20
1.0318233991
 30
0.0
 10
3.647559842
 20
1.0329703199
 30
0.0
 10
3.6474227231
 20
1.0335851056
 30
0.0
 10
3.6473319193
 20
1.0338048215
 30
0.0
  0
SPLINE
  5
471
100
AcDbEntity
  8
0
100
AcDbSpline
 62
7
  6
CONTINUOUS
 70
0
 71
3
 72
11
 73
7
 74
0
 42
0.0000001
 43
0.0000001
 44
0.0000000001
 40
0.0
 40
0.0
 40
0.0
 40
0.0
 40
0.3717444731
 40
0.6624765431
 40
0.8716169608
 40
1.0
 40
1.0
 40
1.0
 40
1.0
 10
3.6505194592
 20
1.028310868
 30
0.0
 10
3.6505764289
 20
1.0289968534
 30
0.0
 10
3.6506869116
 20
1.0302182411
 30
0.0
 10
3.6508674861
 20
1.031823562
 30
0.0
 10
3.6510491033
 20
1.0329704264
 30
0.0
 10
3.6511862188
 20
1.033585177
 30
0.0
 10
3.6512770238
 20
1.0338048734
 30
0.0
  0
SPLINE
  5
472
100
AcDbEntity
  8
0
100
AcDbSpline
 62
7
  6
CONTINUOUS
 70
0
 71
3
 72
11
 73
7
 74
0
 42
0.0000001
 43
0.0000001
 44
0.0000000001
 40
0.0
 40
0.0
 40
0.0
 40
0.0
 40
0.3717400309
 40
0.6624706589
 40
0.871612619
 40
1.0
 40
1.0
 40
1.0
 40
1.0
 10
3.6355894874
 20
0.6335139446
 30
0.0
 10
3.6355325179
 20
0.6328279396
 30
0.0
 10
3.6354220356
 20
0.631606513
 30
0.0
 10
3.6352414605
 20
0.6300011351
 30
0.0
 10
3.6350598419
 20
0.6288542143
 30
0.0
 10
3.6349227231
 20
0.6282394286
 30
0.0
 10
3.6348319193
 20
0.6280197127
 30
0.0
  0
LINE
  5
473
100
AcDbEntity
  8
0
100
AcDbLine
 62
7
  6
CONTINUOUS
 10
3.6364662385
 20
0.6665806901
 11
3.6371938404
 21
0.6475759285
  0
LINE
  5
474
100
AcDbEntity
  8
0
100
AcDbLine
 62
7
  6
CONTINUOUS
 10
3.6371938404
 20
0.6475759285
 11
3.6379255225
 21
0.6347049712
  0
LINE
  5
475
100
AcDbEntity
  8
0
100
AcDbLine
 62
7
  6
CONTINUOUS
 10
3.6379255225
 20
0.6347049712
 11
3.6386539469
 21
0.6284125992
  0
LINE
  5
476
100
AcDbEntity
  8
0
100
AcDbLine
 62
7
  6
CONTINUOUS
 10
3.6386539469
 20
0.6284125992
 11
3.638966059
 21
0.6277904741
  0
LINE
  5
477
100
AcDbEntity
  8
0
100
AcDbLine
 62
7
  6
CONTINUOUS
 10
3.6352157422
 20
0.711511634
 11
3.6355288887
 21
0.6989873003
  0
SPLINE
  5
478
100
AcDbEntity
  8
0
100
AcDbSpline
 62
9
  6
CONTINUOUS
 70
0
 71
3
 72
18
 73
14
 74
0
 42
0.0000001
 43
0.0000001
 44
0.0000000001
 40
0.0
 40
0.0
 40
0.0
 40
0.0
 40
0.0042078685
 40
0.016766623
 40
0.0375800827
 40
0.0665521668
 40
0.1035868977
 40
0.1485884027
 40
0.2621087243
 40
0.4061013566
 40
0.5785700249
 40
0.7772786299
 40
1.0
 40
1.0
 40
1.0
 40
1.0
 10
3.3250125259
 20
1.3035870795
 30
0.0
 10
3.3250086701
 20
1.3035226903
 30
0.0
 10
3.3250116513
 20
1.3032654352
 30
0.0
 10
3.3249947533
 20
1.3026896922
 30
0.0
 10
3.3249800285
 20
1.301734021
 30
0.0
 10
3.3249498641
 20
1.3004034752
 30
0.0
 10
3.324910688
 20
1.2987022124
 30
0.0
 10
3.3248340765
 20
1.2957054063
 30
0.0
 10
3.3247009337
 20
1.2910699029
 30
0.0
 10
3.3244829706
 20
1.284482071
 30
0.0
 10
3.3241730765
 20
1.2765907852
 30
0.0
 10
3.323748711
 20
1.2674964154
 30
0.0
 10
3.3233932506
 20
1.2610457818
 30
0.0
 10
3.3231901521
 20
1.2576376178
 30
0.0
  0
SPLINE
  5
479
100
AcDbEntity
  8
0
100
AcDbSpline
 62
7
  6
CONTINUOUS
 70
0
 71
3
 72
12
 73
8
 74
0
 42
0.0000001
 43
0.0000001
 44
0.0000000001
 40
0.0
 40
0.0
 40
0.0
 40
0.0
 40
0.0475054823
 40
0.1166799674
 40
0.3218091158
 40
0.6164070663
 40
1.0
 40
1.0
 40
1.0
 40
1.0
 10
4.1614816849
 20
1.0338957443
 30
0.0
 10
4.1615316874
 20
1.0338100243
 30
0.0
 10
4.1616198289
 20
1.0335806264
 30
0.0
 10
4.1617938571
 20
1.0329316811
 30
0.0
 10
4.1619905665
 20
1.0317571063
 30
0.0
 10
4.162217909
 20
1.0299265848
 30
0.0
 10
4.1623523966
 20
1.0285158171
 30
0.0
 10
4.1624227036
 20
1.0277175898
 30
0.0
  0
LINE
  5
47A
100
AcDbEntity
  8
0
100
AcDbLine
 62
7
  6
CONTINUOUS
 10
4.1624227036
 20
1.0277175898
 11
4.1632021738
 21
1.015863573
  0
LINE
  5
47B
100
AcDbEntity
  8
0
100
AcDbLine
 62
7
  6
CONTINUOUS
 10
4.1664175177
 20
0.9133444454
 11
4.1667100772
 21
0.9009031216
  0
LINE
  5
47C
100
AcDbEntity
  8
0
100
AcDbLine
 62
7
  6
CONTINUOUS
 10
4.1667100772
 20
0.9009031216
 11
4.1670998592
 21
0.8838589402
  0
LINE
  5
47D
100
AcDbEntity
  8
0
100
AcDbLine
 62
7
  6
CONTINUOUS
 10
4.1670998592
 20
0.8838589402
 11
4.1674892684
 21
0.8664054442
  0
SPLINE
  5
47E
100
AcDbEntity
  8
0
100
AcDbSpline
 62
7
  6
CONTINUOUS
 70
0
 71
3
 72
13
 73
9
 74
0
 42
0.0000001
 43
0.0000001
 44
0.0000000001
 40
0.0
 40
0.0
 40
0.0
 40
0.0
 40
0.044644816
 40
0.1118503436
 40
0.2021753201
 40
0.3156951831
 40
0.6120407065
 40
1.0
 40
1.0
 40
1.0
 40
1.0
 10
4.1892825213
 20
1.0338933462
 30
0.0
 10
4.1893409006
 20
1.0337931705
 30
0.0
 10
4.1894406231
 20
1.03351733
 30
0.0
 10
4.1895682671
 20
1.0330087347
 30
0.0
 10
4.189697322
 20
1.0323159735
 30
0.0
 10
4.1898890995
 20
1.0310312676
 30
0.0
 10
4.1901166185
 20
1.0289710606
 30
0.0
 10
4.1902697284
 20
1.0272005141
 30
0.0
 10
4.1903493132
 20
1.0261961084
 30
0.0
  0
LINE
  5
47F
100
AcDbEntity
  8
0
100
AcDbLine
 62
7
  6
CONTINUOUS
 10
4.1903493132
 20
1.0261961084
 11
4.1912122473
 21
1.0116751199
  0
SPLINE
  5
480
100
AcDbEntity
  8
0
100
AcDbSpline
 62
7
  6
CONTINUOUS
 70
0
 71
3
 72
10
 73
6
 74
0
 42
0.0000001
 43
0.0000001
 44
0.0000000001
 40
0.0
 40
0.0
 40
0.0
 40
0.0
 40
0.1955865974
 40
0.4300818213
 40
1.0
 40
1.0
 40
1.0
 40
1.0
 10
4.1912122473
 20
1.0116751199
 30
0.0
 10
4.1914128295
 20
1.0074763662
 30
0.0
 10
4.191799122
 20
0.9982409846
 30
0.0
 10
4.1925531736
 20
0.9767621763
 30
0.0
 10
4.1930413205
 20
0.9594804534
 30
0.0
 10
4.1933684852
 20
0.9472361571
 30
0.0
  0
SPLINE
  5
481
100
AcDbEntity
  8
0
100
AcDbSpline
 62
7
  6
CONTINUOUS
 70
0
 71
3
 72
13
 73
9
 74
0
 42
0.0000001
 43
0.0000001
 44
0.0000000001
 40
0.0
 40
0.0
 40
0.0
 40
0.0
 40
0.4053577137
 40
0.7058733482
 40
0.8170221661
 40
0.9023977485
 40
0.962673146
 40
1.0
 40
1.0
 40
1.0
 40
1.0
 10
4.1881928049
 20
1.0296279897
 30
0.0
 10
4.1882564521
 20
1.0302335162
 30
0.0
 10
4.188378128
 20
1.0312865915
 30
0.0
 10
4.188562018
 20
1.0325012675
 30
0.0
 10
4.1887180477
 20
1.0332308717
 30
0.0
 10
4.1888224473
 20
1.0336040423
 30
0.0
 10
4.1889229418
 20
1.0338573297
 30
0.0
 10
4.1890082115
 20
1.033985246
 30
0.0
 10
4.1890554517
 20
1.0340154419
 30
0.0
  0
LINE
  5
482
100
AcDbEntity
  8
0
100
AcDbLine
 62
7
  6
CONTINUOUS
 10
4.2170807473
 20
1.0338967508
 11
4.2176855814
 21
1.0309681458
  0
LINE
  5
483
100
AcDbEntity
  8
0
100
AcDbLine
 62
7
  6
CONTINUOUS
 10
4.2176855814
 20
1.0309681458
 11
4.2181207293
 21
1.0265471763
  0
LINE
  5
484
100
AcDbEntity
  8
0
100
AcDbLine
 62
7
  6
CONTINUOUS
 10
4.2181207293
 20
1.0265471763
 11
4.2189933127
 21
1.0120940134
  0
LINE
  5
485
100
AcDbEntity
  8
0
100
AcDbLine
 62
7
  6
CONTINUOUS
 10
4.2208898743
 20
0.9572545966
 11
4.2211684852
 21
0.9472361571
  0
SPLINE
  5
486
100
AcDbEntity
  8
0
100
AcDbSpline
 62
7
  6
CONTINUOUS
 70
0
 71
3
 72
13
 73
9
 74
0
 42
0.0000001
 43
0.0000001
 44
0.0000000001
 40
0.0
 40
0.0
 40
0.0
 40
0.0
 40
0.0456478849
 40
0.1134557084
 40
0.2039753828
 40
0.3173777863
 40
0.6129368751
 40
1.0
 40
1.0
 40
1.0
 40
1.0
 10
4.2031783737
 20
0.6279249995
 30
0.0
 10
4.2032331217
 20
0.6280175237
 30
0.0
 10
4.203327762
 20
0.6282700938
 30
0.0
 10
4.2034490494
 20
0.6287343689
 30
0.0
 10
4.2035717445
 20
0.6293631358
 30
0.0
 10
4.2037537077
 20
0.6305252961
 30
0.0
 10
4.2039698492
 20
0.6323882689
 30
0.0
 10
4.2041150773
 20
0.6339893745
 30
0.0
 10
4.2041905329
 20
0.6348978455
 30
0.0
  0
LINE
  5
487
100
AcDbEntity
  8
0
100
AcDbLine
 62
7
  6
CONTINUOUS
 10
4.2159445905
 20
1.0291575061
 11
4.216380026
 21
1.0325432789
  0
LINE
  5
488
100
AcDbEntity
  8
0
100
AcDbLine
 62
7
  6
CONTINUOUS
 10
4.216380026
 20
1.0325432789
 11
4.2168153933
 21
1.0339815658
  0
LINE
  5
489
100
AcDbEntity
  8
0
100
AcDbLine
 62
7
  6
CONTINUOUS
 10
3.734263564
 20
1.3173747457
 11
3.7288825035
 21
1.312240308
  0
SPLINE
  5
48A
100
AcDbEntity
  8
0
100
AcDbSpline
 62
9
  6
CONTINUOUS
 70
0
 71
3
 72
17
 73
13
 74
0
 42
0.0000001
 43
0.0000001
 44
0.0000000001
 40
0.0
 40
0.0
 40
0.0
 40
0.0
 40
0.2220833138
 40
0.4209482742
 40
0.5935663025
 40
0.7375148099
 40
0.8512932673
 40
0.9335159383
 40
0.9624930384
 40
0.9832814923
 40
0.9958081879
 40
1.0
 40
1.0
 40
1.0
 40
1.0
 10
3.3421102562
 20
1.267199093
 30
0.0
 10
3.3423013208
 20
1.2711143029
 30
0.0
 10
3.3426523321
 20
1.2785354714
 30
0.0
 10
3.3431061122
 20
1.2890042588
 30
0.0
 10
3.3434492036
 20
1.2980899055
 30
0.0
 10
3.3436823103
 20
1.3056979007
 30
0.0
 10
3.3438322397
 20
1.311655072
 30
0.0
 10
3.3439208976
 20
1.3157117785
 30
0.0
 10
3.3439695746
 20
1.3179233137
 30
0.0
 10
3.3439935544
 20
1.3192174207
 30
0.0
 10
3.3440041916
 20
1.319533479
 30
0.0
 10
3.3440124861
 20
1.3201879619
 30
0.0
 10
3.3440128051
 20
1.3201139752
 30
0.0
  0
SPLINE
  5
48B
100
AcDbEntity
  8
0
100
AcDbSpline
 62
9
  6
CONTINUOUS
 70
0
 71
3
 72
18
 73
14
 74
0
 42
0.0000001
 43
0.0000001
 44
0.0000000001
 40
0.0
 40
0.0
 40
0.0
 40
0.0
 40
0.2227129689
 40
0.4214201057
 40
0.5938913234
 40
0.7378876077
 40
0.8514103316
 40
0.8964125098
 40
0.9334476453
 40
0.9624199283
 40
0.9832334438
 40
0.9957921738
 40
1.0
 40
1.0
 40
1.0
 40
1.0
 10
3.3231901538
 20
0.404186908
 30
0.0
 10
3.3233932452
 20
0.4007788732
 30
0.0
 10
3.3237487016
 20
0.3943283919
 30
0.0
 10
3.3241730404
 20
0.3852341355
 30
0.0
 10
3.3244830026
 20
0.3773427797
 30
0.0
 10
3.3247007983
 20
0.3707548151
 30
0.0
 10
3.3248343595
 20
0.3661192148
 30
0.0
 10
3.3249103363
 20
0.3631223478
 30
0.0
 10
3.3249508633
 20
0.3614210831
 30
0.0
 10
3.3249775142
 20
0.3600904823
 30
0.0
 10
3.3250002465
 20
0.3591349105
 30
0.0
 10
3.3250030063
 20
0.3585589863
 30
0.0
 10
3.3250147281
 20
0.358301921
 30
0.0
 10
3.3250125259
 20
0.3582374547
 30
0.0
  0
SPLINE
  5
48C
100
AcDbEntity
  8
0
100
AcDbSpline
 62
9
  6
CONTINUOUS
 70
0
 71
3
 72
13
 73
9
 74
0
 42
0.0000001
 43
0.0000001
 44
0.0000000001
 40
0.0
 40
0.0
 40
0.0
 40
0.0
 40
0.1104742077
 40
0.2260990467
 40
0.3463729727
 40
0.4707805513
 40
0.7300564919
 40
1.0
 40
1.0
 40
1.0
 40
1.0
 10
3.3421102079
 20
0.3946266908
 30
0.0
 10
3.3414303067
 20
0.4060677663
 30
0.0
 10
3.3403508643
 20
0.4295023143
 30
0.0
 10
3.3394109119
 20
0.4654263689
 30
0.0
 10
3.3389866717
 20
0.5028053243
 30
0.0
 10
3.3389421082
 20
0.5550895452
 30
0.0
 10
3.3396055738
 20
0.6228984819
 30
0.0
 10
3.3402600211
 20
0.677798782
 30
0.0
 10
3.3405376554
 20
0.7058029713
 30
0.0
  0
LINE
  5
48D
100
AcDbEntity
  8
0
100
AcDbLine
 62
9
  6
CONTINUOUS
 10
3.3405376554
 20
0.7058029713
 11
3.3406614244
 21
0.7186998584
  0
LINE
  5
48E
100
AcDbEntity
  8
0
100
AcDbLine
 62
9
  6
CONTINUOUS
 10
3.34114705
 20
0.7932135014
 11
3.3411793827
 21
0.8046529189
  0
LINE
  5
48F
100
AcDbEntity
  8
0
100
AcDbLine
 62
9
  6
CONTINUOUS
 10
3.3411793827
 20
0.8046529189
 11
3.341187458
 21
0.8084022904
  0
LINE
  5
490
100
AcDbEntity
  8
0
100
AcDbLine
 62
9
  6
CONTINUOUS
 10
3.341187458
 20
0.8084022904
 11
3.3411947196
 21
0.812412755
  0
LINE
  5
491
100
AcDbEntity
  8
0
100
AcDbLine
 62
9
  6
CONTINUOUS
 10
3.3411947196
 20
0.812412755
 11
3.3412039503
 21
0.8193750716
  0
LINE
  5
492
100
AcDbEntity
  8
0
100
AcDbLine
 62
9
  6
CONTINUOUS
 10
3.3412039503
 20
0.8193750716
 11
3.3412081915
 21
0.8248297481
  0
LINE
  5
493
100
AcDbEntity
  8
0
100
AcDbLine
 62
9
  6
CONTINUOUS
 10
3.3412081915
 20
0.8248297481
 11
3.3412081911
 21
0.8369947723
  0
LINE
  5
494
100
AcDbEntity
  8
0
100
AcDbLine
 62
9
  6
CONTINUOUS
 10
3.3412081911
 20
0.8369947723
 11
3.3412039495
 21
0.8424494521
  0
LINE
  5
495
100
AcDbEntity
  8
0
100
AcDbLine
 62
9
  6
CONTINUOUS
 10
3.3412039495
 20
0.8424494521
 11
3.3411947184
 21
0.849411776
  0
LINE
  5
496
100
AcDbEntity
  8
0
100
AcDbLine
 62
9
  6
CONTINUOUS
 10
3.3411874237
 20
0.853438802
 11
3.3411793812
 21
0.8571715853
  0
LINE
  5
497
100
AcDbEntity
  8
0
100
AcDbLine
 62
9
  6
CONTINUOUS
 10
3.3411793812
 20
0.8571715853
 11
3.3411470483
 21
0.8686110104
  0
LINE
  5
498
100
AcDbEntity
  8
0
100
AcDbLine
 62
9
  6
CONTINUOUS
 10
3.3406612735
 20
0.943141133
 11
3.3405376564
 21
0.9560215272
  0
SPLINE
  5
499
100
AcDbEntity
  8
0
100
AcDbSpline
 62
7
  6
CONTINUOUS
 70
0
 71
3
 72
14
 73
10
 74
0
 42
0.0000001
 43
0.0000001
 44
0.0000000001
 40
0.0
 40
0.0
 40
0.0
 40
0.0
 40
0.024846939
 40
0.0753340696
 40
0.1548520068
 40
0.2640990869
 40
0.4033094293
 40
0.5725650251
 40
1.0
 40
1.0
 40
1.0
 40
1.0
 10
3.7814239515
 20
1.0972066026
 30
0.0
 10
3.7814287163
 20
1.0972702784
 30
0.0
 10
3.7816177179
 20
1.0974027609
 30
0.0
 10
3.7819767533
 20
1.0975155988
 30
0.0
 10
3.7825869492
 20
1.0976586003
 30
0.0
 10
3.7834145266
 20
1.0977928944
 30
0.0
 10
3.7844806219
 20
1.0979337987
 30
0.0
 10
3.7863601877
 20
1.0981363407
 30
0.0
 10
3.7878889067
 20
1.0982637179
 30
0.0
 10
3.7889841814
 20
1.0983472953
 30
0.0
  0
SPLINE
  5
49A
100
AcDbEntity
  8
0
100
AcDbSpline
 62
7
  6
CONTINUOUS
 70
0
 71
3
 72
28
 73
24
 74
0
 42
0.0000001
 43
0.0000001
 44
0.0000000001
 40
0.0
 40
0.0
 40
0.0
 40
0.0
 40
0.0366482513
 40
0.0862012959
 40
0.1472003501
 40
0.2179295944
 40
0.2963440168
 40
0.3802069984
 40
0.4671053557
 40
0.554542429
 40
0.6399740323
 40
0.7209023002
 40
0.7951039847
 40
0.8604663214
 40
0.8892121196
 40
0.9150100718
 40
0.9376528689
 40
0.9570269274
 40
0.9730346819
 40
0.9855806187
 40
0.9945834504
 40
0.9977405868
 40
1.0
 40
1.0
 40
1.0
 40
1.0
 10
3.7889841814
 20
1.0983472953
 30
0.0
 10
3.7920056859
 20
1.0985778581
 30
0.0
 10
3.7991222766
 20
1.0989887661
 30
0.0
 10
3.8112815088
 20
1.0995307676
 30
0.0
 10
3.826261076
 20
1.1000784266
 30
0.0
 10
3.8436281479
 20
1.1006296264
 30
0.0
 10
3.8628865683
 20
1.1011826568
 30
0.0
 10
3.8834823836
 20
1.1017375663
 30
0.0
 10
3.9048244842
 20
1.1022932518
 30
0.0
 10
3.9262963477
 20
1.1028482268
 30
0.0
 10
3.9472744193
 20
1.1034026188
 30
0.0
 10
3.9671577107
 20
1.1039573863
 30
0.0
 10
3.9853809115
 20
1.10451047
 30
0.0
 10
3.9992896819
 20
1.104986009
 30
0.0
 10
4.0091966022
 20
1.105374958
 30
0.0
 10
4.0155727675
 20
1.1056535239
 30
0.0
 10
4.021173251
 20
1.1059317344
 30
0.0
 10
4.0259630326
 20
1.1062090898
 30
0.0
 10
4.0299168063
 20
1.1064833611
 30
0.0
 10
4.0330099605
 20
1.1067559794
 30
0.0
 10
4.0350404798
 20
1.1069928307
 30
0.0
 10
4.0362146903
 20
1.1071992589
 30
0.0
 10
4.0366513059
 20
1.107303637
 30
0.0
 10
4.0368287583
 20
1.1073620564
 30
0.0
  0
SPLINE
  5
49B
100
AcDbEntity
  8
0
100
AcDbSpline
 62
7
  6
CONTINUOUS
 70
0
 71
3
 72
14
 73
10
 74
0
 42
0.0000001
 43
0.0000001
 44
0.0000000001
 40
0.0
 40
0.0
 40
0.0
 40
0.0
 40
0.0245865567
 40
0.0753136964
 40
0.1553265787
 40
0.2650790182
 40
0.4045755345
 40
0.5736875902
 40
1.0
 40
1.0
 40
1.0
 40
1.0
 10
4.2117863317
 20
0.6430106418
 30
0.0
 10
4.2117072257
 20
0.6430155959
 30
0.0
 10
4.2115434523
 20
0.6432572031
 30
0.0
 10
4.2114060715
 20
0.643707861
 30
0.0
 10
4.2112295098
 20
0.6444793737
 30
0.0
 10
4.2110643347
 20
0.6455216689
 30
0.0
 10
4.2108906288
 20
0.6468617153
 30
0.0
 10
4.2106409461
 20
0.6492166992
 30
0.0
 10
4.2104835973
 20
0.6511305155
 30
0.0
 10
4.210380606
 20
0.6525009774
 30
0.0
  0
SPLINE
  5
49C
100
AcDbEntity
  8
0
100
AcDbSpline
 62
7
  6
CONTINUOUS
 70
0
 71
3
 72
11
 73
7
 74
0
 42
0.0000001
 43
0.0000001
 44
0.0000000001
 40
0.0
 40
0.0
 40
0.0
 40
0.0
 40
0.1679166108
 40
0.3940571199
 40
0.6739452499
 40
1.0
 40
1.0
 40
1.0
 40
1.0
 10
4.210380606
 20
0.6525009774
 30
0.0
 10
4.2101123758
 20
0.6560702044
 30
0.0
 10
4.2096302832
 20
0.6644569348
 30
0.0
 10
4.2089933534
 20
0.6788085114
 30
0.0
 10
4.2083519523
 20
0.696533725
 30
0.0
 10
4.207948158
 20
0.7094436308
 30
0.0
 10
4.2077419626
 20
0.7163907181
 30
0.0
  0
SPLINE
  5
49D
100
AcDbEntity
  8
0
100
AcDbSpline
 62
7
  6
CONTINUOUS
 70
0
 71
3
 72
15
 73
11
 74
0
 42
0.0000001
 43
0.0000001
 44
0.0000000001
 40
0.0
 40
0.0
 40
0.0
 40
0.0
 40
0.0228842668
 40
0.0730394532
 40
0.1532954455
 40
0.2637393168
 40
0.4040671292
 40
0.5738630426
 40
0.7726674166
 40
1.0
 40
1.0
 40
1.0
 40
1.0
 10
4.0372238544
 20
1.1076227025
 30
0.0
 10
4.0372227312
 20
1.1076971871
 30
0.0
 10
4.0369701444
 20
1.1078495418
 30
0.0
 10
4.0365256956
 20
1.1079695388
 30
0.0
 10
4.0357372694
 20
1.1081325907
 30
0.0
 10
4.0346786526
 20
1.1082823428
 30
0.0
 10
4.0333154704
 20
1.1084413742
 30
0.0
 10
4.0316673911
 20
1.1085988121
 30
0.0
 10
4.0297335978
 20
1.1087578996
 30
0.0
 10
4.0283500895
 20
1.1088574251
 30
0.0
 10
4.0276117943
 20
1.1089078532
 30
0.0
  0
LINE
  5
49E
100
AcDbEntity
  8
0
100
AcDbLine
 62
7
  6
CONTINUOUS
 10
3.7820559168
 20
1.1177008784
 11
3.7815323663
 21
1.1178916077
  0
LINE
  5
49F
100
AcDbEntity
  8
0
100
AcDbLine
 62
7
  6
CONTINUOUS
 10
4.2121216267
 20
0.6435311528
 11
4.211967961
 21
0.6431583742
  0
SPLINE
  5
4A0
100
AcDbEntity
  8
0
100
AcDbSpline
 62
7
  6
CONTINUOUS
 70
0
 71
3
 72
12
 73
8
 74
0
 42
0.0000001
 43
0.0000001
 44
0.0000000001
 40
0.0
 40
0.0
 40
0.0
 40
0.0
 40
0.0331624469
 40
0.0874714219
 40
0.2770136414
 40
0.5807017906
 40
1.0
 40
1.0
 40
1.0
 40
1.0
 10
3.7814170821
 20
1.1180379061
 30
0.0
 10
3.7814190986
 20
1.1180720576
 30
0.0
 10
3.7814802531
 20
1.1181517518
 30
0.0
 10
3.7817328992
 20
1.1182818333
 30
0.0
 10
3.7822841368
 20
1.1184319241
 30
0.0
 10
3.783208066
 20
1.1185992119
 30
0.0
 10
3.7839484973
 20
1.1186979021
 30
0.0
 10
3.7843779034
 20
1.1187500108
 30
0.0
  0
LINE
  5
4A1
100
AcDbEntity
  8
0
100
AcDbLine
 62
7
  6
CONTINUOUS
 10
3.7843779034
 20
1.1187500108
 11
3.7881075682
 21
1.1191125535
  0
LINE
  5
4A2
100
AcDbEntity
  8
0
100
AcDbLine
 62
7
  6
CONTINUOUS
 10
3.7881075682
 20
1.1191125535
 11
3.7997877217
 21
1.1198346931
  0
SPLINE
  5
4A3
100
AcDbEntity
  8
0
100
AcDbSpline
 62
7
  6
CONTINUOUS
 70
0
 71
3
 72
11
 73
7
 74
0
 42
0.0000001
 43
0.0000001
 44
0.0000000001
 40
0.0
 40
0.0
 40
0.0
 40
0.0
 40
0.1883807331
 40
0.4257010473
 40
0.7005268073
 40
1.0
 40
1.0
 40
1.0
 40
1.0
 10
3.7997877217
 20
1.1198346931
 30
0.0
 10
3.8054776688
 20
1.1201202146
 30
0.0
 10
3.8183417147
 20
1.1206436466
 30
0.0
 10
3.8395157434
 20
1.1213462979
 30
0.0
 10
3.8640510235
 20
1.1220538757
 30
0.0
 10
3.8814131094
 20
1.1225161106
 30
0.0
 10
3.89046682
 20
1.1227534568
 30
0.0
  0
SPLINE
  5
4A4
100
AcDbEntity
  8
0
100
AcDbSpline
 62
7
  6
CONTINUOUS
 70
0
 71
3
 72
11
 73
7
 74
0
 42
0.0000001
 43
0.0000001
 44
0.0000000001
 40
0.0
 40
0.0
 40
0.0
 40
0.0
 40
0.3028363624
 40
0.5788829989
 40
0.8153312393
 40
1.0
 40
1.0
 40
1.0
 40
1.0
 10
3.9322072231
 20
1.1238402614
 30
0.0
 10
3.9411401219
 20
1.1240755686
 30
0.0
 10
3.9582154499
 20
1.124534264
 30
0.0
 10
3.9822637309
 20
1.1252396307
 30
0.0
 10
4.002823553
 20
1.1259372146
 30
0.0
 10
4.0152392552
 20
1.1264598939
 30
0.0
 10
4.0206807882
 20
1.126747837
 30
0.0
  0
SPLINE
  5
4A5
100
AcDbEntity
  8
0
100
AcDbSpline
 62
7
  6
CONTINUOUS
 70
0
 71
3
 72
10
 73
6
 74
0
 42
0.0000001
 43
0.0000001
 44
0.0000000001
 40
0.0
 40
0.0
 40
0.0
 40
0.0
 40
0.1130953335
 40
0.3064347641
 40
1.0
 40
1.0
 40
1.0
 40
1.0
 10
4.1700902718
 20
1.0188318828
 30
0.0
 10
4.1700452713
 20
1.0188315464
 30
0.0
 10
4.1699367885
 20
1.0187458196
 30
0.0
 10
4.1697685679
 20
1.0183897353
 30
0.0
 10
4.1696807115
 20
1.0180417838
 30
0.0
 10
4.1696209917
 20
1.0177723464
 30
0.0
  0
SPLINE
  5
4A6
100
AcDbEntity
  8
0
100
AcDbSpline
 62
7
  6
CONTINUOUS
 70
0
 71
3
 72
15
 73
11
 74
0
 42
0.0000001
 43
0.0000001
 44
0.0000000001
 40
0.0
 40
0.0
 40
0.0
 40
0.0
 40
0.0254589882
 40
0.0471496347
 40
0.0758469513
 40
0.1551444306
 40
0.26422706
 40
0.4032781507
 40
0.5723055574
 40
1.0
 40
1.0
 40
1.0
 40
1.0
 10
4.1839938838
 20
0.6429907714
 30
0.0
 10
4.1839291259
 20
0.6429896041
 30
0.0
 10
4.1838315078
 20
0.6430990081
 30
0.0
 10
4.1837500295
 20
0.6432650866
 30
0.0
 10
4.1836329614
 20
0.6435782076
 30
0.0
 10
4.1835018531
 20
0.6441130605
 30
0.0
 10
4.1833491388
 20
0.6449331954
 30
0.0
 10
4.183196651
 20
0.645983271
 30
0.0
 10
4.182972994
 20
0.6478419715
 30
0.0
 10
4.1828335963
 20
0.6493538444
 30
0.0
 10
4.1827420315
 20
0.6504380526
 30
0.0
  0
LINE
  5
4A7
100
AcDbEntity
  8
0
100
AcDbLine
 62
7
  6
CONTINUOUS
 10
4.1827420315
 20
0.6504380526
 11
4.1818702119
 21
0.6641918013
  0
LINE
  5
4A8
100
AcDbEntity
  8
0
100
AcDbLine
 62
7
  6
CONTINUOUS
 10
4.1818702119
 20
0.6641918013
 11
4.1809981818
 21
0.6844009526
  0
SPLINE
  5
4A9
100
AcDbEntity
  8
0
100
AcDbSpline
 62
7
  6
CONTINUOUS
 70
0
 71
3
 72
9
 73
5
 74
0
 42
0.0000001
 43
0.0000001
 44
0.0000000001
 40
0.0
 40
0.0
 40
0.0
 40
0.0
 40
0.4531901949
 40
1.0
 40
1.0
 40
1.0
 40
1.0
 10
4.1809981818
 20
0.6844009526
 30
0.0
 10
4.1805829218
 20
0.6954488855
 30
0.0
 10
4.179810493
 20
0.7198323327
 30
0.0
 10
4.1791575614
 20
0.7442189385
 30
0.0
 10
4.1788164947
 20
0.7575541952
 30
0.0
  0
LINE
  5
4AA
100
AcDbEntity
  8
0
100
AcDbLine
 62
7
  6
CONTINUOUS
 10
4.1788164947
 20
0.7575541952
 11
4.1753193975
 21
0.902246206
  0
LINE
  5
4AB
100
AcDbEntity
  8
0
100
AcDbLine
 62
7
  6
CONTINUOUS
 10
4.1753193975
 20
0.902246206
 11
4.1748816822
 21
0.9190695994
  0
LINE
  5
4AC
100
AcDbEntity
  8
0
100
AcDbLine
 62
7
  6
CONTINUOUS
 10
4.1748816822
 20
0.9190695994
 11
4.1731297532
 21
0.9762513295
  0
SPLINE
  5
4AD
100
AcDbEntity
  8
0
100
AcDbSpline
 62
7
  6
CONTINUOUS
 70
0
 71
3
 72
10
 73
6
 74
0
 42
0.0000001
 43
0.0000001
 44
0.0000000001
 40
0.0
 40
0.0
 40
0.0
 40
0.0
 40
0.5933405899
 40
0.8210995182
 40
1.0
 40
1.0
 40
1.0
 40
1.0
 10
4.1731297532
 20
0.9762513295
 30
0.0
 10
4.1728744698
 20
0.9831221596
 30
0.0
 10
4.1724923849
 20
0.9926297556
 30
0.0
 10
4.1718653856
 20
1.0042007777
 30
0.0
 10
4.1715460151
 20
1.0089026563
 30
0.0
 10
4.1713761548
 20
1.0109687665
 30
0.0
  0
SPLINE
  5
4AE
100
AcDbEntity
  8
0
100
AcDbSpline
 62
7
  6
CONTINUOUS
 70
0
 71
3
 72
10
 73
6
 74
0
 42
0.0000001
 43
0.0000001
 44
0.0000000001
 40
0.0
 40
0.0
 40
0.0
 40
0.0
 40
0.6264249965
 40
0.8448724306
 40
1.0
 40
1.0
 40
1.0
 40
1.0
 10
4.1713761548
 20
1.0109687665
 30
0.0
 10
4.1712542091
 20
1.012452064
 30
0.0
 10
4.1710751327
 20
1.0144525742
 30
0.0
 10
4.1707529072
 20
1.0168063451
 30
0.0
 10
4.1705903801
 20
1.0176802656
 30
0.0
 10
4.1704987398
 20
1.0180372533
 30
0.0
  0
LINE
  5
4AF
100
AcDbEntity
  8
0
100
AcDbLine
 62
7
  6
CONTINUOUS
 10
4.1704987398
 20
1.0180372533
 11
4.1702709553
 21
1.0186770307
  0
LINE
  5
4B0
100
AcDbEntity
  8
0
100
AcDbLine
 62
7
  6
CONTINUOUS
 10
4.1843867504
 20
0.6437416188
 11
4.1841739247
 21
0.6431505419
  0
SPLINE
  5
4B1
100
AcDbEntity
  8
0
100
AcDbSpline
 62
7
  6
CONTINUOUS
 70
0
 71
3
 72
13
 73
9
 74
0
 42
0.0000001
 43
0.0000001
 44
0.0000000001
 40
0.0
 40
0.0
 40
0.0
 40
0.0
 40
0.0440340541
 40
0.1106928267
 40
0.2005280317
 40
0.3137283833
 40
0.6104088454
 40
1.0
 40
1.0
 40
1.0
 40
1.0
 10
4.1818244652
 20
1.0338871506
 30
0.0
 10
4.1817631143
 20
1.0337799011
 30
0.0
 10
4.1816591909
 20
1.0334839949
 30
0.0
 10
4.1815259174
 20
1.0329381561
 30
0.0
 10
4.1813912161
 20
1.0321926731
 30
0.0
 10
4.1811906624
 20
1.0308050212
 30
0.0
 10
4.180953251
 20
1.0285735635
 30
0.0
 10
4.1807936858
 20
1.0266545836
 30
0.0
 10
4.1807106409
 20
1.025564571
 30
0.0
  0
SPLINE
  5
4B2
100
AcDbEntity
  8
0
100
AcDbSpline
 62
7
  6
CONTINUOUS
 70
0
 71
3
 72
12
 73
8
 74
0
 42
0.0000001
 43
0.0000001
 44
0.0000000001
 40
0.0
 40
0.0
 40
0.0
 40
0.0
 40
0.0488975893
 40
0.1189434668
 40
0.3244812877
 40
0.6183603626
 40
1.0
 40
1.0
 40
1.0
 40
1.0
 10
4.2008349353
 20
1.0186710034
 30
0.0
 10
4.20078414
 20
1.0185826446
 30
0.0
 10
4.2006934763
 20
1.0183499402
 30
0.0
 10
4.2005145742
 20
1.0176979372
 30
0.0
 10
4.2003112515
 20
1.0165260941
 30
0.0
 10
4.2000773694
 20
1.0147051894
 30
0.0
 10
4.1999386287
 20
1.0133036204
 30
0.0
 10
4.1998661537
 20
1.0125114654
 30
0.0
  0
SPLINE
  5
4B3
100
AcDbEntity
  8
0
100
AcDbSpline
 62
7
  6
CONTINUOUS
 70
0
 71
3
 72
10
 73
6
 74
0
 42
0.0000001
 43
0.0000001
 44
0.0000000001
 40
0.0
 40
0.0
 40
0.0
 40
0.0
 40
0.6991385002
 40
0.8917526027
 40
1.0
 40
1.0
 40
1.0
 40
1.0
 10
4.1963606314
 20
0.6289246607
 30
0.0
 10
4.196301147
 20
0.6286360343
 30
0.0
 10
4.1962124754
 20
0.628263189
 30
0.0
 10
4.1960484915
 20
0.6278828101
 30
0.0
 10
4.1959384519
 20
0.627787201
 30
0.0
 10
4.1958928249
 20
0.627787312
 30
0.0
  0
SPLINE
  5
4B4
100
AcDbEntity
  8
0
100
AcDbSpline
 62
7
  6
CONTINUOUS
 70
0
 71
3
 72
13
 73
9
 74
0
 42
0.0000001
 43
0.0000001
 44
0.0000000001
 40
0.0
 40
0.0
 40
0.0
 40
0.0
 40
0.0443214234
 40
0.1112566267
 40
0.2013114768
 40
0.3146191694
 40
0.6109814417
 40
1.0
 40
1.0
 40
1.0
 40
1.0
 10
4.1957273916
 20
0.627930305
 30
0.0
 10
4.1956673666
 20
0.6280338361
 30
0.0
 10
4.1955654613
 20
0.6283195828
 30
0.0
 10
4.1954348002
 20
0.6288464173
 30
0.0
 10
4.1953027044
 20
0.6295650012
 30
0.0
 10
4.1951062183
 20
0.6308998353
 30
0.0
 10
4.1948732044
 20
0.6330445323
 30
0.0
 10
4.1947167081
 20
0.6348884839
 30
0.0
 10
4.1946353522
 20
0.6359357259
 30
0.0
  0
LINE
  5
4B5
100
AcDbEntity
  8
0
100
AcDbLine
 62
7
  6
CONTINUOUS
 10
4.1946353522
 20
0.6359357259
 11
4.1937727213
 21
0.6506669377
  0
SPLINE
  5
4B6
100
AcDbEntity
  8
0
100
AcDbSpline
 62
7
  6
CONTINUOUS
 70
0
 71
3
 72
12
 73
8
 74
0
 42
0.0000001
 43
0.0000001
 44
0.0000000001
 40
0.0
 40
0.0
 40
0.0
 40
0.0
 40
0.0789652553
 40
0.1768671137
 40
0.4192543568
 40
0.7030146282
 40
1.0
 40
1.0
 40
1.0
 40
1.0
 10
4.1937727213
 20
0.6506669377
 30
0.0
 10
4.1935045576
 20
0.6563412259
 30
0.0
 10
4.1929995433
 20
0.6690550005
 30
0.0
 10
4.1920193092
 20
0.6991995588
 30
0.0
 10
4.1908672658
 20
0.744078177
 30
0.0
 10
4.1895360699
 20
0.8032778738
 30
0.0
 10
4.1886390001
 20
0.8450460829
 30
0.0
 10
4.1881657166
 20
0.8664054442
 30
0.0
  0
SPLINE
  5
4B7
100
AcDbEntity
  8
0
100
AcDbSpline
 62
7
  6
CONTINUOUS
 70
0
 71
3
 72
13
 73
9
 74
0
 42
0.0000001
 43
0.0000001
 44
0.0000000001
 40
0.0
 40
0.0
 40
0.0
 40
0.0
 40
0.0414825133
 40
0.1064981924
 40
0.1954943323
 40
0.3085533803
 40
0.6066955439
 40
1.0
 40
1.0
 40
1.0
 40
1.0
 10
3.768785401
 20
1.1044086963
 30
0.0
 10
3.7688771397
 20
1.1043545185
 30
0.0
 10
3.7691389554
 20
1.1042649811
 30
0.0
 10
3.7696261596
 20
1.1041481941
 30
0.0
 10
3.7703025926
 20
1.1040291314
 30
0.0
 10
3.7715745108
 20
1.1038498329
 30
0.0
 10
3.7736307203
 20
1.1036383403
 30
0.0
 10
3.7754010706
 20
1.103498887
 30
0.0
 10
3.7764086091
 20
1.1034263134
 30
0.0
  0
SPLINE
  5
4B8
100
AcDbEntity
  8
0
100
AcDbSpline
 62
7
  6
CONTINUOUS
 70
0
 71
3
 72
13
 73
9
 74
0
 42
0.0000001
 43
0.0000001
 44
0.0000000001
 40
0.0
 40
0.0
 40
0.0
 40
0.0
 40
0.0464966386
 40
0.114950164
 40
0.2058826549
 40
0.3194496806
 40
0.6145431181
 40
1.0
 40
1.0
 40
1.0
 40
1.0
 10
4.1869381059
 20
0.6431449633
 30
0.0
 10
4.1868805834
 20
0.6432440365
 30
0.0
 10
4.1867804465
 20
0.6435115987
 30
0.0
 10
4.1866519559
 20
0.6440018309
 30
0.0
 10
4.1865219919
 20
0.6446623266
 30
0.0
 10
4.1863295963
 20
0.645878106
 30
0.0
 10
4.1861008437
 20
0.6478220037
 30
0.0
 10
4.1859469533
 20
0.6494917073
 30
0.0
 10
4.1858670315
 20
0.6504380527
 30
0.0
  0
LINE
  5
4B9
100
AcDbEntity
  8
0
100
AcDbLine
 62
7
  6
CONTINUOUS
 10
4.1858670315
 20
0.6504380527
 11
4.1849952119
 21
0.6641918013
  0
SPLINE
  5
4BA
100
AcDbEntity
  8
0
100
AcDbSpline
 62
7
  6
CONTINUOUS
 70
0
 71
3
 72
10
 73
6
 74
0
 42
0.0000001
 43
0.0000001
 44
0.0000000001
 40
0.0
 40
0.0
 40
0.0
 40
0.0
 40
0.1860554306
 40
0.4195591135
 40
1.0
 40
1.0
 40
1.0
 40
1.0
 10
4.1849952119
 20
0.6641918013
 30
0.0
 10
4.1846999405
 20
0.669977668
 30
0.0
 10
4.1841491953
 20
0.6830306879
 30
0.0
 10
4.1830829538
 20
0.7141504959
 30
0.0
 10
4.1824036041
 20
0.7394863287
 30
0.0
 10
4.1819414947
 20
0.7575541952
 30
0.0
  0
LINE
  5
4BB
100
AcDbEntity
  8
0
100
AcDbLine
 62
7
  6
CONTINUOUS
 10
4.1819414947
 20
0.7575541952
 11
4.1784443975
 21
0.902246206
  0
LINE
  5
4BC
100
AcDbEntity
  8
0
100
AcDbLine
 62
7
  6
CONTINUOUS
 10
4.1784443975
 20
0.902246206
 11
4.1780066822
 21
0.9190695994
  0
LINE
  5
4BD
100
AcDbEntity
  8
0
100
AcDbLine
 62
7
  6
CONTINUOUS
 10
4.1780066822
 20
0.9190695994
 11
4.1762547532
 21
0.9762513295
  0
SPLINE
  5
4BE
100
AcDbEntity
  8
0
100
AcDbSpline
 62
7
  6
CONTINUOUS
 70
0
 71
3
 72
10
 73
6
 74
0
 42
0.0000001
 43
0.0000001
 44
0.0000000001
 40
0.0
 40
0.0
 40
0.0
 40
0.0
 40
0.5933405899
 40
0.8210995182
 40
1.0
 40
1.0
 40
1.0
 40
1.0
 10
4.1762547532
 20
0.9762513295
 30
0.0
 10
4.1759994698
 20
0.9831221596
 30
0.0
 10
4.1756173849
 20
0.9926297556
 30
0.0
 10
4.1749903856
 20
1.0042007777
 30
0.0
 10
4.1746710151
 20
1.0089026563
 30
0.0
 10
4.1745011548
 20
1.0109687665
 30
0.0
  0
SPLINE
  5
4BF
100
AcDbEntity
  8
0
100
AcDbSpline
 62
7
  6
CONTINUOUS
 70
0
 71
3
 72
15
 73
11
 74
0
 42
0.0000001
 43
0.0000001
 44
0.0000000001
 40
0.0
 40
0.0
 40
0.0
 40
0.0
 40
0.4283104965
 40
0.5976061547
 40
0.7366970586
 40
0.845657675
 40
0.9247503334
 40
0.9533312897
 40
0.9748971383
 40
1.0
 40
1.0
 40
1.0
 40
1.0
 10
4.1745011548
 20
1.0109687665
 30
0.0
 10
4.1744070022
 20
1.0121139998
 30
0.0
 10
4.1742638574
 20
1.013711084
 30
0.0
 10
4.1740342706
 20
1.0156744656
 30
0.0
 10
4.1738776426
 20
1.0167829101
 30
0.0
 10
4.173720771
 20
1.0176478471
 30
0.0
 10
4.1735860857
 20
1.0182113533
 30
0.0
 10
4.173465818
 20
1.0185415939
 30
0.0
 10
4.1733823068
 20
1.018715846
 30
0.0
 10
4.1732826174
 20
1.0188323862
 30
0.0
 10
4.1732152718
 20
1.0188318828
 30
0.0
  0
SPLINE
  5
4C0
100
AcDbEntity
  8
0
100
AcDbSpline
 62
7
  6
CONTINUOUS
 70
0
 71
3
 72
13
 73
9
 74
0
 42
0.0000001
 43
0.0000001
 44
0.0000000001
 40
0.0
 40
0.0
 40
0.0
 40
0.0
 40
0.0429610178
 40
0.1090111587
 40
0.1986077059
 40
0.3118392973
 40
0.6090435085
 40
1.0
 40
1.0
 40
1.0
 40
1.0
 10
4.0498224182
 20
1.1148251274
 30
0.0
 10
4.0497377318
 20
1.1147754053
 30
0.0
 10
4.0495001657
 20
1.1146918188
 30
0.0
 10
4.0490601208
 20
1.1145834457
 30
0.0
 10
4.0484547686
 20
1.1144729676
 30
0.0
 10
4.0473239858
 20
1.1143070303
 30
0.0
 10
4.0455021418
 20
1.1141091213
 30
0.0
 10
4.0439347171
 20
1.1139764071
 30
0.0
 10
4.0430436836
 20
1.1139076288
 30
0.0
  0
LINE
  5
4C1
100
AcDbEntity
  8
0
100
AcDbLine
 62
7
  6
CONTINUOUS
 10
4.0430436836
 20
1.1139076288
 11
4.0310843022
 21
1.1132118659
  0
SPLINE
  5
4C2
100
AcDbEntity
  8
0
100
AcDbSpline
 62
7
  6
CONTINUOUS
 70
0
 71
3
 72
16
 73
12
 74
0
 42
0.0000001
 43
0.0000001
 44
0.0000000001
 40
0.0
 40
0.0
 40
0.0
 40
0.0
 40
0.041970313
 40
0.0917892566
 40
0.2113669413
 40
0.4246675231
 40
0.6494284668
 40
0.7553375518
 40
0.851451594
 40
0.9340580536
 40
1.0
 40
1.0
 40
1.0
 40
1.0
 10
4.0310843022
 20
1.1132118659
 30
0.0
 10
4.027679089
 20
1.1130518568
 30
0.0
 10
4.0202299285
 20
1.1127435545
 30
0.0
 10
4.0030726183
 20
1.1121382639
 30
0.0
 10
3.9720013786
 20
1.1112408258
 30
0.0
 10
3.9267213039
 20
1.1101435637
 30
0.0
 10
3.8825500516
 20
1.1091186766
 30
0.0
 10
3.8478960276
 20
1.1082524151
 30
0.0
 10
3.8247860732
 20
1.1076186011
 30
0.0
 10
3.8049237844
 20
1.1069871462
 30
0.0
 10
3.7928668784
 20
1.1065210358
 30
0.0
 10
3.7875167457
 20
1.1062698159
 30
0.0
  0
SPLINE
  5
4C3
100
AcDbEntity
  8
0
100
AcDbSpline
 62
7
  6
CONTINUOUS
 70
0
 71
3
 72
10
 73
6
 74
0
 42
0.0000001
 43
0.0000001
 44
0.0000000001
 40
0.0
 40
0.0
 40
0.0
 40
0.0
 40
0.6020568847
 40
0.8273086732
 40
1.0
 40
1.0
 40
1.0
 40
1.0
 10
3.7875167457
 20
1.1062698159
 30
0.0
 10
3.7843503646
 20
1.1061211359
 30
0.0
 10
3.7799997385
 20
1.1058989862
 30
0.0
 10
3.7747482285
 20
1.1055199242
 30
0.0
 10
3.7726617237
 20
1.1053249197
 30
0.0
 10
3.771758497
 20
1.1052205967
 30
0.0
  0
LINE
  5
4C4
100
AcDbEntity
  8
0
100
AcDbLine
 62
7
  6
CONTINUOUS
 10
3.771758497
 20
1.1052205967
 11
3.7694555619
 21
1.1048705868
  0
LINE
  5
4C5
100
AcDbEntity
  8
0
100
AcDbLine
 62
7
  6
CONTINUOUS
 10
3.7694555619
 20
1.1048705868
 11
3.7686794626
 21
1.1045321155
  0
SPLINE
  5
4C6
100
AcDbEntity
  8
0
100
AcDbSpline
 62
7
  6
CONTINUOUS
 70
0
 71
3
 72
13
 73
9
 74
0
 42
0.0000001
 43
0.0000001
 44
0.0000000001
 40
0.0
 40
0.0
 40
0.0
 40
0.0
 40
0.0431829653
 40
0.1093762376
 40
0.1990502981
 40
0.3123002339
 40
0.6093770302
 40
1.0
 40
1.0
 40
1.0
 40
1.0
 10
3.7687884449
 20
1.1252397449
 30
0.0
 10
3.7688735077
 20
1.1251897225
 30
0.0
 10
3.7691117163
 20
1.125105646
 30
0.0
 10
3.7695526333
 20
1.1249971162
 30
0.0
 10
3.7701583825
 20
1.1248868466
 30
0.0
 10
3.7712888584
 20
1.1247217351
 30
0.0
 10
3.7731092702
 20
1.1245253166
 30
0.0
 10
3.7746752213
 20
1.1243935213
 30
0.0
 10
3.7755652416
 20
1.1243251288
 30
0.0
  0
SPLINE
  5
4C7
100
AcDbEntity
  8
0
100
AcDbSpline
 62
7
  6
CONTINUOUS
 70
0
 71
3
 72
13
 73
9
 74
0
 42
0.0000001
 43
0.0000001
 44
0.0000000001
 40
0.0
 40
0.0
 40
0.0
 40
0.0
 40
0.0426867575
 40
0.1085152559
 40
0.198058517
 40
0.3114534757
 40
0.6091687151
 40
1.0
 40
1.0
 40
1.0
 40
1.0
 10
4.0498050764
 20
1.0561485964
 30
0.0
 10
4.0497086554
 20
1.0562031417
 30
0.0
 10
4.0494388809
 20
1.0562936704
 30
0.0
 10
4.0489391357
 20
1.0564099367
 30
0.0
 10
4.0482507572
 20
1.0565272432
 30
0.0
 10
4.0469634669
 20
1.0567022558
 30
0.0
 10
4.0448919134
 20
1.05690929
 30
0.0
 10
4.0431105079
 20
1.0570487116
 30
0.0
 10
4.042098828
 20
1.0571212712
 30
0.0
  0
SPLINE
  5
4C8
100
AcDbEntity
  8
0
100
AcDbSpline
 62
7
  6
CONTINUOUS
 70
0
 71
3
 72
16
 73
12
 74
0
 42
0.0000001
 43
0.0000001
 44
0.0000000001
 40
0.0
 40
0.0
 40
0.0
 40
0.0
 40
0.0221934139
 40
0.0430670244
 40
0.0712687941
 40
0.1502371264
 40
0.2596188443
 40
0.3994572512
 40
0.5696797544
 40
0.7700691639
 40
1.0
 40
1.0
 40
1.0
 40
1.0
 10
4.0372144379
 20
1.0633449487
 30
0.0
 10
4.0372177993
 20
1.0632712295
 30
0.0
 10
4.0370619106
 20
1.0631705003
 30
0.0
 10
4.0368561553
 20
1.0630893421
 30
0.0
 10
4.0364397828
 20
1.0629659245
 30
0.0
 10
4.0357376217
 20
1.062829754
 30
0.0
 10
4.0346554077
 20
1.0626697494
 30
0.0
 10
4.0332706445
 20
1.0625104357
 30
0.0
 10
4.0315806268
 20
1.0623489475
 30
0.0
 10
4.0295903743
 20
1.062187265
 30
0.0
 10
4.0281630511
 20
1.0620858967
 30
0.0
 10
4.0274002305
 20
1.0620345319
 30
0.0
  0
SPLINE
  5
4C9
100
AcDbEntity
  8
0
100
AcDbSpline
 62
7
  6
CONTINUOUS
 70
0
 71
3
 72
11
 73
7
 74
0
 42
0.0000001
 43
0.0000001
 44
0.0000000001
 40
0.0
 40
0.0
 40
0.0
 40
0.0
 40
0.1709087474
 40
0.4006791288
 40
0.6810040094
 40
1.0
 40
1.0
 40
1.0
 40
1.0
 10
4.0274002305
 20
1.0620345319
 30
0.0
 10
4.0233883197
 20
1.0617643883
 30
0.0
 10
4.0139728085
 20
1.0612854086
 30
0.0
 10
3.9979633314
 20
1.0606521676
 30
0.0
 10
3.9784674159
 20
1.0600145927
 30
0.0
 10
3.9643730167
 20
1.0596066285
 30
0.0
 10
3.9568708775
 20
1.0593970439
 30
0.0
  0
SPLINE
  5
4CA
100
AcDbEntity
  8
0
100
AcDbSpline
 62
7
  6
CONTINUOUS
 70
0
 71
3
 72
13
 73
9
 74
0
 42
0.0000001
 43
0.0000001
 44
0.0000000001
 40
0.0
 40
0.0
 40
0.0
 40
0.0
 40
0.041980273
 40
0.107274286
 40
0.1964871506
 40
0.3097675358
 40
0.6079026768
 40
1.0
 40
1.0
 40
1.0
 40
1.0
 10
4.0498137429
 20
1.073145966
 30
0.0
 10
4.0497196559
 20
1.0730907628
 30
0.0
 10
4.0494527537
 20
1.0729998076
 30
0.0
 10
4.0489567972
 20
1.0728830284
 30
0.0
 10
4.0482701012
 20
1.0727651842
 30
0.0
 10
4.0469813916
 20
1.0725890187
 30
0.0
 10
4.0449031318
 20
1.0723807798
 30
0.0
 10
4.0431150958
 20
1.072240724
 30
0.0
 10
4.0420988374
 20
1.0721678489
 30
0.0
  0
LINE
  5
4CB
100
AcDbEntity
  8
0
100
AcDbLine
 62
7
  6
CONTINUOUS
 10
4.0420988374
 20
1.0721678489
 11
4.0308669128
 21
1.071533351
  0
LINE
  5
4CC
100
AcDbEntity
  8
0
100
AcDbLine
 62
7
  6
CONTINUOUS
 10
4.0308669128
 20
1.071533351
 11
3.9846292801
 21
1.0699452943
  0
SPLINE
  5
4CD
100
AcDbEntity
  8
0
100
AcDbSpline
 62
7
  6
CONTINUOUS
 70
0
 71
3
 72
14
 73
10
 74
0
 42
0.0000001
 43
0.0000001
 44
0.0000000001
 40
0.0
 40
0.0
 40
0.0
 40
0.0
 40
0.0405198761
 40
0.1048380714
 40
0.1934288318
 40
0.3063816229
 40
0.4436730783
 40
0.6052338922
 40
1.0
 40
1.0
 40
1.0
 40
1.0
 10
4.0370901876
 20
1.0657999877
 30
0.0
 10
4.0369762888
 20
1.0657330405
 30
0.0
 10
4.0366471207
 20
1.0656257663
 30
0.0
 10
4.0360335168
 20
1.0654873321
 30
0.0
 10
4.0351766705
 20
1.0653480029
 30
0.0
 10
4.0340813356
 20
1.0652058777
 30
0.0
 10
4.0327460156
 20
1.0650631284
 30
0.0
 10
4.030493773
 20
1.064857951
 30
0.0
 10
4.0286844749
 20
1.064726007
 30
0.0
 10
4.0274002305
 20
1.0646395319
 30
0.0
  0
SPLINE
  5
4CE
100
AcDbEntity
  8
0
100
AcDbSpline
 62
7
  6
CONTINUOUS
 70
0
 71
3
 72
11
 73
7
 74
0
 42
0.0000001
 43
0.0000001
 44
0.0000000001
 40
0.0
 40
0.0
 40
0.0
 40
0.0
 40
0.1709087474
 40
0.4006791288
 40
0.6810040094
 40
1.0
 40
1.0
 40
1.0
 40
1.0
 10
4.0274002305
 20
1.0646395319
 30
0.0
 10
4.0233883197
 20
1.0643693883
 30
0.0
 10
4.0139728085
 20
1.0638904086
 30
0.0
 10
3.9979633314
 20
1.0632571676
 30
0.0
 10
3.9784674159
 20
1.0626195927
 30
0.0
 10
3.9643730167
 20
1.0622116285
 30
0.0
 10
3.9568708775
 20
1.0620020439
 30
0.0
  0
SPLINE
  5
4CF
100
AcDbEntity
  8
0
100
AcDbSpline
 62
9
  6
CONTINUOUS
 70
0
 71
3
 72
19
 73
15
 74
0
 42
0.0000001
 43
0.0000001
 44
0.0000000001
 40
0.0
 40
0.0
 40
0.0
 40
0.0
 40
0.0041918861
 40
0.0094179546
 40
0.0167185917
 40
0.0375070364
 40
0.066484171
 40
0.1035769765
 40
0.148707378
 40
0.2624868196
 40
0.4064343332
 40
0.5790450722
 40
0.7779027807
 40
1.0
 40
1.0
 40
1.0
 40
1.0
 10
3.3440128054
 20
0.3417105589
 30
0.0
 10
3.3440065424
 20
0.341784284
 30
0.0
 10
3.3440113412
 20
0.3419508925
 30
0.0
 10
3.3440017755
 20
0.3422457323
 30
0.0
 10
3.3439927322
 20
0.3428337831
 30
0.0
 10
3.3439707248
 20
0.3438407621
 30
0.0
 10
3.3439389957
 20
0.345373588
 30
0.0
 10
3.3438948388
 20
0.3473358696
 30
0.0
 10
3.343814062
 20
0.3507945558
 30
0.0
 10
3.3436753884
 20
0.3561384761
 30
0.0
 10
3.3434438123
 20
0.3637308281
 30
0.0
 10
3.3431185511
 20
0.3728226209
 30
0.0
 10
3.3426799039
 20
0.3832904778
 30
0.0
 10
3.3423166569
 20
0.3907119139
 30
0.0
 10
3.3421101968
 20
0.394626691
 30
0.0
  0
LINE
  5
4D0
100
AcDbEntity
  8
0
100
AcDbLine
 62
7
  6
CONTINUOUS
 10
3.7717584957
 20
1.1260587991
 11
3.7694555615
 21
1.1257103232
  0
LINE
  5
4D1
100
AcDbEntity
  8
0
100
AcDbLine
 62
7
  6
CONTINUOUS
 10
3.7694555615
 20
1.1257103232
 11
3.7686794626
 21
1.1253671155
  0
SPLINE
  5
4D2
100
AcDbEntity
  8
0
100
AcDbSpline
 62
7
  6
CONTINUOUS
 70
0
 71
3
 72
13
 73
9
 74
0
 42
0.0000001
 43
0.0000001
 44
0.0000000001
 40
0.0
 40
0.0
 40
0.0
 40
0.0
 40
0.0424221853
 40
0.1080507801
 40
0.1974705649
 40
0.3108228065
 40
0.6086952644
 40
1.0
 40
1.0
 40
1.0
 40
1.0
 10
4.0498083599
 20
1.0769817222
 30
0.0
 10
4.049712806
 20
1.0770365102
 30
0.0
 10
4.0494441063
 20
1.0771271956
 30
0.0
 10
4.0489457717
 20
1.0772436511
 30
0.0
 10
4.0482580189
 20
1.0773611592
 30
0.0
 10
4.0469701904
 20
1.0775366078
 30
0.0
 10
4.0448961209
 20
1.0777441035
 30
0.0
 10
4.0431122282
 20
1.0778837664
 30
0.0
 10
4.0420988322
 20
1.0779564443
 30
0.0
  0
SPLINE
  5
4D3
100
AcDbEntity
  8
0
100
AcDbSpline
 62
7
  6
CONTINUOUS
 70
0
 71
3
 72
16
 73
12
 74
0
 42
0.0000001
 43
0.0000001
 44
0.0000000001
 40
0.0
 40
0.0
 40
0.0
 40
0.0
 40
0.0225519414
 40
0.0436254706
 40
0.0719937241
 40
0.1511762871
 40
0.2606152854
 40
0.4003687532
 40
0.5703823302
 40
0.77046037
 40
1.0
 40
1.0
 40
1.0
 40
1.0
 10
4.037209074
 20
1.084177306
 30
0.0
 10
4.0372091396
 20
1.0841019177
 30
0.0
 10
4.037049861
 20
1.0840040837
 30
0.0
 10
4.0368402811
 20
1.0839214971
 30
0.0
 10
4.0364195846
 20
1.0837986498
 30
0.0
 10
4.03571206
 20
1.0836616849
 30
0.0
 10
4.034623403
 20
1.0835015155
 30
0.0
 10
4.0332319791
 20
1.0833417039
 30
0.0
 10
4.0315349256
 20
1.0831798951
 30
0.0
 10
4.0295370524
 20
1.0830179332
 30
0.0
 10
4.0281044332
 20
1.0829164367
 30
0.0
 10
4.0273388352
 20
1.082865014
 30
0.0
  0
SPLINE
  5
4D4
100
AcDbEntity
  8
0
100
AcDbSpline
 62
7
  6
CONTINUOUS
 70
0
 71
3
 72
11
 73
7
 74
0
 42
0.0000001
 43
0.0000001
 44
0.0000000001
 40
0.0
 40
0.0
 40
0.0
 40
0.0
 40
0.1749205588
 40
0.4045917952
 40
0.6823635396
 40
1.0
 40
1.0
 40
1.0
 40
1.0
 10
4.0273388352
 20
1.082865014
 30
0.0
 10
4.0239086044
 20
1.0826346169
 30
0.0
 10
4.0159670162
 20
1.0822162443
 30
0.0
 10
4.0025670852
 20
1.0816607401
 30
0.0
 10
3.9863601949
 20
1.081100216
 30
0.0
 10
3.9746632118
 20
1.0807441991
 30
0.0
 10
3.9684229231
 20
1.0805617333
 30
0.0
  0
LINE
  5
4D5
100
AcDbEntity
  8
0
100
AcDbLine
 62
7
  6
CONTINUOUS
 10
3.9684229231
 20
1.0805617333
 11
3.9568760669
 21
1.0802320439
  0
SPLINE
  5
4D6
100
AcDbEntity
  8
0
100
AcDbSpline
 62
7
  6
CONTINUOUS
 70
0
 71
3
 72
14
 73
10
 74
0
 42
0.0000001
 43
0.0000001
 44
0.0000000001
 40
0.0
 40
0.0
 40
0.0
 40
0.0
 40
0.0397234613
 40
0.1035794976
 40
0.1919644489
 40
0.3049149709
 40
0.4423647667
 40
0.6042066224
 40
1.0
 40
1.0
 40
1.0
 40
1.0
 10
4.0498088002
 20
1.093977994
 30
0.0
 10
4.0496923391
 20
1.09391194
 30
0.0
 10
4.049354336
 20
1.0938081722
 30
0.0
 10
4.0487233973
 20
1.0936732593
 30
0.0
 10
4.0478385804
 20
1.0935377322
 30
0.0
 10
4.0467054508
 20
1.0933990978
 30
0.0
 10
4.0453227369
 20
1.0932599118
 30
0.0
 10
4.0429885086
 20
1.0930597642
 30
0.0
 10
4.0411132095
 20
1.0929312796
 30
0.0
 10
4.0397818315
 20
1.0928471244
 30
0.0
  0
LINE
  5
4D7
100
AcDbEntity
  8
0
100
AcDbLine
 62
7
  6
CONTINUOUS
 10
4.0397818315
 20
1.0928471244
 11
4.0274470549
 21
1.0922136146
  0
SPLINE
  5
4D8
100
AcDbEntity
  8
0
100
AcDbSpline
 62
7
  6
CONTINUOUS
 70
0
 71
3
 72
11
 73
7
 74
0
 42
0.0000001
 43
0.0000001
 44
0.0000000001
 40
0.0
 40
0.0
 40
0.0
 40
0.0
 40
0.1898385973
 40
0.4334823262
 40
0.7110793607
 40
1.0
 40
1.0
 40
1.0
 40
1.0
 10
4.0274470549
 20
1.0922136146
 30
0.0
 10
4.018656251
 20
1.0918315268
 30
0.0
 10
3.9985749076
 20
1.0911549957
 30
0.0
 10
3.9656285051
 20
1.0902531354
 30
0.0
 10
3.9280880665
 20
1.0893447088
 30
0.0
 10
3.9018369078
 20
1.0887311245
 30
0.0
 10
3.888449104
 20
1.0884122671
 30
0.0
  0
SPLINE
  5
4D9
100
AcDbEntity
  8
0
100
AcDbSpline
 62
7
  6
CONTINUOUS
 70
0
 71
3
 72
13
 73
9
 74
0
 42
0.0000001
 43
0.0000001
 44
0.0000000001
 40
0.0
 40
0.0
 40
0.0
 40
0.0
 40
0.0457734604
 40
0.113643003
 40
0.2041884294
 40
0.3176269537
 40
0.6134230574
 40
1.0
 40
1.0
 40
1.0
 40
1.0
 10
4.0370905846
 20
1.0866320054
 30
0.0
 10
4.0370050636
 20
1.0865827008
 30
0.0
 10
4.0367729886
 20
1.0864973751
 30
0.0
 10
4.0363469147
 20
1.0863879524
 30
0.0
 10
4.0357705894
 20
1.0862772886
 30
0.0
 10
4.0347053584
 20
1.0861131615
 30
0.0
 10
4.0329995467
 20
1.0859185901
 30
0.0
 10
4.031533797
 20
1.0857874973
 30
0.0
 10
4.0307028937
 20
1.0857192998
 30
0.0
  0
SPLINE
  5
4DA
100
AcDbEntity
  8
0
100
AcDbSpline
 62
7
  6
CONTINUOUS
 70
0
 71
3
 72
12
 73
8
 74
0
 42
0.0000001
 43
0.0000001
 44
0.0000000001
 40
0.0
 40
0.0
 40
0.0
 40
0.0
 40
0.0716456062
 40
0.1603869513
 40
0.3860321832
 40
0.6692284548
 40
1.0
 40
1.0
 40
1.0
 40
1.0
 10
4.0307028937
 20
1.0857192998
 30
0.0
 10
4.0292446565
 20
1.085599613
 30
0.0
 10
4.0259769842
 20
1.085371584
 30
0.0
 10
4.0181061249
 20
1.0849235265
 30
0.0
 10
4.0059135069
 20
1.0843917779
 30
0.0
 10
3.9887778738
 20
1.0837808816
 30
0.0
 10
3.9762453072
 20
1.0833965299
 30
0.0
 10
3.9694932326
 20
1.0831981153
 30
0.0
  0
LINE
  5
4DB
100
AcDbEntity
  8
0
100
AcDbLine
 62
7
  6
CONTINUOUS
 10
3.9694932326
 20
1.0831981153
 11
3.9568760669
 21
1.0828370439
  0
SPLINE
  5
4DC
100
AcDbEntity
  8
0
100
AcDbSpline
 62
9
  6
CONTINUOUS
 70
0
 71
3
 72
15
 73
11
 74
0
 42
0.0000001
 43
0.0000001
 44
0.0000000001
 40
0.0
 40
0.0
 40
0.0
 40
0.0
 40
0.4214203497
 40
0.7378887405
 40
0.8514119301
 40
0.9334491844
 40
0.9624212737
 40
0.9832344694
 40
0.9957927516
 40
1.0
 40
1.0
 40
1.0
 40
1.0
 10
3.3231901538
 20
0.404186908
 30
0.0
 10
3.323574444
 20
0.3977382142
 30
0.0
 10
3.3241520602
 20
0.386453208
 30
0.0
 10
3.3246259935
 20
0.3733742849
 30
0.0
 10
3.324849546
 20
0.3655766972
 30
0.0
 10
3.3249374018
 20
0.362061394
 30
0.0
 10
3.3249768835
 20
0.3601428582
 30
0.0
 10
3.3250017128
 20
0.3590182099
 30
0.0
 10
3.3250006903
 20
0.3587428985
 30
0.0
 10
3.3250163505
 20
0.3581730735
 30
0.0
 10
3.3250125259
 20
0.3582374547
 30
0.0
  0
SPLINE
  5
4DD
100
AcDbEntity
  8
0
100
AcDbSpline
 62
9
  6
CONTINUOUS
 70
0
 71
3
 72
19
 73
15
 74
0
 42
0.0000001
 43
0.0000001
 44
0.0000000001
 40
0.0
 40
0.0
 40
0.0
 40
0.0
 40
0.0541362772
 40
0.1115312799
 40
0.1717795145
 40
0.2344533745
 40
0.3652447038
 40
0.4999996051
 40
0.6347547834
 40
0.7655461338
 40
0.8282196234
 40
0.8884675375
 40
0.9458626881
 40
1.0
 40
1.0
 40
1.0
 40
1.0
 10
3.3231901589
 20
1.2576376251
 30
0.0
 10
3.3222739093
 20
1.2422617937
 30
0.0
 10
3.3209833959
 20
1.2105483992
 30
0.0
 10
3.3202268911
 20
1.161676066
 30
0.0
 10
3.3202695274
 20
1.1103700021
 30
0.0
 10
3.3209749922
 20
1.0381854439
 30
0.0
 10
3.3222421254
 20
0.9448077395
 30
0.0
 10
3.3231424008
 20
0.8309125293
 30
0.0
 10
3.3222421432
 20
0.717017313
 30
0.0
 10
3.3209750098
 20
0.6236396292
 30
0.0
 10
3.3202695152
 20
0.5514552619
 30
0.0
 10
3.3202268626
 20
0.5001493525
 30
0.0
 10
3.3209833733
 20
0.4512767739
 30
0.0
 10
3.3222739062
 20
0.4195630436
 30
0.0
 10
3.3231901615
 20
0.4041869176
 30
0.0
  0
SPLINE
  5
4DE
100
AcDbEntity
  8
0
100
AcDbSpline
 62
7
  6
CONTINUOUS
 70
0
 71
3
 72
13
 73
9
 74
0
 42
0.0000001
 43
0.0000001
 44
0.0000000001
 40
0.0
 40
0.0
 40
0.0
 40
0.0
 40
0.043400119
 40
0.1096691273
 40
0.1993168117
 40
0.3125085611
 40
0.6096463251
 40
1.0
 40
1.0
 40
1.0
 40
1.0
 10
3.7688124873
 20
1.0874038461
 30
0.0
 10
3.7689087428
 20
1.0874570993
 30
0.0
 10
3.7691748498
 20
1.0875462618
 30
0.0
 10
3.7696661094
 20
1.0876607964
 30
0.0
 10
3.7703390635
 20
1.0877764565
 30
0.0
 10
3.7715944249
 20
1.0879489564
 30
0.0
 10
3.773614276
 20
1.0881529328
 30
0.0
 10
3.7753513842
 20
1.0882901361
 30
0.0
 10
3.7763382163
 20
1.0883615882
 30
0.0
  0
LINE
  5
4DF
100
AcDbEntity
  8
0
100
AcDbLine
 62
7
  6
CONTINUOUS
 10
3.7763382163
 20
1.0883615882
 11
3.7892466505
 21
1.0890784608
  0
SPLINE
  5
4E0
100
AcDbEntity
  8
0
100
AcDbSpline
 62
7
  6
CONTINUOUS
 70
0
 71
3
 72
10
 73
6
 74
0
 42
0.0000001
 43
0.0000001
 44
0.0000000001
 40
0.0
 40
0.0
 40
0.0
 40
0.0
 40
0.1953530912
 40
0.431343707
 40
1.0
 40
1.0
 40
1.0
 40
1.0
 10
3.7892466505
 20
1.0890784608
 30
0.0
 10
3.7937112338
 20
1.0892806761
 30
0.0
 10
3.8035719098
 20
1.0896650665
 30
0.0
 10
3.8264371112
 20
1.0904118416
 30
0.0
 10
3.8448389981
 20
1.0908993061
 30
0.0
 10
3.8578441706
 20
1.0912288566
 30
0.0
  0
LINE
  5
4E1
100
AcDbEntity
  8
0
100
AcDbLine
 62
7
  6
CONTINUOUS
 10
3.8578441706
 20
1.0912288566
 11
3.872262594
 21
1.0915872715
  0
LINE
  5
4E2
100
AcDbEntity
  8
0
100
AcDbLine
 62
7
  6
CONTINUOUS
 10
3.872262594
 20
1.0915872715
 11
3.9022204692
 21
1.0923040546
  0
LINE
  5
4E3
100
AcDbEntity
  8
0
100
AcDbLine
 62
7
  6
CONTINUOUS
 10
3.9022204692
 20
1.0923040546
 11
3.9617162545
 21
1.0937377499
  0
SPLINE
  5
4E4
100
AcDbEntity
  8
0
100
AcDbSpline
 62
7
  6
CONTINUOUS
 70
0
 71
3
 72
10
 73
6
 74
0
 42
0.0000001
 43
0.0000001
 44
0.0000000001
 40
0.0
 40
0.0
 40
0.0
 40
0.0
 40
0.5696839769
 40
0.805492595
 40
1.0
 40
1.0
 40
1.0
 40
1.0
 10
3.9617162545
 20
1.0937377499
 30
0.0
 10
3.9746650432
 20
1.0940669003
 30
0.0
 10
3.9929733077
 20
1.0945537408
 30
0.0
 10
4.0156982343
 20
1.0952997796
 30
0.0
 10
4.0254749261
 20
1.0956861407
 30
0.0
 10
4.0298927912
 20
1.0958893827
 30
0.0
  0
SPLINE
  5
4E5
100
AcDbEntity
  8
0
100
AcDbSpline
 62
7
  6
CONTINUOUS
 70
0
 71
3
 72
10
 73
6
 74
0
 42
0.0000001
 43
0.0000001
 44
0.0000000001
 40
0.0
 40
0.0
 40
0.0
 40
0.0
 40
0.6018294133
 40
0.8271950497
 40
1.0
 40
1.0
 40
1.0
 40
1.0
 10
4.0298927912
 20
1.0958893827
 30
0.0
 10
4.0332580395
 20
1.0960441996
 30
0.0
 10
4.0378829684
 20
1.0962758416
 30
0.0
 10
4.0434674532
 20
1.0966597244
 30
0.0
 10
4.0456881714
 20
1.0968537742
 30
0.0
 10
4.0466498078
 20
1.0969582503
 30
0.0
  0
LINE
  5
4E6
100
AcDbEntity
  8
0
100
AcDbLine
 62
7
  6
CONTINUOUS
 10
4.0466498078
 20
1.0969582503
 11
4.0491023501
 21
1.0973141897
  0
LINE
  5
4E7
100
AcDbEntity
  8
0
100
AcDbLine
 62
7
  6
CONTINUOUS
 10
4.0491023501
 20
1.0973141897
 11
4.0499294626
 21
1.0976799187
  0
SPLINE
  5
4E8
100
AcDbEntity
  8
0
100
AcDbSpline
 62
9
  6
CONTINUOUS
 70
0
 71
3
 72
12
 73
8
 74
0
 42
0.0000001
 43
0.0000001
 44
0.0000000001
 40
0.0
 40
0.0
 40
0.0
 40
0.0
 40
0.1966176582
 40
0.4359366056
 40
0.5713355913
 40
0.7137225252
 40
1.0
 40
1.0
 40
1.0
 40
1.0
 10
3.3231901534
 20
1.2576376222
 30
0.0
 10
3.3236223102
 20
1.259045213
 30
0.0
 10
3.325491511
 20
1.2618783896
 30
0.0
 10
3.3290426723
 20
1.2643970379
 30
0.0
 10
3.3326452414
 20
1.2658504205
 30
0.0
 10
3.3367388393
 20
1.266919622
 30
0.0
 10
3.3399666374
 20
1.2672310604
 30
0.0
 10
3.3421102949
 20
1.2671998477
 30
0.0
  0
SPLINE
  5
4E9
100
AcDbEntity
  8
0
100
AcDbSpline
 62
9
  6
CONTINUOUS
 70
0
 71
3
 72
12
 73
8
 74
0
 42
0.0000001
 43
0.0000001
 44
0.0000000001
 40
0.0
 40
0.0
 40
0.0
 40
0.0
 40
0.2862775139
 40
0.4286644604
 40
0.5640634486
 40
0.8033823717
 40
1.0
 40
1.0
 40
1.0
 40
1.0
 10
3.3421102944
 20
0.394624677
 30
0.0
 10
3.3399666359
 20
0.3945934645
 30
0.0
 10
3.3367388365
 20
0.3949049036
 30
0.0
 10
3.3326452372
 20
0.3959741066
 30
0.0
 10
3.3290426676
 20
0.3974274909
 30
0.0
 10
3.3254915068
 20
0.3999461416
 30
0.0
 10
3.323622308
 20
0.4027793206
 30
0.0
 10
3.3231901525
 20
0.404186912
 30
0.0
  0
SPLINE
  5
4EA
100
AcDbEntity
  8
0
100
AcDbSpline
 62
9
  6
CONTINUOUS
 70
0
 71
3
 72
27
 73
23
 74
0
 42
0.0000001
 43
0.0000001
 44
0.0000000001
 40
0.0
 40
0.0
 40
0.0
 40
0.0
 40
0.2220981226
 40
0.4209558772
 40
0.5935664811
 40
0.6692219602
 40
0.7375139831
 40
0.7982640262
 40
0.8512933407
 40
0.8964236678
 40
0.9335163649
 40
0.9490238888
 40
0.962493364
 40
0.9739156646
 40
0.9832816625
 40
0.9905822276
 40
0.9934551194
 40
0.9958082284
 40
0.9976404129
 40
0.998950531
 40
0.9997374408
 40
1.0
 40
1.0
 40
1.0
 40
1.0
 10
3.3421102562
 20
1.267199093
 30
0.0
 10
3.3423167149
 20
1.271113794
 30
0.0
 10
3.3426799535
 20
1.2785350732
 30
0.0
 10
3.3431185874
 20
1.2890026975
 30
0.0
 10
3.3434007267
 20
1.296889656
 30
0.0
 10
3.3435774351
 20
1.3024742726
 30
0.0
 10
3.343682736
 20
1.3060857541
 30
0.0
 10
3.3437691677
 20
1.3092982437
 30
0.0
 10
3.3438390675
 20
1.3121022084
 30
0.0
 10
3.3438949288
 20
1.3144888261
 30
0.0
 10
3.3439334566
 20
1.3162133879
 30
0.0
 10
3.343958475
 20
1.3173792833
 30
0.0
 10
3.3439733699
 20
1.318092193
 30
0.0
 10
3.3439857033
 20
1.3186967409
 30
0.0
 10
3.3439954528
 20
1.3191924078
 30
0.0
 10
3.3440022659
 20
1.3195372662
 30
0.0
 10
3.344006178
 20
1.3197582637
 30
0.0
 10
3.3440090241
 20
1.3198829558
 30
0.0
 10
3.344009423
 20
1.3199795923
 30
0.0
 10
3.3440137927
 20
1.3200497127
 30
0.0
 10
3.3440090578
 20
1.3200899859
 30
0.0
 10
3.3440150559
 20
1.320109924
 30
0.0
 10
3.3440128054
 20
1.3201139752
 30
0.0
  0
LINE
  5
4EB
100
AcDbEntity
  8
0
100
AcDbLine
 62
9
  6
CONTINUOUS
 10
3.3411793814
 20
0.804652915
 11
3.3411874609
 21
0.8084043875
  0
LINE
  5
4EC
100
AcDbEntity
  8
0
100
AcDbLine
 62
9
  6
CONTINUOUS
 10
3.3411874609
 20
0.8084043875
 11
3.3411947183
 21
0.812412754
  0
LINE
  5
4ED
100
AcDbEntity
  8
0
100
AcDbLine
 62
9
  6
CONTINUOUS
 10
3.3412081903
 20
0.8248297457
 11
3.3412081899
 21
0.8369947703
  0
LINE
  5
4EE
100
AcDbEntity
  8
0
100
AcDbLine
 62
9
  6
CONTINUOUS
 10
3.3412081899
 20
0.8369947703
 11
3.3412039483
 21
0.8424494509
  0
LINE
  5
4EF
100
AcDbEntity
  8
0
100
AcDbLine
 62
9
  6
CONTINUOUS
 10
3.3412039483
 20
0.8424494509
 11
3.3411947172
 21
0.8494117763
  0
LINE
  5
4F0
100
AcDbEntity
  8
0
100
AcDbLine
 62
9
  6
CONTINUOUS
 10
3.3411947172
 20
0.8494117763
 11
3.3411874157
 21
0.8534422964
  0
LINE
  5
4F1
100
AcDbEntity
  8
0
100
AcDbLine
 62
9
  6
CONTINUOUS
 10
3.3411874157
 20
0.8534422964
 11
3.3411793801
 21
0.8571715793
  0
LINE
  5
4F2
100
AcDbEntity
  8
0
100
AcDbLine
 62
9
  6
CONTINUOUS
 10
3.3411793801
 20
0.8571715793
 11
3.3411470474
 21
0.8686110068
  0
LINE
  5
4F3
100
AcDbEntity
  8
0
100
AcDbLine
 62
9
  6
CONTINUOUS
 10
3.3406612125
 20
0.9431477347
 11
3.3405376561
 21
0.956021515
  0
SPLINE
  5
4F4
100
AcDbEntity
  8
0
100
AcDbSpline
 62
9
  6
CONTINUOUS
 70
0
 71
3
 72
13
 73
9
 74
0
 42
0.0000001
 43
0.0000001
 44
0.0000000001
 40
0.0
 40
0.0
 40
0.0
 40
0.0
 40
0.2699437581
 40
0.5292198177
 40
0.6536273599
 40
0.7739011973
 40
0.8895259209
 40
1.0
 40
1.0
 40
1.0
 40
1.0
 10
3.3405376561
 20
0.956021515
 30
0.0
 10
3.340260017
 20
0.9840258471
 30
0.0
 10
3.3396055692
 20
1.0389264146
 30
0.0
 10
3.338942106
 20
1.1067356689
 30
0.0
 10
3.3389866757
 20
1.1590201075
 30
0.0
 10
3.3394109254
 20
1.1963991938
 30
0.0
 10
3.3403508912
 20
1.2323233636
 30
0.0
 10
3.3414303492
 20
1.2557579836
 30
0.0
 10
3.3421102605
 20
1.2671990931
 30
0.0
  0
SPLINE
  5
4F5
100
AcDbEntity
  8
0
100
AcDbSpline
 62
7
  6
CONTINUOUS
 70
0
 71
3
 72
13
 73
9
 74
0
 42
0.0000001
 43
0.0000001
 44
0.0000000001
 40
0.0
 40
0.0
 40
0.0
 40
0.0
 40
0.0443536936
 40
0.111227362
 40
0.2011803489
 40
0.3144191274
 40
0.6110153799
 40
1.0
 40
1.0
 40
1.0
 40
1.0
 10
3.7815601298
 20
1.0947489844
 30
0.0
 10
3.7816568206
 20
1.0948035279
 30
0.0
 10
3.7819220623
 20
1.094896271
 30
0.0
 10
3.7824106695
 20
1.0950152467
 30
0.0
 10
3.7830765442
 20
1.0951354905
 30
0.0
 10
3.7843145376
 20
1.0953143875
 30
0.0
 10
3.7863033836
 20
1.0955259682
 30
0.0
 10
3.7880134038
 20
1.0956682179
 30
0.0
 10
3.7889841814
 20
1.0957422953
 30
0.0
  0
SPLINE
  5
4F6
100
AcDbEntity
  8
0
100
AcDbSpline
 62
7
  6
CONTINUOUS
 70
0
 71
3
 72
11
 73
7
 74
0
 42
0.0000001
 43
0.0000001
 44
0.0000000001
 40
0.0
 40
0.0
 40
0.0
 40
0.0
 40
0.1642319008
 40
0.3916366565
 40
0.6736265542
 40
1.0
 40
1.0
 40
1.0
 40
1.0
 10
3.7889841814
 20
1.0957422953
 30
0.0
 10
3.792496454
 20
1.0960103073
 30
0.0
 10
3.8008846305
 20
1.0964755431
 30
0.0
 10
3.8153195615
 20
1.0970877296
 30
0.0
 10
3.8332349039
 20
1.0977059645
 30
0.0
 10
3.846277314
 20
1.0980979359
 30
0.0
 10
3.853274539
 20
1.09829967
 30
0.0
  0
LINE
  5
4F7
100
AcDbEntity
  8
0
100
AcDbLine
 62
7
  6
CONTINUOUS
 10
3.853274539
 20
1.09829967
 11
3.8661420906
 21
1.0986618302
  0
LINE
  5
4F8
100
AcDbEntity
  8
0
100
AcDbLine
 62
7
  6
CONTINUOUS
 10
3.8661420906
 20
1.0986618302
 11
3.8881396258
 21
1.0992522897
  0
SPLINE
  5
4F9
100
AcDbEntity
  8
0
100
AcDbSpline
 62
7
  6
CONTINUOUS
 70
0
 71
3
 72
23
 73
19
 74
0
 42
0.0000001
 43
0.0000001
 44
0.0000000001
 40
0.0
 40
0.0
 40
0.0
 40
0.0
 40
0.1800392091
 40
0.3584161116
 40
0.5271280989
 40
0.6055763104
 40
0.6789524141
 40
0.7464357288
 40
0.8072515298
 40
0.8606303895
 40
0.9059288558
 40
0.9427949024
 40
0.9579698902
 40
0.9709226736
 40
0.9816199485
 40
0.9900379996
 40
0.9961614255
 40
1.0
 40
1.0
 40
1.0
 40
1.0
 10
3.8881396258
 20
1.0992522897
 30
0.0
 10
3.8970817379
 20
1.0994875137
 30
0.0
 10
3.9148836159
 20
1.0999475154
 30
0.0
 10
3.941064981
 20
1.1006290332
 30
0.0
 10
3.962199725
 20
1.1012101293
 30
0.0
 10
3.9781184484
 20
1.101684111
 30
0.0
 10
3.9890092018
 20
1.1020303723
 30
0.0
 10
3.9990234478
 20
1.10237585
 30
0.0
 10
4.0080435222
 20
1.1027202926
 30
0.0
 10
4.0159605383
 20
1.1030633495
 30
0.0
 10
4.0226863019
 20
1.1034058923
 30
0.0
 10
4.0275136287
 20
1.1037043199
 30
0.0
 10
4.030733408
 20
1.1039507412
 30
0.0
 10
4.0326549947
 20
1.1041224102
 30
0.0
 10
4.0342387719
 20
1.1042934967
 30
0.0
 10
4.0354828847
 20
1.1044607082
 30
0.0
 10
4.0363788453
 20
1.1046276178
 30
0.0
 10
4.0368617921
 20
1.1047551355
 30
0.0
 10
4.0370341187
 20
1.1048368494
 30
0.0
  0
SPLINE
  5
4FA
100
AcDbEntity
  8
0
100
AcDbSpline
 62
7
  6
CONTINUOUS
 70
0
 71
3
 72
14
 73
10
 74
0
 42
0.0000001
 43
0.0000001
 44
0.0000000001
 40
0.0
 40
0.0
 40
0.0
 40
0.0
 40
0.0410195739
 40
0.1058862038
 40
0.1949590662
 40
0.3082299862
 40
0.4455825837
 40
0.6068569674
 40
1.0
 40
1.0
 40
1.0
 40
1.0
 10
3.7815129782
 20
1.0762159424
 30
0.0
 10
3.7816310853
 20
1.0761486494
 30
0.0
 10
3.7819693962
 20
1.076040749
 30
0.0
 10
3.7825986135
 20
1.0759012894
 30
0.0
 10
3.7834741215
 20
1.0757609359
 30
0.0
 10
3.784590426
 20
1.0756177706
 30
0.0
 10
3.7859480079
 20
1.0754739818
 30
0.0
 10
3.7882311001
 20
1.0752674477
 30
0.0
 10
3.7900636959
 20
1.07513435
 30
0.0
 10
3.7913635921
 20
1.0750471953
 30
0.0
  0
SPLINE
  5
4FB
100
AcDbEntity
  8
0
100
AcDbSpline
 62
7
  6
CONTINUOUS
 70
0
 71
3
 72
13
 73
9
 74
0
 42
0.0000001
 43
0.0000001
 44
0.0000000001
 40
0.0
 40
0.0
 40
0.0
 40
0.0
 40
0.0422715855
 40
0.1077859131
 40
0.1971347922
 40
0.3104621438
 40
0.6084239505
 40
1.0
 40
1.0
 40
1.0
 40
1.0
 10
3.7687986992
 20
1.0835614404
 30
0.0
 10
3.7688937496
 20
1.0835065006
 30
0.0
 10
3.7691618316
 20
1.0834157036
 30
0.0
 10
3.7696593542
 20
1.0832991211
 30
0.0
 10
3.7703467475
 20
1.0831814954
 30
0.0
 10
3.7716348836
 20
1.083005825
 30
0.0
 10
3.7737103977
 20
1.0827981272
 30
0.0
 10
3.7754957146
 20
1.0826583483
 30
0.0
 10
3.7765100938
 20
1.0825856023
 30
0.0
  0
LINE
  5
4FC
100
AcDbEntity
  8
0
100
AcDbLine
 62
7
  6
CONTINUOUS
 10
3.782260483
 20
1.1150465147
 11
3.7814170821
 21
1.1154329061
  0
SPLINE
  5
4FD
100
AcDbEntity
  8
0
100
AcDbSpline
 62
7
  6
CONTINUOUS
 70
0
 71
3
 72
16
 73
12
 74
0
 42
0.0000001
 43
0.0000001
 44
0.0000000001
 40
0.0
 40
0.0
 40
0.0
 40
0.0
 40
0.0091249067
 40
0.0236153071
 40
0.0736414596
 40
0.1534566186
 40
0.2633404967
 40
0.4032001303
 40
0.572834475
 40
0.7719459114
 40
1.0
 40
1.0
 40
1.0
 40
1.0
 10
3.781381685
 20
1.0737575007
 30
0.0
 10
3.7813827366
 20
1.073726666
 30
0.0
 10
3.7814326482
 20
1.0736536125
 30
0.0
 10
3.7816498363
 20
1.0735323791
 30
0.0
 10
3.7821232957
 20
1.0733942146
 30
0.0
 10
3.7829171917
 20
1.0732393884
 30
0.0
 10
3.784021351
 20
1.0730807579
 30
0.0
 10
3.7854299317
 20
1.0729199678
 30
0.0
 10
3.7871421748
 20
1.0727581014
 30
0.0
 10
3.7891534862
 20
1.072595607
 30
0.0
 10
3.790594235
 20
1.0724937787
 30
0.0
 10
3.7913635921
 20
1.0724421953
 30
0.0
  0
SPLINE
  5
4FE
100
AcDbEntity
  8
0
100
AcDbSpline
 62
7
  6
CONTINUOUS
 70
0
 71
3
 72
13
 73
9
 74
0
 42
0.0000001
 43
0.0000001
 44
0.0000000001
 40
0.0
 40
0.0
 40
0.0
 40
0.0
 40
0.0446524226
 40
0.1118654086
 40
0.202127956
 40
0.3155518285
 40
0.6117773278
 40
1.0
 40
1.0
 40
1.0
 40
1.0
 10
4.0498053411
 20
1.0978228226
 30
0.0
 10
4.0497169912
 20
1.0978733642
 30
0.0
 10
4.049474065
 20
1.097958741
 30
0.0
 10
4.0490269522
 20
1.0980673438
 30
0.0
 10
4.0484184665
 20
1.0981763296
 30
0.0
 10
4.0472904503
 20
1.0983374326
 30
0.0
 10
4.0454810329
 20
1.0985273907
 30
0.0
 10
4.0439261204
 20
1.0986552441
 30
0.0
 10
4.0430436836
 20
1.0987219053
 30
0.0
  0
SPLINE
  5
4FF
100
AcDbEntity
  8
0
100
AcDbSpline
 62
7
  6
CONTINUOUS
 70
0
 71
3
 72
13
 73
9
 74
0
 42
0.0000001
 43
0.0000001
 44
0.0000000001
 40
0.0
 40
0.0
 40
0.0
 40
0.0
 40
0.0417690313
 40
0.1069026879
 40
0.1960161843
 40
0.3092618489
 40
0.6075225478
 40
1.0
 40
1.0
 40
1.0
 40
1.0
 10
3.7687926471
 20
1.0665595207
 30
0.0
 10
3.768886022
 20
1.0666149312
 30
0.0
 10
3.7691520618
 20
1.066706028
 30
0.0
 10
3.7696468696
 20
1.0668229749
 30
0.0
 10
3.7703330547
 20
1.0669409857
 30
0.0
 10
3.7716221791
 20
1.0671174898
 30
0.0
 10
3.7737024422
 20
1.0673260633
 30
0.0
 10
3.7754924584
 20
1.0674662977
 30
0.0
 10
3.7765100865
 20
1.0675392662
 30
0.0
  0
LINE
  5
500
100
AcDbEntity
  8
0
100
AcDbLine
 62
7
  6
CONTINUOUS
 10
3.7765100865
 20
1.0675392662
 11
3.7877420158
 21
1.0681734953
  0
LINE
  5
501
100
AcDbEntity
  8
0
100
AcDbLine
 62
7
  6
CONTINUOUS
 10
3.7877420158
 20
1.0681734953
 11
3.8339796451
 21
1.0697617399
  0
SPLINE
  5
502
100
AcDbEntity
  8
0
100
AcDbSpline
 62
7
  6
CONTINUOUS
 70
0
 71
3
 72
13
 73
9
 74
0
 42
0.0000001
 43
0.0000001
 44
0.0000000001
 40
0.0
 40
0.0
 40
0.0
 40
0.0
 40
0.0440646082
 40
0.1108567384
 40
0.2008703401
 40
0.3142152144
 40
0.6107826853
 40
1.0
 40
1.0
 40
1.0
 40
1.0
 10
3.7687970762
 20
1.1082347803
 30
0.0
 10
3.7688839734
 20
1.1082853756
 30
0.0
 10
3.7691249276
 20
1.1083705831
 30
0.0
 10
3.7695694927
 20
1.1084793285
 30
0.0
 10
3.7701768677
 20
1.1085888071
 30
0.0
 10
3.7713059515
 20
1.1087512438
 30
0.0
 10
3.7731200455
 20
1.1089431631
 30
0.0
 10
3.7746796107
 20
1.1090722021
 30
0.0
 10
3.7755652416
 20
1.1091394053
 30
0.0
  0
LINE
  5
503
100
AcDbEntity
  8
0
100
AcDbLine
 62
7
  6
CONTINUOUS
 10
3.7755652416
 20
1.1091394053
 11
3.7875246263
 21
1.1098331365
  0
SPLINE
  5
504
100
AcDbEntity
  8
0
100
AcDbSpline
 62
7
  6
CONTINUOUS
 70
0
 71
3
 72
15
 73
11
 74
0
 42
0.0000001
 43
0.0000001
 44
0.0000000001
 40
0.0
 40
0.0
 40
0.0
 40
0.0
 40
0.0894218741
 40
0.2051257108
 40
0.3400130807
 40
0.4857913924
 40
0.6334846282
 40
0.7740120126
 40
0.8987403261
 40
1.0
 40
1.0
 40
1.0
 40
1.0
 10
3.7875246263
 20
1.1098331365
 30
0.0
 10
3.7945407792
 20
1.110164712
 30
0.0
 10
3.8106428801
 20
1.1107569097
 30
0.0
 10
3.8373388382
 20
1.1115441705
 30
0.0
 10
3.8684631549
 20
1.1123388214
 30
0.0
 10
3.9021007423
 20
1.1131378957
 30
0.0
 10
3.9361814652
 20
1.1139376046
 30
0.0
 10
3.9686083741
 20
1.1147344555
 30
0.0
 10
3.9973868301
 20
1.1155261648
 30
0.0
 10
4.0151285485
 20
1.1161128361
 30
0.0
 10
4.0230759889
 20
1.1164315595
 30
0.0
  0
SPLINE
  5
505
100
AcDbEntity
  8
0
100
AcDbSpline
 62
7
  6
CONTINUOUS
 70
0
 71
3
 72
10
 73
6
 74
0
 42
0.0000001
 43
0.0000001
 44
0.0000000001
 40
0.0
 40
0.0
 40
0.0
 40
0.0
 40
0.6020812705
 40
0.8273286625
 40
1.0
 40
1.0
 40
1.0
 40
1.0
 10
4.0310921768
 20
1.1167787313
 30
0.0
 10
4.0342585312
 20
1.1169280455
 30
0.0
 10
4.0386090067
 20
1.1171513408
 30
0.0
 10
4.0438605405
 20
1.1175267592
 30
0.0
 10
4.0459471594
 20
1.117718101
 30
0.0
 10
4.04685043
 20
1.1178208011
 30
0.0
  0
LINE
  5
506
100
AcDbEntity
  8
0
100
AcDbLine
 62
7
  6
CONTINUOUS
 10
4.04685043
 20
1.1178208011
 11
4.0491533639
 21
1.1181681112
  0
LINE
  5
507
100
AcDbEntity
  8
0
100
AcDbLine
 62
7
  6
CONTINUOUS
 10
4.0491533639
 20
1.1181681112
 11
4.0499294626
 21
1.1185149187
  0
SPLINE
  5
508
100
AcDbEntity
  8
0
100
AcDbSpline
 62
7
  6
CONTINUOUS
 70
0
 71
3
 72
14
 73
10
 74
0
 42
0.0000001
 43
0.0000001
 44
0.0000000001
 40
0.0
 40
0.0
 40
0.0
 40
0.0
 40
0.0412924609
 40
0.1062940836
 40
0.1953869705
 40
0.3085980688
 40
0.4458486051
 40
0.6070169364
 40
1.0
 40
1.0
 40
1.0
 40
1.0
 10
3.7815288894
 20
1.0553777973
 30
0.0
 10
3.7816487749
 20
1.0553107322
 30
0.0
 10
3.7819896778
 20
1.055202621
 30
0.0
 10
3.7826230015
 20
1.0550629686
 30
0.0
 10
3.7835022209
 20
1.0549223769
 30
0.0
 10
3.784622468
 20
1.0547790596
 30
0.0
 10
3.7859844693
 20
1.054635123
 30
0.0
 10
3.7882752748
 20
1.054428413
 30
0.0
 10
3.7901141443
 20
1.0542952647
 30
0.0
 10
3.7914185841
 20
1.0542080694
 30
0.0
  0
ELLIPSE
  5
509
100
AcDbEntity
  8
0
100
AcDbEllipse
 62
7
  6
CONTINUOUS
 10
3.9093044626
 20
1.1137549796
 30
0.0
 11
0.0
 21
0.140625
 31
0.0
 40
1.0
 41
-4.082439751
 42
-3.7068618376
  0
ELLIPSE
  5
50A
100
AcDbEntity
  8
0
100
AcDbEllipse
 62
7
  6
CONTINUOUS
 10
3.9093044626
 20
1.1137549796
 30
0.0
 11
0.0
 21
0.140625
 31
0.0
 40
1.0
 41
-2.5763234696
 42
-2.2007455562
  0
ELLIPSE
  5
50B
100
AcDbEntity
  8
0
100
AcDbEllipse
 62
7
  6
CONTINUOUS
 10
3.9093044626
 20
1.1137549796
 30
0.0
 11
0.140625
 21
0.0
 31
0.0
 40
1.0
 41
-1.8289398803
 42
-1.236554459
  0
ELLIPSE
  5
50C
100
AcDbEntity
  8
0
100
AcDbEllipse
 62
7
  6
CONTINUOUS
 10
3.9093044626
 20
1.1137549796
 30
0.0
 11
-0.0
 21
0.140625
 31
0.0
 40
1.0
 41
-3.4758345214
 42
-3.3997362071
  0
ENDSEC
  0
SECTION
  2
OBJECTS
  0
DICTIONARY
  5
C
100
AcDbDictionary
280
0
281
1
  3
ACAD_GROUP
350
D
  3
ACAD_MLINESTYLE
350
17
  3
ACAD_LAYOUT
350
1A
  3
ACAD_PLOTSETTINGS
350
19
  3
ACAD_PLOTSTYLENAME
350
E
  0
DICTIONARY
  5
D
102
{ACAD_REACTORS
330
C
102
}
100
AcDbDictionary
280
0
281
1
  0
ACDBDICTIONARYWDFLT
  5
E
102
{ACAD_REACTORS
330
C
102
}
100
AcDbDictionary
281
1
  3
Normal
350
F
100
AcDbDictionaryWithDefault
340
F
  0
DICTIONARY
  5
17
102
{ACAD_REACTORS
330
C
102
}
100
AcDbDictionary
280
0
281
1
  3
Standard
350
18
  0
DICTIONARY
  5
19
102
{ACAD_REACTORS
330
C
102
}
100
AcDbDictionary
281
1
  0
DICTIONARY
  5
1A
102
{ACAD_REACTORS
330
C
102
}
100
AcDbDictionary
281
1
  3
Model
350
50D
  3
Layout1
350
50E
  0
ACDBPLACEHOLDER
  5
F
102
{ACAD_REACTORS
330
E
102
}
  0
MLINESTYLE
  5
18
102
{ACAD_REACTORS
330
17
102
}
100
AcDbMlineStyle
  2
STANDARD
 70
0
  3

 62
256
 51
90.0
 52
90.0
 71
2
 49
0.5
 62
256
  6
BYLAYER
 49
-0.5
 62
256
  6
BYLAYER
  0
LAYOUT
  5
50D
102
{ACAD_REACTORS
330
1A
102
}
100
AcDbPlotSettings
  1

  2
none_device
  4

  6

 40
0.0
 41
0.0
 42
0.0
 43
0.0
 44
215.9
 45
279.4
 46
0.0
 47
0.0
 48
0.0
 49
0.0
140
0.0
141
0.0
142
1.0
143
1.0
 70
1024
 72
0
 73
0
 74
0
  7

 75
0
147
1.0
148
0.0
149
0.0
100
AcDbLayout
  1
Model
 70
0
 71
0
 10
0.0
 20
0.0
 11
8.5
 21
11.0
 12
0.0
 22
0.0
 32
0.0
 14
0.0
 24
0.0
 34
0.0
 15
0.0
 25
0.0
 35
0.0
146
0.0
 13
0.0
 23
0.0
 33
0.0
 16
1.0
 26
0.0
 36
0.0
 17
0.0
 27
1.0
 37
0.0
 76
0
330
228
345
0
346
0
  0
LAYOUT
  5
50E
102
{ACAD_REACTORS
330
1A
102
}
100
AcDbPlotSettings
  1

  2
none_device
  4

  6

 40
0.0
 41
0.0
 42
0.0
 43
0.0
 44
215.9
 45
279.4
 46
0.0
 47
0.0
 48
0.0
 49
0.0
140
0.0
141
0.0
142
1.0
143
1.0
 70
0
 72
0
 73
0
 74
0
  7

 75
0
147
1.0
148
0.0
149
0.0
100
AcDbLayout
  1
Layout1
 70
0
 71
1
 10
0.0
 20
0.0
 11
8.5
 21
11.0
 12
0.0
 22
0.0
 32
0.0
 14
0.0
 24
0.0
 34
0.0
 15
0.0
 25
0.0
 35
0.0
146
0.0
 13
0.0
 23
0.0
 33
0.0
 16
1.0
 26
0.0
 36
0.0
 17
0.0
 27
1.0
 37
0.0
 76
0
330
229
345
0
346
0
  0
ENDSEC
  0
EOF
